0
SECTION
  2
HEADER
  9
$ACADVER
  1
AC1027
  9
$ACADMAINTVER
 70
     8
  9
$DWGCODEPAGE
  3
ANSI_1252
  9
$REQUIREDVERSIONS
160
                 0
  9
$COMMENTS
  1
File was created by Cadenas
  9
$CUSTOMPROPERTYTAG
  1
NN
  9
$CUSTOMPROPERTY
  1
Grip Tight Four-Bolt Flange Stainless Housing Corrosion Resistant Insert Inch Bore
  9
$CUSTOMPROPERTYTAG
  1
NT
  9
$CUSTOMPROPERTY
  1
GTEZ Normal Duty Stainless Steel Polymer Housed 4 Bolt Flange Bearings
  9
$CUSTOMPROPERTYTAG
  1
NB
  9
$CUSTOMPROPERTY
  1
129726
  9
$CUSTOMPROPERTYTAG
  1
NBSYN
  9
$CUSTOMPROPERTY
  1
$PN.$LUBE.
  9
$CUSTOMPROPERTYTAG
  1
LINA
  9
$CUSTOMPROPERTY
  1
129726
  9
$CUSTOMPROPERTYTAG
  1
SERIES
  9
$CUSTOMPROPERTY
  1
206
  9
$CUSTOMPROPERTYTAG
  1
SS
  9
$CUSTOMPROPERTY
  1
1-1/4
  9
$CUSTOMPROPERTYTAG
  1
PN
  9
$CUSTOMPROPERTY
  1
129726
  9
$CUSTOMPROPERTYTAG
  1
DESCRIPTION
  9
$CUSTOMPROPERTY
  1
F4B-GTEZ-104S-SHCR
  9
$CUSTOMPROPERTYTAG
  1
A
  9
$CUSTOMPROPERTY
  1
1-39/64
  9
$CUSTOMPROPERTYTAG
  1
B
  9
$CUSTOMPROPERTY
  1
4-5/32
  9
$CUSTOMPROPERTYTAG
  1
C
  9
$CUSTOMPROPERTY
  1
1-47/64
  9
$CUSTOMPROPERTYTAG
  1
D
  9
$CUSTOMPROPERTY
  1
3-1/4
  9
$CUSTOMPROPERTYTAG
  1
F
  9
$CUSTOMPROPERTY
  1
3/8
  9
$CUSTOMPROPERTYTAG
  1
H
  9
$CUSTOMPROPERTY
  1
23/64
  9
$CUSTOMPROPERTYTAG
  1
J
  9
$CUSTOMPROPERTY
  1
35/64
  9
$CUSTOMPROPERTYTAG
  1
L
  9
$CUSTOMPROPERTY
  1
2
  9
$CUSTOMPROPERTYTAG
  1
Z
  9
$CUSTOMPROPERTY
  1
1-11/16
  9
$CUSTOMPROPERTYTAG
  1
COMPANY
  9
$CUSTOMPROPERTY
  1
baldor
  9
$INSBASE
 10
0.0
 20
0.0
 30
0.0
  9
$EXTMIN
 10
1.000000000000000E+20
 20
1.000000000000000E+20
 30
1.000000000000000E+20
  9
$EXTMAX
 10
-1.000000000000000E+20
 20
-1.000000000000000E+20
 30
-1.000000000000000E+20
  9
$LIMMIN
 10
0.0
 20
0.0
  9
$LIMMAX
 10
12.0
 20
9.0
  9
$ORTHOMODE
 70
     0
  9
$REGENMODE
 70
     1
  9
$FILLMODE
 70
     1
  9
$QTEXTMODE
 70
     0
  9
$MIRRTEXT
 70
     1
  9
$LTSCALE
 40
1.0
  9
$ATTMODE
 70
     1
  9
$TEXTSIZE
 40
0.2
  9
$TRACEWID
 40
0.05
  9
$TEXTSTYLE
  7
Standard
  9
$CLAYER
  8
0
  9
$CELTYPE
  6
ByLayer
  9
$CECOLOR
 62
   256
  9
$CELTSCALE
 40
1.0
  9
$DISPSILH
 70
     0
  9
$DIMSCALE
 40
1.0
  9
$DIMASZ
 40
0.18
  9
$DIMEXO
 40
0.0625
  9
$DIMDLI
 40
0.38
  9
$DIMRND
 40
0.0
  9
$DIMDLE
 40
0.0
  9
$DIMEXE
 40
0.18
  9
$DIMTP
 40
0.0
  9
$DIMTM
 40
0.0
  9
$DIMTXT
 40
0.18
  9
$DIMCEN
 40
0.09
  9
$DIMTSZ
 40
0.0
  9
$DIMTOL
 70
     0
  9
$DIMLIM
 70
     0
  9
$DIMTIH
 70
     1
  9
$DIMTOH
 70
     1
  9
$DIMSE1
 70
     0
  9
$DIMSE2
 70
     0
  9
$DIMTAD
 70
     0
  9
$DIMZIN
 70
     0
  9
$DIMBLK
  1

  9
$DIMASO
 70
     1
  9
$DIMSHO
 70
     1
  9
$DIMPOST
  1

  9
$DIMAPOST
  1

  9
$DIMALT
 70
     0
  9
$DIMALTD
 70
     2
  9
$DIMALTF
 40
25.4
  9
$DIMLFAC
 40
1.0
  9
$DIMTOFL
 70
     0
  9
$DIMTVP
 40
0.0
  9
$DIMTIX
 70
     0
  9
$DIMSOXD
 70
     0
  9
$DIMSAH
 70
     0
  9
$DIMBLK1
  1

  9
$DIMBLK2
  1

  9
$DIMSTYLE
  2
Standard
  9
$DIMCLRD
 70
     0
  9
$DIMCLRE
 70
     0
  9
$DIMCLRT
 70
     0
  9
$DIMTFAC
 40
1.0
  9
$DIMGAP
 40
0.09
  9
$DIMJUST
 70
     0
  9
$DIMSD1
 70
     0
  9
$DIMSD2
 70
     0
  9
$DIMTOLJ
 70
     1
  9
$DIMTZIN
 70
     0
  9
$DIMALTZ
 70
     0
  9
$DIMALTTZ
 70
     0
  9
$DIMUPT
 70
     0
  9
$DIMDEC
 70
     4
  9
$DIMTDEC
 70
     4
  9
$DIMALTU
 70
     2
  9
$DIMALTTD
 70
     2
  9
$DIMTXSTY
  7
Standard
  9
$DIMAUNIT
 70
     0
  9
$DIMADEC
 70
     0
  9
$DIMALTRND
 40
0.0
  9
$DIMAZIN
 70
     0
  9
$DIMDSEP
 70
    46
  9
$DIMATFIT
 70
     3
  9
$DIMFRAC
 70
     0
  9
$DIMLDRBLK
  1

  9
$DIMLUNIT
 70
     2
  9
$DIMLWD
 70
    -2
  9
$DIMLWE
 70
    -2
  9
$DIMTMOVE
 70
     0
  9
$DIMFXL
 40
1.0
  9
$DIMFXLON
 70
     0
  9
$DIMJOGANG
 40
0.7853981633974483
  9
$DIMTFILL
 70
     0
  9
$DIMTFILLCLR
 70
     0
  9
$DIMARCSYM
 70
     0
  9
$DIMLTYPE
  6

  9
$DIMLTEX1
  6

  9
$DIMLTEX2
  6

  9
$DIMTXTDIRECTION
 70
     0
  9
$LUNITS
 70
     2
  9
$LUPREC
 70
     4
  9
$SKETCHINC
 40
0.1
  9
$FILLETRAD
 40
0.5
  9
$AUNITS
 70
     0
  9
$AUPREC
 70
     0
  9
$MENU
  1
.
  9
$ELEVATION
 40
0.0
  9
$PELEVATION
 40
0.0
  9
$THICKNESS
 40
0.0
  9
$LIMCHECK
 70
     0
  9
$CHAMFERA
 40
0.0
  9
$CHAMFERB
 40
0.0
  9
$CHAMFERC
 40
0.0
  9
$CHAMFERD
 40
0.0
  9
$SKPOLY
 70
     0
  9
$TDCREATE
 40
2458168.963767766
  9
$TDUCREATE
 40
2458168.9221011
  9
$TDUPDATE
 40
2458168.963767951
  9
$TDUUPDATE
 40
2458168.922101285
  9
$TDINDWG
 40
0.0000000116
  9
$TDUSRTIMER
 40
0.0000000116
  9
$USRTIMER
 70
     1
  9
$ANGBASE
 50
0.0
  9
$ANGDIR
 70
     0
  9
$PDMODE
 70
     0
  9
$PDSIZE
 40
0.0
  9
$PLINEWID
 40
0.0
  9
$SPLFRAME
 70
     0
  9
$SPLINETYPE
 70
     6
  9
$SPLINESEGS
 70
     8
  9
$HANDSEED
  5
20F
  9
$SURFTAB1
 70
     6
  9
$SURFTAB2
 70
     6
  9
$SURFTYPE
 70
     6
  9
$SURFU
 70
     6
  9
$SURFV
 70
     6
  9
$UCSBASE
  2

  9
$UCSNAME
  2

  9
$UCSORG
 10
0.0
 20
0.0
 30
0.0
  9
$UCSXDIR
 10
1.0
 20
0.0
 30
0.0
  9
$UCSYDIR
 10
0.0
 20
1.0
 30
0.0
  9
$UCSORTHOREF
  2

  9
$UCSORTHOVIEW
 70
     0
  9
$UCSORGTOP
 10
0.0
 20
0.0
 30
0.0
  9
$UCSORGBOTTOM
 10
0.0
 20
0.0
 30
0.0
  9
$UCSORGLEFT
 10
0.0
 20
0.0
 30
0.0
  9
$UCSORGRIGHT
 10
0.0
 20
0.0
 30
0.0
  9
$UCSORGFRONT
 10
0.0
 20
0.0
 30
0.0
  9
$UCSORGBACK
 10
0.0
 20
0.0
 30
0.0
  9
$PUCSBASE
  2

  9
$PUCSNAME
  2

  9
$PUCSORG
 10
0.0
 20
0.0
 30
0.0
  9
$PUCSXDIR
 10
1.0
 20
0.0
 30
0.0
  9
$PUCSYDIR
 10
0.0
 20
1.0
 30
0.0
  9
$PUCSORTHOREF
  2

  9
$PUCSORTHOVIEW
 70
     0
  9
$PUCSORGTOP
 10
0.0
 20
0.0
 30
0.0
  9
$PUCSORGBOTTOM
 10
0.0
 20
0.0
 30
0.0
  9
$PUCSORGLEFT
 10
0.0
 20
0.0
 30
0.0
  9
$PUCSORGRIGHT
 10
0.0
 20
0.0
 30
0.0
  9
$PUCSORGFRONT
 10
0.0
 20
0.0
 30
0.0
  9
$PUCSORGBACK
 10
0.0
 20
0.0
 30
0.0
  9
$USERI1
 70
     0
  9
$USERI2
 70
     0
  9
$USERI3
 70
     0
  9
$USERI4
 70
     0
  9
$USERI5
 70
     0
  9
$USERR1
 40
0.0
  9
$USERR2
 40
0.0
  9
$USERR3
 40
0.0
  9
$USERR4
 40
0.0
  9
$USERR5
 40
0.0
  9
$WORLDVIEW
 70
     1
  9
$SHADEDGE
 70
     3
  9
$SHADEDIF
 70
    70
  9
$TILEMODE
 70
     1
  9
$MAXACTVP
 70
    64
  9
$PINSBASE
 10
0.0
 20
0.0
 30
0.0
  9
$PLIMCHECK
 70
     0
  9
$PEXTMIN
 10
1.000000000000000E+20
 20
1.000000000000000E+20
 30
1.000000000000000E+20
  9
$PEXTMAX
 10
-1.000000000000000E+20
 20
-1.000000000000000E+20
 30
-1.000000000000000E+20
  9
$PLIMMIN
 10
0.0
 20
0.0
  9
$PLIMMAX
 10
12.0
 20
9.0
  9
$UNITMODE
 70
     0
  9
$VISRETAIN
 70
     1
  9
$PLINEGEN
 70
     0
  9
$PSLTSCALE
 70
     1
  9
$TREEDEPTH
 70
  3020
  9
$CMLSTYLE
  2
Standard
  9
$CMLJUST
 70
     0
  9
$CMLSCALE
 40
1.0
  9
$PROXYGRAPHICS
 70
     1
  9
$MEASUREMENT
 70
     0
  9
$CELWEIGHT
370
    -1
  9
$ENDCAPS
280
     0
  9
$JOINSTYLE
280
     0
  9
$LWDISPLAY
290
     0
  9
$INSUNITS
 70
     1
  9
$HYPERLINKBASE
  1

  9
$STYLESHEET
  1

  9
$XEDIT
290
     1
  9
$CEPSNTYPE
380
     0
  9
$PSTYLEMODE
290
     1
  9
$FINGERPRINTGUID
  2
{9F949884-7E42-4269-8D27-2E5C442811BC}
  9
$VERSIONGUID
  2
{FAEB1C32-E019-11D5-929B-00C0DF256EC4}
  9
$EXTNAMES
290
     1
  9
$PSVPSCALE
 40
0.0
  9
$OLESTARTUP
290
     0
  9
$SORTENTS
280
   127
  9
$INDEXCTL
280
     0
  9
$HIDETEXT
280
     1
  9
$XCLIPFRAME
280
     2
  9
$HALOGAP
280
     0
  9
$OBSCOLOR
 70
   257
  9
$OBSLTYPE
280
     0
  9
$INTERSECTIONDISPLAY
280
     0
  9
$INTERSECTIONCOLOR
 70
   257
  9
$DIMASSOC
280
     2
  9
$PROJECTNAME
  1

  9
$CAMERADISPLAY
290
     0
  9
$LENSLENGTH
 40
50.0
  9
$CAMERAHEIGHT
 40
0.0
  9
$STEPSPERSEC
 40
2.0
  9
$STEPSIZE
 40
6.0
  9
$3DDWFPREC
 40
2.0
  9
$PSOLWIDTH
 40
0.25
  9
$PSOLHEIGHT
 40
4.0
  9
$LOFTANG1
 40
1.570796326794897
  9
$LOFTANG2
 40
1.570796326794897
  9
$LOFTMAG1
 40
0.0
  9
$LOFTMAG2
 40
0.0
  9
$LOFTPARAM
 70
     7
  9
$LOFTNORMALS
280
     1
  9
$LATITUDE
 40
37.795
  9
$LONGITUDE
 40
-122.394
  9
$NORTHDIRECTION
 40
0.0
  9
$TIMEZONE
 70
 -8000
  9
$LIGHTGLYPHDISPLAY
280
     1
  9
$TILEMODELIGHTSYNCH
280
     1
  9
$CMATERIAL
347
44
  9
$SOLIDHIST
280
     0
  9
$SHOWHIST
280
     1
  9
$DWFFRAME
280
     2
  9
$DGNFRAME
280
     2
  9
$REALWORLDSCALE
290
     1
  9
$INTERFERECOLOR
 62
   256
  9
$CSHADOW
280
     0
  9
$SHADOWPLANELOCATION
 40
0.0
  0
ENDSEC
  0
SECTION
  2
CLASSES
  0
CLASS
  1
ACDBDICTIONARYWDFLT
  2
AcDbDictionaryWithDefault
  3
ObjectDBX Classes
 90
        0
 91
        4
280
     0
281
     0
  0
CLASS
  1
VISUALSTYLE
  2
AcDbVisualStyle
  3
ObjectDBX Classes
 90
     4095
 91
        4
280
     0
281
     0
  0
CLASS
  1
MATERIAL
  2
AcDbMaterial
  3
ObjectDBX Classes
 90
     1153
 91
        4
280
     0
281
     0
  0
CLASS
  1
SCALE
  2
AcDbScale
  3
ObjectDBX Classes
 90
     1153
 91
        4
280
     0
281
     0
  0
CLASS
  1
TABLESTYLE
  2
AcDbTableStyle
  3
ObjectDBX Classes
 90
     4095
 91
        4
280
     0
281
     0
  0
CLASS
  1
MLEADERSTYLE
  2
AcDbMLeaderStyle
  3
ACDB_MLEADERSTYLE_CLASS
 90
     4095
 91
        4
280
     0
281
     0
  0
CLASS
  1
SUN
  2
AcDbSun
  3
SCENEOE
 90
     1153
 91
        4
280
     0
281
     0
  0
CLASS
  1
DICTIONARYVAR
  2
AcDbDictionaryVar
  3
ObjectDBX Classes
 90
        0
 91
        4
280
     0
281
     0
  0
CLASS
  1
CELLSTYLEMAP
  2
AcDbCellStyleMap
  3
ObjectDBX Classes
 90
     1152
 91
        4
280
     0
281
     0
  0
ENDSEC
  0
SECTION
  2
TABLES
  0
TABLE
  2
VPORT
  5
8
330
0
100
AcDbSymbolTable
 70
     1
  0
VPORT
  5
29
330
8
100
AcDbSymbolTableRecord
100
AcDbViewportTableRecord
  2
*Active
 70
     0
 10
0.0
 20
0.0
 11
1.0
 21
1.0
 12
0.0
 22
-0.8788968749999997
 13
0.0
 23
0.0
 14
0.5
 24
0.5
 15
0.5
 25
0.5
 16
0.0
 26
0.0
 36
1.0
 17
0.0
 27
0.0
 37
0.0
 40
1.909331625
 41
2.220211483691315
 42
50.0
 43
0.0
 44
0.0
 50
0.0
 51
0.0
 71
     0
 72
   100
 73
     1
 74
     3
 75
     0
 76
     0
 77
     0
 78
     0
281
     0
 65
     1
110
0.0
120
0.0
130
0.0
111
1.0
121
0.0
131
0.0
112
0.0
122
1.0
132
0.0
 79
     0
146
0.0
348
2F
 60
     3
 61
     5
292
     1
282
     1
141
0.0
142
0.0
 63
   250
361
6D
  0
ENDTAB
  0
TABLE
  2
LTYPE
  5
5
330
0
100
AcDbSymbolTable
 70
     3
  0
LTYPE
  5
14
330
5
100
AcDbSymbolTableRecord
100
AcDbLinetypeTableRecord
  2
ByBlock
 70
     0
  3

 72
    65
 73
     0
 40
0.0
  0
LTYPE
  5
15
330
5
100
AcDbSymbolTableRecord
100
AcDbLinetypeTableRecord
  2
ByLayer
 70
     0
  3

 72
    65
 73
     0
 40
0.0
  0
LTYPE
  5
16
330
5
100
AcDbSymbolTableRecord
100
AcDbLinetypeTableRecord
  2
Continuous
 70
     0
  3
Solid line
 72
    65
 73
     0
 40
0.0
  0
LTYPE
  5
9C
330
5
100
AcDbSymbolTableRecord
100
AcDbLinetypeTableRecord
  2
Dashed
 70
     0
  3

 72
    65
 73
     2
 40
2.0
 49
1.0
 74
     0
 49
-1.0
 74
     0
  0
LTYPE
  5
10B
330
5
100
AcDbSymbolTableRecord
100
AcDbLinetypeTableRecord
  2
Center
 70
     0
  3

 72
    65
 73
     4
 40
1.5
 49
0.45
 74
     0
 49
-0.5
 74
     0
 49
0.05
 74
     0
 49
-0.5
 74
     0
  0
ENDTAB
  0
TABLE
  2
LAYER
  5
2
330
0
100
AcDbSymbolTable
 70
     7
  0
LAYER
  5
10
330
2
100
AcDbSymbolTableRecord
100
AcDbLayerTableRecord
  2
0
 70
     0
 62
     7
  6
Continuous
370
    -3
390
F
347
46
348
0
  0
LAYER
  5
72
330
2
100
AcDbSymbolTableRecord
100
AcDbLayerTableRecord
  2
AM_6
 70
     0
 62
    -2
  6
Continuous
370
    35
390
F
347
46
348
0
  0
LAYER
  5
9D
330
2
100
AcDbSymbolTableRecord
100
AcDbLayerTableRecord
  2
AM_9
 70
     0
 62
     6
  6
Dashed
370
    25
390
F
347
46
348
0
  0
LAYER
  5
D2
330
2
100
AcDbSymbolTableRecord
100
AcDbLayerTableRecord
  2
AM_4
 70
     0
 62
     7
  6
Continuous
370
    50
390
F
347
46
348
0
  0
LAYER
  5
108
330
2
100
AcDbSymbolTableRecord
100
AcDbLayerTableRecord
  2
AM_5
 70
     0
 62
     3
  6
Continuous
370
    25
390
F
347
46
348
0
  0
LAYER
  5
10C
330
2
100
AcDbSymbolTableRecord
100
AcDbLayerTableRecord
  2
AM_7
 70
     0
 62
     7
  6
Center
370
    25
390
F
347
46
348
0
  0
LAYER
  5
201
330
2
100
AcDbSymbolTableRecord
100
AcDbLayerTableRecord
  2
ConnectionPoints
 70
     0
 62
     7
  6
Continuous
370
    50
390
F
347
46
348
0
  0
ENDTAB
  0
TABLE
  2
STYLE
  5
3
330
0
100
AcDbSymbolTable
 70
     1
  0
STYLE
  5
11
330
3
100
AcDbSymbolTableRecord
100
AcDbTextStyleTableRecord
  2
Standard
 70
     0
 40
0.0
 41
1.0
 50
0.0
 71
     0
 42
0.2
  3
txt
  4

  0
ENDTAB
  0
TABLE
  2
VIEW
  5
6
330
0
100
AcDbSymbolTable
 70
     0
  0
ENDTAB
  0
TABLE
  2
UCS
  5
7
330
0
100
AcDbSymbolTable
 70
     0
  0
ENDTAB
  0
TABLE
  2
APPID
  5
9
330
0
100
AcDbSymbolTable
 70
     1
  0
APPID
  5
12
330
9
100
AcDbSymbolTableRecord
100
AcDbRegAppTableRecord
  2
ACAD
 70
     0
  0
ENDTAB
  0
TABLE
  2
DIMSTYLE
  5
A
330
0
100
AcDbSymbolTable
 70
     1
100
AcDbDimStyleTable
  0
DIMSTYLE
105
27
330
A
100
AcDbSymbolTableRecord
100
AcDbDimStyleTableRecord
  2
Standard
 70
     0
178
     0
340
11
  0
ENDTAB
  0
TABLE
  2
BLOCK_RECORD
  5
1
330
0
100
AcDbSymbolTable
 70
     5
  0
BLOCK_RECORD
  5
1F
330
1
100
AcDbSymbolTableRecord
100
AcDbBlockTableRecord
  2
*Model_Space
340
22
 70
     0
280
     1
281
     0
  0
BLOCK_RECORD
  5
1B
330
1
100
AcDbSymbolTableRecord
100
AcDbBlockTableRecord
  2
*Paper_Space
340
1E
 70
     0
280
     1
281
     0
  0
BLOCK_RECORD
  5
23
330
1
100
AcDbSymbolTableRecord
100
AcDbBlockTableRecord
  2
*Paper_Space0
340
26
 70
     0
280
     1
281
     0
  0
BLOCK_RECORD
  5
6E
330
1
100
AcDbSymbolTableRecord
100
AcDbBlockTableRecord
  2
1_129726_4
340
0
102
{BLKREFS
331
6F
102
}
 70
     0
280
     1
281
     0
  0
BLOCK_RECORD
  5
86
330
1
100
AcDbSymbolTableRecord
100
AcDbBlockTableRecord
  2
2_INS_GT_06_CRI_0_in_129726_4
340
0
102
{BLKREFS
331
87
102
}
 70
     0
280
     1
281
     0
  0
BLOCK_RECORD
  5
D6
330
1
100
AcDbSymbolTableRecord
100
AcDbBlockTableRecord
  2
3_AN_GT_06_104S_CR_0_in_129726_4
340
0
102
{BLKREFS
331
D7
102
}
 70
     0
280
     1
281
     0
  0
BLOCK_RECORD
  5
127
330
1
100
AcDbSymbolTableRecord
100
AcDbBlockTableRecord
  2
4_F4B_GTEZ_06_SHCR_II_0_in_129726_4
340
0
102
{BLKREFS
331
128
102
}
 70
     0
280
     1
281
     0
  0
ENDTAB
  0
ENDSEC
  0
SECTION
  2
BLOCKS
  0
BLOCK
  5
20
330
1F
100
AcDbEntity
  8
0
100
AcDbBlockBegin
  2
*Model_Space
 70
     0
 10
0.0
 20
0.0
 30
0.0
  3
*Model_Space
  1

  0
ENDBLK
  5
21
330
1F
100
AcDbEntity
  8
0
100
AcDbBlockEnd
  0
BLOCK
  5
1C
330
1B
100
AcDbEntity
 67
     1
  8
0
100
AcDbBlockBegin
  2
*Paper_Space
 70
     0
 10
0.0
 20
0.0
 30
0.0
  3
*Paper_Space
  1

  0
ENDBLK
  5
1D
330
1B
100
AcDbEntity
 67
     1
  8
0
100
AcDbBlockEnd
  0
BLOCK
  5
24
330
23
100
AcDbEntity
  8
0
100
AcDbBlockBegin
  2
*Paper_Space0
 70
     0
 10
0.0
 20
0.0
 30
0.0
  3
*Paper_Space0
  1

  0
ENDBLK
  5
25
330
23
100
AcDbEntity
  8
0
100
AcDbBlockEnd
  0
BLOCK
  5
70
330
6E
100
AcDbEntity
  8
0
100
AcDbBlockBegin
  2
1_129726_4
 70
     2
 10
0.0
 20
0.0
 30
0.0
  3
1_129726_4
  1

  0
ATTDEF
  5
73
330
6E
100
AcDbEntity
  8
AM_6
100
AcDbText
 10
7.077999999999999
 20
0.05705
 30
0.0
 40
0.5
  1
Grip Tight Four-Bolt Flange Stainless Housing Corrosion Resistant Insert Inch Bore
100
AcDbAttributeDefinition
  3

  2
NN
 70
     8
280
     0
  0
ATTDEF
  5
74
330
6E
100
AcDbEntity
  8
AM_6
100
AcDbText
 10
7.077999999999999
 20
-0.44295
 30
0.0
 40
0.5
  1
GTEZ Normal Duty Stainless Steel Polymer Housed 4 Bolt Flange Bearings
100
AcDbAttributeDefinition
  3

  2
NT
 70
     8
280
     0
  0
ATTDEF
  5
75
330
6E
100
AcDbEntity
  8
AM_6
100
AcDbText
 10
7.077999999999999
 20
-0.94295
 30
0.0
 40
0.5
  1
129726
100
AcDbAttributeDefinition
  3

  2
NB
 70
     8
280
     0
  0
ATTDEF
  5
76
330
6E
100
AcDbEntity
  8
AM_6
100
AcDbText
 10
7.077999999999999
 20
-1.44295
 30
0.0
 40
0.5
  1
$PN.$LUBE.
100
AcDbAttributeDefinition
  3

  2
NBSYN
 70
     8
280
     0
  0
ATTDEF
  5
77
330
6E
100
AcDbEntity
  8
AM_6
100
AcDbText
 10
7.077999999999999
 20
-1.94295
 30
0.0
 40
0.5
  1
129726
100
AcDbAttributeDefinition
  3

  2
LINA
 70
     8
280
     0
  0
ATTDEF
  5
78
330
6E
100
AcDbEntity
  8
AM_6
100
AcDbText
 10
7.077999999999999
 20
-2.44295
 30
0.0
 40
0.5
  1
206
100
AcDbAttributeDefinition
  3

  2
SERIES
 70
     8
280
     0
  0
ATTDEF
  5
79
330
6E
100
AcDbEntity
  8
AM_6
100
AcDbText
 10
7.077999999999999
 20
-2.94295
 30
0.0
 40
0.5
  1
1-1/4
100
AcDbAttributeDefinition
  3

  2
SS
 70
     8
280
     0
  0
ATTDEF
  5
7A
330
6E
100
AcDbEntity
  8
AM_6
100
AcDbText
 10
7.077999999999999
 20
-3.44295
 30
0.0
 40
0.5
  1
129726
100
AcDbAttributeDefinition
  3

  2
PN
 70
     8
280
     0
  0
ATTDEF
  5
7B
330
6E
100
AcDbEntity
  8
AM_6
100
AcDbText
 10
7.077999999999999
 20
-3.94295
 30
0.0
 40
0.5
  1
F4B-GTEZ-104S-SHCR
100
AcDbAttributeDefinition
  3

  2
DESCRIPTION
 70
     8
280
     0
  0
ATTDEF
  5
7C
330
6E
100
AcDbEntity
  8
AM_6
100
AcDbText
 10
7.077999999999999
 20
-4.44295
 30
0.0
 40
0.5
  1
1-39/64
100
AcDbAttributeDefinition
  3

  2
A
 70
     8
280
     0
  0
ATTDEF
  5
7D
330
6E
100
AcDbEntity
  8
AM_6
100
AcDbText
 10
7.077999999999999
 20
-4.94295
 30
0.0
 40
0.5
  1
4-5/32
100
AcDbAttributeDefinition
  3

  2
B
 70
     8
280
     0
  0
ATTDEF
  5
7E
330
6E
100
AcDbEntity
  8
AM_6
100
AcDbText
 10
7.077999999999999
 20
-5.44295
 30
0.0
 40
0.5
  1
1-47/64
100
AcDbAttributeDefinition
  3

  2
C
 70
     8
280
     0
  0
ATTDEF
  5
7F
330
6E
100
AcDbEntity
  8
AM_6
100
AcDbText
 10
7.077999999999999
 20
-5.94295
 30
0.0
 40
0.5
  1
3-1/4
100
AcDbAttributeDefinition
  3

  2
D
 70
     8
280
     0
  0
ATTDEF
  5
80
330
6E
100
AcDbEntity
  8
AM_6
100
AcDbText
 10
7.077999999999999
 20
-6.44295
 30
0.0
 40
0.5
  1
3/8
100
AcDbAttributeDefinition
  3

  2
F
 70
     8
280
     0
  0
ATTDEF
  5
81
330
6E
100
AcDbEntity
  8
AM_6
100
AcDbText
 10
7.077999999999999
 20
-6.94295
 30
0.0
 40
0.5
  1
23/64
100
AcDbAttributeDefinition
  3

  2
H
 70
     8
280
     0
  0
ATTDEF
  5
82
330
6E
100
AcDbEntity
  8
AM_6
100
AcDbText
 10
7.077999999999999
 20
-7.44295
 30
0.0
 40
0.5
  1
35/64
100
AcDbAttributeDefinition
  3

  2
J
 70
     8
280
     0
  0
ATTDEF
  5
83
330
6E
100
AcDbEntity
  8
AM_6
100
AcDbText
 10
7.077999999999999
 20
-7.94295
 30
0.0
 40
0.5
  1
2
100
AcDbAttributeDefinition
  3

  2
L
 70
     8
280
     0
  0
ATTDEF
  5
84
330
6E
100
AcDbEntity
  8
AM_6
100
AcDbText
 10
7.077999999999999
 20
-8.44295
 30
0.0
 40
0.5
  1
1-11/16
100
AcDbAttributeDefinition
  3

  2
Z
 70
     8
280
     0
  0
ATTDEF
  5
85
330
6E
100
AcDbEntity
  8
AM_6
100
AcDbText
 10
7.077999999999999
 20
-8.94295
 30
0.0
 40
0.5
  1
baldor
100
AcDbAttributeDefinition
  3

  2
COMPANY
 70
     8
280
     0
  0
INSERT
  5
87
330
6E
100
AcDbEntity
  8
0
100
AcDbBlockReference
  2
2_INS_GT_06_CRI_0_in_129726_4
 10
0.0
 20
0.0
 30
0.0
  0
INSERT
  5
D7
330
6E
100
AcDbEntity
  8
0
100
AcDbBlockReference
  2
3_AN_GT_06_104S_CR_0_in_129726_4
 10
0.0
 20
0.0
 30
0.0
  0
INSERT
  5
128
330
6E
100
AcDbEntity
  8
0
100
AcDbBlockReference
  2
4_F4B_GTEZ_06_SHCR_II_0_in_129726_4
 10
0.0
 20
0.0
 30
0.0
  0
ENDBLK
  5
71
330
6E
100
AcDbEntity
  8
0
100
AcDbBlockEnd
  0
BLOCK
  5
88
330
86
100
AcDbEntity
  8
0
100
AcDbBlockBegin
  2
2_INS_GT_06_CRI_0_in_129726_4
 70
     2
 10
0.0
 20
0.0
 30
0.0
  3
2_INS_GT_06_CRI_0_in_129726_4
  1

  0
ATTDEF
  5
8A
330
86
100
AcDbEntity
  8
AM_6
100
AcDbText
 10
6.220427915332193
 20
-0.178125
 30
0.0
 40
0.5
  1
INS-GT-CR-I
100
AcDbAttributeDefinition
  3

  2
NN
 70
     8
280
     0
  0
ATTDEF
  5
8B
330
86
100
AcDbEntity
  8
AM_6
100
AcDbText
 10
6.220427915332193
 20
-0.678125
 30
0.0
 40
0.5
  1
GT Normal Duty Corrosion Resistant Bearing Inserts
100
AcDbAttributeDefinition
  3

  2
NT
 70
     8
280
     0
  0
ATTDEF
  5
8C
330
86
100
AcDbEntity
  8
AM_6
100
AcDbText
 10
6.220427915332193
 20
-1.178125
 30
0.0
 40
0.5
  1
INS-GT-06-CRI
100
AcDbAttributeDefinition
  3

  2
NB
 70
     8
280
     0
  0
ATTDEF
  5
8D
330
86
100
AcDbEntity
  8
AM_6
100
AcDbText
 10
6.220427915332193
 20
-1.678125
 30
0.0
 40
0.5
  1
$PN.I
100
AcDbAttributeDefinition
  3

  2
NBSYN
 70
     8
280
     0
  0
ATTDEF
  5
8E
330
86
100
AcDbEntity
  8
AM_6
100
AcDbText
 10
6.220427915332193
 20
-2.178125
 30
0.0
 40
0.5
  1
INS-GT-06-CR
100
AcDbAttributeDefinition
  3

  2
LINA
 70
     8
280
     0
  0
ATTDEF
  5
8F
330
86
100
AcDbEntity
  8
AM_6
100
AcDbText
 10
6.220427915332193
 20
-2.678125
 30
0.0
 40
0.5
  1
206
100
AcDbAttributeDefinition
  3

  2
SERIES
 70
     8
280
     0
  0
ATTDEF
  5
90
330
86
100
AcDbEntity
  8
AM_6
100
AcDbText
 10
6.220427915332193
 20
-3.178125
 30
0.0
 40
0.5
  1
INS-GT-06-CR
100
AcDbAttributeDefinition
  3

  2
PN
 70
     8
280
     0
  0
ATTDEF
  5
91
330
86
100
AcDbEntity
  8
AM_6
100
AcDbText
 10
6.220427915332193
 20
-3.678125
 30
0.0
 40
0.5
  1
INS-GT-06-CR
100
AcDbAttributeDefinition
  3

  2
DESCRIPTION
 70
     8
280
     0
  0
ATTDEF
  5
92
330
86
100
AcDbEntity
  8
AM_6
100
AcDbText
 10
6.220427915332193
 20
-4.178125
 30
0.0
 40
0.5
  1
1-39/64
100
AcDbAttributeDefinition
  3

  2
A
 70
     8
280
     0
  0
ATTDEF
  5
93
330
86
100
AcDbEntity
  8
AM_6
100
AcDbText
 10
6.220427915332193
 20
-4.678125
 30
0.0
 40
0.5
  1
0.7087
100
AcDbAttributeDefinition
  3

  2
C
 70
     8
280
     0
  0
ATTDEF
  5
94
330
86
100
AcDbEntity
  8
AM_6
100
AcDbText
 10
6.220427915332193
 20
-5.178125
 30
0.0
 40
0.5
  1
2.4409
100
AcDbAttributeDefinition
  3

  2
D
 70
     8
280
     0
  0
ATTDEF
  5
95
330
86
100
AcDbEntity
  8
AM_6
100
AcDbText
 10
6.220427915332193
 20
-5.678125
 30
0.0
 40
0.5
  1
0.190
100
AcDbAttributeDefinition
  3

  2
J
 70
     8
280
     0
  0
ATTDEF
  5
96
330
86
100
AcDbEntity
  8
AM_6
100
AcDbText
 10
6.220427915332193
 20
-6.178125
 30
0.0
 40
0.5
  1
2
100
AcDbAttributeDefinition
  3

  2
L
 70
     8
280
     0
  0
ATTDEF
  5
97
330
86
100
AcDbEntity
  8
AM_6
100
AcDbText
 10
6.220427915332193
 20
-6.678125
 30
0.0
 40
0.5
  1
10 - 32 x 1/4
100
AcDbAttributeDefinition
  3

  2
N
 70
     8
280
     0
  0
ATTDEF
  5
98
330
86
100
AcDbEntity
  8
AM_6
100
AcDbText
 10
6.220427915332193
 20
-7.178125
 30
0.0
 40
0.5
  1
17/32
100
AcDbAttributeDefinition
  3

  2
W
 70
     8
280
     0
  0
ATTDEF
  5
99
330
86
100
AcDbEntity
  8
AM_6
100
AcDbText
 10
6.220427915332193
 20
-7.678125
 30
0.0
 40
0.5
  1
1-1/32
100
AcDbAttributeDefinition
  3

  2
X
 70
     8
280
     0
  0
ATTDEF
  5
9A
330
86
100
AcDbEntity
  8
AM_6
100
AcDbText
 10
6.220427915332193
 20
-8.178125
 30
0.0
 40
0.5
  1
1-5/64
100
AcDbAttributeDefinition
  3

  2
Y
 70
     8
280
     0
  0
ATTDEF
  5
9B
330
86
100
AcDbEntity
  8
AM_6
100
AcDbText
 10
6.220427915332193
 20
-8.678125
 30
0.0
 40
0.5
  1
baldor
100
AcDbAttributeDefinition
  3

  2
COMPANY
 70
     8
280
     0
  0
LINE
  5
9E
330
86
100
AcDbEntity
  8
AM_9
100
AcDbLine
 10
0.7460316888888887
 20
-1.42968684515494
 30
0.0
 11
0.7460316888888887
 21
-1.042968095154943
 31
0.0
  0
LINE
  5
9F
330
86
100
AcDbEntity
  8
AM_9
100
AcDbLine
 10
-0.7460316888888887
 20
-1.042968095154943
 30
0.0
 11
-0.7460316888888887
 21
-1.42968684515494
 31
0.0
  0
LINE
  5
A0
330
86
100
AcDbEntity
  8
AM_9
100
AcDbLine
 10
-0.7460316888888887
 20
-1.042968095154943
 30
0.0
 11
0.7460316888888887
 21
-1.042968095154943
 31
0.0
  0
LINE
  5
A1
330
86
100
AcDbEntity
  8
AM_9
100
AcDbLine
 10
0.7460316888888887
 20
-1.042968095154943
 30
0.0
 11
0.7762326752613241
 21
-0.178125
 31
0.0
  0
LINE
  5
A2
330
86
100
AcDbEntity
  8
AM_9
100
AcDbLine
 10
-0.7762326752613241
 20
-0.178125
 30
0.0
 11
-0.7460316888888887
 21
-1.042968095154943
 31
0.0
  0
LINE
  5
A3
330
86
100
AcDbEntity
  8
AM_9
100
AcDbLine
 10
0.817460288888889
 20
-1.30078059515494
 30
0.0
 11
0.817460288888889
 21
-1.171875
 31
0.0
  0
LINE
  5
A4
330
86
100
AcDbEntity
  8
AM_9
100
AcDbLine
 10
-0.817460288888889
 20
-1.171875
 30
0.0
 11
-0.817460288888889
 21
-1.30078059515494
 31
0.0
  0
LINE
  5
A5
330
86
100
AcDbEntity
  8
AM_9
100
AcDbLine
 10
0.8888888888888888
 20
-1.141
 30
0.0
 11
0.8888888888888888
 21
-1.0106
 31
0.0
  0
LINE
  5
A6
330
86
100
AcDbEntity
  8
AM_9
100
AcDbLine
 10
-0.8888888888888888
 20
-1.0106
 30
0.0
 11
-0.8888888888888888
 21
-1.141
 31
0.0
  0
LINE
  5
A7
330
86
100
AcDbEntity
  8
AM_9
100
AcDbLine
 10
0.8888888888888888
 20
-1.401338845154941
 30
0.0
 11
0.8888888888888888
 21
-1.30078059515494
 31
0.0
  0
LINE
  5
A8
330
86
100
AcDbEntity
  8
AM_9
100
AcDbLine
 10
-0.8888888888888888
 20
-1.30078059515494
 30
0.0
 11
-0.8888888888888888
 21
-1.401338845154941
 31
0.0
  0
LINE
  5
A9
330
86
100
AcDbEntity
  8
AM_9
100
AcDbLine
 10
-0.8888888888888888
 20
-1.30078059515494
 30
0.0
 11
0.8888888888888888
 21
-1.30078059515494
 31
0.0
  0
LINE
  5
AA
330
86
100
AcDbEntity
  8
AM_9
100
AcDbLine
 10
0.8605408888888888
 20
-1.42968684515494
 30
0.0
 11
0.8888888888888888
 21
-1.401338845154941
 31
0.0
  0
LINE
  5
AB
330
86
100
AcDbEntity
  8
AM_9
100
AcDbLine
 10
-0.8888888888888888
 20
-1.401338845154941
 30
0.0
 11
-0.8605408888888888
 21
-1.42968684515494
 31
0.0
  0
LINE
  5
AC
330
86
100
AcDbEntity
  8
AM_9
100
AcDbLine
 10
-0.8605408888888888
 20
-1.42968684515494
 30
0.0
 11
0.8605408888888888
 21
-1.42968684515494
 31
0.0
  0
LINE
  5
AD
330
86
100
AcDbEntity
  8
AM_9
100
AcDbLine
 10
-0.8888888888888888
 20
-1.401338845154941
 30
0.0
 11
0.8888888888888888
 21
-1.401338845154941
 31
0.0
  0
LINE
  5
AE
330
86
100
AcDbEntity
  8
AM_9
100
AcDbLine
 10
0.8888888888888886
 20
-0.3019
 30
0.0
 11
0.8888888888888886
 21
-0.2064729999999999
 31
0.0
  0
LINE
  5
AF
330
86
100
AcDbEntity
  8
AM_9
100
AcDbLine
 10
-0.8888888888888886
 20
-0.2064729999999999
 30
0.0
 11
-0.8888888888888886
 21
-0.3019
 31
0.0
  0
LINE
  5
B0
330
86
100
AcDbEntity
  8
AM_9
100
AcDbLine
 10
-0.8888888888888888
 20
-0.2064729999999999
 30
0.0
 11
0.8888888888888888
 21
-0.2064729999999999
 31
0.0
  0
LINE
  5
B1
330
86
100
AcDbEntity
  8
AM_9
100
AcDbLine
 10
-0.8605408888888888
 20
-0.178125
 30
0.0
 11
0.8605408888888888
 21
-0.178125
 31
0.0
  0
LINE
  5
B2
330
86
100
AcDbEntity
  8
AM_9
100
AcDbLine
 10
-0.8605408888888888
 20
-0.178125
 30
0.0
 11
-0.8888888888888888
 21
-0.2064729999999999
 31
0.0
  0
LINE
  5
B3
330
86
100
AcDbEntity
  8
AM_9
100
AcDbLine
 10
0.8888888888888888
 20
-0.2064729999999999
 30
0.0
 11
0.8605408888888888
 21
-0.178125
 31
0.0
  0
LINE
  5
B4
330
86
100
AcDbEntity
  8
AM_9
100
AcDbLine
 10
1.14958
 20
-0.88425
 30
0.0
 11
1.14958
 21
-0.80825
 31
0.0
  0
LINE
  5
B5
330
86
100
AcDbEntity
  8
AM_9
100
AcDbLine
 10
-1.14958
 20
-0.80825
 30
0.0
 11
-1.14958
 21
-0.88425
 31
0.0
  0
LINE
  5
B6
330
86
100
AcDbEntity
  8
AM_9
100
AcDbLine
 10
-1.130466548018286
 20
-1.0106
 30
0.0
 11
1.130466548018286
 21
-1.0106
 31
0.0
  0
ARC
  5
B7
330
86
100
AcDbEntity
  8
AM_9
100
AcDbCircle
 10
1.130466548018287
 20
-0.9822520000000008
 30
0.0
 40
0.0283479999999992
100
AcDbArc
 50
270.0
 51
338.5875329531174
  0
ARC
  5
B8
330
86
100
AcDbEntity
  8
AM_9
100
AcDbCircle
 10
-1.130466548018287
 20
-0.9822520000000008
 30
0.0
 40
0.0283479999999993
100
AcDbArc
 50
201.4124670468826
 51
270.0
  0
LINE
  5
B9
330
86
100
AcDbEntity
  8
AM_9
100
AcDbLine
 10
-1.130466548018286
 20
-0.3019
 30
0.0
 11
1.130466548018286
 21
-0.3019
 31
0.0
  0
ARC
  5
BA
330
86
100
AcDbEntity
  8
AM_9
100
AcDbCircle
 10
1.130466548018287
 20
-0.3302479999999995
 30
0.0
 40
0.0283479999999993
100
AcDbArc
 50
21.41246704688384
 51
90.0
  0
ARC
  5
BB
330
86
100
AcDbEntity
  8
AM_9
100
AcDbCircle
 10
-1.130466548018287
 20
-0.3302479999999995
 30
0.0
 40
0.0283479999999995
100
AcDbArc
 50
90.0
 51
158.5875329531162
  0
ARC
  5
BC
330
86
100
AcDbEntity
  8
AM_9
100
AcDbCircle
 10
0.2991400000000184
 20
-0.6562500000000062
 30
0.0
 40
0.9213099999999806
100
AcDbArc
 50
338.587532953116
 51
345.0993329992732
  0
ARC
  5
BD
330
86
100
AcDbEntity
  8
AM_9
100
AcDbCircle
 10
-0.2991399999998738
 20
-0.6562499999999583
 30
0.0
 40
0.9213100000001327
100
AcDbArc
 50
194.9006670007273
 51
201.4124670468836
  0
LINE
  5
BE
330
86
100
AcDbEntity
  8
AM_9
100
AcDbLine
 10
-1.156857867002994
 20
-0.9926012698412697
 30
0.0
 11
1.156857867002994
 21
-0.9926012698412697
 31
0.0
  0
LINE
  5
BF
330
86
100
AcDbEntity
  8
AM_9
100
AcDbLine
 10
0.103694591556382
 20
-0.8931593783189284
 30
0.0
 11
1.189469187752788
 21
-0.8931593783189286
 31
0.0
  0
LINE
  5
C0
330
86
100
AcDbEntity
  8
AM_9
100
AcDbLine
 10
-0.0994845122771834
 20
-0.8931593783189284
 30
0.0
 11
0.0994845122771834
 21
-0.8931593783189284
 31
0.0
  0
LINE
  5
C1
330
86
100
AcDbEntity
  8
AM_9
100
AcDbLine
 10
0.1064883420565263
 20
-0.8842499999999999
 30
0.0
 11
1.18262050129021
 21
-0.88425
 31
0.0
  0
LINE
  5
C2
330
86
100
AcDbEntity
  8
AM_9
100
AcDbLine
 10
-0.1023931973274197
 20
-0.8842499999999999
 30
0.0
 11
0.1023931973274197
 21
-0.8842499999999999
 31
0.0
  0
LINE
  5
C3
330
86
100
AcDbEntity
  8
AM_9
100
AcDbLine
 10
-1.18262050129021
 20
-0.88425
 30
0.0
 11
-0.1064883420565263
 21
-0.8842499999999999
 31
0.0
  0
ARC
  5
C4
330
86
100
AcDbEntity
  8
AM_9
100
AcDbCircle
 10
1.18262050129021
 20
-0.8913370000000002
 30
0.0
 40
0.007087
100
AcDbArc
 50
345.099345667785
 51
90.0
  0
ARC
  5
C5
330
86
100
AcDbEntity
  8
AM_9
100
AcDbCircle
 10
-1.18262050129021
 20
-0.8913370000000002
 30
0.0
 40
0.0070870000000002
100
AcDbArc
 50
90.0
 51
194.900654332215
  0
LINE
  5
C6
330
86
100
AcDbEntity
  8
AM_9
100
AcDbLine
 10
-1.189469187752788
 20
-0.8931593783189286
 30
0.0
 11
-0.103694591556382
 21
-0.8931593783189284
 31
0.0
  0
LINE
  5
C7
330
86
100
AcDbEntity
  8
AM_9
100
AcDbLine
 10
0.099476916240338
 20
-0.8082499999999999
 30
0.0
 11
1.201804896935735
 21
-0.80825
 31
0.0
  0
LINE
  5
C8
330
86
100
AcDbEntity
  8
AM_9
100
AcDbLine
 10
-0.0950802646697589
 20
-0.8082499999999999
 30
0.0
 11
0.0950802646697589
 21
-0.8082499999999999
 31
0.0
  0
LINE
  5
C9
330
86
100
AcDbEntity
  8
AM_9
100
AcDbLine
 10
-1.201804896935735
 20
-0.80825
 30
0.0
 11
-0.099476916240338
 21
-0.8082499999999999
 31
0.0
  0
ARC
  5
CA
330
86
100
AcDbEntity
  8
AM_9
100
AcDbCircle
 10
1.201804896935735
 20
-0.8011630000000003
 30
0.0
 40
0.0070869999999997
100
AcDbArc
 50
270.0
 51
350.8796090875511
  0
ARC
  5
CB
330
86
100
AcDbEntity
  8
AM_9
100
AcDbCircle
 10
-1.201804896935735
 20
-0.8011630000000003
 30
0.0
 40
0.0070869999999997
100
AcDbArc
 50
189.120390912449
 51
270.0
  0
LINE
  5
CC
330
86
100
AcDbEntity
  8
AM_9
100
AcDbLine
 10
0.0964029929835808
 20
-0.8022863565891473
 30
0.0
 11
1.208802299237562
 21
-0.8022863565891475
 31
0.0
  0
LINE
  5
CD
330
86
100
AcDbEntity
  8
AM_9
100
AcDbLine
 10
-0.0918593322486969
 20
-0.8022863565891473
 30
0.0
 11
0.091859332248697
 21
-0.8022863565891473
 31
0.0
  0
LINE
  5
CE
330
86
100
AcDbEntity
  8
AM_9
100
AcDbLine
 10
-1.156857867002994
 20
-0.3198987301587301
 30
0.0
 11
1.156857867002994
 21
-0.3198987301587301
 31
0.0
  0
ARC
  5
CF
330
86
100
AcDbEntity
  8
AM_9
100
AcDbCircle
 10
0.2991400000000016
 20
-0.6562500000000001
 30
0.0
 40
0.9213099999999986
100
AcDbArc
 50
350.8796090875505
 51
21.41246704688412
  0
ARC
  5
D0
330
86
100
AcDbEntity
  8
AM_9
100
AcDbCircle
 10
-0.29914000000023
 20
-0.6562499999999755
 30
0.0
 40
0.921309999999777
100
AcDbArc
 50
158.5875329531122
 51
189.1203909124532
  0
LINE
  5
D1
330
86
100
AcDbEntity
  8
AM_9
100
AcDbLine
 10
-1.208802299237562
 20
-0.8022863565891475
 30
0.0
 11
-0.0964029929835808
 21
-0.8022863565891473
 31
0.0
  0
LINE
  5
D3
330
86
100
AcDbEntity
  8
AM_4
100
AcDbLine
 10
0.8888888888888888
 20
-1.17187434515494
 30
0.0
 11
0.8888888888888888
 21
-1.141
 31
0.0
  0
LINE
  5
D4
330
86
100
AcDbEntity
  8
AM_4
100
AcDbLine
 10
-0.8888888888888888
 20
-1.141
 30
0.0
 11
-0.8888888888888888
 21
-1.17187434515494
 31
0.0
  0
LINE
  5
D5
330
86
100
AcDbEntity
  8
AM_4
100
AcDbLine
 10
-0.8888888888888888
 20
-1.17187434515494
 30
0.0
 11
0.8888888888888888
 21
-1.17187434515494
 31
0.0
  0
ENDBLK
  5
89
330
86
100
AcDbEntity
  8
0
100
AcDbBlockEnd
  0
BLOCK
  5
D8
330
D6
100
AcDbEntity
  8
0
100
AcDbBlockBegin
  2
3_AN_GT_06_104S_CR_0_in_129726_4
 70
     2
 10
0.0
 20
0.0
 30
0.0
  3
3_AN_GT_06_104S_CR_0_in_129726_4
  1

  0
ATTDEF
  5
DA
330
D6
100
AcDbEntity
  8
AM_6
100
AcDbText
 10
5.995477272467835
 20
-0.125
 30
0.0
 40
0.5
  1
Grip Tight Adapter and Nut - Corrosion Resistant Inch Bore
100
AcDbAttributeDefinition
  3

  2
NN
 70
     8
280
     0
  0
ATTDEF
  5
DB
330
D6
100
AcDbEntity
  8
AM_6
100
AcDbText
 10
5.995477272467835
 20
-0.625
 30
0.0
 40
0.5
  1
GT and GTM Adapter & Lock Nut Assemblies
100
AcDbAttributeDefinition
  3

  2
NT
 70
     8
280
     0
  0
ATTDEF
  5
DC
330
D6
100
AcDbEntity
  8
AM_6
100
AcDbText
 10
5.995477272467835
 20
-1.125
 30
0.0
 40
0.5
  1
AN-GT-06-104S-CR
100
AcDbAttributeDefinition
  3

  2
NB
 70
     8
280
     0
  0
ATTDEF
  5
DD
330
D6
100
AcDbEntity
  8
AM_6
100
AcDbText
 10
5.995477272467835
 20
-1.625
 30
0.0
 40
0.5
  1
$PN.
100
AcDbAttributeDefinition
  3

  2
NBSYN
 70
     8
280
     0
  0
ATTDEF
  5
DE
330
D6
100
AcDbEntity
  8
AM_6
100
AcDbText
 10
5.995477272467835
 20
-2.125
 30
0.0
 40
0.5
  1
AN-GT-06-104S-CR
100
AcDbAttributeDefinition
  3

  2
LINA
 70
     8
280
     0
  0
ATTDEF
  5
DF
330
D6
100
AcDbEntity
  8
AM_6
100
AcDbText
 10
5.995477272467835
 20
-2.625
 30
0.0
 40
0.5
  1
206
100
AcDbAttributeDefinition
  3

  2
SERIES
 70
     8
280
     0
  0
ATTDEF
  5
E0
330
D6
100
AcDbEntity
  8
AM_6
100
AcDbText
 10
5.995477272467835
 20
-3.125
 30
0.0
 40
0.5
  1
1-1/4
100
AcDbAttributeDefinition
  3

  2
SS
 70
     8
280
     0
  0
ATTDEF
  5
E1
330
D6
100
AcDbEntity
  8
AM_6
100
AcDbText
 10
5.995477272467835
 20
-3.625
 30
0.0
 40
0.5
  1
AN-GT-06-104S-CR
100
AcDbAttributeDefinition
  3

  2
PN
 70
     8
280
     0
  0
ATTDEF
  5
E2
330
D6
100
AcDbEntity
  8
AM_6
100
AcDbText
 10
5.995477272467835
 20
-4.125
 30
0.0
 40
0.5
  1
AN-GT-06-104S-CR
100
AcDbAttributeDefinition
  3

  2
DESCRIPTION
 70
     8
280
     0
  0
ATTDEF
  5
E3
330
D6
100
AcDbEntity
  8
AM_6
100
AcDbText
 10
5.995477272467835
 20
-4.625
 30
0.0
 40
0.5
  1
1-39/64
100
AcDbAttributeDefinition
  3

  2
A
 70
     8
280
     0
  0
ATTDEF
  5
E4
330
D6
100
AcDbEntity
  8
AM_6
100
AcDbText
 10
5.995477272467835
 20
-5.125
 30
0.0
 40
0.5
  1
0.7087
100
AcDbAttributeDefinition
  3

  2
C
 70
     8
280
     0
  0
ATTDEF
  5
E5
330
D6
100
AcDbEntity
  8
AM_6
100
AcDbText
 10
5.995477272467835
 20
-5.625
 30
0.0
 40
0.5
  1
2.4409
100
AcDbAttributeDefinition
  3

  2
D
 70
     8
280
     0
  0
ATTDEF
  5
E6
330
D6
100
AcDbEntity
  8
AM_6
100
AcDbText
 10
5.995477272467835
 20
-6.125
 30
0.0
 40
0.5
  1
0.190
100
AcDbAttributeDefinition
  3

  2
J
 70
     8
280
     0
  0
ATTDEF
  5
E7
330
D6
100
AcDbEntity
  8
AM_6
100
AcDbText
 10
5.995477272467835
 20
-6.625
 30
0.0
 40
0.5
  1
2
100
AcDbAttributeDefinition
  3

  2
L
 70
     8
280
     0
  0
ATTDEF
  5
E8
330
D6
100
AcDbEntity
  8
AM_6
100
AcDbText
 10
5.995477272467835
 20
-7.125
 30
0.0
 40
0.5
  1
10 - 32 x 1/4
100
AcDbAttributeDefinition
  3

  2
N
 70
     8
280
     0
  0
ATTDEF
  5
E9
330
D6
100
AcDbEntity
  8
AM_6
100
AcDbText
 10
5.995477272467835
 20
-7.625
 30
0.0
 40
0.5
  1
17/32
100
AcDbAttributeDefinition
  3

  2
W
 70
     8
280
     0
  0
ATTDEF
  5
EA
330
D6
100
AcDbEntity
  8
AM_6
100
AcDbText
 10
5.995477272467835
 20
-8.125
 30
0.0
 40
0.5
  1
1-1/32
100
AcDbAttributeDefinition
  3

  2
X
 70
     8
280
     0
  0
ATTDEF
  5
EB
330
D6
100
AcDbEntity
  8
AM_6
100
AcDbText
 10
5.995477272467835
 20
-8.625
 30
0.0
 40
0.5
  1
1-5/64
100
AcDbAttributeDefinition
  3

  2
Y
 70
     8
280
     0
  0
ATTDEF
  5
EC
330
D6
100
AcDbEntity
  8
AM_6
100
AcDbText
 10
5.995477272467835
 20
-9.125
 30
0.0
 40
0.5
  1
baldor
100
AcDbAttributeDefinition
  3

  2
COMPANY
 70
     8
280
     0
  0
LINE
  5
ED
330
D6
100
AcDbEntity
  8
AM_9
100
AcDbLine
 10
-0.983
 20
-1.6436147333418
 30
0.0
 11
-0.767
 21
-1.6436147333418
 31
0.0
  0
LINE
  5
EE
330
D6
100
AcDbEntity
  8
AM_9
100
AcDbLine
 10
-0.767
 20
-1.4876147333418
 30
0.0
 11
-0.983
 21
-1.4876147333418
 31
0.0
  0
LINE
  5
EF
330
D6
100
AcDbEntity
  8
AM_9
100
AcDbLine
 10
-0.767
 20
-1.6436147333418
 30
0.0
 11
-0.7499999999999999
 21
-1.6606147333418
 31
0.0
  0
LINE
  5
F0
330
D6
100
AcDbEntity
  8
AM_9
100
AcDbLine
 10
-0.7499999999999999
 20
-1.4706147333418
 30
0.0
 11
-0.767
 21
-1.4876147333418
 31
0.0
  0
LINE
  5
F1
330
D6
100
AcDbEntity
  8
AM_9
100
AcDbLine
 10
-0.7499999999999999
 20
-1.4706147333418
 30
0.0
 11
-0.7499999999999999
 21
-1.6606147333418
 31
0.0
  0
LINE
  5
F2
330
D6
100
AcDbEntity
  8
AM_9
100
AcDbLine
 10
-0.767
 20
-1.4876147333418
 30
0.0
 11
-0.767
 21
-1.6436147333418
 31
0.0
  0
LINE
  5
F3
330
D6
100
AcDbEntity
  8
AM_9
100
AcDbLine
 10
0.9333331639996614
 20
-1.171875
 30
0.0
 11
0.9333331639996614
 21
-1.6875
 31
0.0
  0
LINE
  5
F4
330
D6
100
AcDbEntity
  8
AM_9
100
AcDbLine
 10
-0.983
 20
-1.4876147333418
 30
0.0
 11
-0.9998551573481288
 21
-1.470759575993671
 31
0.0
  0
LINE
  5
F5
330
D6
100
AcDbEntity
  8
AM_9
100
AcDbLine
 10
-0.9992681838790302
 20
-1.65988291722083
 30
0.0
 11
-0.983
 21
-1.6436147333418
 31
0.0
  0
LINE
  5
F6
330
D6
100
AcDbEntity
  8
AM_9
100
AcDbLine
 10
-0.983
 20
-1.4876147333418
 30
0.0
 11
-0.983
 21
-1.6436147333418
 31
0.0
  0
LINE
  5
F7
330
D6
100
AcDbEntity
  8
AM_9
100
AcDbLine
 10
0.625
 20
-1.734375
 30
0.0
 11
0.625
 21
-0.1250000000000002
 31
0.0
  0
LINE
  5
F8
330
D6
100
AcDbEntity
  8
AM_9
100
AcDbLine
 10
-0.625
 20
-0.1250000000000002
 30
0.0
 11
-0.625
 21
-1.734375
 31
0.0
  0
LINE
  5
F9
330
D6
100
AcDbEntity
  8
AM_9
100
AcDbLine
 10
0.7460317460317463
 20
-1.42968684515494
 30
0.0
 11
0.7460317460317463
 21
-1.04296875
 31
0.0
  0
LINE
  5
FA
330
D6
100
AcDbEntity
  8
AM_9
100
AcDbLine
 10
-0.7460317460317463
 20
-1.04296875
 30
0.0
 11
-0.7460317460317463
 21
-1.42968684515494
 31
0.0
  0
LINE
  5
FB
330
D6
100
AcDbEntity
  8
AM_9
100
AcDbLine
 10
-0.0499999999999999
 20
-0.125
 30
0.0
 11
-0.0499999999999999
 21
-1.6875
 31
0.0
  0
LINE
  5
FC
330
D6
100
AcDbEntity
  8
AM_9
100
AcDbLine
 10
0.0500000000000001
 20
-0.125
 30
0.0
 11
0.0500000000000001
 21
-1.6875
 31
0.0
  0
LINE
  5
FD
330
D6
100
AcDbEntity
  8
AM_9
100
AcDbLine
 10
-0.7460317460317459
 20
-1.04296875
 30
0.0
 11
0.7460317460317459
 21
-1.04296875
 31
0.0
  0
LINE
  5
FE
330
D6
100
AcDbEntity
  8
AM_9
100
AcDbLine
 10
0.7460317460317459
 20
-1.04296875
 30
0.0
 11
0.7780879211511239
 21
-0.125
 31
0.0
  0
LINE
  5
FF
330
D6
100
AcDbEntity
  8
AM_9
100
AcDbLine
 10
-0.7780879211511239
 20
-0.125
 30
0.0
 11
-0.7460317460317459
 21
-1.04296875
 31
0.0
  0
LINE
  5
100
330
D6
100
AcDbEntity
  8
AM_9
100
AcDbLine
 10
-0.7780879211511239
 20
-0.125
 30
0.0
 11
0.7780879211511239
 21
-0.125
 31
0.0
  0
LINE
  5
101
330
D6
100
AcDbEntity
  8
AM_9
100
AcDbLine
 10
0.8174603174603172
 20
-1.30078125
 30
0.0
 11
0.8174603174603172
 21
-1.171875
 31
0.0
  0
LINE
  5
102
330
D6
100
AcDbEntity
  8
AM_9
100
AcDbLine
 10
-0.8174603174603172
 20
-1.171875
 30
0.0
 11
-0.8174603174603172
 21
-1.30078125
 31
0.0
  0
LINE
  5
103
330
D6
100
AcDbEntity
  8
AM_9
100
AcDbLine
 10
-0.3843941686403092
 20
-1.171875
 30
0.0
 11
-0.3843941686403092
 21
-1.6875
 31
0.0
  0
LINE
  5
104
330
D6
100
AcDbEntity
  8
AM_9
100
AcDbLine
 10
-0.8888888888888888
 20
-1.30078125
 30
0.0
 11
0.8888888888888888
 21
-1.30078125
 31
0.0
  0
LINE
  5
105
330
D6
100
AcDbEntity
  8
AM_9
100
AcDbLine
 10
-0.8888888888888888
 20
-1.4296875
 30
0.0
 11
0.8888888888888888
 21
-1.4296875
 31
0.0
  0
LINE
  5
106
330
D6
100
AcDbEntity
  8
AM_9
100
AcDbLine
 10
0.8888888888888888
 20
-1.4296875
 30
0.0
 11
0.8888888888888888
 21
-1.30078125
 31
0.0
  0
LINE
  5
107
330
D6
100
AcDbEntity
  8
AM_9
100
AcDbLine
 10
-0.8888888888888888
 20
-1.30078125
 30
0.0
 11
-0.8888888888888888
 21
-1.4296875
 31
0.0
  0
LINE
  5
109
330
D6
100
AcDbEntity
  8
AM_5
100
AcDbLine
 10
-0.9985372666581999
 20
-1.6606147333418
 30
0.0
 11
-0.7499999999999999
 21
-1.6606147333418
 31
0.0
  0
LINE
  5
10A
330
D6
100
AcDbEntity
  8
AM_5
100
AcDbLine
 10
-1.0
 20
-1.4706147333418
 30
0.0
 11
-0.7499999999999999
 21
-1.4706147333418
 31
0.0
  0
LINE
  5
10D
330
D6
100
AcDbEntity
  8
AM_7
100
AcDbLine
 10
-0.7374999999999999
 20
-1.5656147333418
 30
0.0
 11
-1.0125
 21
-1.5656147333418
 31
0.0
  0
LINE
  5
10E
330
D6
100
AcDbEntity
  8
AM_4
100
AcDbLine
 10
-0.0499999999999999
 20
-1.734375
 30
0.0
 11
-0.0499999999999999
 21
-1.6875
 31
0.0
  0
LINE
  5
10F
330
D6
100
AcDbEntity
  8
AM_4
100
AcDbLine
 10
0.0500000000000001
 20
-1.734375
 30
0.0
 11
0.0500000000000001
 21
-1.6875
 31
0.0
  0
LINE
  5
110
330
D6
100
AcDbEntity
  8
AM_4
100
AcDbLine
 10
0.7460317460317459
 20
-1.734375
 30
0.0
 11
0.7460317460317459
 21
-1.6875
 31
0.0
  0
LINE
  5
111
330
D6
100
AcDbEntity
  8
AM_4
100
AcDbLine
 10
-0.7460317460317459
 20
-1.6875
 30
0.0
 11
-0.7460317460317459
 21
-1.734375
 31
0.0
  0
LINE
  5
112
330
D6
100
AcDbEntity
  8
AM_4
100
AcDbLine
 10
-0.7460317460317459
 20
-1.734375
 30
0.0
 11
0.7460317460317459
 21
-1.734375
 31
0.0
  0
LINE
  5
113
330
D6
100
AcDbEntity
  8
AM_4
100
AcDbLine
 10
-0.9992686333290998
 20
-1.6598833666709
 30
0.0
 11
-0.971652
 21
-1.6875
 31
0.0
  0
LINE
  5
114
330
D6
100
AcDbEntity
  8
AM_4
100
AcDbLine
 10
-0.9998740586901644
 20
-1.659152
 30
0.0
 11
-0.5800110495934395
 21
-1.659152
 31
0.0
  0
LINE
  5
115
330
D6
100
AcDbEntity
  8
AM_4
100
AcDbLine
 10
-1.0
 20
-1.200223
 30
0.0
 11
-1.0
 21
-1.470881533994555
 31
0.0
  0
LWPOLYLINE
  5
116
330
D6
100
AcDbEntity
  8
AM_4
100
AcDbPolyline
 90
       21
 70
     0
 43
0.0
 10
-0.9999999999999966
 20
-1.470614733341838
 10
-0.9999914443652305
 20
-1.470713398755544
 10
-0.999830212438795
 20
-1.472592032367289
 10
-0.9994685472898437
 20
-1.476948598607482
 10
-0.9989627533566973
 20
-1.483422388124226
 10
-0.9983417104400577
 20
-1.492137895411363
 10
-0.9976786283390863
 20
-1.5027500087709
 10
-0.9970295411275498
 20
-1.515242694260975
 10
-0.9964716861551616
 20
-1.529243169215696
 10
-0.9960667540252567
 20
-1.544587794356109
 10
-0.9958749490821849
 20
-1.560597704327136
 10
-0.9959250700617132
 20
-1.577195473523476
 10
-0.996214541225367
 20
-1.593246321783701
 10
-0.9967271719858117
 20
-1.608961353225576
 10
-0.9972334072795445
 20
-1.620217572212725
 10
-0.9978069390634098
 20
-1.630667138219051
 10
-0.9984098503536707
 20
-1.640097143522554
 10
-0.9989871233028029
 20
-1.648130500753524
 10
-0.9995107352554197
 20
-1.654799872066532
 10
-0.9998697676437873
 20
-1.659101764853274
 10
-0.9998740586901644
 20
-1.659152
  0
LINE
  5
117
330
D6
100
AcDbEntity
  8
AM_4
100
AcDbLine
 10
-0.971652
 20
-1.171875
 30
0.0
 11
-1.0
 21
-1.200223
 31
0.0
  0
LINE
  5
118
330
D6
100
AcDbEntity
  8
AM_4
100
AcDbLine
 10
-1.0
 20
-1.200223
 30
0.0
 11
-0.5800110495934394
 21
-1.200223
 31
0.0
  0
LINE
  5
119
330
D6
100
AcDbEntity
  8
AM_4
100
AcDbLine
 10
-0.5657707611085087
 20
-1.171875
 30
0.0
 11
-0.5800110495934394
 21
-1.200223
 31
0.0
  0
LINE
  5
11A
330
D6
100
AcDbEntity
  8
AM_4
100
AcDbLine
 10
-0.5800110495934394
 20
-1.200223
 30
0.0
 11
-0.5800110495934395
 21
-1.659152
 31
0.0
  0
LINE
  5
11B
330
D6
100
AcDbEntity
  8
AM_4
100
AcDbLine
 10
-0.5800110495934395
 20
-1.659152
 30
0.0
 11
-0.5657707611085088
 21
-1.6875
 31
0.0
  0
LINE
  5
11C
330
D6
100
AcDbEntity
  8
AM_4
100
AcDbLine
 10
-0.5489389953593525
 20
-1.171875
 30
0.0
 11
-0.5489389953593525
 21
-1.6875
 31
0.0
  0
LINE
  5
11D
330
D6
100
AcDbEntity
  8
AM_4
100
AcDbLine
 10
0.9669966954979732
 20
-1.171875
 30
0.0
 11
0.9954772724678349
 21
-1.200223
 31
0.0
  0
LINE
  5
11E
330
D6
100
AcDbEntity
  8
AM_4
100
AcDbLine
 10
-0.971652
 20
-1.171875
 30
0.0
 11
0.9669966954979732
 21
-1.171875
 31
0.0
  0
LINE
  5
11F
330
D6
100
AcDbEntity
  8
AM_4
100
AcDbLine
 10
-0.4154662228743962
 20
-1.200223
 30
0.0
 11
-0.4012259343894654
 21
-1.171875
 31
0.0
  0
LINE
  5
120
330
D6
100
AcDbEntity
  8
AM_4
100
AcDbLine
 10
0.9954772724678349
 20
-1.200223
 30
0.0
 11
0.9954772724678349
 21
-1.659152
 31
0.0
  0
LINE
  5
121
330
D6
100
AcDbEntity
  8
AM_4
100
AcDbLine
 10
-0.4154662228743962
 20
-1.200223
 30
0.0
 11
0.9954772724678349
 21
-1.200223
 31
0.0
  0
LINE
  5
122
330
D6
100
AcDbEntity
  8
AM_4
100
AcDbLine
 10
-0.4154662228743962
 20
-1.659152
 30
0.0
 11
-0.4154662228743962
 21
-1.200223
 31
0.0
  0
LINE
  5
123
330
D6
100
AcDbEntity
  8
AM_4
100
AcDbLine
 10
0.9954772724678349
 20
-1.659152
 30
0.0
 11
0.9669966954979732
 21
-1.6875
 31
0.0
  0
LINE
  5
124
330
D6
100
AcDbEntity
  8
AM_4
100
AcDbLine
 10
-0.4154662228743962
 20
-1.659152
 30
0.0
 11
0.9954772724678349
 21
-1.659152
 31
0.0
  0
LINE
  5
125
330
D6
100
AcDbEntity
  8
AM_4
100
AcDbLine
 10
-0.4012259343894652
 20
-1.6875
 30
0.0
 11
-0.4154662228743962
 21
-1.659152
 31
0.0
  0
LINE
  5
126
330
D6
100
AcDbEntity
  8
AM_4
100
AcDbLine
 10
-0.971652
 20
-1.6875
 30
0.0
 11
0.9669966954979732
 21
-1.6875
 31
0.0
  0
ENDBLK
  5
D9
330
D6
100
AcDbEntity
  8
0
100
AcDbBlockEnd
  0
BLOCK
  5
129
330
127
100
AcDbEntity
  8
0
100
AcDbBlockBegin
  2
4_F4B_GTEZ_06_SHCR_II_0_in_129726_4
 70
     2
 10
0.0
 20
0.0
 30
0.0
  3
4_F4B_GTEZ_06_SHCR_II_0_in_129726_4
  1

  0
ATTDEF
  5
12B
330
127
100
AcDbEntity
  8
AM_6
100
AcDbText
 10
7.077999999999999
 20
0.05705
 30
0.0
 40
0.5
  1
GTEZ Normal Duty Stainless Steel Housed 4 Bolt Flange Bearings-inch
100
AcDbAttributeDefinition
  3

  2
NN
 70
     8
280
     0
  0
ATTDEF
  5
12C
330
127
100
AcDbEntity
  8
AM_6
100
AcDbText
 10
7.077999999999999
 20
-0.44295
 30
0.0
 40
0.5
  1
GRIP TIGHT Adapter Ball Bearings -E-Z KLEEN
100
AcDbAttributeDefinition
  3

  2
NT
 70
     8
280
     0
  0
ATTDEF
  5
12D
330
127
100
AcDbEntity
  8
AM_6
100
AcDbText
 10
7.077999999999999
 20
-0.94295
 30
0.0
 40
0.5
  1
F4B-GTEZ-06-SHCR-II
100
AcDbAttributeDefinition
  3

  2
NB
 70
     8
280
     0
  0
ATTDEF
  5
12E
330
127
100
AcDbEntity
  8
AM_6
100
AcDbText
 10
7.077999999999999
 20
-1.44295
 30
0.0
 40
0.5
  1
$PN.$LUBE.I
100
AcDbAttributeDefinition
  3

  2
NBSYN
 70
     8
280
     0
  0
ATTDEF
  5
12F
330
127
100
AcDbEntity
  8
AM_6
100
AcDbText
 10
7.077999999999999
 20
-1.94295
 30
0.0
 40
0.5
  1
F4B-GTEZ-06-SHCR-I
100
AcDbAttributeDefinition
  3

  2
LINA
 70
     8
280
     0
  0
ATTDEF
  5
130
330
127
100
AcDbEntity
  8
AM_6
100
AcDbText
 10
7.077999999999999
 20
-2.44295
 30
0.0
 40
0.5
  1
206
100
AcDbAttributeDefinition
  3

  2
SERIES
 70
     8
280
     0
  0
ATTDEF
  5
131
330
127
100
AcDbEntity
  8
AM_6
100
AcDbText
 10
7.077999999999999
 20
-2.94295
 30
0.0
 40
0.5
  1
1-1/8
100
AcDbAttributeDefinition
  3

  2
SS
 70
     8
280
     0
  0
ATTDEF
  5
132
330
127
100
AcDbEntity
  8
AM_6
100
AcDbText
 10
7.077999999999999
 20
-3.44295
 30
0.0
 40
0.5
  1
F4B-GTEZ-06-SHCR-I
100
AcDbAttributeDefinition
  3

  2
PN
 70
     8
280
     0
  0
ATTDEF
  5
133
330
127
100
AcDbEntity
  8
AM_6
100
AcDbText
 10
7.077999999999999
 20
-3.94295
 30
0.0
 40
0.5
  1
F4B-GTEZ-06-SHCR
100
AcDbAttributeDefinition
  3

  2
DESCRIPTION
 70
     8
280
     0
  0
ATTDEF
  5
134
330
127
100
AcDbEntity
  8
AM_6
100
AcDbText
 10
7.077999999999999
 20
-4.44295
 30
0.0
 40
0.5
  1
2.41
100
AcDbAttributeDefinition
  3

  2
WEIGHT
 70
     8
280
     0
  0
ATTDEF
  5
135
330
127
100
AcDbEntity
  8
AM_6
100
AcDbText
 10
7.077999999999999
 20
-4.94295
 30
0.0
 40
0.5
  1
1-39/64
100
AcDbAttributeDefinition
  3

  2
A
 70
     8
280
     0
  0
ATTDEF
  5
136
330
127
100
AcDbEntity
  8
AM_6
100
AcDbText
 10
7.077999999999999
 20
-5.44295
 30
0.0
 40
0.5
  1
4-5/32
100
AcDbAttributeDefinition
  3

  2
B
 70
     8
280
     0
  0
ATTDEF
  5
137
330
127
100
AcDbEntity
  8
AM_6
100
AcDbText
 10
7.077999999999999
 20
-5.94295
 30
0.0
 40
0.5
  1
1-47/64
100
AcDbAttributeDefinition
  3

  2
C
 70
     8
280
     0
  0
ATTDEF
  5
138
330
127
100
AcDbEntity
  8
AM_6
100
AcDbText
 10
7.077999999999999
 20
-6.44295
 30
0.0
 40
0.5
  1
3-1/4
100
AcDbAttributeDefinition
  3

  2
D
 70
     8
280
     0
  0
ATTDEF
  5
139
330
127
100
AcDbEntity
  8
AM_6
100
AcDbText
 10
7.077999999999999
 20
-6.94295
 30
0.0
 40
0.5
  1
3/8
100
AcDbAttributeDefinition
  3

  2
F
 70
     8
280
     0
  0
ATTDEF
  5
13A
330
127
100
AcDbEntity
  8
AM_6
100
AcDbText
 10
7.077999999999999
 20
-7.44295
 30
0.0
 40
0.5
  1
23/64
100
AcDbAttributeDefinition
  3

  2
H
 70
     8
280
     0
  0
ATTDEF
  5
13B
330
127
100
AcDbEntity
  8
AM_6
100
AcDbText
 10
7.077999999999999
 20
-7.94295
 30
0.0
 40
0.5
  1
35/64
100
AcDbAttributeDefinition
  3

  2
J
 70
     8
280
     0
  0
ATTDEF
  5
13C
330
127
100
AcDbEntity
  8
AM_6
100
AcDbText
 10
7.077999999999999
 20
-8.44295
 30
0.0
 40
0.5
  1
2
100
AcDbAttributeDefinition
  3

  2
L
 70
     8
280
     0
  0
ATTDEF
  5
13D
330
127
100
AcDbEntity
  8
AM_6
100
AcDbText
 10
7.077999999999999
 20
-8.94295
 30
0.0
 40
0.5
  1
1-11/16
100
AcDbAttributeDefinition
  3

  2
Z
 70
     8
280
     0
  0
ATTDEF
  5
13E
330
127
100
AcDbEntity
  8
AM_6
100
AcDbText
 10
7.077999999999999
 20
-9.44295
 30
0.0
 40
0.5
  1
baldor
100
AcDbAttributeDefinition
  3

  2
COMPANY
 70
     8
280
     0
  0
LINE
  5
13F
330
127
100
AcDbEntity
  8
AM_9
100
AcDbLine
 10
1.577796840228524
 20
-0.3589999999999999
 30
0.0
 11
1.577796840228524
 21
0.0
 31
0.0
  0
LINE
  5
140
330
127
100
AcDbEntity
  8
AM_9
100
AcDbLine
 10
1.533653662719024
 20
0.0
 30
0.0
 11
1.533653662719024
 21
-0.3589999999999999
 31
0.0
  0
LINE
  5
141
330
127
100
AcDbEntity
  8
AM_9
100
AcDbLine
 10
-1.577796840228524
 20
-0.3589999999999999
 30
0.0
 11
-1.577796840228524
 21
0.0
 31
0.0
  0
LINE
  5
142
330
127
100
AcDbEntity
  8
AM_9
100
AcDbLine
 10
-1.533653662719024
 20
-0.3589999999999999
 30
0.0
 11
-1.533653662719024
 21
0.0
 31
0.0
  0
LINE
  5
143
330
127
100
AcDbEntity
  8
AM_9
100
AcDbLine
 10
0.5404092119556321
 20
-1.0622598
 30
0.0
 11
0.5404092119556321
 21
-1.141
 31
0.0
  0
LINE
  5
144
330
127
100
AcDbEntity
  8
AM_9
100
AcDbLine
 10
0.4308838511665583
 20
-1.0622598
 30
0.0
 11
0.4308838511665583
 21
-1.141
 31
0.0
  0
LINE
  5
145
330
127
100
AcDbEntity
  8
AM_9
100
AcDbLine
 10
0.5344304604361991
 20
-1.0622598
 30
0.0
 11
0.5344304604361991
 21
-1.141
 31
0.0
  0
LINE
  5
146
330
127
100
AcDbEntity
  8
AM_9
100
AcDbLine
 10
-0.3618530915510047
 20
-1.0622598
 30
0.0
 11
-0.3618530915510047
 21
-1.141
 31
0.0
  0
LINE
  5
147
330
127
100
AcDbEntity
  8
AM_9
100
AcDbLine
 10
1.22045
 20
-1.141
 30
0.0
 11
1.22045
 21
0.0
 31
0.0
  0
LINE
  5
148
330
127
100
AcDbEntity
  8
AM_9
100
AcDbLine
 10
-1.22045
 20
0.0
 30
0.0
 11
-1.22045
 21
-1.141
 31
0.0
  0
LINE
  5
149
330
127
100
AcDbEntity
  8
AM_9
100
AcDbLine
 10
-0.4196048657974718
 20
-1.0622598
 30
0.0
 11
-0.4196048657974717
 21
-1.141
 31
0.0
  0
LINE
  5
14A
330
127
100
AcDbEntity
  8
AM_9
100
AcDbLine
 10
-0.3678318430704376
 20
-1.0622598
 30
0.0
 11
-0.3678318430704376
 21
-1.141
 31
0.0
  0
LINE
  5
14B
330
127
100
AcDbEntity
  8
AM_9
100
AcDbLine
 10
-0.348468118392021
 20
-1.0622598
 30
0.0
 11
-0.348468118392021
 21
-1.141
 31
0.0
  0
LINE
  5
14C
330
127
100
AcDbEntity
  8
AM_9
100
AcDbLine
 10
0.5508257728153458
 20
-1.0622598
 30
0.0
 11
0.5508257728153458
 21
-1.141
 31
0.0
  0
LINE
  5
14D
330
127
100
AcDbEntity
  8
AM_9
100
AcDbLine
 10
0.3097027304875939
 20
-1.0622598
 30
0.0
 11
0.3097027304875939
 21
-1.141
 31
0.0
  0
LINE
  5
14E
330
127
100
AcDbEntity
  8
AM_9
100
AcDbLine
 10
0.2941250219099454
 20
-1.0622598
 30
0.0
 11
0.2941250219099454
 21
-1.141
 31
0.0
  0
LINE
  5
14F
330
127
100
AcDbEntity
  8
AM_9
100
AcDbLine
 10
-0.3573229700148863
 20
-1.0622598
 30
0.0
 11
-0.3573229700148863
 21
-1.141
 31
0.0
  0
LINE
  5
150
330
127
100
AcDbEntity
  8
AM_9
100
AcDbLine
 10
0.2669954394491898
 20
-1.0622598
 30
0.0
 11
0.2669954394491898
 21
-1.141
 31
0.0
  0
LINE
  5
151
330
127
100
AcDbEntity
  8
AM_9
100
AcDbLine
 10
0.5448470212959128
 20
-1.0622598
 30
0.0
 11
0.5448470212959128
 21
-1.141
 31
0.0
  0
LINE
  5
152
330
127
100
AcDbEntity
  8
AM_9
100
AcDbLine
 10
0.4700637453636941
 20
-1.0622598
 30
0.0
 11
0.4700637453636941
 21
-1.141
 31
0.0
  0
LINE
  5
153
330
127
100
AcDbEntity
  8
AM_9
100
AcDbLine
 10
0.4541203395745107
 20
-1.0622598
 30
0.0
 11
0.4541203395745107
 21
-1.141
 31
0.0
  0
LINE
  5
154
330
127
100
AcDbEntity
  8
AM_9
100
AcDbLine
 10
0.3227721532588216
 20
-1.0622598
 30
0.0
 11
0.3227721532588216
 21
-1.141
 31
0.0
  0
LINE
  5
155
330
127
100
AcDbEntity
  8
AM_9
100
AcDbLine
 10
-0.3506870059611542
 20
-1.0622598
 30
0.0
 11
-0.3506870059611542
 21
-1.141
 31
0.0
  0
LINE
  5
156
330
127
100
AcDbEntity
  8
AM_9
100
AcDbLine
 10
-0.338955814993311
 20
-1.0622598
 30
0.0
 11
-0.338955814993311
 21
-1.141
 31
0.0
  0
LINE
  5
157
330
127
100
AcDbEntity
  8
AM_9
100
AcDbLine
 10
0.2971605136092877
 20
-1.0622598
 30
0.0
 11
0.2971605136092877
 21
-1.141
 31
0.0
  0
LINE
  5
158
330
127
100
AcDbEntity
  8
AM_9
100
AcDbLine
 10
0.2524295614379888
 20
-1.0622598
 30
0.0
 11
0.2524295614379888
 21
-1.141
 31
0.0
  0
LINE
  5
159
330
127
100
AcDbEntity
  8
AM_9
100
AcDbLine
 10
0.2700309311485321
 20
-1.0622598
 30
0.0
 11
0.2700309311485321
 21
-1.141
 31
0.0
  0
LINE
  5
15A
330
127
100
AcDbEntity
  8
AM_9
100
AcDbLine
 10
0.3197786605766321
 20
-1.0622598
 30
0.0
 11
0.3197786605766321
 21
-1.141
 31
0.0
  0
LINE
  5
15B
330
127
100
AcDbEntity
  8
AM_9
100
AcDbLine
 10
0.336852807029436
 20
-1.0622598
 30
0.0
 11
0.336852807029436
 21
-1.141
 31
0.0
  0
LINE
  5
15C
330
127
100
AcDbEntity
  8
AM_9
100
AcDbLine
 10
-0.1705354896571501
 20
-1.0622598
 30
0.0
 11
-0.1705354896571501
 21
-1.141
 31
0.0
  0
LINE
  5
15D
330
127
100
AcDbEntity
  8
AM_9
100
AcDbLine
 10
0.258479344025342
 20
-1.0622598
 30
0.0
 11
0.258479344025342
 21
-1.141
 31
0.0
  0
LINE
  5
15E
330
127
100
AcDbEntity
  8
AM_9
100
AcDbLine
 10
-0.3296700116041479
 20
-1.0622598
 30
0.0
 11
-0.3296700116041479
 21
-1.141
 31
0.0
  0
LINE
  5
15F
330
127
100
AcDbEntity
  8
AM_9
100
AcDbLine
 10
-0.3314369754823107
 20
-1.0622598
 30
0.0
 11
-0.3314369754823107
 21
-1.141
 31
0.0
  0
LINE
  5
160
330
127
100
AcDbEntity
  8
AM_9
100
AcDbLine
 10
0.3243108942758647
 20
-1.0622598
 30
0.0
 11
0.3243108942758647
 21
-1.141
 31
0.0
  0
LINE
  5
161
330
127
100
AcDbEntity
  8
AM_9
100
AcDbLine
 10
-0.1464205022091401
 20
-1.0622598
 30
0.0
 11
-0.1464205022091401
 21
-1.141
 31
0.0
  0
LINE
  5
162
330
127
100
AcDbEntity
  8
AM_9
100
AcDbLine
 10
0.241383799799656
 20
-1.0622598
 30
0.0
 11
0.241383799799656
 21
-1.141
 31
0.0
  0
LINE
  5
163
330
127
100
AcDbEntity
  8
AM_9
100
AcDbLine
 10
0.2504480962837973
 20
-1.0622598
 30
0.0
 11
0.2504480962837973
 21
-1.141
 31
0.0
  0
LINE
  5
164
330
127
100
AcDbEntity
  8
AM_9
100
AcDbLine
 10
-0.1991826210060262
 20
-1.0622598
 30
0.0
 11
-0.1991826210060262
 21
-1.141
 31
0.0
  0
LINE
  5
165
330
127
100
AcDbEntity
  8
AM_9
100
AcDbLine
 10
-0.3479239422724604
 20
-1.0622598
 30
0.0
 11
-0.3479239422724604
 21
-1.141
 31
0.0
  0
LINE
  5
166
330
127
100
AcDbEntity
  8
AM_9
100
AcDbLine
 10
-0.1318545257171638
 20
-1.0622598
 30
0.0
 11
-0.1318545257171638
 21
-1.141
 31
0.0
  0
LINE
  5
167
330
127
100
AcDbEntity
  8
AM_9
100
AcDbLine
 10
-0.1861343816813122
 20
-1.0622598
 30
0.0
 11
-0.1861343816813122
 21
-1.141
 31
0.0
  0
LINE
  5
168
330
127
100
AcDbEntity
  8
AM_9
100
AcDbLine
 10
-0.1735709813564923
 20
-1.0622598
 30
0.0
 11
-0.1735709813564923
 21
-1.141
 31
0.0
  0
LINE
  5
169
330
127
100
AcDbEntity
  8
AM_9
100
AcDbLine
 10
-0.331775990929819
 20
-1.0622598
 30
0.0
 11
-0.331775990929819
 21
-1.141
 31
0.0
  0
LINE
  5
16A
330
127
100
AcDbEntity
  8
AM_9
100
AcDbLine
 10
-0.1494559939084824
 20
-1.0622598
 30
0.0
 11
-0.1494559939084824
 21
-1.141
 31
0.0
  0
LINE
  5
16B
330
127
100
AcDbEntity
  8
AM_9
100
AcDbLine
 10
-0.1961893252853873
 20
-1.0622598
 30
0.0
 11
-0.1961893252853873
 21
-1.141
 31
0.0
  0
LINE
  5
16C
330
127
100
AcDbEntity
  8
AM_9
100
AcDbLine
 10
0.2459370373486694
 20
-1.0622598
 30
0.0
 11
0.2459370373486694
 21
-1.141
 31
0.0
  0
LINE
  5
16D
330
127
100
AcDbEntity
  8
AM_9
100
AcDbLine
 10
0.2313499979184471
 20
-1.0622598
 30
0.0
 11
0.2313499979184471
 21
-1.141
 31
0.0
  0
LINE
  5
16E
330
127
100
AcDbEntity
  8
AM_9
100
AcDbLine
 10
-0.2132637277882071
 20
-1.0622598
 30
0.0
 11
-0.2132637277882071
 21
-1.141
 31
0.0
  0
LINE
  5
16F
330
127
100
AcDbEntity
  8
AM_9
100
AcDbLine
 10
0.5812639627020696
 20
-1.0622598
 30
0.0
 11
0.5812639627020696
 21
-1.141
 31
0.0
  0
LINE
  5
170
330
127
100
AcDbEntity
  8
AM_9
100
AcDbLine
 10
-0.1379042098237417
 20
-1.0622598
 30
0.0
 11
-0.1379042098237417
 21
-1.141
 31
0.0
  0
LINE
  5
171
330
127
100
AcDbEntity
  8
AM_9
100
AcDbLine
 10
-0.2037358585550397
 20
-1.0622598
 30
0.0
 11
-0.2037358585550397
 21
-1.141
 31
0.0
  0
LINE
  5
172
330
127
100
AcDbEntity
  8
AM_9
100
AcDbLine
 10
-0.120808764078831
 20
-1.0622598
 30
0.0
 11
-0.120808764078831
 21
-1.141
 31
0.0
  0
LINE
  5
173
330
127
100
AcDbEntity
  8
AM_9
100
AcDbLine
 10
-0.1298732575245229
 20
-1.0622598
 30
0.0
 11
-0.1298732575245229
 21
-1.141
 31
0.0
  0
LINE
  5
174
330
127
100
AcDbEntity
  8
AM_9
100
AcDbLine
 10
0.3012287151968563
 20
-1.0622598
 30
0.0
 11
0.3012287151968563
 21
-1.141
 31
0.0
  0
LINE
  5
175
330
127
100
AcDbEntity
  8
AM_9
100
AcDbLine
 10
0.3283581991768366
 20
-1.0622598
 30
0.0
 11
0.3283581991768366
 21
-1.141
 31
0.0
  0
LINE
  5
176
330
127
100
AcDbEntity
  8
AM_9
100
AcDbLine
 10
0.226860143814385
 20
-1.0622598
 30
0.0
 11
0.226860143814385
 21
-1.141
 31
0.0
  0
LINE
  5
177
330
127
100
AcDbEntity
  8
AM_9
100
AcDbLine
 10
0.2273448924931845
 20
-1.0622598
 30
0.0
 11
0.2273448924931845
 21
-1.141
 31
0.0
  0
LINE
  5
178
330
127
100
AcDbEntity
  8
AM_9
100
AcDbLine
 10
-0.2213161554792595
 20
-1.0622598
 30
0.0
 11
-0.2213161554792595
 21
-1.141
 31
0.0
  0
LINE
  5
179
330
127
100
AcDbEntity
  8
AM_9
100
AcDbLine
 10
-0.2087739524687651
 20
-1.0622598
 30
0.0
 11
-0.2087739524687651
 21
-1.141
 31
0.0
  0
LINE
  5
17A
330
127
100
AcDbEntity
  8
AM_9
100
AcDbLine
 10
0.4760424968831271
 20
-1.0622598
 30
0.0
 11
0.4760424968831271
 21
-1.141
 31
0.0
  0
LINE
  5
17B
330
127
100
AcDbEntity
  8
AM_9
100
AcDbLine
 10
0.5752854505967369
 20
-1.0622598
 30
0.0
 11
0.5752854505967369
 21
-1.141
 31
0.0
  0
LINE
  5
17C
330
127
100
AcDbEntity
  8
AM_9
100
AcDbLine
 10
0.4889965782156155
 20
-1.0622598
 30
0.0
 11
0.4889965782156155
 21
-1.141
 31
0.0
  0
LINE
  5
17D
330
127
100
AcDbEntity
  8
AM_9
100
AcDbLine
 10
-0.1253620016278444
 20
-1.0622598
 30
0.0
 11
-0.1253620016278444
 21
-1.141
 31
0.0
  0
LINE
  5
17E
330
127
100
AcDbEntity
  8
AM_9
100
AcDbLine
 10
-0.1107754152091885
 20
-1.0622598
 30
0.0
 11
-0.1107754152091885
 21
-1.141
 31
0.0
  0
LINE
  5
17F
330
127
100
AcDbEntity
  8
AM_9
100
AcDbLine
 10
0.3494796852602481
 20
-1.0622598
 30
0.0
 11
0.3494796852602481
 21
-1.141
 31
0.0
  0
LINE
  5
180
330
127
100
AcDbEntity
  8
AM_9
100
AcDbLine
 10
0.3418909646943013
 20
-1.0622598
 30
0.0
 11
0.3418909646943013
 21
-1.141
 31
0.0
  0
LINE
  5
181
330
127
100
AcDbEntity
  8
AM_9
100
AcDbLine
 10
0.3042642068961987
 20
-1.0622598
 30
0.0
 11
0.3042642068961987
 21
-1.141
 31
0.0
  0
LINE
  5
182
330
127
100
AcDbEntity
  8
AM_9
100
AcDbLine
 10
-0.3490334459105522
 20
-1.0622598
 30
0.0
 11
-0.3490334459105522
 21
-1.141
 31
0.0
  0
LINE
  5
183
330
127
100
AcDbEntity
  8
AM_9
100
AcDbLine
 10
-0.1062852065743353
 20
-1.0622598
 30
0.0
 11
-0.1062852065743353
 21
-1.141
 31
0.0
  0
LINE
  5
184
330
127
100
AcDbEntity
  8
AM_9
100
AcDbLine
 10
-0.1067700832781426
 20
-1.0622598
 30
0.0
 11
-0.1067700832781426
 21
-1.141
 31
0.0
  0
LINE
  5
185
330
127
100
AcDbEntity
  8
AM_9
100
AcDbLine
 10
-0.3467227842233657
 20
-1.0622598
 30
0.0
 11
-0.3467227842233657
 21
-1.141
 31
0.0
  0
LINE
  5
186
330
127
100
AcDbEntity
  8
AM_9
100
AcDbLine
 10
0.4777173534324287
 20
-1.0622598
 30
0.0
 11
0.4777173534324287
 21
-1.141
 31
0.0
  0
LINE
  5
187
330
127
100
AcDbEntity
  8
AM_9
100
AcDbLine
 10
0.5812639627020696
 20
-1.0622598
 30
0.0
 11
0.4308838511665583
 21
-1.0622598
 31
0.0
  0
LINE
  5
188
330
127
100
AcDbEntity
  8
AM_9
100
AcDbLine
 10
-0.4777173534324287
 20
-1.0622598
 30
0.0
 11
-0.4777173534324287
 21
-1.141
 31
0.0
  0
LINE
  5
189
330
127
100
AcDbEntity
  8
AM_9
100
AcDbLine
 10
-0.4308838511665583
 20
-1.0622598
 30
0.0
 11
-0.4308838511665583
 21
-1.141
 31
0.0
  0
LINE
  5
18A
330
127
100
AcDbEntity
  8
AM_9
100
AcDbLine
 10
-0.3639802392040989
 20
-1.0622598
 30
0.0
 11
-0.3639802392040989
 21
-1.141
 31
0.0
  0
LINE
  5
18B
330
127
100
AcDbEntity
  8
AM_9
100
AcDbLine
 10
-0.3708425752686562
 20
-1.0622598
 30
0.0
 11
-0.3708425752686562
 21
-1.141
 31
0.0
  0
LINE
  5
18C
330
127
100
AcDbEntity
  8
AM_9
100
AcDbLine
 10
-0.4544811044385766
 20
-1.0622598
 30
0.0
 11
-0.4544811044385766
 21
-1.141
 31
0.0
  0
LINE
  5
18D
330
127
100
AcDbEntity
  8
AM_9
100
AcDbLine
 10
-0.3795842536687256
 20
-1.0622598
 30
0.0
 11
-0.3795842536687256
 21
-1.141
 31
0.0
  0
LINE
  5
18E
330
127
100
AcDbEntity
  8
AM_9
100
AcDbLine
 10
-0.390206120472775
 20
-1.0622598
 30
0.0
 11
-0.390206120472775
 21
-1.141
 31
0.0
  0
LINE
  5
18F
330
127
100
AcDbEntity
  8
AM_9
100
AcDbLine
 10
-0.4027080817115424
 20
-1.0622598
 30
0.0
 11
-0.4027080817115424
 21
-1.141
 31
0.0
  0
LINE
  5
190
330
127
100
AcDbEntity
  8
AM_9
100
AcDbLine
 10
-0.3296700116041479
 20
-1.0622598
 30
0.0
 11
-0.4777173534324287
 21
-1.0622598
 31
0.0
  0
LINE
  5
191
330
127
100
AcDbEntity
  8
AM_9
100
AcDbLine
 10
-0.3545814249654307
 20
-1.0622598
 30
0.0
 11
-0.3545814249654307
 21
-1.141
 31
0.0
  0
LINE
  5
192
330
127
100
AcDbEntity
  8
AM_9
100
AcDbLine
 10
0.3540329835861238
 20
-1.0622598
 30
0.0
 11
0.3540329835861238
 21
-1.141
 31
0.0
  0
LINE
  5
193
330
127
100
AcDbEntity
  8
AM_9
100
AcDbLine
 10
0.2449464336407801
 20
-1.0622598
 30
0.0
 11
0.2449464336407801
 21
-1.141
 31
0.0
  0
LINE
  5
194
330
127
100
AcDbEntity
  8
AM_9
100
AcDbLine
 10
-0.2344488296506963
 20
-1.0622598
 30
0.0
 11
-0.2344488296506963
 21
-1.141
 31
0.0
  0
LINE
  5
195
330
127
100
AcDbEntity
  8
AM_9
100
AcDbLine
 10
-0.226860143814385
 20
-1.0622598
 30
0.0
 11
-0.226860143814385
 21
-1.141
 31
0.0
  0
LINE
  5
196
330
127
100
AcDbEntity
  8
AM_9
100
AcDbLine
 10
0.2344488296506963
 20
-1.0622598
 30
0.0
 11
0.2344488296506963
 21
-1.141
 31
0.0
  0
LINE
  5
197
330
127
100
AcDbEntity
  8
AM_9
100
AcDbLine
 10
-0.3643201259401994
 20
-1.0622598
 30
0.0
 11
-0.3643201259401994
 21
-1.141
 31
0.0
  0
LINE
  5
198
330
127
100
AcDbEntity
  8
AM_9
100
AcDbLine
 10
0.3359469892020546
 20
-1.0622598
 30
0.0
 11
0.3359469892020546
 21
-1.141
 31
0.0
  0
LINE
  5
199
330
127
100
AcDbEntity
  8
AM_9
100
AcDbLine
 10
0.3535480200582276
 20
-1.0622598
 30
0.0
 11
0.3535480200582276
 21
-1.141
 31
0.0
  0
LINE
  5
19A
330
127
100
AcDbEntity
  8
AM_9
100
AcDbLine
 10
0.2525351194770914
 20
-1.0622598
 30
0.0
 11
0.2525351194770914
 21
-1.141
 31
0.0
  0
LINE
  5
19B
330
127
100
AcDbEntity
  8
AM_9
100
AcDbLine
 10
-0.4086865938168752
 20
-1.0622598
 30
0.0
 11
-0.4086865938168752
 21
-1.141
 31
0.0
  0
LINE
  5
19C
330
127
100
AcDbEntity
  8
AM_9
100
AcDbLine
 10
-0.3798106854467986
 20
-1.0622598
 30
0.0
 11
-0.3798106854467986
 21
-1.141
 31
0.0
  0
LINE
  5
19D
330
127
100
AcDbEntity
  8
AM_9
100
AcDbLine
 10
0.3344501777428932
 20
-1.0622598
 30
0.0
 11
0.3344501777428932
 21
-1.141
 31
0.0
  0
LINE
  5
19E
330
127
100
AcDbEntity
  8
AM_9
100
AcDbLine
 10
-0.3933088573938116
 20
-1.0622598
 30
0.0
 11
-0.3933088573938116
 21
-1.141
 31
0.0
  0
LINE
  5
19F
330
127
100
AcDbEntity
  8
AM_9
100
AcDbLine
 10
0.2399927485265508
 20
-1.0622598
 30
0.0
 11
0.2399927485265508
 21
-1.141
 31
0.0
  0
LINE
  5
1A0
330
127
100
AcDbEntity
  8
AM_9
100
AcDbLine
 10
-0.2339640115126258
 20
-1.0622598
 30
0.0
 11
-0.2339640115126258
 21
-1.141
 31
0.0
  0
LINE
  5
1A1
330
127
100
AcDbEntity
  8
AM_9
100
AcDbLine
 10
-0.2163626383050765
 20
-1.0622598
 30
0.0
 11
-0.2163626383050765
 21
-1.141
 31
0.0
  0
LINE
  5
1A2
330
127
100
AcDbEntity
  8
AM_9
100
AcDbLine
 10
0.2575731322748594
 20
-1.0622598
 30
0.0
 11
0.2575731322748594
 21
-1.141
 31
0.0
  0
LINE
  5
1A3
330
127
100
AcDbEntity
  8
AM_9
100
AcDbLine
 10
0.3264189300013485
 20
-1.0622598
 30
0.0
 11
0.3264189300013485
 21
-1.141
 31
0.0
  0
LINE
  5
1A4
330
127
100
AcDbEntity
  8
AM_9
100
AcDbLine
 10
-0.1243712009584045
 20
-1.0622598
 30
0.0
 11
-0.1243712009584045
 21
-1.141
 31
0.0
  0
LINE
  5
1A5
330
127
100
AcDbEntity
  8
AM_9
100
AcDbLine
 10
0.3435147146006295
 20
-1.0622598
 30
0.0
 11
0.3435147146006295
 21
-1.141
 31
0.0
  0
LINE
  5
1A6
330
127
100
AcDbEntity
  8
AM_9
100
AcDbLine
 10
0.2651196134500585
 20
-1.0622598
 30
0.0
 11
0.2651196134500585
 21
-1.141
 31
0.0
  0
LINE
  5
1A7
330
127
100
AcDbEntity
  8
AM_9
100
AcDbLine
 10
0.2751745570541336
 20
-1.0622598
 30
0.0
 11
0.2751745570541336
 21
-1.141
 31
0.0
  0
LINE
  5
1A8
330
127
100
AcDbEntity
  8
AM_9
100
AcDbLine
 10
0.3148676440286156
 20
-1.0622598
 30
0.0
 11
0.3148676440286156
 21
-1.141
 31
0.0
  0
LINE
  5
1A9
330
127
100
AcDbEntity
  8
AM_9
100
AcDbLine
 10
0.28773806156786
 20
-1.0622598
 30
0.0
 11
0.28773806156786
 21
-1.141
 31
0.0
  0
LINE
  5
1AA
330
127
100
AcDbEntity
  8
AM_9
100
AcDbLine
 10
0.122435
 20
-1.0622598
 30
0.0
 11
0.122435
 21
-1.141
 31
0.0
  0
LINE
  5
1AB
330
127
100
AcDbEntity
  8
AM_9
100
AcDbLine
 10
-0.1138738924106466
 20
-1.0622598
 30
0.0
 11
-0.1138738924106466
 21
-1.141
 31
0.0
  0
LINE
  5
1AC
330
127
100
AcDbEntity
  8
AM_9
100
AcDbLine
 10
0.2480452109472387
 20
-1.0622598
 30
0.0
 11
0.2480452109472387
 21
-1.141
 31
0.0
  0
LINE
  5
1AD
330
127
100
AcDbEntity
  8
AM_9
100
AcDbLine
 10
-0.2153719534812296
 20
-1.0622598
 30
0.0
 11
-0.2153719534812296
 21
-1.141
 31
0.0
  0
LINE
  5
1AE
330
127
100
AcDbEntity
  8
AM_9
100
AcDbLine
 10
0.3324689703271145
 20
-1.0622598
 30
0.0
 11
0.3324689703271145
 21
-1.141
 31
0.0
  0
LINE
  5
1AF
330
127
100
AcDbEntity
  8
AM_9
100
AcDbLine
 10
-0.2299589408169986
 20
-1.0622598
 30
0.0
 11
-0.2299589408169986
 21
-1.141
 31
0.0
  0
LINE
  5
1B0
330
127
100
AcDbEntity
  8
AM_9
100
AcDbLine
 10
-0.1319598867947158
 20
-1.0622598
 30
0.0
 11
-0.1319598867947158
 21
-1.141
 31
0.0
  0
LINE
  5
1B1
330
127
100
AcDbEntity
  8
AM_9
100
AcDbLine
 10
0.10407
 20
-1.0622598
 30
0.0
 11
0.10407
 21
-1.141
 31
0.0
  0
LINE
  5
1B2
330
127
100
AcDbEntity
  8
AM_9
100
AcDbLine
 10
-0.2108608424516484
 20
-1.0622598
 30
0.0
 11
-0.2108608424516484
 21
-1.141
 31
0.0
  0
LINE
  5
1B3
330
127
100
AcDbEntity
  8
AM_9
100
AcDbLine
 10
0.3179030141742335
 20
-1.0622598
 30
0.0
 11
0.3179030141742335
 21
-1.141
 31
0.0
  0
LINE
  5
1B4
330
127
100
AcDbEntity
  8
AM_9
100
AcDbLine
 10
0.262126361141464
 20
-1.0622598
 30
0.0
 11
0.262126361141464
 21
-1.141
 31
0.0
  0
LINE
  5
1B5
330
127
100
AcDbEntity
  8
AM_9
100
AcDbLine
 10
-0.1194179393115089
 20
-1.0622598
 30
0.0
 11
-0.1194179393115089
 21
-1.141
 31
0.0
  0
LINE
  5
1B6
330
127
100
AcDbEntity
  8
AM_9
100
AcDbLine
 10
0.119374
 20
-1.0622598
 30
0.0
 11
0.119374
 21
-1.141
 31
0.0
  0
LINE
  5
1B7
330
127
100
AcDbEntity
  8
AM_9
100
AcDbLine
 10
-0.1369980965540344
 20
-1.0622598
 30
0.0
 11
-0.1369980965540344
 21
-1.141
 31
0.0
  0
LINE
  5
1B8
330
127
100
AcDbEntity
  8
AM_9
100
AcDbLine
 10
-0.2028295947101037
 20
-1.0622598
 30
0.0
 11
-0.2028295947101037
 21
-1.141
 31
0.0
  0
LINE
  5
1B9
330
127
100
AcDbEntity
  8
AM_9
100
AcDbLine
 10
0.3535480200582276
 20
-1.0622598
 30
0.0
 11
0.226860143814385
 21
-1.0622598
 31
0.0
  0
LINE
  5
1BA
330
127
100
AcDbEntity
  8
AM_9
100
AcDbLine
 10
0.2907734317134779
 20
-1.0622598
 30
0.0
 11
0.2907734317134779
 21
-1.141
 31
0.0
  0
LINE
  5
1BB
330
127
100
AcDbEntity
  8
AM_9
100
AcDbLine
 10
-0.1445447746907841
 20
-1.0622598
 30
0.0
 11
-0.1445447746907841
 21
-1.141
 31
0.0
  0
LINE
  5
1BC
330
127
100
AcDbEntity
  8
AM_9
100
AcDbLine
 10
-0.2199251823478342
 20
-1.0622598
 30
0.0
 11
-0.2199251823478342
 21
-1.141
 31
0.0
  0
LINE
  5
1BD
330
127
100
AcDbEntity
  8
AM_9
100
AcDbLine
 10
-0.1912781117758202
 20
-1.0622598
 30
0.0
 11
-0.1912781117758202
 21
-1.141
 31
0.0
  0
LINE
  5
1BE
330
127
100
AcDbEntity
  8
AM_9
100
AcDbLine
 10
-0.1671631243278103
 20
-1.0622598
 30
0.0
 11
-0.1671631243278103
 21
-1.141
 31
0.0
  0
LINE
  5
1BF
330
127
100
AcDbEntity
  8
AM_9
100
AcDbLine
 10
-0.1274706282379801
 20
-1.0622598
 30
0.0
 11
-0.1274706282379801
 21
-1.141
 31
0.0
  0
LINE
  5
1C0
330
127
100
AcDbEntity
  8
AM_9
100
AcDbLine
 10
0.0948874
 20
-1.0622598
 30
0.0
 11
0.0948874
 21
-1.141
 31
0.0
  0
LINE
  5
1C1
330
127
100
AcDbEntity
  8
AM_9
100
AcDbLine
 10
0.113252
 20
-1.0622598
 30
0.0
 11
0.113252
 21
-1.141
 31
0.0
  0
LINE
  5
1C2
330
127
100
AcDbEntity
  8
AM_9
100
AcDbLine
 10
-0.2088794380743191
 20
-1.0622598
 30
0.0
 11
-0.2088794380743191
 21
-1.141
 31
0.0
  0
LINE
  5
1C3
330
127
100
AcDbEntity
  8
AM_9
100
AcDbLine
 10
0.0183653
 20
-1.0622598
 30
0.0
 11
0.0183653
 21
-1.141
 31
0.0
  0
LINE
  5
1C4
330
127
100
AcDbEntity
  8
AM_9
100
AcDbLine
 10
0.0857047
 20
-1.0622598
 30
0.0
 11
0.0857047
 21
-1.141
 31
0.0
  0
LINE
  5
1C5
330
127
100
AcDbEntity
  8
AM_9
100
AcDbLine
 10
-0.1943134819214382
 20
-1.0622598
 30
0.0
 11
-0.1943134819214382
 21
-1.141
 31
0.0
  0
LINE
  5
1C6
330
127
100
AcDbEntity
  8
AM_9
100
AcDbLine
 10
-0.141551325420639
 20
-1.0622598
 30
0.0
 11
-0.141551325420639
 21
-1.141
 31
0.0
  0
LINE
  5
1C7
330
127
100
AcDbEntity
  8
AM_9
100
AcDbLine
 10
0.101009
 20
-1.0622598
 30
0.0
 11
0.101009
 21
-1.141
 31
0.0
  0
LINE
  5
1C8
330
127
100
AcDbEntity
  8
AM_9
100
AcDbLine
 10
-0.1546207655566844
 20
-1.0622598
 30
0.0
 11
-0.1546207655566844
 21
-1.141
 31
0.0
  0
LINE
  5
1C9
330
127
100
AcDbEntity
  8
AM_9
100
AcDbLine
 10
-0.1701984944734282
 20
-1.0622598
 30
0.0
 11
-0.1701984944734282
 21
-1.141
 31
0.0
  0
LINE
  5
1CA
330
127
100
AcDbEntity
  8
AM_9
100
AcDbLine
 10
-0.1062852065743353
 20
-1.0622598
 30
0.0
 11
-0.2339640115126258
 21
-1.0622598
 31
0.0
  0
LINE
  5
1CB
330
127
100
AcDbEntity
  8
AM_9
100
AcDbLine
 10
0.0887654
 20
-1.0622598
 30
0.0
 11
0.0887654
 21
-1.141
 31
0.0
  0
LINE
  5
1CC
330
127
100
AcDbEntity
  8
AM_9
100
AcDbLine
 10
0.0
 20
-1.0622598
 30
0.0
 11
0.0
 21
-1.141
 31
0.0
  0
LINE
  5
1CD
330
127
100
AcDbEntity
  8
AM_9
100
AcDbLine
 10
0.073461
 20
-1.0622598
 30
0.0
 11
0.073461
 21
-1.141
 31
0.0
  0
LINE
  5
1CE
330
127
100
AcDbEntity
  8
AM_9
100
AcDbLine
 10
0.122435
 20
-1.0622598
 30
0.0
 11
0.0
 21
-1.0622598
 31
0.0
  0
LINE
  5
1CF
330
127
100
AcDbEntity
  8
AM_9
100
AcDbLine
 10
-1.547583873056908
 20
-0.359
 30
0.0
 11
-1.547583873056908
 21
0.0
 31
0.0
  0
LINE
  5
1D0
330
127
100
AcDbEntity
  8
AM_9
100
AcDbLine
 10
1.54758387688035
 20
-0.359
 30
0.0
 11
1.54758387688035
 21
0.0
 31
0.0
  0
LINE
  5
1D1
330
127
100
AcDbEntity
  8
AM_9
100
AcDbLine
 10
1.64125
 20
-0.359
 30
0.0
 11
1.64125
 21
0.0
 31
0.0
  0
LINE
  5
1D2
330
127
100
AcDbEntity
  8
AM_9
100
AcDbLine
 10
-1.64125
 20
0.0
 30
0.0
 11
-1.64125
 21
-0.359
 31
0.0
  0
LINE
  5
1D3
330
127
100
AcDbEntity
  8
AM_9
100
AcDbLine
 10
0.3790426320689992
 20
-1.0819449
 30
0.0
 11
-0.379042632068924
 21
-1.0819449
 31
0.0
  0
LINE
  5
1D4
330
127
100
AcDbEntity
  8
AM_9
100
AcDbLine
 10
1.8125
 20
-0.3589999999999999
 30
0.0
 11
1.8125
 21
0.0000000000000001
 31
0.0
  0
LINE
  5
1D5
330
127
100
AcDbEntity
  8
AM_9
100
AcDbLine
 10
1.4375
 20
0.0000000000000001
 30
0.0
 11
1.4375
 21
-0.3589999999999999
 31
0.0
  0
LINE
  5
1D6
330
127
100
AcDbEntity
  8
AM_9
100
AcDbLine
 10
-1.4375
 20
-0.3589999999999999
 30
0.0
 11
-1.4375
 21
0.0000000000000001
 31
0.0
  0
LINE
  5
1D7
330
127
100
AcDbEntity
  8
AM_9
100
AcDbLine
 10
-1.8125
 20
0.0000000000000001
 30
0.0
 11
-1.8125
 21
-0.3589999999999999
 31
0.0
  0
CIRCLE
  5
1D8
330
127
100
AcDbEntity
  8
AM_9
100
AcDbCircle
 10
0.0
 20
-0.8557507245346085
 30
0.0
 40
0.0787401999999299
  0
CIRCLE
  5
1D9
330
127
100
AcDbEntity
  8
AM_9
100
AcDbCircle
 10
0.0
 20
-0.8557507245346085
 30
0.0
 40
0.1003135057405819
  0
LINE
  5
1DA
330
127
100
AcDbEntity
  8
AM_9
100
AcDbLine
 10
1.996075876062913
 20
-0.3589999999999999
 30
0.0
 11
1.996075876062913
 21
0.0000000000000001
 31
0.0
  0
LINE
  5
1DB
330
127
100
AcDbEntity
  8
AM_9
100
AcDbLine
 10
-1.996075876062913
 20
-0.3589999999999999
 30
0.0
 11
-1.996075876062913
 21
0.0000000000000001
 31
0.0
  0
LINE
  5
1DC
330
127
100
AcDbEntity
  8
AM_7
100
AcDbLine
 10
-0.165354
 20
-0.8557507245346085
 30
0.0
 11
0.165354
 21
-0.8557507245346085
 31
0.0
  0
LINE
  5
1DD
330
127
100
AcDbEntity
  8
AM_7
100
AcDbLine
 10
1.625
 20
0.0179500000000001
 30
0.0
 11
1.625
 21
-0.37695
 31
0.0
  0
LINE
  5
1DE
330
127
100
AcDbEntity
  8
AM_7
100
AcDbLine
 10
-1.625
 20
0.0179499999999999
 30
0.0
 11
-1.625
 21
-0.3769500000000001
 31
0.0
  0
LINE
  5
1DF
330
127
100
AcDbEntity
  8
AM_7
100
AcDbLine
 10
0.0
 20
0.05705
 30
0.0
 11
0.0000000000000001
 21
-1.81484375
 31
0.0
  0
LINE
  5
1E0
330
127
100
AcDbEntity
  8
AM_4
100
AcDbLine
 10
0.3790426320689992
 20
-1.081944900000032
 30
0.0
 11
0.379042632068924
 21
0.0000000000000001
 31
0.0
  0
LINE
  5
1E1
330
127
100
AcDbEntity
  8
AM_4
100
AcDbLine
 10
-0.379042632068924
 20
0.0000000000000001
 30
0.0
 11
-0.379042632068924
 21
-1.0819449
 31
0.0
  0
LINE
  5
1E2
330
127
100
AcDbEntity
  8
AM_4
100
AcDbLine
 10
-0.5465214602556676
 20
-0.3589999999999999
 30
0.0
 11
-0.546521460255667
 21
0.0000000000000001
 31
0.0
  0
LINE
  5
1E3
330
127
100
AcDbEntity
  8
AM_4
100
AcDbLine
 10
0.546521466339822
 20
-0.3589999999999999
 30
0.0
 11
0.546521466339822
 21
0.0000000000000001
 31
0.0
  0
LINE
  5
1E4
330
127
100
AcDbEntity
  8
AM_4
100
AcDbLine
 10
1.64125
 20
-1.0819449
 30
0.0
 11
1.64125
 21
-0.359
 31
0.0
  0
LINE
  5
1E5
330
127
100
AcDbEntity
  8
AM_4
100
AcDbLine
 10
-1.64125
 20
-0.359
 30
0.0
 11
-1.64125
 21
-1.0819449
 31
0.0
  0
LINE
  5
1E6
330
127
100
AcDbEntity
  8
AM_4
100
AcDbLine
 10
-1.582194899999999
 20
-1.141
 30
0.0
 11
1.582194899999681
 21
-1.141
 31
0.0
  0
LWPOLYLINE
  5
1E7
330
127
100
AcDbEntity
  8
AM_4
100
AcDbPolyline
 90
       28
 70
     0
 43
0.0
 10
0.3790426320689992
 20
-1.081944900000032
 10
0.3789648669045284
 20
-1.083401159605283
 10
0.3777244247449172
 20
-1.087928670133051
 10
0.3738369648902836
 20
-1.093762089481291
 10
0.363710368877854
 20
-1.101898240592087
 10
0.3546641658971815
 20
-1.106741548263154
 10
0.3451044692301379
 20
-1.110754785562032
 10
0.324973363650284
 20
-1.117145811891038
 10
0.3028224139187489
 20
-1.122280655049218
 10
0.2804129299961873
 20
-1.126185007270045
 10
0.2348957151606552
 20
-1.131662430025351
 10
0.188704293128692
 20
-1.13506764426552
 10
0.1423877773105913
 20
-1.137131903128363
 10
0.0712133521238542
 20
-1.138713682941169
 10
0.0
 20
-1.139144808918876
 10
-0.1181101999999998
 20
-1.137843783640038
 10
-0.1678994510926231
 20
-1.136127974725255
 10
-0.2176565311724838
 20
-1.133132218075821
 10
-0.2674591942859155
 20
-1.128028988830019
 10
-0.2923336889207296
 20
-1.12424316473493
 10
-0.3169705077463398
 20
-1.119176251524166
 10
-0.3409291064960691
 20
-1.112270611898627
 10
-0.3526972794354625
 20
-1.107640909533634
 10
-0.3640117353468054
 20
-1.101710744201402
 10
-0.3709051549201882
 20
-1.096650325348899
 10
-0.3765506322762534
 20
-1.090156730037617
 10
-0.3786121840673652
 20
-1.085369116400867
 10
-0.379042632068924
 20
-1.0819449
  0
LINE
  5
1E8
330
127
100
AcDbEntity
  8
AM_4
100
AcDbLine
 10
0.3790426320689992
 20
-1.081944900000032
 30
0.0
 11
1.64125
 21
-1.0819449
 31
0.0
  0
ARC
  5
1E9
330
127
100
AcDbEntity
  8
AM_4
100
AcDbCircle
 10
1.5821949
 20
-1.0819449
 30
0.0
 40
0.0590550999999999
100
AcDbArc
 50
270.0
 51
0.0
  0
ARC
  5
1EA
330
127
100
AcDbEntity
  8
AM_4
100
AcDbCircle
 10
-1.5821949
 20
-1.0819449
 30
0.0
 40
0.0590551000000001
100
AcDbArc
 50
180.0
 51
270.0
  0
LINE
  5
1EB
330
127
100
AcDbEntity
  8
AM_4
100
AcDbLine
 10
-1.64125
 20
-1.0819449
 30
0.0
 11
-0.379042632068924
 21
-1.0819449
 31
0.0
  0
LINE
  5
1EC
330
127
100
AcDbEntity
  8
AM_4
100
AcDbLine
 10
0.0909214090671169
 20
-0.6982702245346085
 30
0.0
 11
-0.0909214090671168
 21
-0.6982702245346085
 31
0.0
  0
LINE
  5
1ED
330
127
100
AcDbEntity
  8
AM_4
100
AcDbLine
 10
-0.0909214090671168
 20
-0.6982702245346085
 30
0.0
 11
-0.1818428181342336
 21
-0.8557507245346085
 31
0.0
  0
LINE
  5
1EE
330
127
100
AcDbEntity
  8
AM_4
100
AcDbLine
 10
-0.1818428181342336
 20
-0.8557507245346085
 30
0.0
 11
-0.0909214090671168
 21
-1.013231224534609
 31
0.0
  0
LINE
  5
1EF
330
127
100
AcDbEntity
  8
AM_4
100
AcDbLine
 10
-0.0909214090671168
 20
-1.013231224534609
 30
0.0
 11
0.0909214090671169
 21
-1.013231224534609
 31
0.0
  0
LINE
  5
1F0
330
127
100
AcDbEntity
  8
AM_4
100
AcDbLine
 10
0.0909214090671169
 20
-1.013231224534609
 30
0.0
 11
0.1818428181342338
 21
-0.8557507245346085
 31
0.0
  0
LINE
  5
1F1
330
127
100
AcDbEntity
  8
AM_4
100
AcDbLine
 10
0.1818428181342338
 20
-0.8557507245346085
 30
0.0
 11
0.0909214090671169
 21
-0.6982702245346085
 31
0.0
  0
CIRCLE
  5
1F2
330
127
100
AcDbEntity
  8
AM_4
100
AcDbCircle
 10
0.0
 20
-0.8557507245346085
 30
0.0
 40
0.15748
  0
CIRCLE
  5
1F3
330
127
100
AcDbEntity
  8
AM_4
100
AcDbCircle
 10
0.0
 20
-0.8557507245346085
 30
0.0
 40
0.110236
  0
CIRCLE
  5
1F4
330
127
100
AcDbEntity
  8
AM_4
100
AcDbCircle
 10
0.0
 20
-0.8557507245346085
 30
0.0
 40
0.1062853497006251
  0
CIRCLE
  5
1F5
330
127
100
AcDbEntity
  8
AM_4
100
AcDbCircle
 10
0.0
 20
-0.8557507245346085
 30
0.0
 40
0.1048774357720922
  0
CIRCLE
  5
1F6
330
127
100
AcDbEntity
  8
AM_4
100
AcDbCircle
 10
0.0
 20
-0.8557507245346085
 30
0.0
 40
0.0836898482231383
  0
CIRCLE
  5
1F7
330
127
100
AcDbEntity
  8
AM_4
100
AcDbCircle
 10
0.0
 20
-0.8557507245346085
 30
0.0
 40
0.0654127621516711
  0
LINE
  5
1F8
330
127
100
AcDbEntity
  8
AM_4
100
AcDbLine
 10
0.7678055030440806
 20
-0.3589999999999999
 30
0.0
 11
0.7678055030440806
 21
0.0000000000000001
 31
0.0
  0
LINE
  5
1F9
330
127
100
AcDbEntity
  8
AM_4
100
AcDbLine
 10
-0.76780550304408
 20
-0.3589999999999999
 30
0.0
 11
-0.76780550304408
 21
0.0000000000000001
 31
0.0
  0
LINE
  5
1FA
330
127
100
AcDbEntity
  8
AM_4
100
AcDbLine
 10
1.365169874332977
 20
-0.3589999999999998
 30
0.0
 11
1.365169874332977
 21
0.0000000000000001
 31
0.0
  0
LINE
  5
1FB
330
127
100
AcDbEntity
  8
AM_4
100
AcDbLine
 10
2.077999999999999
 20
-0.3589999999999999
 30
0.0
 11
2.077999999999999
 21
0.0000000000000001
 31
0.0
  0
LINE
  5
1FC
330
127
100
AcDbEntity
  8
AM_4
100
AcDbLine
 10
2.077999999999999
 20
-0.3589999999999999
 30
0.0
 11
0.546521466339822
 21
-0.3589999999999999
 31
0.0
  0
LINE
  5
1FD
330
127
100
AcDbEntity
  8
AM_4
100
AcDbLine
 10
2.077999999999999
 20
0.0000000000000001
 30
0.0
 11
-2.077999999999999
 21
0.0000000000000001
 31
0.0
  0
LINE
  5
1FE
330
127
100
AcDbEntity
  8
AM_4
100
AcDbLine
 10
-0.5465214602556676
 20
-0.3589999999999999
 30
0.0
 11
-2.077999999999999
 21
-0.3589999999999999
 31
0.0
  0
LINE
  5
1FF
330
127
100
AcDbEntity
  8
AM_4
100
AcDbLine
 10
-1.365169874332976
 20
-0.3589999999999998
 30
0.0
 11
-1.365169874332976
 21
0.0000000000000001
 31
0.0
  0
LINE
  5
200
330
127
100
AcDbEntity
  8
AM_4
100
AcDbLine
 10
-2.077999999999999
 20
0.0000000000000001
 30
0.0
 11
-2.077999999999999
 21
-0.3589999999999999
 31
0.0
  0
ENDBLK
  5
12A
330
127
100
AcDbEntity
  8
0
100
AcDbBlockEnd
  0
ENDSEC
  0
SECTION
  2
ENTITIES
  0
INSERT
  5
6F
330
1F
100
AcDbEntity
  8
0
100
AcDbBlockReference
  2
1_129726_4
 10
0.0
 20
0.0
 30
0.0
  0
POINT
  5
202
330
1F
100
AcDbEntity
  8
ConnectionPoints
100
AcDbPoint
 10
0.0000000000000001
 20
-0.65625
 30
0.0
  0
POINT
  5
203
330
1F
100
AcDbEntity
  8
ConnectionPoints
100
AcDbPoint
 10
0.0000000000000001
 20
-0.125
 30
0.0
  0
POINT
  5
204
330
1F
100
AcDbEntity
  8
ConnectionPoints
100
AcDbPoint
 10
0.0
 20
-0.125
 30
0.0
  0
POINT
  5
205
330
1F
100
AcDbEntity
  8
ConnectionPoints
100
AcDbPoint
 10
0.0
 20
-0.125
 30
0.0
  0
ENDSEC
  0
SECTION
  2
OBJECTS
  0
DICTIONARY
  5
C
330
0
100
AcDbDictionary
281
     1
  3
ACAD_DETAILVIEWSTYLE
350
20D
  3
ACAD_GROUP
350
D
  3
ACAD_LAYOUT
350
1A
  3
ACAD_MATERIAL
350
43
  3
ACAD_MLEADERSTYLE
350
6B
  3
ACAD_MLINESTYLE
350
17
  3
ACAD_PLOTSETTINGS
350
19
  3
ACAD_PLOTSTYLENAME
350
E
  3
ACAD_SCALELIST
350
47
  3
ACAD_SECTIONVIEWSTYLE
350
20E
  3
ACAD_TABLESTYLE
350
69
  3
ACAD_VISUALSTYLE
350
2A
  3
ACDB_RECOMPOSE_DATA
350
20A
  3
AcDbVariableDictionary
350
206
  0
SUN
  5
6D
330
29
100
AcDbSun
 90
        1
290
     0
 63
     7
421
 16777215
 40
1.0
291
     1
 91
  2455826
 92
 54000000
292
     0
 70
     2
 71
   256
280
     1
  0
DICTIONARY
  5
20D
102
{ACAD_REACTORS
330
C
102
}
330
C
100
AcDbDictionary
281
     1
  0
DICTIONARY
  5
D
102
{ACAD_REACTORS
330
C
102
}
330
C
100
AcDbDictionary
281
     1
  0
DICTIONARY
  5
1A
102
{ACAD_REACTORS
330
C
102
}
330
C
100
AcDbDictionary
281
     1
  3
Layout1
350
1E
  3
Layout2
350
26
  3
Model
350
22
  0
DICTIONARY
  5
43
102
{ACAD_REACTORS
330
C
102
}
330
C
100
AcDbDictionary
281
     1
  3
ByBlock
350
45
  3
ByLayer
350
44
  3
Global
350
46
  0
DICTIONARY
  5
6B
102
{ACAD_REACTORS
330
C
102
}
330
C
100
AcDbDictionary
281
     1
  3
Standard
350
6C
  0
DICTIONARY
  5
17
102
{ACAD_REACTORS
330
C
102
}
330
C
100
AcDbDictionary
281
     1
  3
Standard
350
18
  0
DICTIONARY
  5
19
102
{ACAD_REACTORS
330
C
102
}
330
C
100
AcDbDictionary
281
     1
  0
ACDBDICTIONARYWDFLT
  5
E
102
{ACAD_REACTORS
330
C
102
}
330
C
100
AcDbDictionary
281
     1
  3
Normal
350
F
100
AcDbDictionaryWithDefault
340
F
  0
DICTIONARY
  5
47
102
{ACAD_REACTORS
330
C
102
}
330
C
100
AcDbDictionary
281
     1
  3
A0
350
48
  3
A1
350
49
  3
A2
350
4A
  3
A3
350
4B
  3
A4
350
4C
  3
A5
350
4D
  3
A6
350
4E
  3
A7
350
4F
  3
A8
350
50
  3
A9
350
51
  3
B0
350
52
  3
B1
350
53
  3
B2
350
54
  3
B3
350
55
  3
B4
350
56
  3
B5
350
57
  3
B6
350
58
  3
B7
350
59
  3
B8
350
5A
  3
B9
350
5B
  3
C0
350
5C
  3
C1
350
5D
  3
C2
350
5E
  3
C3
350
5F
  3
C4
350
60
  3
C5
350
61
  3
C6
350
62
  3
C7
350
63
  3
C8
350
64
  3
C9
350
65
  3
D0
350
66
  3
D1
350
67
  3
D2
350
68
  0
DICTIONARY
  5
20E
102
{ACAD_REACTORS
330
C
102
}
330
C
100
AcDbDictionary
281
     1
  0
DICTIONARY
  5
69
102
{ACAD_REACTORS
330
C
102
}
330
C
100
AcDbDictionary
281
     1
  3
Standard
350
6A
  0
DICTIONARY
  5
2A
102
{ACAD_REACTORS
330
C
102
}
330
C
100
AcDbDictionary
281
     1
  3
2dWireframe
350
2F
  3
Basic
350
32
  3
Brighten
350
36
  3
ColorChange
350
3A
  3
Conceptual
350
34
  3
Dim
350
35
  3
EdgeColorOff
350
3D
  3
Facepattern
350
39
  3
Flat
350
2B
  3
FlatWithEdges
350
2C
  3
Gouraud
350
2D
  3
GouraudWithEdges
350
2E
  3
Hidden
350
31
  3
JitterOff
350
3B
  3
Linepattern
350
38
  3
OverhangOff
350
3C
  3
Realistic
350
33
  3
Shaded
350
42
  3
Shaded with edges
350
41
  3
Shades of Gray
350
3E
  3
Sketchy
350
3F
  3
Thicken
350
37
  3
Wireframe
350
30
  3
X-Ray
350
40
  0
XRECORD
  5
20A
102
{ACAD_REACTORS
330
C
102
}
330
C
100
AcDbXrecord
280
     1
 90
        1
330
6A
  0
DICTIONARY
  5
206
102
{ACAD_REACTORS
330
C
102
}
330
C
100
AcDbDictionary
281
     1
  3
CANNOSCALE
350
207
  3
CMLEADERSTYLE
350
20C
  3
CTABLESTYLE
350
20B
  0
LAYOUT
  5
1E
102
{ACAD_REACTORS
330
1A
102
}
330
1A
100
AcDbPlotSettings
  1

  2
none_device
  4

  6

 40
0.0
 41
0.0
 42
0.0
 43
0.0
 44
0.0
 45
0.0
 46
0.0
 47
0.0
 48
0.0
 49
0.0
140
0.0
141
0.0
142
1.0
143
1.0
 70
   688
 72
     0
 73
     0
 74
     5
  7

 75
    16
 76
     0
 77
     2
 78
   300
147
1.0
148
0.0
149
0.0
100
AcDbLayout
  1
Layout1
 70
     1
 71
     1
 10
0.0
 20
0.0
 11
12.0
 21
9.0
 12
0.0
 22
0.0
 32
0.0
 14
1.000000000000000E+20
 24
1.000000000000000E+20
 34
1.000000000000000E+20
 15
-1.000000000000000E+20
 25
-1.000000000000000E+20
 35
-1.000000000000000E+20
146
0.0
 13
0.0
 23
0.0
 33
0.0
 16
1.0
 26
0.0
 36
0.0
 17
0.0
 27
1.0
 37
0.0
 76
     0
330
1B
  0
LAYOUT
  5
26
102
{ACAD_REACTORS
330
1A
102
}
330
1A
100
AcDbPlotSettings
  1

  2
none_device
  4

  6

 40
0.0
 41
0.0
 42
0.0
 43
0.0
 44
0.0
 45
0.0
 46
0.0
 47
0.0
 48
0.0
 49
0.0
140
0.0
141
0.0
142
1.0
143
1.0
 70
   688
 72
     0
 73
     0
 74
     5
  7

 75
    16
 76
     0
 77
     2
 78
   300
147
1.0
148
0.0
149
0.0
100
AcDbLayout
  1
Layout2
 70
     1
 71
     2
 10
0.0
 20
0.0
 11
0.0
 21
0.0
 12
0.0
 22
0.0
 32
0.0
 14
0.0
 24
0.0
 34
0.0
 15
0.0
 25
0.0
 35
0.0
146
0.0
 13
0.0
 23
0.0
 33
0.0
 16
1.0
 26
0.0
 36
0.0
 17
0.0
 27
1.0
 37
0.0
 76
     0
330
23
  0
LAYOUT
  5
22
102
{ACAD_REACTORS
330
1A
102
}
330
1A
100
AcDbPlotSettings
  1

  2
none_device
  4
Letter_(8.50_x_11.00_Inches)
  6

 40
6.35
 41
6.35
 42
6.35000508
 43
6.35000508
 44
215.9
 45
279.4
 46
0.0
 47
0.0
 48
0.0
 49
0.0
140
0.0
141
0.0
142
1.0
143
1.0
 70
  1712
 72
     0
 73
     0
 74
     0
  7

 75
     0
 76
     0
 77
     2
 78
   300
147
1.0
148
0.0
149
0.0
100
AcDbLayout
  1
Model
 70
     1
 71
     0
 10
0.0
 20
0.0
 11
12.0
 21
9.0
 12
0.0
 22
0.0
 32
0.0
 14
1.000000000000000E+20
 24
1.000000000000000E+20
 34
1.000000000000000E+20
 15
-1.000000000000000E+20
 25
-1.000000000000000E+20
 35
-1.000000000000000E+20
146
0.0
 13
0.0
 23
0.0
 33
0.0
 16
1.0
 26
0.0
 36
0.0
 17
0.0
 27
1.0
 37
0.0
 76
     0
330
1F
331
29
  0
MATERIAL
  5
45
102
{ACAD_REACTORS
330
43
102
}
330
43
100
AcDbMaterial
  1
ByBlock
 72
     1
 94
      127
  0
MATERIAL
  5
44
102
{ACAD_REACTORS
330
43
102
}
330
43
100
AcDbMaterial
  1
ByLayer
 72
     1
 94
      127
  0
MATERIAL
  5
46
102
{ACAD_REACTORS
330
43
102
}
330
43
100
AcDbMaterial
  1
Global
 72
     1
 94
      127
  0
MLEADERSTYLE
  5
6C
102
{ACAD_REACTORS
330
6B
102
}
330
6B
100
AcDbMLeaderStyle
179
     2
170
     2
171
     1
172
     0
 90
        2
 40
0.0
 41
0.0
173
     1
 91
-1056964608
340
14
 92
       -2
290
     1
 42
0.09
291
     1
 43
0.36
  3
Standard
341
0
 44
0.18
300

342
11
174
     1
178
     6
175
     1
176
     0
 93
-1056964608
 45
0.18
292
     0
297
     0
 46
0.18
343
0
 94
-1056964608
 47
1.0
 49
1.0
140
1.0
293
     1
141
0.0
294
     1
177
     0
142
1.0
295
     0
296
     0
143
0.125
271
     0
272
     9
273
     9
298
     0
  0
MLINESTYLE
  5
18
102
{ACAD_REACTORS
330
17
102
}
330
17
100
AcDbMlineStyle
  2
Standard
 70
     0
  3

 62
   256
 51
90.0
 52
90.0
 71
     2
 49
0.5
 62
   256
  6
BYLAYER
 49
-0.5
 62
   256
  6
BYLAYER
  0
ACDBPLACEHOLDER
  5
F
102
{ACAD_REACTORS
330
E
102
}
330
E
  0
SCALE
  5
48
102
{ACAD_REACTORS
330
47
102
}
330
47
100
AcDbScale
 70
     0
300
1:1
140
1.0
141
1.0
290
     1
  0
SCALE
  5
49
102
{ACAD_REACTORS
330
47
102
}
330
47
100
AcDbScale
 70
     0
300
1:2
140
1.0
141
2.0
290
     0
  0
SCALE
  5
4A
102
{ACAD_REACTORS
330
47
102
}
330
47
100
AcDbScale
 70
     0
300
1:4
140
1.0
141
4.0
290
     0
  0
SCALE
  5
4B
102
{ACAD_REACTORS
330
47
102
}
330
47
100
AcDbScale
 70
     0
300
1:5
140
1.0
141
5.0
290
     0
  0
SCALE
  5
4C
102
{ACAD_REACTORS
330
47
102
}
330
47
100
AcDbScale
 70
     0
300
1:8
140
1.0
141
8.0
290
     0
  0
SCALE
  5
4D
102
{ACAD_REACTORS
330
47
102
}
330
47
100
AcDbScale
 70
     0
300
1:10
140
1.0
141
10.0
290
     0
  0
SCALE
  5
4E
102
{ACAD_REACTORS
330
47
102
}
330
47
100
AcDbScale
 70
     0
300
1:16
140
1.0
141
16.0
290
     0
  0
SCALE
  5
4F
102
{ACAD_REACTORS
330
47
102
}
330
47
100
AcDbScale
 70
     0
300
1:20
140
1.0
141
20.0
290
     0
  0
SCALE
  5
50
102
{ACAD_REACTORS
330
47
102
}
330
47
100
AcDbScale
 70
     0
300
1:30
140
1.0
141
30.0
290
     0
  0
SCALE
  5
51
102
{ACAD_REACTORS
330
47
102
}
330
47
100
AcDbScale
 70
     0
300
1:40
140
1.0
141
40.0
290
     0
  0
SCALE
  5
52
102
{ACAD_REACTORS
330
47
102
}
330
47
100
AcDbScale
 70
     0
300
1:50
140
1.0
141
50.0
290
     0
  0
SCALE
  5
53
102
{ACAD_REACTORS
330
47
102
}
330
47
100
AcDbScale
 70
     0
300
1:100
140
1.0
141
100.0
290
     0
  0
SCALE
  5
54
102
{ACAD_REACTORS
330
47
102
}
330
47
100
AcDbScale
 70
     0
300
2:1
140
2.0
141
1.0
290
     0
  0
SCALE
  5
55
102
{ACAD_REACTORS
330
47
102
}
330
47
100
AcDbScale
 70
     0
300
4:1
140
4.0
141
1.0
290
     0
  0
SCALE
  5
56
102
{ACAD_REACTORS
330
47
102
}
330
47
100
AcDbScale
 70
     0
300
8:1
140
8.0
141
1.0
290
     0
  0
SCALE
  5
57
102
{ACAD_REACTORS
330
47
102
}
330
47
100
AcDbScale
 70
     0
300
10:1
140
10.0
141
1.0
290
     0
  0
SCALE
  5
58
102
{ACAD_REACTORS
330
47
102
}
330
47
100
AcDbScale
 70
     0
300
100:1
140
100.0
141
1.0
290
     0
  0
SCALE
  5
59
102
{ACAD_REACTORS
330
47
102
}
330
47
100
AcDbScale
 70
     0
300
1/128" = 1'-0"
140
0.0078125
141
12.0
290
     0
  0
SCALE
  5
5A
102
{ACAD_REACTORS
330
47
102
}
330
47
100
AcDbScale
 70
     0
300
1/64" = 1'-0"
140
0.015625
141
12.0
290
     0
  0
SCALE
  5
5B
102
{ACAD_REACTORS
330
47
102
}
330
47
100
AcDbScale
 70
     0
300
1/32" = 1'-0"
140
0.03125
141
12.0
290
     0
  0
SCALE
  5
5C
102
{ACAD_REACTORS
330
47
102
}
330
47
100
AcDbScale
 70
     0
300
1/16" = 1'-0"
140
0.0625
141
12.0
290
     0
  0
SCALE
  5
5D
102
{ACAD_REACTORS
330
47
102
}
330
47
100
AcDbScale
 70
     0
300
3/32" = 1'-0"
140
0.09375
141
12.0
290
     0
  0
SCALE
  5
5E
102
{ACAD_REACTORS
330
47
102
}
330
47
100
AcDbScale
 70
     0
300
1/8" = 1'-0"
140
0.125
141
12.0
290
     0
  0
SCALE
  5
5F
102
{ACAD_REACTORS
330
47
102
}
330
47
100
AcDbScale
 70
     0
300
3/16" = 1'-0"
140
0.1875
141
12.0
290
     0
  0
SCALE
  5
60
102
{ACAD_REACTORS
330
47
102
}
330
47
100
AcDbScale
 70
     0
300
1/4" = 1'-0"
140
0.25
141
12.0
290
     0
  0
SCALE
  5
61
102
{ACAD_REACTORS
330
47
102
}
330
47
100
AcDbScale
 70
     0
300
3/8" = 1'-0"
140
0.375
141
12.0
290
     0
  0
SCALE
  5
62
102
{ACAD_REACTORS
330
47
102
}
330
47
100
AcDbScale
 70
     0
300
1/2" = 1'-0"
140
0.5
141
12.0
290
     0
  0
SCALE
  5
63
102
{ACAD_REACTORS
330
47
102
}
330
47
100
AcDbScale
 70
     0
300
3/4" = 1'-0"
140
0.75
141
12.0
290
     0
  0
SCALE
  5
64
102
{ACAD_REACTORS
330
47
102
}
330
47
100
AcDbScale
 70
     0
300
1" = 1'-0"
140
1.0
141
12.0
290
     0
  0
SCALE
  5
65
102
{ACAD_REACTORS
330
47
102
}
330
47
100
AcDbScale
 70
     0
300
1-1/2" = 1'-0"
140
1.5
141
12.0
290
     0
  0
SCALE
  5
66
102
{ACAD_REACTORS
330
47
102
}
330
47
100
AcDbScale
 70
     0
300
3" = 1'-0"
140
3.0
141
12.0
290
     0
  0
SCALE
  5
67
102
{ACAD_REACTORS
330
47
102
}
330
47
100
AcDbScale
 70
     0
300
6" = 1'-0"
140
6.0
141
12.0
290
     0
  0
SCALE
  5
68
102
{ACAD_REACTORS
330
47
102
}
330
47
100
AcDbScale
 70
     0
300
1'-0" = 1'-0"
140
12.0
141
12.0
290
     0
  0
TABLESTYLE
  5
6A
102
{ACAD_REACTORS
330
69
102
}
102
{ACAD_XDICTIONARY
360
208
102
}
330
69
100
AcDbTableStyle
  3
Standard
 70
     0
 71
     0
 40
0.06
 41
0.06
280
     0
281
     0
  7
Standard
140
0.18
170
     2
 62
     0
 63
   257
283
     0
 90
        4
 91
        0
  1

274
    -2
284
     1
 64
     0
275
    -2
285
     1
 65
     0
276
    -2
286
     1
 66
     0
277
    -2
287
     1
 67
     0
278
    -2
288
     1
 68
     0
279
    -2
289
     1
 69
     0
  7
Standard
140
0.25
170
     5
 62
     0
 63
   257
283
     0
 90
        4
 91
        0
  1

274
    -2
284
     1
 64
     0
275
    -2
285
     1
 65
     0
276
    -2
286
     1
 66
     0
277
    -2
287
     1
 67
     0
278
    -2
288
     1
 68
     0
279
    -2
289
     1
 69
     0
  7
Standard
140
0.18
170
     5
 62
     0
 63
   257
283
     0
 90
        4
 91
        0
  1

274
    -2
284
     1
 64
     0
275
    -2
285
     1
 65
     0
276
    -2
286
     1
 66
     0
277
    -2
287
     1
 67
     0
278
    -2
288
     1
 68
     0
279
    -2
289
     1
 69
     0
  0
VISUALSTYLE
  5
2F
102
{ACAD_REACTORS
330
2A
102
}
330
2A
100
AcDbVisualStyle
  2
2dWireframe
 70
     4
177
     3
291
     0
 70
    58
 90
        0
176
     1
 90
        2
176
     1
 90
        0
176
     1
 90
        0
176
     1
 40
0.6
176
     1
 40
30.0
176
     1
 62
     7
420
 16777215
176
     1
 90
        1
176
     1
 90
        4
176
     1
 62
     7
176
     1
 62
   257
176
     1
 90
        1
176
     1
 90
        1
176
     1
 40
1.0
176
     1
 90
        0
176
     1
 62
   257
176
     1
 40
1.0
176
     1
 90
        1
176
     1
 90
        6
176
     1
 90
        2
176
     1
 62
     7
176
     1
 90
        5
176
     1
 90
        0
176
     1
 90
        0
176
     1
290
     0
176
     1
 90
        1
176
     1
 40
0.0
176
     1
 90
        0
176
     1
290
     1
176
     1
290
     1
176
     1
290
     0
176
     1
290
     0
176
     1
290
     0
176
     1
290
     0
176
     1
290
     0
176
     1
290
     0
176
     1
290
     0
176
     1
 90
       50
176
     1
 40
0.0
176
     1
 40
1.0
176
     1
 90
        0
176
     1
 62
    18
420
        0
176
     1
 90
       50
176
     1
 90
        3
176
     1
 62
     5
420
      255
176
     1
290
     0
176
     1
 90
       50
176
     1
 90
       50
176
     1
 90
       50
176
     1
290
     0
176
     1
 90
       50
176
     1
 62
   256
176
     0
 40
1.0
176
     0
 90
        2
176
     1
  1
strokes_ogs.tif
176
     1
290
     0
176
     1
 40
1.0
176
     1
 40
1.0
176
     1
  0
VISUALSTYLE
  5
32
102
{ACAD_REACTORS
330
2A
102
}
330
2A
100
AcDbVisualStyle
  2
Basic
 70
     7
177
     3
291
     1
 70
    58
 90
        1
176
     1
 90
        0
176
     1
 90
        1
176
     1
 90
        0
176
     1
 40
0.6
176
     1
 40
30.0
176
     1
 62
     7
420
 16777215
176
     1
 90
        0
176
     1
 90
        4
176
     1
 62
     7
176
     1
 62
   257
176
     1
 90
        1
176
     1
 90
        1
176
     1
 40
1.0
176
     1
 90
        8
176
     1
 62
     7
176
     1
 40
1.0
176
     1
 90
        1
176
     1
 90
        6
176
     1
 90
        2
176
     1
 62
     7
176
     1
 90
        5
176
     1
 90
        0
176
     1
 90
        0
176
     1
290
     0
176
     1
 90
        1
176
     1
 40
0.0
176
     1
 90
        0
176
     1
290
     0
176
     1
290
     1
176
     1
290
     1
176
     1
290
     0
176
     1
290
     0
176
     1
290
     0
176
     1
290
     0
176
     1
290
     0
176
     1
290
     0
176
     1
 90
       50
176
     1
 40
0.0
176
     1
 40
1.0
176
     1
 90
        0
176
     1
 62
    18
420
        0
176
     1
 90
       50
176
     1
 90
        3
176
     1
 62
     5
420
      255
176
     1
290
     0
176
     1
 90
       50
176
     1
 90
       50
176
     1
 90
       50
176
     1
290
     0
176
     1
 90
       50
176
     1
 62
   256
176
     0
 40
1.0
176
     0
 90
        2
176
     1
  1
strokes_ogs.tif
176
     1
290
     0
176
     1
 40
1.0
176
     1
 40
1.0
176
     1
  0
VISUALSTYLE
  5
36
102
{ACAD_REACTORS
330
2A
102
}
330
2A
100
AcDbVisualStyle
  2
Brighten
 70
    12
177
     3
291
     1
 70
    58
 90
        2
176
     1
 90
        2
176
     1
 90
        0
176
     1
 90
        0
176
     1
 40
0.6
176
     1
 40
30.0
176
     1
 62
     7
420
 16777215
176
     1
 90
        1
176
     1
 90
        4
176
     1
 62
     7
176
     1
 62
   257
176
     1
 90
        1
176
     1
 90
        1
176
     1
 40
1.0
176
     1
 90
        8
176
     1
 62
     7
176
     1
 40
1.0
176
     1
 90
        1
176
     1
 90
        6
176
     1
 90
        2
176
     1
 62
     7
176
     1
 90
        5
176
     1
 90
        0
176
     1
 90
        0
176
     1
290
     0
176
     1
 90
        1
176
     1
 40
50.0
176
     1
 90
        0
176
     1
290
     0
176
     1
290
     1
176
     1
290
     1
176
     1
290
     0
176
     1
290
     0
176
     1
290
     0
176
     1
290
     0
176
     1
290
     0
176
     1
290
     0
176
     1
 90
       50
176
     1
 40
0.0
176
     1
 40
1.0
176
     1
 90
        0
176
     1
 62
    18
420
        0
176
     1
 90
       50
176
     1
 90
        3
176
     1
 62
     5
420
      255
176
     1
290
     0
176
     1
 90
       50
176
     1
 90
       50
176
     1
 90
       50
176
     1
290
     0
176
     1
 90
       50
176
     1
 62
   256
176
     0
 40
1.0
176
     0
 90
        2
176
     1
  1
strokes_ogs.tif
176
     1
290
     0
176
     1
 40
1.0
176
     1
 40
1.0
176
     1
  0
VISUALSTYLE
  5
3A
102
{ACAD_REACTORS
330
2A
102
}
330
2A
100
AcDbVisualStyle
  2
ColorChange
 70
    16
177
     3
291
     1
 70
    58
 90
        2
176
     1
 90
        2
176
     1
 90
        3
176
     1
 90
        0
176
     1
 40
0.6
176
     1
 40
30.0
176
     1
 62
     8
420
  8421504
176
     1
 90
        1
176
     1
 90
        4
176
     1
 62
     7
176
     1
 62
   257
176
     1
 90
        1
176
     1
 90
        1
176
     1
 40
1.0
176
     1
 90
        8
176
     1
 62
     8
420
  8421504
176
     1
 40
1.0
176
     1
 90
        1
176
     1
 90
        6
176
     1
 90
        2
176
     1
 62
     7
176
     1
 90
        5
176
     1
 90
        0
176
     1
 90
        0
176
     1
290
     0
176
     1
 90
        1
176
     1
 40
0.0
176
     1
 90
        0
176
     1
290
     0
176
     1
290
     1
176
     1
290
     1
176
     1
290
     0
176
     1
290
     0
176
     1
290
     0
176
     1
290
     0
176
     1
290
     0
176
     1
290
     0
176
     1
 90
       50
176
     1
 40
0.0
176
     1
 40
1.0
176
     1
 90
        0
176
     1
 62
    18
420
        0
176
     1
 90
       50
176
     1
 90
        3
176
     1
 62
     5
420
      255
176
     1
290
     0
176
     1
 90
       50
176
     1
 90
       50
176
     1
 90
       50
176
     1
290
     0
176
     1
 90
       50
176
     1
 62
   256
176
     0
 40
1.0
176
     0
 90
        2
176
     1
  1
strokes_ogs.tif
176
     1
290
     0
176
     1
 40
1.0
176
     1
 40
1.0
176
     1
  0
VISUALSTYLE
  5
34
102
{ACAD_REACTORS
330
2A
102
}
330
2A
100
AcDbVisualStyle
  2
Conceptual
 70
     9
177
     3
291
     0
 70
    58
 90
        3
176
     1
 90
        2
176
     1
 90
        0
176
     1
 90
        0
176
     1
 40
0.6
176
     1
 40
30.0
176
     1
 62
     7
420
 16777215
176
     1
 90
        2
176
     1
 90
        2
176
     1
 62
     7
176
     1
 62
   257
176
     1
 90
        1
176
     1
 90
        1
176
     1
 40
179.0
176
     1
 90
        8
176
     1
 62
     7
176
     1
 40
1.0
176
     1
 90
        1
176
     1
 90
        6
176
     1
 90
        2
176
     1
 62
     7
176
     1
 90
        3
176
     1
 90
        0
176
     1
 90
        0
176
     1
290
     0
176
     1
 90
        1
176
     1
 40
0.0
176
     1
 90
        0
176
     1
290
     0
176
     1
290
     1
176
     1
290
     1
176
     1
290
     0
176
     1
290
     0
176
     1
290
     0
176
     1
290
     0
176
     1
290
     0
176
     1
290
     0
176
     1
 90
       50
176
     1
 40
0.0
176
     1
 40
1.0
176
     1
 90
        0
176
     1
 62
    18
420
        0
176
     1
 90
       50
176
     1
 90
        3
176
     1
 62
     5
420
      255
176
     1
290
     0
176
     1
 90
       50
176
     1
 90
       50
176
     1
 90
       50
176
     1
290
     0
176
     1
 90
       50
176
     1
 62
   256
176
     0
 40
1.0
176
     0
 90
        2
176
     1
  1
strokes_ogs.tif
176
     1
290
     0
176
     1
 40
1.0
176
     1
 40
1.0
176
     1
  0
VISUALSTYLE
  5
35
102
{ACAD_REACTORS
330
2A
102
}
330
2A
100
AcDbVisualStyle
  2
Dim
 70
    11
177
     3
291
     1
 70
    58
 90
        2
176
     1
 90
        2
176
     1
 90
        0
176
     1
 90
        0
176
     1
 40
0.6
176
     1
 40
30.0
176
     1
 62
     7
420
 16777215
176
     1
 90
        1
176
     1
 90
        4
176
     1
 62
     7
176
     1
 62
   257
176
     1
 90
        1
176
     1
 90
        1
176
     1
 40
1.0
176
     1
 90
        8
176
     1
 62
     7
176
     1
 40
1.0
176
     1
 90
        1
176
     1
 90
        6
176
     1
 90
        2
176
     1
 62
     7
176
     1
 90
        5
176
     1
 90
        0
176
     1
 90
        0
176
     1
290
     0
176
     1
 90
        1
176
     1
 40
-50.0
176
     1
 90
        0
176
     1
290
     0
176
     1
290
     1
176
     1
290
     1
176
     1
290
     0
176
     1
290
     0
176
     1
290
     0
176
     1
290
     0
176
     1
290
     0
176
     1
290
     0
176
     1
 90
       50
176
     1
 40
0.0
176
     1
 40
1.0
176
     1
 90
        0
176
     1
 62
    18
420
        0
176
     1
 90
       50
176
     1
 90
        3
176
     1
 62
     5
420
      255
176
     1
290
     0
176
     1
 90
       50
176
     1
 90
       50
176
     1
 90
       50
176
     1
290
     0
176
     1
 90
       50
176
     1
 62
   256
176
     0
 40
1.0
176
     0
 90
        2
176
     1
  1
strokes_ogs.tif
176
     1
290
     0
176
     1
 40
1.0
176
     1
 40
1.0
176
     1
  0
VISUALSTYLE
  5
3D
102
{ACAD_REACTORS
330
2A
102
}
330
2A
100
AcDbVisualStyle
  2
EdgeColorOff
 70
    22
177
     3
291
     1
 70
    58
 90
        2
176
     0
 90
        2
176
     0
 90
        0
176
     0
 90
        0
176
     0
 40
0.6
176
     0
 40
30.0
176
     0
 62
     7
420
 16777215
176
     0
 90
        1
176
     0
 90
        4
176
     0
 62
     7
176
     0
 62
   257
176
     0
 90
        1
176
     0
 90
        1
176
     0
 40
1.0
176
     0
 90
        8
176
     2
 62
     7
176
     0
 40
1.0
176
     0
 90
        1
176
     0
 90
        6
176
     0
 90
        2
176
     0
 62
     7
176
     0
 90
        5
176
     0
 90
        0
176
     0
 90
        0
176
     0
290
     0
176
     0
 90
        1
176
     0
 40
0.0
176
     0
 90
        0
176
     0
290
     0
176
     0
290
     1
176
     0
290
     1
176
     0
290
     0
176
     0
290
     0
176
     0
290
     0
176
     0
290
     0
176
     0
290
     0
176
     0
290
     0
176
     0
 90
       50
176
     0
 40
0.0
176
     0
 40
1.0
176
     0
 90
        0
176
     0
 62
    18
420
        0
176
     0
 90
       50
176
     0
 90
        3
176
     0
 62
     5
420
      255
176
     0
290
     0
176
     0
 90
       50
176
     0
 90
       50
176
     0
 90
       50
176
     0
290
     0
176
     0
 90
       50
176
     0
 62
   256
176
     0
 40
1.0
176
     0
 90
        2
176
     0
  1
strokes_ogs.tif
176
     0
290
     0
176
     0
 40
1.0
176
     0
 40
1.0
176
     0
  0
VISUALSTYLE
  5
39
102
{ACAD_REACTORS
330
2A
102
}
330
2A
100
AcDbVisualStyle
  2
Facepattern
 70
    15
177
     3
291
     1
 70
    58
 90
        2
176
     1
 90
        2
176
     1
 90
        0
176
     1
 90
        0
176
     1
 40
0.6
176
     1
 40
30.0
176
     1
 62
     7
420
 16777215
176
     1
 90
        1
176
     1
 90
        4
176
     1
 62
     7
176
     1
 62
   257
176
     1
 90
        1
176
     1
 90
        1
176
     1
 40
1.0
176
     1
 90
        8
176
     1
 62
     7
176
     1
 40
1.0
176
     1
 90
        1
176
     1
 90
        6
176
     1
 90
        2
176
     1
 62
     7
176
     1
 90
        5
176
     1
 90
        0
176
     1
 90
        0
176
     1
290
     0
176
     1
 90
        1
176
     1
 40
0.0
176
     1
 90
        0
176
     1
290
     0
176
     1
290
     1
176
     1
290
     1
176
     1
290
     0
176
     1
290
     0
176
     1
290
     0
176
     1
290
     0
176
     1
290
     0
176
     1
290
     0
176
     1
 90
       50
176
     1
 40
0.0
176
     1
 40
1.0
176
     1
 90
        0
176
     1
 62
    18
420
        0
176
     1
 90
       50
176
     1
 90
        3
176
     1
 62
     5
420
      255
176
     1
290
     0
176
     1
 90
       50
176
     1
 90
       50
176
     1
 90
       50
176
     1
290
     0
176
     1
 90
       50
176
     1
 62
   256
176
     0
 40
1.0
176
     0
 90
        2
176
     1
  1
strokes_ogs.tif
176
     1
290
     0
176
     1
 40
1.0
176
     1
 40
1.0
176
     1
  0
VISUALSTYLE
  5
2B
102
{ACAD_REACTORS
330
2A
102
}
330
2A
100
AcDbVisualStyle
  2
Flat
 70
     0
177
     3
291
     1
 70
    58
 90
        2
176
     1
 90
        1
176
     1
 90
        1
176
     1
 90
        2
176
     1
 40
0.6
176
     1
 40
30.0
176
     1
 62
     7
420
 16777215
176
     1
 90
        0
176
     1
 90
        0
176
     1
 62
     7
176
     1
 62
   257
176
     1
 90
        1
176
     1
 90
        1
176
     1
 40
1.0
176
     1
 90
        8
176
     1
 62
     7
176
     1
 40
1.0
176
     1
 90
        1
176
     1
 90
        6
176
     1
 90
        2
176
     1
 62
     7
176
     1
 90
        5
176
     1
 90
        0
176
     1
 90
        0
176
     1
290
     0
176
     1
 90
       13
176
     1
 40
0.0
176
     1
 90
        0
176
     1
290
     0
176
     1
290
     1
176
     1
290
     1
176
     1
290
     0
176
     1
290
     0
176
     1
290
     0
176
     1
290
     0
176
     1
290
     0
176
     1
290
     0
176
     1
 90
       50
176
     1
 40
0.0
176
     1
 40
1.0
176
     1
 90
        0
176
     1
 62
    18
420
        0
176
     1
 90
       50
176
     1
 90
        3
176
     1
 62
     5
420
      255
176
     1
290
     0
176
     1
 90
       50
176
     1
 90
       50
176
     1
 90
       50
176
     1
290
     0
176
     1
 90
       50
176
     1
 62
   256
176
     0
 40
1.0
176
     0
 90
        2
176
     1
  1
strokes_ogs.tif
176
     1
290
     0
176
     1
 40
1.0
176
     1
 40
1.0
176
     1
  0
VISUALSTYLE
  5
2C
102
{ACAD_REACTORS
330
2A
102
}
330
2A
100
AcDbVisualStyle
  2
FlatWithEdges
 70
     1
177
     3
291
     1
 70
    58
 90
        2
176
     1
 90
        1
176
     1
 90
        1
176
     1
 90
        2
176
     1
 40
0.6
176
     1
 40
30.0
176
     1
 62
     7
420
 16777215
176
     1
 90
        1
176
     1
 90
        0
176
     1
 62
     7
176
     1
 62
   257
176
     1
 90
        1
176
     1
 90
        1
176
     1
 40
1.0
176
     1
 90
        0
176
     1
 62
   257
176
     1
 40
1.0
176
     1
 90
        1
176
     1
 90
        6
176
     1
 90
        2
176
     1
 62
     7
176
     1
 90
        5
176
     1
 90
        0
176
     1
 90
        0
176
     1
290
     0
176
     1
 90
       13
176
     1
 40
0.0
176
     1
 90
        0
176
     1
290
     0
176
     1
290
     1
176
     1
290
     1
176
     1
290
     0
176
     1
290
     0
176
     1
290
     0
176
     1
290
     0
176
     1
290
     0
176
     1
290
     0
176
     1
 90
       50
176
     1
 40
0.0
176
     1
 40
1.0
176
     1
 90
        0
176
     1
 62
    18
420
        0
176
     1
 90
       50
176
     1
 90
        3
176
     1
 62
     5
420
      255
176
     1
290
     0
176
     1
 90
       50
176
     1
 90
       50
176
     1
 90
       50
176
     1
290
     0
176
     1
 90
       50
176
     1
 62
   256
176
     0
 40
1.0
176
     0
 90
        2
176
     1
  1
strokes_ogs.tif
176
     1
290
     0
176
     1
 40
1.0
176
     1
 40
1.0
176
     1
  0
VISUALSTYLE
  5
2D
102
{ACAD_REACTORS
330
2A
102
}
330
2A
100
AcDbVisualStyle
  2
Gouraud
 70
     2
177
     3
291
     1
 70
    58
 90
        2
176
     1
 90
        2
176
     1
 90
        1
176
     1
 90
        2
176
     1
 40
0.6
176
     1
 40
30.0
176
     1
 62
     7
420
 16777215
176
     1
 90
        0
176
     1
 90
        0
176
     1
 62
     7
176
     1
 62
   257
176
     1
 90
        1
176
     1
 90
        1
176
     1
 40
1.0
176
     1
 90
        0
176
     1
 62
     7
176
     1
 40
1.0
176
     1
 90
        1
176
     1
 90
        6
176
     1
 90
        2
176
     1
 62
     7
176
     1
 90
        5
176
     1
 90
        0
176
     1
 90
        0
176
     1
290
     0
176
     1
 90
       13
176
     1
 40
0.0
176
     1
 90
        0
176
     1
290
     0
176
     1
290
     1
176
     1
290
     1
176
     1
290
     0
176
     1
290
     0
176
     1
290
     0
176
     1
290
     0
176
     1
290
     0
176
     1
290
     0
176
     1
 90
       50
176
     1
 40
0.0
176
     1
 40
1.0
176
     1
 90
        0
176
     1
 62
    18
420
        0
176
     1
 90
       50
176
     1
 90
        3
176
     1
 62
     5
420
      255
176
     1
290
     0
176
     1
 90
       50
176
     1
 90
       50
176
     1
 90
       50
176
     1
290
     0
176
     1
 90
       50
176
     1
 62
   256
176
     0
 40
1.0
176
     0
 90
        2
176
     1
  1
strokes_ogs.tif
176
     1
290
     0
176
     1
 40
1.0
176
     1
 40
1.0
176
     1
  0
VISUALSTYLE
  5
2E
102
{ACAD_REACTORS
330
2A
102
}
330
2A
100
AcDbVisualStyle
  2
GouraudWithEdges
 70
     3
177
     3
291
     1
 70
    58
 90
        2
176
     1
 90
        2
176
     1
 90
        1
176
     1
 90
        2
176
     1
 40
0.6
176
     1
 40
30.0
176
     1
 62
     7
420
 16777215
176
     1
 90
        1
176
     1
 90
        0
176
     1
 62
     7
176
     1
 62
   257
176
     1
 90
        1
176
     1
 90
        1
176
     1
 40
1.0
176
     1
 90
        0
176
     1
 62
   257
176
     1
 40
1.0
176
     1
 90
        1
176
     1
 90
        6
176
     1
 90
        2
176
     1
 62
     7
176
     1
 90
        5
176
     1
 90
        0
176
     1
 90
        0
176
     1
290
     0
176
     1
 90
       13
176
     1
 40
0.0
176
     1
 90
        0
176
     1
290
     0
176
     1
290
     1
176
     1
290
     1
176
     1
290
     0
176
     1
290
     0
176
     1
290
     0
176
     1
290
     0
176
     1
290
     0
176
     1
290
     0
176
     1
 90
       50
176
     1
 40
0.0
176
     1
 40
1.0
176
     1
 90
        0
176
     1
 62
    18
420
        0
176
     1
 90
       50
176
     1
 90
        3
176
     1
 62
     5
420
      255
176
     1
290
     0
176
     1
 90
       50
176
     1
 90
       50
176
     1
 90
       50
176
     1
290
     0
176
     1
 90
       50
176
     1
 62
   256
176
     0
 40
1.0
176
     0
 90
        2
176
     1
  1
strokes_ogs.tif
176
     1
290
     0
176
     1
 40
1.0
176
     1
 40
1.0
176
     1
  0
VISUALSTYLE
  5
31
102
{ACAD_REACTORS
330
2A
102
}
330
2A
100
AcDbVisualStyle
  2
Hidden
 70
     6
177
     3
291
     0
 70
    58
 90
        1
176
     1
 90
        2
176
     1
 90
        2
176
     1
 90
        0
176
     1
 40
0.6
176
     1
 40
30.0
176
     1
 62
     7
420
 16777215
176
     1
 90
        2
176
     1
 90
        2
176
     1
 62
     7
176
     1
 62
   257
176
     1
 90
        2
176
     1
 90
        1
176
     1
 40
40.0
176
     1
 90
        0
176
     1
 62
   257
176
     1
 40
1.0
176
     1
 90
        1
176
     1
 90
        6
176
     1
 90
        2
176
     1
 62
     7
176
     1
 90
        3
176
     1
 90
        0
176
     1
 90
        0
176
     1
290
     0
176
     1
 90
        1
176
     1
 40
0.0
176
     1
 90
        0
176
     1
290
     0
176
     1
290
     1
176
     1
290
     1
176
     1
290
     0
176
     1
290
     0
176
     1
290
     0
176
     1
290
     0
176
     1
290
     0
176
     1
290
     0
176
     1
 90
       50
176
     1
 40
0.0
176
     1
 40
1.0
176
     1
 90
        0
176
     1
 62
    18
420
        0
176
     1
 90
       50
176
     1
 90
        3
176
     1
 62
     5
420
      255
176
     1
290
     0
176
     1
 90
       50
176
     1
 90
       50
176
     1
 90
       50
176
     1
290
     0
176
     1
 90
       50
176
     1
 62
   256
176
     0
 40
1.0
176
     0
 90
        2
176
     1
  1
strokes_ogs.tif
176
     1
290
     0
176
     1
 40
1.0
176
     1
 40
1.0
176
     1
  0
VISUALSTYLE
  5
3B
102
{ACAD_REACTORS
330
2A
102
}
330
2A
100
AcDbVisualStyle
  2
JitterOff
 70
    20
177
     3
291
     1
 70
    58
 90
        2
176
     0
 90
        2
176
     0
 90
        0
176
     0
 90
        0
176
     0
 40
0.6
176
     0
 40
30.0
176
     0
 62
     7
420
 16777215
176
     0
 90
        1
176
     0
 90
        4
176
     0
 62
     7
176
     0
 62
   257
176
     0
 90
        1
176
     0
 90
        1
176
     0
 40
1.0
176
     0
 90
       10
176
     2
 62
     7
176
     0
 40
1.0
176
     0
 90
        1
176
     0
 90
        6
176
     0
 90
        2
176
     0
 62
     7
176
     0
 90
        5
176
     0
 90
        0
176
     0
 90
        0
176
     0
290
     0
176
     0
 90
        1
176
     0
 40
0.0
176
     0
 90
        0
176
     0
290
     0
176
     0
290
     1
176
     0
290
     1
176
     0
290
     0
176
     0
290
     0
176
     0
290
     0
176
     0
290
     0
176
     0
290
     0
176
     0
290
     0
176
     0
 90
       50
176
     0
 40
0.0
176
     0
 40
1.0
176
     0
 90
        0
176
     0
 62
    18
420
        0
176
     0
 90
       50
176
     0
 90
        3
176
     0
 62
     5
420
      255
176
     0
290
     0
176
     0
 90
       50
176
     0
 90
       50
176
     0
 90
       50
176
     0
290
     0
176
     0
 90
       50
176
     0
 62
   256
176
     0
 40
1.0
176
     0
 90
        2
176
     0
  1
strokes_ogs.tif
176
     0
290
     0
176
     0
 40
1.0
176
     0
 40
1.0
176
     0
  0
VISUALSTYLE
  5
38
102
{ACAD_REACTORS
330
2A
102
}
330
2A
100
AcDbVisualStyle
  2
Linepattern
 70
    14
177
     3
291
     1
 70
    58
 90
        2
176
     1
 90
        2
176
     1
 90
        0
176
     1
 90
        0
176
     1
 40
0.6
176
     1
 40
30.0
176
     1
 62
     7
420
 16777215
176
     1
 90
        1
176
     1
 90
        4
176
     1
 62
     7
176
     1
 62
   257
176
     1
 90
        7
176
     1
 90
        7
176
     1
 40
1.0
176
     1
 90
        8
176
     1
 62
     7
176
     1
 40
1.0
176
     1
 90
        1
176
     1
 90
        6
176
     1
 90
        2
176
     1
 62
     7
176
     1
 90
        5
176
     1
 90
        0
176
     1
 90
        0
176
     1
290
     0
176
     1
 90
        1
176
     1
 40
0.0
176
     1
 90
        0
176
     1
290
     0
176
     1
290
     1
176
     1
290
     1
176
     1
290
     0
176
     1
290
     0
176
     1
290
     0
176
     1
290
     0
176
     1
290
     0
176
     1
290
     0
176
     1
 90
       50
176
     1
 40
0.0
176
     1
 40
1.0
176
     1
 90
        0
176
     1
 62
    18
420
        0
176
     1
 90
       50
176
     1
 90
        3
176
     1
 62
     5
420
      255
176
     1
290
     0
176
     1
 90
       50
176
     1
 90
       50
176
     1
 90
       50
176
     1
290
     0
176
     1
 90
       50
176
     1
 62
   256
176
     0
 40
1.0
176
     0
 90
        2
176
     1
  1
strokes_ogs.tif
176
     1
290
     0
176
     1
 40
1.0
176
     1
 40
1.0
176
     1
  0
VISUALSTYLE
  5
3C
102
{ACAD_REACTORS
330
2A
102
}
330
2A
100
AcDbVisualStyle
  2
OverhangOff
 70
    21
177
     3
291
     1
 70
    58
 90
        2
176
     0
 90
        2
176
     0
 90
        0
176
     0
 90
        0
176
     0
 40
0.6
176
     0
 40
30.0
176
     0
 62
     7
420
 16777215
176
     0
 90
        1
176
     0
 90
        4
176
     0
 62
     7
176
     0
 62
   257
176
     0
 90
        1
176
     0
 90
        1
176
     0
 40
1.0
176
     0
 90
        9
176
     2
 62
     7
176
     0
 40
1.0
176
     0
 90
        1
176
     0
 90
        6
176
     0
 90
        2
176
     0
 62
     7
176
     0
 90
        5
176
     0
 90
        0
176
     0
 90
        0
176
     0
290
     0
176
     0
 90
        1
176
     0
 40
0.0
176
     0
 90
        0
176
     0
290
     0
176
     0
290
     1
176
     0
290
     1
176
     0
290
     0
176
     0
290
     0
176
     0
290
     0
176
     0
290
     0
176
     0
290
     0
176
     0
290
     0
176
     0
 90
       50
176
     0
 40
0.0
176
     0
 40
1.0
176
     0
 90
        0
176
     0
 62
    18
420
        0
176
     0
 90
       50
176
     0
 90
        3
176
     0
 62
     5
420
      255
176
     0
290
     0
176
     0
 90
       50
176
     0
 90
       50
176
     0
 90
       50
176
     0
290
     0
176
     0
 90
       50
176
     0
 62
   256
176
     0
 40
1.0
176
     0
 90
        2
176
     0
  1
strokes_ogs.tif
176
     0
290
     0
176
     0
 40
1.0
176
     0
 40
1.0
176
     0
  0
VISUALSTYLE
  5
33
102
{ACAD_REACTORS
330
2A
102
}
330
2A
100
AcDbVisualStyle
  2
Realistic
 70
     8
177
     3
291
     0
 70
    58
 90
        2
176
     1
 90
        3
176
     1
 90
        0
176
     1
 90
        2
176
     1
 40
0.6
176
     1
 40
30.0
176
     1
 62
     7
420
 16777215
176
     1
 90
        0
176
     1
 90
        0
176
     1
 62
     7
176
     1
 62
   257
176
     1
 90
        1
176
     1
 90
        1
176
     1
 40
1.0
176
     1
 90
        8
176
     1
 62
   257
176
     1
 40
1.0
176
     1
 90
        1
176
     1
 90
        6
176
     1
 90
        2
176
     1
 62
     7
176
     1
 90
        3
176
     1
 90
        0
176
     1
 90
        0
176
     1
290
     0
176
     1
 90
       13
176
     1
 40
0.0
176
     1
 90
        0
176
     1
290
     0
176
     1
290
     1
176
     1
290
     1
176
     1
290
     0
176
     1
290
     0
176
     1
290
     0
176
     1
290
     0
176
     1
290
     0
176
     1
290
     0
176
     1
 90
       50
176
     1
 40
0.0
176
     1
 40
1.0
176
     1
 90
        0
176
     1
 62
    18
420
        0
176
     1
 90
       50
176
     1
 90
        3
176
     1
 62
     5
420
      255
176
     1
290
     0
176
     1
 90
       50
176
     1
 90
       50
176
     1
 90
       50
176
     1
290
     0
176
     1
 90
       50
176
     1
 62
   256
176
     0
 40
1.0
176
     0
 90
        2
176
     1
  1
strokes_ogs.tif
176
     1
290
     0
176
     1
 40
1.0
176
     1
 40
1.0
176
     1
  0
VISUALSTYLE
  5
42
102
{ACAD_REACTORS
330
2A
102
}
330
2A
100
AcDbVisualStyle
  2
Shaded
 70
    27
177
     3
291
     0
 70
    58
 90
        2
176
     1
 90
        2
176
     1
 90
        1
176
     1
 90
        2
176
     1
 40
0.6
176
     1
 40
30.0
176
     1
 62
     7
420
 16777215
176
     1
 90
        0
176
     1
 90
        4
176
     1
 62
     7
176
     1
 62
   257
176
     1
 90
        1
176
     1
 90
        1
176
     1
 40
1.0
176
     1
 90
        8
176
     1
 62
   257
176
     1
 40
1.0
176
     1
 90
        1
176
     1
 90
        6
176
     1
 90
        2
176
     1
 62
     8
420
  7895160
176
     1
 90
        3
176
     1
 90
        0
176
     1
 90
        0
176
     1
290
     0
176
     1
 90
        5
176
     1
 40
0.0
176
     1
 90
        0
176
     1
290
     0
176
     1
290
     1
176
     1
290
     1
176
     1
290
     0
176
     1
290
     0
176
     1
290
     0
176
     1
290
     0
176
     1
290
     0
176
     1
290
     0
176
     1
 90
       50
176
     1
 40
0.0
176
     1
 40
1.0
176
     1
 90
        0
176
     1
 62
    18
420
        0
176
     1
 90
       50
176
     1
 90
        3
176
     1
 62
     5
420
      255
176
     1
290
     0
176
     1
 90
       50
176
     1
 90
       50
176
     1
 90
       50
176
     1
290
     0
176
     1
 90
       50
176
     1
 62
   256
176
     0
 40
1.0
176
     0
 90
        2
176
     1
  1
strokes_ogs.tif
176
     1
290
     0
176
     1
 40
1.0
176
     1
 40
1.0
176
     1
  0
VISUALSTYLE
  5
41
102
{ACAD_REACTORS
330
2A
102
}
330
2A
100
AcDbVisualStyle
  2
Shaded with edges
 70
    26
177
     3
291
     0
 70
    58
 90
        2
176
     1
 90
        2
176
     1
 90
        1
176
     1
 90
        2
176
     1
 40
0.6
176
     1
 40
30.0
176
     1
 62
     7
420
 16777215
176
     1
 90
        1
176
     1
 90
       10
176
     1
 62
     7
176
     1
 62
   257
176
     1
 90
        2
176
     1
 90
        1
176
     1
 40
1.0
176
     1
 90
        8
176
     1
 62
   257
176
     1
 40
1.0
176
     1
 90
        1
176
     1
 90
        6
176
     1
 90
        2
176
     1
 62
     7
176
     1
 90
        3
176
     1
 90
        0
176
     1
 90
        0
176
     1
290
     0
176
     1
 90
        5
176
     1
 40
0.0
176
     1
 90
        0
176
     1
290
     0
176
     1
290
     1
176
     1
290
     1
176
     1
290
     0
176
     1
290
     0
176
     1
290
     0
176
     1
290
     0
176
     1
290
     0
176
     1
290
     0
176
     1
 90
       50
176
     1
 40
0.0
176
     1
 40
1.0
176
     1
 90
        0
176
     1
 62
    18
420
        0
176
     1
 90
       50
176
     1
 90
        3
176
     1
 62
     5
420
      255
176
     1
290
     0
176
     1
 90
       50
176
     1
 90
       50
176
     1
 90
       50
176
     1
290
     0
176
     1
 90
       50
176
     1
 62
   256
176
     0
 40
1.0
176
     0
 90
        2
176
     1
  1
strokes_ogs.tif
176
     1
290
     0
176
     1
 40
1.0
176
     1
 40
1.0
176
     1
  0
VISUALSTYLE
  5
3E
102
{ACAD_REACTORS
330
2A
102
}
330
2A
100
AcDbVisualStyle
  2
Shades of Gray
 70
    23
177
     3
291
     0
 70
    58
 90
        2
176
     1
 90
        2
176
     1
 90
        3
176
     1
 90
        0
176
     1
 40
0.6
176
     1
 40
30.0
176
     1
 62
     7
420
 16777215
176
     1
 90
        2
176
     1
 90
        2
176
     1
 62
     7
176
     1
 62
     7
176
     1
 90
        1
176
     1
 90
        1
176
     1
 40
40.0
176
     1
 90
        8
176
     1
 62
     7
176
     1
 40
1.0
176
     1
 90
        1
176
     1
 90
        6
176
     1
 90
        2
176
     1
 62
     7
176
     1
 90
        3
176
     1
 90
        0
176
     1
 90
        0
176
     1
290
     0
176
     1
 90
        1
176
     1
 40
0.0
176
     1
 90
        0
176
     1
290
     0
176
     1
290
     1
176
     1
290
     1
176
     1
290
     0
176
     1
290
     0
176
     1
290
     0
176
     1
290
     0
176
     1
290
     0
176
     1
290
     0
176
     1
 90
       50
176
     1
 40
0.0
176
     1
 40
1.0
176
     1
 90
        0
176
     1
 62
    18
420
        0
176
     1
 90
       50
176
     1
 90
        3
176
     1
 62
     5
420
      255
176
     1
290
     0
176
     1
 90
       50
176
     1
 90
       50
176
     1
 90
       50
176
     1
290
     0
176
     1
 90
       50
176
     1
 62
   256
176
     0
 40
1.0
176
     0
 90
        2
176
     1
  1
strokes_ogs.tif
176
     1
290
     0
176
     1
 40
1.0
176
     1
 40
1.0
176
     1
  0
VISUALSTYLE
  5
3F
102
{ACAD_REACTORS
330
2A
102
}
330
2A
100
AcDbVisualStyle
  2
Sketchy
 70
    24
177
     3
291
     0
 70
    58
 90
        1
176
     1
 90
        2
176
     1
 90
        2
176
     1
 90
        0
176
     1
 40
0.6
176
     1
 40
30.0
176
     1
 62
     7
420
 16777215
176
     1
 90
        2
176
     1
 90
        2
176
     1
 62
     7
176
     1
 62
     7
176
     1
 90
        1
176
     1
 90
        1
176
     1
 40
40.0
176
     1
 90
       11
176
     1
 62
     7
176
     1
 40
1.0
176
     1
 90
        1
176
     1
 90
        6
176
     1
 90
        2
176
     1
 62
     7
176
     1
 90
        6
176
     1
 90
        0
176
     1
 90
        0
176
     1
290
     0
176
     1
 90
        1
176
     1
 40
0.0
176
     1
 90
        0
176
     1
290
     0
176
     1
290
     1
176
     1
290
     1
176
     1
290
     0
176
     1
290
     0
176
     1
290
     0
176
     1
290
     0
176
     1
290
     0
176
     1
290
     0
176
     1
 90
       50
176
     1
 40
0.0
176
     1
 40
1.0
176
     1
 90
        0
176
     1
 62
    18
420
        0
176
     1
 90
       50
176
     1
 90
        3
176
     1
 62
     5
420
      255
176
     1
290
     0
176
     1
 90
       50
176
     1
 90
       50
176
     1
 90
       50
176
     1
290
     0
176
     1
 90
       50
176
     1
 62
   256
176
     0
 40
1.0
176
     0
 90
        2
176
     1
  1
strokes_ogs.tif
176
     1
290
     0
176
     1
 40
1.0
176
     1
 40
1.0
176
     1
  0
VISUALSTYLE
  5
37
102
{ACAD_REACTORS
330
2A
102
}
330
2A
100
AcDbVisualStyle
  2
Thicken
 70
    13
177
     3
291
     1
 70
    58
 90
        2
176
     1
 90
        2
176
     1
 90
        0
176
     1
 90
        0
176
     1
 40
0.6
176
     1
 40
30.0
176
     1
 62
     7
420
 16777215
176
     1
 90
        1
176
     1
 90
        4
176
     1
 62
     7
176
     1
 62
   257
176
     1
 90
        1
176
     1
 90
        1
176
     1
 40
1.0
176
     1
 90
       12
176
     1
 62
     7
176
     1
 40
1.0
176
     1
 90
        1
176
     1
 90
        6
176
     1
 90
        2
176
     1
 62
     7
176
     1
 90
        5
176
     1
 90
        0
176
     1
 90
        0
176
     1
290
     0
176
     1
 90
        1
176
     1
 40
0.0
176
     1
 90
        0
176
     1
290
     0
176
     1
290
     1
176
     1
290
     1
176
     1
290
     0
176
     1
290
     0
176
     1
290
     0
176
     1
290
     0
176
     1
290
     0
176
     1
290
     0
176
     1
 90
       50
176
     1
 40
0.0
176
     1
 40
1.0
176
     1
 90
        0
176
     1
 62
    18
420
        0
176
     1
 90
       50
176
     1
 90
        3
176
     1
 62
     5
420
      255
176
     1
290
     0
176
     1
 90
       50
176
     1
 90
       50
176
     1
 90
       50
176
     1
290
     0
176
     1
 90
       50
176
     1
 62
   256
176
     0
 40
1.0
176
     0
 90
        2
176
     1
  1
strokes_ogs.tif
176
     1
290
     0
176
     1
 40
1.0
176
     1
 40
1.0
176
     1
  0
VISUALSTYLE
  5
30
102
{ACAD_REACTORS
330
2A
102
}
330
2A
100
AcDbVisualStyle
  2
Wireframe
 70
     5
177
     3
291
     0
 70
    58
 90
        0
176
     1
 90
        2
176
     1
 90
        0
176
     1
 90
        0
176
     1
 40
0.6
176
     1
 40
30.0
176
     1
 62
     7
420
 16777215
176
     1
 90
        1
176
     1
 90
        4
176
     1
 62
     7
176
     1
 62
   257
176
     1
 90
        1
176
     1
 90
        1
176
     1
 40
1.0
176
     1
 90
        0
176
     1
 62
   257
176
     1
 40
1.0
176
     1
 90
        1
176
     1
 90
        6
176
     1
 90
        2
176
     1
 62
     7
176
     1
 90
        3
176
     1
 90
        0
176
     1
 90
        0
176
     1
290
     0
176
     1
 90
        1
176
     1
 40
0.0
176
     1
 90
        0
176
     1
290
     0
176
     1
290
     1
176
     1
290
     1
176
     1
290
     0
176
     1
290
     0
176
     1
290
     0
176
     1
290
     0
176
     1
290
     0
176
     1
290
     0
176
     1
 90
       50
176
     1
 40
0.0
176
     1
 40
1.0
176
     1
 90
        0
176
     1
 62
    18
420
        0
176
     1
 90
       50
176
     1
 90
        3
176
     1
 62
     5
420
      255
176
     1
290
     0
176
     1
 90
       50
176
     1
 90
       50
176
     1
 90
       50
176
     1
290
     0
176
     1
 90
       50
176
     1
 62
   256
176
     0
 40
1.0
176
     0
 90
        2
176
     1
  1
strokes_ogs.tif
176
     1
290
     0
176
     1
 40
1.0
176
     1
 40
1.0
176
     1
  0
VISUALSTYLE
  5
40
102
{ACAD_REACTORS
330
2A
102
}
330
2A
100
AcDbVisualStyle
  2
X-Ray
 70
    25
177
     3
291
     0
 70
    58
 90
        2
176
     1
 90
        2
176
     1
 90
        1
176
     1
 90
        1
176
     1
 40
0.5
176
     1
 40
30.0
176
     1
 62
     7
420
 16777215
176
     1
 90
        1
176
     1
 90
        0
176
     1
 62
     7
176
     1
 62
   257
176
     1
 90
        1
176
     1
 90
        1
176
     1
 40
1.0
176
     1
 90
        8
176
     1
 62
     7
176
     1
 40
1.0
176
     1
 90
        1
176
     1
 90
        6
176
     1
 90
        2
176
     1
 62
     7
176
     1
 90
        3
176
     1
 90
        0
176
     1
 90
        0
176
     1
290
     0
176
     1
 90
       13
176
     1
 40
0.0
176
     1
 90
        0
176
     1
290
     0
176
     1
290
     1
176
     1
290
     1
176
     1
290
     0
176
     1
290
     0
176
     1
290
     0
176
     1
290
     0
176
     1
290
     0
176
     1
290
     0
176
     1
 90
       50
176
     1
 40
0.0
176
     1
 40
1.0
176
     1
 90
        0
176
     1
 62
    18
420
        0
176
     1
 90
       50
176
     1
 90
        3
176
     1
 62
     5
420
      255
176
     1
290
     0
176
     1
 90
       50
176
     1
 90
       50
176
     1
 90
       50
176
     1
290
     0
176
     1
 90
       50
176
     1
 62
   256
176
     0
 40
1.0
176
     0
 90
        2
176
     1
  1
strokes_ogs.tif
176
     1
290
     0
176
     1
 40
1.0
176
     1
 40
1.0
176
     1
  0
DICTIONARYVAR
  5
207
102
{ACAD_REACTORS
330
206
102
}
330
206
100
DictionaryVariables
280
     0
  1
1:1
  0
DICTIONARYVAR
  5
20C
102
{ACAD_REACTORS
330
206
102
}
330
206
100
DictionaryVariables
280
     0
  1
Standard
  0
DICTIONARYVAR
  5
20B
102
{ACAD_REACTORS
330
206
102
}
330
206
100
DictionaryVariables
280
     0
  1
Standard
  0
DICTIONARY
  5
208
330
6A
100
AcDbDictionary
280
     1
281
     1
  3
ACAD_ROUNDTRIP_2008_TABLESTYLE_CELLSTYLEMAP
360
209
  0
CELLSTYLEMAP
  5
209
102
{ACAD_REACTORS
330
208
102
}
330
208
100
AcDbCellStyleMap
 90
        3
300
CELLSTYLE
  1
TABLEFORMAT_BEGIN
 90
        5
170
     1
 91
        0
 92
    32768
 62
   257
 93
        1
300
CONTENTFORMAT
  1
CONTENTFORMAT_BEGIN
 90
        0
 91
        0
 92
        4
 93
        0
300

 40
0.0
140
1.0
 94
        5
 62
     0
340
11
144
0.25
309
CONTENTFORMAT_END
171
     1
301
MARGIN
  1
CELLMARGIN_BEGIN
 40
0.06
 40
0.06
 40
0.06
 40
0.06
 40
0.06
 40
0.06
309
CELLMARGIN_END
 94
        6
 95
        1
302
GRIDFORMAT
  1
GRIDFORMAT_BEGIN
 90
        0
 91
        1
 62
     0
 92
       -2
340
14
 93
        0
 40
0.045
309
GRIDFORMAT_END
 95
        2
302
GRIDFORMAT
  1
GRIDFORMAT_BEGIN
 90
        0
 91
        1
 62
     0
 92
       -2
340
14
 93
        0
 40
0.045
309
GRIDFORMAT_END
 95
        4
302
GRIDFORMAT
  1
GRIDFORMAT_BEGIN
 90
        0
 91
        1
 62
     0
 92
       -2
340
14
 93
        0
 40
0.045
309
GRIDFORMAT_END
 95
        8
302
GRIDFORMAT
  1
GRIDFORMAT_BEGIN
 90
        0
 91
        1
 62
     0
 92
       -2
340
14
 93
        0
 40
0.045
309
GRIDFORMAT_END
 95
       16
302
GRIDFORMAT
  1
GRIDFORMAT_BEGIN
 90
        0
 91
        1
 62
     0
 92
       -2
340
14
 93
        0
 40
0.045
309
GRIDFORMAT_END
 95
       32
302
GRIDFORMAT
  1
GRIDFORMAT_BEGIN
 90
        0
 91
        1
 62
     0
 92
       -2
340
14
 93
        0
 40
0.045
309
GRIDFORMAT_END
309
TABLEFORMAT_END
  1
CELLSTYLE_BEGIN
 90
        1
 91
        1
300
_TITLE
309
CELLSTYLE_END
300
CELLSTYLE
  1
TABLEFORMAT_BEGIN
 90
        5
170
     1
 91
        0
 92
        0
 62
   257
 93
        1
300
CONTENTFORMAT
  1
CONTENTFORMAT_BEGIN
 90
        0
 91
        0
 92
        4
 93
        0
300

 40
0.0
140
1.0
 94
        5
 62
     0
340
11
144
0.18
309
CONTENTFORMAT_END
171
     1
301
MARGIN
  1
CELLMARGIN_BEGIN
 40
0.06
 40
0.06
 40
0.06
 40
0.06
 40
0.06
 40
0.06
309
CELLMARGIN_END
 94
        6
 95
        1
302
GRIDFORMAT
  1
GRIDFORMAT_BEGIN
 90
        0
 91
        1
 62
     0
 92
       -2
340
14
 93
        0
 40
0.045
309
GRIDFORMAT_END
 95
        2
302
GRIDFORMAT
  1
GRIDFORMAT_BEGIN
 90
        0
 91
        1
 62
     0
 92
       -2
340
14
 93
        0
 40
0.045
309
GRIDFORMAT_END
 95
        4
302
GRIDFORMAT
  1
GRIDFORMAT_BEGIN
 90
        0
 91
        1
 62
     0
 92
       -2
340
14
 93
        0
 40
0.045
309
GRIDFORMAT_END
 95
        8
302
GRIDFORMAT
  1
GRIDFORMAT_BEGIN
 90
        0
 91
        1
 62
     0
 92
       -2
340
14
 93
        0
 40
0.045
309
GRIDFORMAT_END
 95
       16
302
GRIDFORMAT
  1
GRIDFORMAT_BEGIN
 90
        0
 91
        1
 62
     0
 92
       -2
340
14
 93
        0
 40
0.045
309
GRIDFORMAT_END
 95
       32
302
GRIDFORMAT
  1
GRIDFORMAT_BEGIN
 90
        0
 91
        1
 62
     0
 92
       -2
340
14
 93
        0
 40
0.045
309
GRIDFORMAT_END
309
TABLEFORMAT_END
  1
CELLSTYLE_BEGIN
 90
        2
 91
        1
300
_HEADER
309
CELLSTYLE_END
300
CELLSTYLE
  1
TABLEFORMAT_BEGIN
 90
        5
170
     1
 91
        0
 92
        0
 62
   257
 93
        1
300
CONTENTFORMAT
  1
CONTENTFORMAT_BEGIN
 90
        0
 91
        0
 92
        4
 93
        0
300

 40
0.0
140
1.0
 94
        2
 62
     0
340
11
144
0.18
309
CONTENTFORMAT_END
171
     1
301
MARGIN
  1
CELLMARGIN_BEGIN
 40
0.06
 40
0.06
 40
0.06
 40
0.06
 40
0.06
 40
0.06
309
CELLMARGIN_END
 94
        6
 95
        1
302
GRIDFORMAT
  1
GRIDFORMAT_BEGIN
 90
        0
 91
        1
 62
     0
 92
       -2
340
14
 93
        0
 40
0.045
309
GRIDFORMAT_END
 95
        2
302
GRIDFORMAT
  1
GRIDFORMAT_BEGIN
 90
        0
 91
        1
 62
     0
 92
       -2
340
14
 93
        0
 40
0.045
309
GRIDFORMAT_END
 95
        4
302
GRIDFORMAT
  1
GRIDFORMAT_BEGIN
 90
        0
 91
        1
 62
     0
 92
       -2
340
14
 93
        0
 40
0.045
309
GRIDFORMAT_END
 95
        8
302
GRIDFORMAT
  1
GRIDFORMAT_BEGIN
 90
        0
 91
        1
 62
     0
 92
       -2
340
14
 93
        0
 40
0.045
309
GRIDFORMAT_END
 95
       16
302
GRIDFORMAT
  1
GRIDFORMAT_BEGIN
 90
        0
 91
        1
 62
     0
 92
       -2
340
14
 93
        0
 40
0.045
309
GRIDFORMAT_END
 95
       32
302
GRIDFORMAT
  1
GRIDFORMAT_BEGIN
 90
        0
 91
        1
 62
     0
 92
       -2
340
14
 93
        0
 40
0.045
309
GRIDFORMAT_END
309
TABLEFORMAT_END
  1
CELLSTYLE_BEGIN
 90
        3
 91
        2
300
_DATA
309
CELLSTYLE_END
  0
ENDSEC
  0
EOF