0
SECTION
  2
HEADER
  9
$ACADVER
  1
AC1027
  9
$ACADMAINTVER
 70
     8
  9
$DWGCODEPAGE
  3
ANSI_1252
  9
$REQUIREDVERSIONS
160
                 0
  9
$COMMENTS
  1
File was created by Cadenas
  9
$CUSTOMPROPERTYTAG
  1
NN
  9
$CUSTOMPROPERTY
  1
Grip Tight EZ Kleen Polymer Housed Four Bolt Flange Metric Bore
  9
$CUSTOMPROPERTYTAG
  1
NT
  9
$CUSTOMPROPERTY
  1
GTEZ Normal Duty Polymer Housed 4 Bolt Flange Bearings
  9
$CUSTOMPROPERTYTAG
  1
NB
  9
$CUSTOMPROPERTY
  1
129712
  9
$CUSTOMPROPERTYTAG
  1
NBSYN
  9
$CUSTOMPROPERTY
  1
$PN.$LUBE.
  9
$CUSTOMPROPERTYTAG
  1
LINA
  9
$CUSTOMPROPERTY
  1
129712
  9
$CUSTOMPROPERTYTAG
  1
SERIES
  9
$CUSTOMPROPERTY
  1
206
  9
$CUSTOMPROPERTYTAG
  1
SS
  9
$CUSTOMPROPERTY
  1
30
  9
$CUSTOMPROPERTYTAG
  1
PN
  9
$CUSTOMPROPERTY
  1
129712
  9
$CUSTOMPROPERTYTAG
  1
DESCRIPTION
  9
$CUSTOMPROPERTY
  1
F4B-GTEZ-30M-PCR
  9
$CUSTOMPROPERTYTAG
  1
A
  9
$CUSTOMPROPERTY
  1
40.9
  9
$CUSTOMPROPERTYTAG
  1
B
  9
$CUSTOMPROPERTY
  1
108.0
  9
$CUSTOMPROPERTYTAG
  1
C
  9
$CUSTOMPROPERTY
  1
47.2
  9
$CUSTOMPROPERTYTAG
  1
D
  9
$CUSTOMPROPERTY
  1
82.6
  9
$CUSTOMPROPERTYTAG
  1
F
  9
$CUSTOMPROPERTY
  1
M10
  9
$CUSTOMPROPERTYTAG
  1
H
  9
$CUSTOMPROPERTY
  1
15.5
  9
$CUSTOMPROPERTYTAG
  1
J
  9
$CUSTOMPROPERTY
  1
13.9
  9
$CUSTOMPROPERTYTAG
  1
L
  9
$CUSTOMPROPERTY
  1
50.8
  9
$CUSTOMPROPERTYTAG
  1
Z
  9
$CUSTOMPROPERTY
  1
46.0
  9
$CUSTOMPROPERTYTAG
  1
PPATH
  9
$CUSTOMPROPERTY
  1
f4b_gtez_templ.prj
  9
$CUSTOMPROPERTYTAG
  1
COMPANY
  9
$CUSTOMPROPERTY
  1
baldor
  9
$INSBASE
 10
0.0
 20
0.0
 30
0.0
  9
$EXTMIN
 10
1.000000000000000E+20
 20
1.000000000000000E+20
 30
1.000000000000000E+20
  9
$EXTMAX
 10
-1.000000000000000E+20
 20
-1.000000000000000E+20
 30
-1.000000000000000E+20
  9
$LIMMIN
 10
0.0
 20
0.0
  9
$LIMMAX
 10
420.0
 20
297.0
  9
$ORTHOMODE
 70
     0
  9
$REGENMODE
 70
     1
  9
$FILLMODE
 70
     1
  9
$QTEXTMODE
 70
     0
  9
$MIRRTEXT
 70
     1
  9
$LTSCALE
 40
1.0
  9
$ATTMODE
 70
     1
  9
$TEXTSIZE
 40
2.5
  9
$TRACEWID
 40
1.0
  9
$TEXTSTYLE
  7
Standard
  9
$CLAYER
  8
0
  9
$CELTYPE
  6
ByLayer
  9
$CECOLOR
 62
   256
  9
$CELTSCALE
 40
1.0
  9
$DISPSILH
 70
     0
  9
$DIMSCALE
 40
1.0
  9
$DIMASZ
 40
2.5
  9
$DIMEXO
 40
0.625
  9
$DIMDLI
 40
3.75
  9
$DIMRND
 40
0.0
  9
$DIMDLE
 40
0.0
  9
$DIMEXE
 40
1.25
  9
$DIMTP
 40
0.0
  9
$DIMTM
 40
0.0
  9
$DIMTXT
 40
2.5
  9
$DIMCEN
 40
2.5
  9
$DIMTSZ
 40
0.0
  9
$DIMTOL
 70
     0
  9
$DIMLIM
 70
     0
  9
$DIMTIH
 70
     0
  9
$DIMTOH
 70
     0
  9
$DIMSE1
 70
     0
  9
$DIMSE2
 70
     0
  9
$DIMTAD
 70
     1
  9
$DIMZIN
 70
     8
  9
$DIMBLK
  1

  9
$DIMASO
 70
     1
  9
$DIMSHO
 70
     1
  9
$DIMPOST
  1

  9
$DIMAPOST
  1

  9
$DIMALT
 70
     0
  9
$DIMALTD
 70
     3
  9
$DIMALTF
 40
0.03937007874016
  9
$DIMLFAC
 40
1.0
  9
$DIMTOFL
 70
     1
  9
$DIMTVP
 40
0.0
  9
$DIMTIX
 70
     0
  9
$DIMSOXD
 70
     0
  9
$DIMSAH
 70
     0
  9
$DIMBLK1
  1

  9
$DIMBLK2
  1

  9
$DIMSTYLE
  2
ISO-25
  9
$DIMCLRD
 70
     0
  9
$DIMCLRE
 70
     0
  9
$DIMCLRT
 70
     0
  9
$DIMTFAC
 40
1.0
  9
$DIMGAP
 40
0.625
  9
$DIMJUST
 70
     0
  9
$DIMSD1
 70
     0
  9
$DIMSD2
 70
     0
  9
$DIMTOLJ
 70
     0
  9
$DIMTZIN
 70
     8
  9
$DIMALTZ
 70
     0
  9
$DIMALTTZ
 70
     0
  9
$DIMUPT
 70
     0
  9
$DIMDEC
 70
     2
  9
$DIMTDEC
 70
     2
  9
$DIMALTU
 70
     2
  9
$DIMALTTD
 70
     3
  9
$DIMTXSTY
  7
Standard
  9
$DIMAUNIT
 70
     0
  9
$DIMADEC
 70
     0
  9
$DIMALTRND
 40
0.0
  9
$DIMAZIN
 70
     0
  9
$DIMDSEP
 70
    44
  9
$DIMATFIT
 70
     3
  9
$DIMFRAC
 70
     0
  9
$DIMLDRBLK
  1

  9
$DIMLUNIT
 70
     2
  9
$DIMLWD
 70
    -2
  9
$DIMLWE
 70
    -2
  9
$DIMTMOVE
 70
     0
  9
$DIMFXL
 40
1.0
  9
$DIMFXLON
 70
     0
  9
$DIMJOGANG
 40
0.7853981633974483
  9
$DIMTFILL
 70
     0
  9
$DIMTFILLCLR
 70
     0
  9
$DIMARCSYM
 70
     0
  9
$DIMLTYPE
  6

  9
$DIMLTEX1
  6

  9
$DIMLTEX2
  6

  9
$DIMTXTDIRECTION
 70
     0
  9
$LUNITS
 70
     2
  9
$LUPREC
 70
     4
  9
$SKETCHINC
 40
1.0
  9
$FILLETRAD
 40
10.0
  9
$AUNITS
 70
     0
  9
$AUPREC
 70
     0
  9
$MENU
  1
.
  9
$ELEVATION
 40
0.0
  9
$PELEVATION
 40
0.0
  9
$THICKNESS
 40
0.0
  9
$LIMCHECK
 70
     0
  9
$CHAMFERA
 40
0.0
  9
$CHAMFERB
 40
0.0
  9
$CHAMFERC
 40
0.0
  9
$CHAMFERD
 40
0.0
  9
$SKPOLY
 70
     0
  9
$TDCREATE
 40
2458168.992421088
  9
$TDUCREATE
 40
2458168.950754421
  9
$TDUPDATE
 40
2458168.992421262
  9
$TDUUPDATE
 40
2458168.950754595
  9
$TDINDWG
 40
0.0000000116
  9
$TDUSRTIMER
 40
0.0000000116
  9
$USRTIMER
 70
     1
  9
$ANGBASE
 50
0.0
  9
$ANGDIR
 70
     0
  9
$PDMODE
 70
     0
  9
$PDSIZE
 40
0.0
  9
$PLINEWID
 40
0.0
  9
$SPLFRAME
 70
     0
  9
$SPLINETYPE
 70
     6
  9
$SPLINESEGS
 70
     8
  9
$HANDSEED
  5
1FD
  9
$SURFTAB1
 70
     6
  9
$SURFTAB2
 70
     6
  9
$SURFTYPE
 70
     6
  9
$SURFU
 70
     6
  9
$SURFV
 70
     6
  9
$UCSBASE
  2

  9
$UCSNAME
  2

  9
$UCSORG
 10
0.0
 20
0.0
 30
0.0
  9
$UCSXDIR
 10
1.0
 20
0.0
 30
0.0
  9
$UCSYDIR
 10
0.0
 20
1.0
 30
0.0
  9
$UCSORTHOREF
  2

  9
$UCSORTHOVIEW
 70
     0
  9
$UCSORGTOP
 10
0.0
 20
0.0
 30
0.0
  9
$UCSORGBOTTOM
 10
0.0
 20
0.0
 30
0.0
  9
$UCSORGLEFT
 10
0.0
 20
0.0
 30
0.0
  9
$UCSORGRIGHT
 10
0.0
 20
0.0
 30
0.0
  9
$UCSORGFRONT
 10
0.0
 20
0.0
 30
0.0
  9
$UCSORGBACK
 10
0.0
 20
0.0
 30
0.0
  9
$PUCSBASE
  2

  9
$PUCSNAME
  2

  9
$PUCSORG
 10
0.0
 20
0.0
 30
0.0
  9
$PUCSXDIR
 10
1.0
 20
0.0
 30
0.0
  9
$PUCSYDIR
 10
0.0
 20
1.0
 30
0.0
  9
$PUCSORTHOREF
  2

  9
$PUCSORTHOVIEW
 70
     0
  9
$PUCSORGTOP
 10
0.0
 20
0.0
 30
0.0
  9
$PUCSORGBOTTOM
 10
0.0
 20
0.0
 30
0.0
  9
$PUCSORGLEFT
 10
0.0
 20
0.0
 30
0.0
  9
$PUCSORGRIGHT
 10
0.0
 20
0.0
 30
0.0
  9
$PUCSORGFRONT
 10
0.0
 20
0.0
 30
0.0
  9
$PUCSORGBACK
 10
0.0
 20
0.0
 30
0.0
  9
$USERI1
 70
     0
  9
$USERI2
 70
     0
  9
$USERI3
 70
     0
  9
$USERI4
 70
     0
  9
$USERI5
 70
     0
  9
$USERR1
 40
0.0
  9
$USERR2
 40
0.0
  9
$USERR3
 40
0.0
  9
$USERR4
 40
0.0
  9
$USERR5
 40
0.0
  9
$WORLDVIEW
 70
     1
  9
$SHADEDGE
 70
     3
  9
$SHADEDIF
 70
    70
  9
$TILEMODE
 70
     1
  9
$MAXACTVP
 70
    64
  9
$PINSBASE
 10
0.0
 20
0.0
 30
0.0
  9
$PLIMCHECK
 70
     0
  9
$PEXTMIN
 10
1.000000000000000E+20
 20
1.000000000000000E+20
 30
1.000000000000000E+20
  9
$PEXTMAX
 10
-1.000000000000000E+20
 20
-1.000000000000000E+20
 30
-1.000000000000000E+20
  9
$PLIMMIN
 10
0.0
 20
0.0
  9
$PLIMMAX
 10
420.0
 20
297.0
  9
$UNITMODE
 70
     0
  9
$VISRETAIN
 70
     1
  9
$PLINEGEN
 70
     0
  9
$PSLTSCALE
 70
     1
  9
$TREEDEPTH
 70
  3020
  9
$CMLSTYLE
  2
Standard
  9
$CMLJUST
 70
     0
  9
$CMLSCALE
 40
20.0
  9
$PROXYGRAPHICS
 70
     1
  9
$MEASUREMENT
 70
     1
  9
$CELWEIGHT
370
    -1
  9
$ENDCAPS
280
     0
  9
$JOINSTYLE
280
     0
  9
$LWDISPLAY
290
     0
  9
$INSUNITS
 70
     4
  9
$HYPERLINKBASE
  1

  9
$STYLESHEET
  1

  9
$XEDIT
290
     1
  9
$CEPSNTYPE
380
     0
  9
$PSTYLEMODE
290
     1
  9
$FINGERPRINTGUID
  2
{5EB2C5E4-894D-45AF-9001-AE771C16BD46}
  9
$VERSIONGUID
  2
{FAEB1C32-E019-11D5-929B-00C0DF256EC4}
  9
$EXTNAMES
290
     1
  9
$PSVPSCALE
 40
0.0
  9
$OLESTARTUP
290
     0
  9
$SORTENTS
280
   127
  9
$INDEXCTL
280
     0
  9
$HIDETEXT
280
     1
  9
$XCLIPFRAME
280
     2
  9
$HALOGAP
280
     0
  9
$OBSCOLOR
 70
   257
  9
$OBSLTYPE
280
     0
  9
$INTERSECTIONDISPLAY
280
     0
  9
$INTERSECTIONCOLOR
 70
   257
  9
$DIMASSOC
280
     2
  9
$PROJECTNAME
  1

  9
$CAMERADISPLAY
290
     0
  9
$LENSLENGTH
 40
50.0
  9
$CAMERAHEIGHT
 40
0.0
  9
$STEPSPERSEC
 40
2.0
  9
$STEPSIZE
 40
6.0
  9
$3DDWFPREC
 40
2.0
  9
$PSOLWIDTH
 40
5.0
  9
$PSOLHEIGHT
 40
80.0
  9
$LOFTANG1
 40
1.570796326794897
  9
$LOFTANG2
 40
1.570796326794897
  9
$LOFTMAG1
 40
0.0
  9
$LOFTMAG2
 40
0.0
  9
$LOFTPARAM
 70
     7
  9
$LOFTNORMALS
280
     1
  9
$LATITUDE
 40
37.795
  9
$LONGITUDE
 40
-122.394
  9
$NORTHDIRECTION
 40
0.0
  9
$TIMEZONE
 70
 -8000
  9
$LIGHTGLYPHDISPLAY
280
     1
  9
$TILEMODELIGHTSYNCH
280
     1
  9
$CMATERIAL
347
44
  9
$SOLIDHIST
280
     0
  9
$SHOWHIST
280
     1
  9
$DWFFRAME
280
     2
  9
$DGNFRAME
280
     2
  9
$REALWORLDSCALE
290
     1
  9
$INTERFERECOLOR
 62
   256
  9
$CSHADOW
280
     0
  9
$SHADOWPLANELOCATION
 40
0.0
  0
ENDSEC
  0
SECTION
  2
CLASSES
  0
CLASS
  1
ACDBDICTIONARYWDFLT
  2
AcDbDictionaryWithDefault
  3
ObjectDBX Classes
 90
        0
 91
        4
280
     0
281
     0
  0
CLASS
  1
VISUALSTYLE
  2
AcDbVisualStyle
  3
ObjectDBX Classes
 90
     4095
 91
        4
280
     0
281
     0
  0
CLASS
  1
MATERIAL
  2
AcDbMaterial
  3
ObjectDBX Classes
 90
     1153
 91
        4
280
     0
281
     0
  0
CLASS
  1
SCALE
  2
AcDbScale
  3
ObjectDBX Classes
 90
     1153
 91
        4
280
     0
281
     0
  0
CLASS
  1
TABLESTYLE
  2
AcDbTableStyle
  3
ObjectDBX Classes
 90
     4095
 91
        4
280
     0
281
     0
  0
CLASS
  1
MLEADERSTYLE
  2
AcDbMLeaderStyle
  3
ACDB_MLEADERSTYLE_CLASS
 90
     4095
 91
        4
280
     0
281
     0
  0
CLASS
  1
SUN
  2
AcDbSun
  3
SCENEOE
 90
     1153
 91
        4
280
     0
281
     0
  0
CLASS
  1
DICTIONARYVAR
  2
AcDbDictionaryVar
  3
ObjectDBX Classes
 90
        0
 91
        4
280
     0
281
     0
  0
CLASS
  1
CELLSTYLEMAP
  2
AcDbCellStyleMap
  3
ObjectDBX Classes
 90
     1152
 91
        4
280
     0
281
     0
  0
ENDSEC
  0
SECTION
  2
TABLES
  0
TABLE
  2
VPORT
  5
8
330
0
100
AcDbSymbolTable
 70
     1
  0
VPORT
  5
29
330
8
100
AcDbSymbolTableRecord
100
AcDbViewportTableRecord
  2
*Active
 70
     0
 10
0.0
 20
0.0
 11
1.0
 21
1.0
 12
0.0
 22
0.0
 13
0.0
 23
0.0
 14
10.0
 24
10.0
 15
10.0
 25
10.0
 16
0.0
 26
0.0
 36
1.0
 17
0.0
 27
0.0
 37
0.0
 40
110.16
 41
1.0
 42
50.0
 43
0.0
 44
0.0
 50
0.0
 51
0.0
 71
     0
 72
   100
 73
     1
 74
     3
 75
     0
 76
     0
 77
     0
 78
     0
281
     0
 65
     1
110
0.0
120
0.0
130
0.0
111
1.0
121
0.0
131
0.0
112
0.0
122
1.0
132
0.0
 79
     0
146
0.0
348
2F
 60
     3
 61
     5
292
     1
282
     1
141
0.0
142
0.0
 63
   250
361
6D
  0
ENDTAB
  0
TABLE
  2
LTYPE
  5
5
330
0
100
AcDbSymbolTable
 70
     3
  0
LTYPE
  5
14
330
5
100
AcDbSymbolTableRecord
100
AcDbLinetypeTableRecord
  2
ByBlock
 70
     0
  3

 72
    65
 73
     0
 40
0.0
  0
LTYPE
  5
15
330
5
100
AcDbSymbolTableRecord
100
AcDbLinetypeTableRecord
  2
ByLayer
 70
     0
  3

 72
    65
 73
     0
 40
0.0
  0
LTYPE
  5
16
330
5
100
AcDbSymbolTableRecord
100
AcDbLinetypeTableRecord
  2
Continuous
 70
     0
  3
Solid line
 72
    65
 73
     0
 40
0.0
  0
LTYPE
  5
9D
330
5
100
AcDbSymbolTableRecord
100
AcDbLinetypeTableRecord
  2
Dashed
 70
     0
  3

 72
    65
 73
     2
 40
2.0
 49
1.0
 74
     0
 49
-1.0
 74
     0
  0
LTYPE
  5
108
330
5
100
AcDbSymbolTableRecord
100
AcDbLinetypeTableRecord
  2
Center
 70
     0
  3

 72
    65
 73
     4
 40
1.5
 49
0.45
 74
     0
 49
-0.5
 74
     0
 49
0.05
 74
     0
 49
-0.5
 74
     0
  0
ENDTAB
  0
TABLE
  2
LAYER
  5
2
330
0
100
AcDbSymbolTable
 70
     7
  0
LAYER
  5
10
330
2
100
AcDbSymbolTableRecord
100
AcDbLayerTableRecord
  2
0
 70
     0
 62
     7
  6
Continuous
370
    -3
390
F
347
46
348
0
  0
LAYER
  5
72
330
2
100
AcDbSymbolTableRecord
100
AcDbLayerTableRecord
  2
AM_6
 70
     0
 62
    -2
  6
Continuous
370
    35
390
F
347
46
348
0
  0
LAYER
  5
9E
330
2
100
AcDbSymbolTableRecord
100
AcDbLayerTableRecord
  2
AM_9
 70
     0
 62
     6
  6
Dashed
370
    25
390
F
347
46
348
0
  0
LAYER
  5
A5
330
2
100
AcDbSymbolTableRecord
100
AcDbLayerTableRecord
  2
AM_4
 70
     0
 62
     3
  6
Continuous
370
    25
390
F
347
46
348
0
  0
LAYER
  5
D6
330
2
100
AcDbSymbolTableRecord
100
AcDbLayerTableRecord
  2
AM_5
 70
     0
 62
     3
  6
Continuous
370
    25
390
F
347
46
348
0
  0
LAYER
  5
109
330
2
100
AcDbSymbolTableRecord
100
AcDbLayerTableRecord
  2
AM_7
 70
     0
 62
     7
  6
Center
370
    25
390
F
347
46
348
0
  0
LAYER
  5
1F0
330
2
100
AcDbSymbolTableRecord
100
AcDbLayerTableRecord
  2
ConnectionPoints
 70
     0
 62
     7
  6
Continuous
370
    50
390
F
347
46
348
0
  0
ENDTAB
  0
TABLE
  2
STYLE
  5
3
330
0
100
AcDbSymbolTable
 70
     1
  0
STYLE
  5
11
330
3
100
AcDbSymbolTableRecord
100
AcDbTextStyleTableRecord
  2
Standard
 70
     0
 40
0.0
 41
1.0
 50
0.0
 71
     0
 42
2.5
  3
txt
  4

  0
ENDTAB
  0
TABLE
  2
VIEW
  5
6
330
0
100
AcDbSymbolTable
 70
     0
  0
ENDTAB
  0
TABLE
  2
UCS
  5
7
330
0
100
AcDbSymbolTable
 70
     0
  0
ENDTAB
  0
TABLE
  2
APPID
  5
9
330
0
100
AcDbSymbolTable
 70
     1
  0
APPID
  5
12
330
9
100
AcDbSymbolTableRecord
100
AcDbRegAppTableRecord
  2
ACAD
 70
     0
  0
ENDTAB
  0
TABLE
  2
DIMSTYLE
  5
A
330
0
100
AcDbSymbolTable
 70
     1
100
AcDbDimStyleTable
  0
DIMSTYLE
105
27
330
A
100
AcDbSymbolTableRecord
100
AcDbDimStyleTableRecord
  2
ISO-25
 70
     0
 41
2.5
 42
0.625
 43
3.75
 44
1.25
 73
     0
 74
     0
 77
     1
 78
     8
140
2.5
141
2.5
143
0.03937007874016
147
0.625
171
     3
172
     1
178
     0
271
     2
272
     2
274
     3
278
    44
283
     0
284
     8
340
11
  0
ENDTAB
  0
TABLE
  2
BLOCK_RECORD
  5
1
330
0
100
AcDbSymbolTable
 70
     5
  0
BLOCK_RECORD
  5
1F
330
1
100
AcDbSymbolTableRecord
100
AcDbBlockTableRecord
  2
*Model_Space
340
22
 70
     0
280
     1
281
     0
  0
BLOCK_RECORD
  5
1B
330
1
100
AcDbSymbolTableRecord
100
AcDbBlockTableRecord
  2
*Paper_Space
340
1E
 70
     0
280
     1
281
     0
  0
BLOCK_RECORD
  5
23
330
1
100
AcDbSymbolTableRecord
100
AcDbBlockTableRecord
  2
*Paper_Space0
340
26
 70
     0
280
     1
281
     0
  0
BLOCK_RECORD
  5
6E
330
1
100
AcDbSymbolTableRecord
100
AcDbBlockTableRecord
  2
1_129712_0
340
0
102
{BLKREFS
331
6F
102
}
 70
     0
280
     1
281
     0
  0
BLOCK_RECORD
  5
87
330
1
100
AcDbSymbolTableRecord
100
AcDbBlockTableRecord
  2
2_INS_GT_06_CR_0_in_129712_0
340
0
102
{BLKREFS
331
88
102
}
 70
     0
280
     1
281
     0
  0
BLOCK_RECORD
  5
AD
330
1
100
AcDbSymbolTableRecord
100
AcDbBlockTableRecord
  2
3_129982_0_in_129712_0
340
0
102
{BLKREFS
331
AE
102
}
 70
     0
280
     1
281
     0
  0
BLOCK_RECORD
  5
EF
330
1
100
AcDbSymbolTableRecord
100
AcDbBlockTableRecord
  2
4_F4B_GTEZ_06_PCR_0_in_129712_0
340
0
102
{BLKREFS
331
F0
102
}
 70
     0
280
     1
281
     0
  0
ENDTAB
  0
ENDSEC
  0
SECTION
  2
BLOCKS
  0
BLOCK
  5
20
330
1F
100
AcDbEntity
  8
0
100
AcDbBlockBegin
  2
*Model_Space
 70
     0
 10
0.0
 20
0.0
 30
0.0
  3
*Model_Space
  1

  0
ENDBLK
  5
21
330
1F
100
AcDbEntity
  8
0
100
AcDbBlockEnd
  0
BLOCK
  5
1C
330
1B
100
AcDbEntity
 67
     1
  8
0
100
AcDbBlockBegin
  2
*Paper_Space
 70
     0
 10
0.0
 20
0.0
 30
0.0
  3
*Paper_Space
  1

  0
ENDBLK
  5
1D
330
1B
100
AcDbEntity
 67
     1
  8
0
100
AcDbBlockEnd
  0
BLOCK
  5
24
330
23
100
AcDbEntity
  8
0
100
AcDbBlockBegin
  2
*Paper_Space0
 70
     0
 10
0.0
 20
0.0
 30
0.0
  3
*Paper_Space0
  1

  0
ENDBLK
  5
25
330
23
100
AcDbEntity
  8
0
100
AcDbBlockEnd
  0
BLOCK
  5
70
330
6E
100
AcDbEntity
  8
0
100
AcDbBlockBegin
  2
1_129712_0
 70
     2
 10
0.0
 20
0.0
 30
0.0
  3
1_129712_0
  1

  0
ATTDEF
  5
73
330
6E
100
AcDbEntity
  8
AM_6
100
AcDbText
 10
59.0
 20
54.0
 30
0.0
 40
0.5
  1
Grip Tight EZ Kleen Polymer Housed Four Bolt Flange Metric Bore
100
AcDbAttributeDefinition
  3

  2
NN
 70
     8
280
     0
  0
ATTDEF
  5
74
330
6E
100
AcDbEntity
  8
AM_6
100
AcDbText
 10
59.0
 20
53.5
 30
0.0
 40
0.5
  1
GTEZ Normal Duty Polymer Housed 4 Bolt Flange Bearings
100
AcDbAttributeDefinition
  3

  2
NT
 70
     8
280
     0
  0
ATTDEF
  5
75
330
6E
100
AcDbEntity
  8
AM_6
100
AcDbText
 10
59.0
 20
53.0
 30
0.0
 40
0.5
  1
129712
100
AcDbAttributeDefinition
  3

  2
NB
 70
     8
280
     0
  0
ATTDEF
  5
76
330
6E
100
AcDbEntity
  8
AM_6
100
AcDbText
 10
59.0
 20
52.5
 30
0.0
 40
0.5
  1
$PN.$LUBE.
100
AcDbAttributeDefinition
  3

  2
NBSYN
 70
     8
280
     0
  0
ATTDEF
  5
77
330
6E
100
AcDbEntity
  8
AM_6
100
AcDbText
 10
59.0
 20
52.0
 30
0.0
 40
0.5
  1
129712
100
AcDbAttributeDefinition
  3

  2
LINA
 70
     8
280
     0
  0
ATTDEF
  5
78
330
6E
100
AcDbEntity
  8
AM_6
100
AcDbText
 10
59.0
 20
51.5
 30
0.0
 40
0.5
  1
206
100
AcDbAttributeDefinition
  3

  2
SERIES
 70
     8
280
     0
  0
ATTDEF
  5
79
330
6E
100
AcDbEntity
  8
AM_6
100
AcDbText
 10
59.0
 20
51.0
 30
0.0
 40
0.5
  1
30
100
AcDbAttributeDefinition
  3

  2
SS
 70
     8
280
     0
  0
ATTDEF
  5
7A
330
6E
100
AcDbEntity
  8
AM_6
100
AcDbText
 10
59.0
 20
50.5
 30
0.0
 40
0.5
  1
129712
100
AcDbAttributeDefinition
  3

  2
PN
 70
     8
280
     0
  0
ATTDEF
  5
7B
330
6E
100
AcDbEntity
  8
AM_6
100
AcDbText
 10
59.0
 20
50.0
 30
0.0
 40
0.5
  1
F4B-GTEZ-30M-PCR
100
AcDbAttributeDefinition
  3

  2
DESCRIPTION
 70
     8
280
     0
  0
ATTDEF
  5
7C
330
6E
100
AcDbEntity
  8
AM_6
100
AcDbText
 10
59.0
 20
49.5
 30
0.0
 40
0.5
  1
40.9
100
AcDbAttributeDefinition
  3

  2
A
 70
     8
280
     0
  0
ATTDEF
  5
7D
330
6E
100
AcDbEntity
  8
AM_6
100
AcDbText
 10
59.0
 20
49.0
 30
0.0
 40
0.5
  1
108.0
100
AcDbAttributeDefinition
  3

  2
B
 70
     8
280
     0
  0
ATTDEF
  5
7E
330
6E
100
AcDbEntity
  8
AM_6
100
AcDbText
 10
59.0
 20
48.5
 30
0.0
 40
0.5
  1
47.2
100
AcDbAttributeDefinition
  3

  2
C
 70
     8
280
     0
  0
ATTDEF
  5
7F
330
6E
100
AcDbEntity
  8
AM_6
100
AcDbText
 10
59.0
 20
48.0
 30
0.0
 40
0.5
  1
82.6
100
AcDbAttributeDefinition
  3

  2
D
 70
     8
280
     0
  0
ATTDEF
  5
80
330
6E
100
AcDbEntity
  8
AM_6
100
AcDbText
 10
59.0
 20
47.5
 30
0.0
 40
0.5
  1
M10
100
AcDbAttributeDefinition
  3

  2
F
 70
     8
280
     0
  0
ATTDEF
  5
81
330
6E
100
AcDbEntity
  8
AM_6
100
AcDbText
 10
59.0
 20
47.0
 30
0.0
 40
0.5
  1
15.5
100
AcDbAttributeDefinition
  3

  2
H
 70
     8
280
     0
  0
ATTDEF
  5
82
330
6E
100
AcDbEntity
  8
AM_6
100
AcDbText
 10
59.0
 20
46.5
 30
0.0
 40
0.5
  1
13.9
100
AcDbAttributeDefinition
  3

  2
J
 70
     8
280
     0
  0
ATTDEF
  5
83
330
6E
100
AcDbEntity
  8
AM_6
100
AcDbText
 10
59.0
 20
46.0
 30
0.0
 40
0.5
  1
50.8
100
AcDbAttributeDefinition
  3

  2
L
 70
     8
280
     0
  0
ATTDEF
  5
84
330
6E
100
AcDbEntity
  8
AM_6
100
AcDbText
 10
59.0
 20
45.5
 30
0.0
 40
0.5
  1
46.0
100
AcDbAttributeDefinition
  3

  2
Z
 70
     8
280
     0
  0
ATTDEF
  5
85
330
6E
100
AcDbEntity
  8
AM_6
100
AcDbText
 10
59.0
 20
45.0
 30
0.0
 40
0.5
  1
f4b_gtez_templ.prj
100
AcDbAttributeDefinition
  3

  2
PPATH
 70
     8
280
     0
  0
ATTDEF
  5
86
330
6E
100
AcDbEntity
  8
AM_6
100
AcDbText
 10
59.0
 20
44.5
 30
0.0
 40
0.5
  1
baldor
100
AcDbAttributeDefinition
  3

  2
COMPANY
 70
     8
280
     0
  0
INSERT
  5
88
330
6E
100
AcDbEntity
  8
0
100
AcDbBlockReference
  2
2_INS_GT_06_CR_0_in_129712_0
 10
0.0
 20
0.0
 30
0.0
  0
INSERT
  5
AE
330
6E
100
AcDbEntity
  8
0
100
AcDbBlockReference
  2
3_129982_0_in_129712_0
 10
0.0
 20
0.0
 30
0.0
  0
INSERT
  5
F0
330
6E
100
AcDbEntity
  8
0
100
AcDbBlockReference
  2
4_F4B_GTEZ_06_PCR_0_in_129712_0
 10
0.0
 20
0.0
 30
0.0
  0
ENDBLK
  5
71
330
6E
100
AcDbEntity
  8
0
100
AcDbBlockEnd
  0
BLOCK
  5
89
330
87
100
AcDbEntity
  8
0
100
AcDbBlockBegin
  2
2_INS_GT_06_CR_0_in_129712_0
 70
     2
 10
0.0
 20
0.0
 30
0.0
  3
2_INS_GT_06_CR_0_in_129712_0
  1

  0
ATTDEF
  5
8B
330
87
100
AcDbEntity
  8
AM_6
100
AcDbText
 10
35.70748611980416
 20
30.70748611980416
 30
0.0
 40
0.5
  1
INS-GT-CR-M
100
AcDbAttributeDefinition
  3

  2
NN
 70
     8
280
     0
  0
ATTDEF
  5
8C
330
87
100
AcDbEntity
  8
AM_6
100
AcDbText
 10
35.70748611980416
 20
30.20748611980416
 30
0.0
 40
0.5
  1
GT Normal Duty Corrosion Resistant Bearing Inserts
100
AcDbAttributeDefinition
  3

  2
NT
 70
     8
280
     0
  0
ATTDEF
  5
8D
330
87
100
AcDbEntity
  8
AM_6
100
AcDbText
 10
35.70748611980416
 20
29.70748611980416
 30
0.0
 40
0.5
  1
INS-GT-06-CR
100
AcDbAttributeDefinition
  3

  2
NB
 70
     8
280
     0
  0
ATTDEF
  5
8E
330
87
100
AcDbEntity
  8
AM_6
100
AcDbText
 10
35.70748611980416
 20
29.20748611980416
 30
0.0
 40
0.5
  1
$PN.
100
AcDbAttributeDefinition
  3

  2
NBSYN
 70
     8
280
     0
  0
ATTDEF
  5
8F
330
87
100
AcDbEntity
  8
AM_6
100
AcDbText
 10
35.70748611980416
 20
28.70748611980416
 30
0.0
 40
0.5
  1
INS-GT-06-CR
100
AcDbAttributeDefinition
  3

  2
LINA
 70
     8
280
     0
  0
ATTDEF
  5
90
330
87
100
AcDbEntity
  8
AM_6
100
AcDbText
 10
35.70748611980416
 20
28.20748611980416
 30
0.0
 40
0.5
  1
206
100
AcDbAttributeDefinition
  3

  2
SERIES
 70
     8
280
     0
  0
ATTDEF
  5
91
330
87
100
AcDbEntity
  8
AM_6
100
AcDbText
 10
35.70748611980416
 20
27.70748611980416
 30
0.0
 40
0.5
  1
INS-GT-06-CR
100
AcDbAttributeDefinition
  3

  2
PN
 70
     8
280
     0
  0
ATTDEF
  5
92
330
87
100
AcDbEntity
  8
AM_6
100
AcDbText
 10
35.70748611980416
 20
27.20748611980416
 30
0.0
 40
0.5
  1
INS-GT-06-CR
100
AcDbAttributeDefinition
  3

  2
DESCRIPTION
 70
     8
280
     0
  0
ATTDEF
  5
93
330
87
100
AcDbEntity
  8
AM_6
100
AcDbText
 10
35.70748611980416
 20
26.70748611980416
 30
0.0
 40
0.5
  1
40.9
100
AcDbAttributeDefinition
  3

  2
A
 70
     8
280
     0
  0
ATTDEF
  5
94
330
87
100
AcDbEntity
  8
AM_6
100
AcDbText
 10
35.70748611980416
 20
26.20748611980416
 30
0.0
 40
0.5
  1
18.0
100
AcDbAttributeDefinition
  3

  2
C
 70
     8
280
     0
  0
ATTDEF
  5
95
330
87
100
AcDbEntity
  8
AM_6
100
AcDbText
 10
35.70748611980416
 20
25.70748611980416
 30
0.0
 40
0.5
  1
62.0
100
AcDbAttributeDefinition
  3

  2
D
 70
     8
280
     0
  0
ATTDEF
  5
96
330
87
100
AcDbEntity
  8
AM_6
100
AcDbText
 10
35.70748611980416
 20
25.20748611980416
 30
0.0
 40
0.5
  1
4.8
100
AcDbAttributeDefinition
  3

  2
J
 70
     8
280
     0
  0
ATTDEF
  5
97
330
87
100
AcDbEntity
  8
AM_6
100
AcDbText
 10
35.70748611980416
 20
24.70748611980416
 30
0.0
 40
0.5
  1
50.8
100
AcDbAttributeDefinition
  3

  2
L
 70
     8
280
     0
  0
ATTDEF
  5
98
330
87
100
AcDbEntity
  8
AM_6
100
AcDbText
 10
35.70748611980416
 20
24.20748611980416
 30
0.0
 40
0.5
  1
10 - 32 x 1/4
100
AcDbAttributeDefinition
  3

  2
N
 70
     8
280
     0
  0
ATTDEF
  5
99
330
87
100
AcDbEntity
  8
AM_6
100
AcDbText
 10
35.70748611980416
 20
23.70748611980416
 30
0.0
 40
0.5
  1
13.5
100
AcDbAttributeDefinition
  3

  2
W
 70
     8
280
     0
  0
ATTDEF
  5
9A
330
87
100
AcDbEntity
  8
AM_6
100
AcDbText
 10
35.70748611980416
 20
23.20748611980416
 30
0.0
 40
0.5
  1
26.2
100
AcDbAttributeDefinition
  3

  2
X
 70
     8
280
     0
  0
ATTDEF
  5
9B
330
87
100
AcDbEntity
  8
AM_6
100
AcDbText
 10
35.70748611980416
 20
22.70748611980416
 30
0.0
 40
0.5
  1
27.4
100
AcDbAttributeDefinition
  3

  2
Y
 70
     8
280
     0
  0
ATTDEF
  5
9C
330
87
100
AcDbEntity
  8
AM_6
100
AcDbText
 10
35.70748611980416
 20
22.20748611980416
 30
0.0
 40
0.5
  1
baldor
100
AcDbAttributeDefinition
  3

  2
COMPANY
 70
     8
280
     0
  0
CIRCLE
  5
9F
330
87
100
AcDbEntity
  8
AM_9
100
AcDbCircle
 10
0.0000000000000017
 20
0.0
 30
0.0
 40
19.7165902587875
  0
CIRCLE
  5
A0
330
87
100
AcDbEntity
  8
AM_9
100
AcDbCircle
 10
0.0000000000000017
 20
0.0
 30
0.0
 40
29.2
  0
CIRCLE
  5
A1
330
87
100
AcDbEntity
  8
AM_9
100
AcDbCircle
 10
0.0000000000000017
 20
0.0
 30
0.0
 40
30.04737846609265
  0
CIRCLE
  5
A2
330
87
100
AcDbEntity
  8
AM_9
100
AcDbCircle
 10
0.0000000000000017
 20
0.0
 30
0.0
 40
20.76349206349206
  0
CIRCLE
  5
A3
330
87
100
AcDbEntity
  8
AM_9
100
AcDbCircle
 10
0.0000000000000017
 20
0.0
 30
0.0
 40
22.57777777777778
  0
CIRCLE
  5
A4
330
87
100
AcDbEntity
  8
AM_9
100
AcDbCircle
 10
0.0000000000000017
 20
0.0
 30
0.0
 40
21.85777777777778
  0
CIRCLE
  5
A6
330
87
100
AcDbEntity
  8
AM_4
100
AcDbCircle
 10
0.0000000000000017
 20
0.0
 30
0.0
 40
30.70748611980416
  0
CIRCLE
  5
A7
330
87
100
AcDbEntity
  8
AM_4
100
AcDbCircle
 10
0.0000000000000017
 20
0.0
 30
0.0
 40
30.52973615199332
  0
CIRCLE
  5
A8
330
87
100
AcDbEntity
  8
AM_4
100
AcDbCircle
 10
0.0000000000000017
 20
0.0
 30
0.0
 40
30.22737846609265
  0
CIRCLE
  5
A9
330
87
100
AcDbEntity
  8
AM_4
100
AcDbCircle
 10
0.0000000000000017
 20
0.0
 30
0.0
 40
30.22138915537779
  0
CIRCLE
  5
AA
330
87
100
AcDbEntity
  8
AM_4
100
AcDbCircle
 10
0.0000000000000017
 20
0.0
 30
0.0
 40
29.38484775794256
  0
CIRCLE
  5
AB
330
87
100
AcDbEntity
  8
AM_4
100
AcDbCircle
 10
0.0000000000000017
 20
0.0
 30
0.0
 40
28.71454475000586
  0
ARC
  5
AC
330
87
100
AcDbEntity
  8
AM_4
100
AcDbCircle
 10
0.0000000000000017
 20
-0.0000000000036806
 30
0.0
 40
18.94920634921003
100
AcDbArc
 50
86.21769022246676
 51
93.78230977753324
  0
ENDBLK
  5
8A
330
87
100
AcDbEntity
  8
0
100
AcDbBlockEnd
  0
BLOCK
  5
AF
330
AD
100
AcDbEntity
  8
0
100
AcDbBlockBegin
  2
3_129982_0_in_129712_0
 70
     2
 10
0.0
 20
0.0
 30
0.0
  3
3_129982_0_in_129712_0
  1

  0
ATTDEF
  5
B1
330
AD
100
AcDbEntity
  8
AM_6
100
AcDbText
 10
30.28635995947222
 20
25.39979515883224
 30
0.0
 40
0.5
  1
Grip Tight Adapter and Nut - Corrosion Resistant Metric Bore
100
AcDbAttributeDefinition
  3

  2
NN
 70
     8
280
     0
  0
ATTDEF
  5
B2
330
AD
100
AcDbEntity
  8
AM_6
100
AcDbText
 10
30.28635995947222
 20
24.89979515883224
 30
0.0
 40
0.5
  1
GT and GTM Adapter & Lock Nut Assemblies
100
AcDbAttributeDefinition
  3

  2
NT
 70
     8
280
     0
  0
ATTDEF
  5
B3
330
AD
100
AcDbEntity
  8
AM_6
100
AcDbText
 10
30.28635995947222
 20
24.39979515883224
 30
0.0
 40
0.5
  1
129982
100
AcDbAttributeDefinition
  3

  2
NB
 70
     8
280
     0
  0
ATTDEF
  5
B4
330
AD
100
AcDbEntity
  8
AM_6
100
AcDbText
 10
30.28635995947222
 20
23.89979515883224
 30
0.0
 40
0.5
  1
$PN.
100
AcDbAttributeDefinition
  3

  2
NBSYN
 70
     8
280
     0
  0
ATTDEF
  5
B5
330
AD
100
AcDbEntity
  8
AM_6
100
AcDbText
 10
30.28635995947222
 20
23.39979515883224
 30
0.0
 40
0.5
  1
129982
100
AcDbAttributeDefinition
  3

  2
LINA
 70
     8
280
     0
  0
ATTDEF
  5
B6
330
AD
100
AcDbEntity
  8
AM_6
100
AcDbText
 10
30.28635995947222
 20
22.89979515883224
 30
0.0
 40
0.5
  1
206
100
AcDbAttributeDefinition
  3

  2
SERIES
 70
     8
280
     0
  0
ATTDEF
  5
B7
330
AD
100
AcDbEntity
  8
AM_6
100
AcDbText
 10
30.28635995947222
 20
22.39979515883224
 30
0.0
 40
0.5
  1
30
100
AcDbAttributeDefinition
  3

  2
SS
 70
     8
280
     0
  0
ATTDEF
  5
B8
330
AD
100
AcDbEntity
  8
AM_6
100
AcDbText
 10
30.28635995947222
 20
21.89979515883224
 30
0.0
 40
0.5
  1
129982
100
AcDbAttributeDefinition
  3

  2
PN
 70
     8
280
     0
  0
ATTDEF
  5
B9
330
AD
100
AcDbEntity
  8
AM_6
100
AcDbText
 10
30.28635995947222
 20
21.39979515883224
 30
0.0
 40
0.5
  1
AN-GT-06-30M-CR
100
AcDbAttributeDefinition
  3

  2
DESCRIPTION
 70
     8
280
     0
  0
ATTDEF
  5
BA
330
AD
100
AcDbEntity
  8
AM_6
100
AcDbText
 10
30.28635995947222
 20
20.89979515883224
 30
0.0
 40
0.5
  1
40.9
100
AcDbAttributeDefinition
  3

  2
A
 70
     8
280
     0
  0
ATTDEF
  5
BB
330
AD
100
AcDbEntity
  8
AM_6
100
AcDbText
 10
30.28635995947222
 20
20.39979515883224
 30
0.0
 40
0.5
  1
18.0
100
AcDbAttributeDefinition
  3

  2
C
 70
     8
280
     0
  0
ATTDEF
  5
BC
330
AD
100
AcDbEntity
  8
AM_6
100
AcDbText
 10
30.28635995947222
 20
19.89979515883224
 30
0.0
 40
0.5
  1
62.0
100
AcDbAttributeDefinition
  3

  2
D
 70
     8
280
     0
  0
ATTDEF
  5
BD
330
AD
100
AcDbEntity
  8
AM_6
100
AcDbText
 10
30.28635995947222
 20
19.39979515883224
 30
0.0
 40
0.5
  1
4.8
100
AcDbAttributeDefinition
  3

  2
J
 70
     8
280
     0
  0
ATTDEF
  5
BE
330
AD
100
AcDbEntity
  8
AM_6
100
AcDbText
 10
30.28635995947222
 20
18.89979515883224
 30
0.0
 40
0.5
  1
50.8
100
AcDbAttributeDefinition
  3

  2
L
 70
     8
280
     0
  0
ATTDEF
  5
BF
330
AD
100
AcDbEntity
  8
AM_6
100
AcDbText
 10
30.28635995947222
 20
18.39979515883224
 30
0.0
 40
0.5
  1
10 - 32 x 1/4
100
AcDbAttributeDefinition
  3

  2
N
 70
     8
280
     0
  0
ATTDEF
  5
C0
330
AD
100
AcDbEntity
  8
AM_6
100
AcDbText
 10
30.28635995947222
 20
17.89979515883224
 30
0.0
 40
0.5
  1
13.5
100
AcDbAttributeDefinition
  3

  2
W
 70
     8
280
     0
  0
ATTDEF
  5
C1
330
AD
100
AcDbEntity
  8
AM_6
100
AcDbText
 10
30.28635995947222
 20
17.39979515883224
 30
0.0
 40
0.5
  1
26.2
100
AcDbAttributeDefinition
  3

  2
X
 70
     8
280
     0
  0
ATTDEF
  5
C2
330
AD
100
AcDbEntity
  8
AM_6
100
AcDbText
 10
30.28635995947222
 20
16.89979515883224
 30
0.0
 40
0.5
  1
27.4
100
AcDbAttributeDefinition
  3

  2
Y
 70
     8
280
     0
  0
ATTDEF
  5
C3
330
AD
100
AcDbEntity
  8
AM_6
100
AcDbText
 10
30.28635995947222
 20
16.39979515883224
 30
0.0
 40
0.5
  1
baldor
100
AcDbAttributeDefinition
  3

  2
COMPANY
 70
     8
280
     0
  0
LINE
  5
C4
330
AD
100
AcDbEntity
  8
AM_9
100
AcDbLine
 10
1.250000000000002
 20
18.94943254666444
 30
0.0
 11
1.250000000000002
 21
19.72416421191825
 31
0.0
  0
LINE
  5
C5
330
AD
100
AcDbEntity
  8
AM_9
100
AcDbLine
 10
-1.249999999999998
 20
18.94943254666444
 30
0.0
 11
-1.249999999999998
 21
19.72416421191825
 31
0.0
  0
ARC
  5
C6
330
AD
100
AcDbEntity
  8
AM_9
100
AcDbCircle
 10
0.0000000000000018
 20
0.0000000000000018
 30
0.0
 40
19.76373329760136
100
AcDbArc
 50
93.62621567386442
 51
86.37378432613559
  0
CIRCLE
  5
C7
330
AD
100
AcDbEntity
  8
AM_9
100
AcDbCircle
 10
0.0000000000000017
 20
0.0
 30
0.0
 40
20.76349206349208
  0
CIRCLE
  5
C8
330
AD
100
AcDbEntity
  8
AM_9
100
AcDbCircle
 10
0.0000000000000017
 20
0.0
 30
0.0
 40
22.8317777777778
  0
LINE
  5
C9
330
AD
100
AcDbEntity
  8
AM_9
100
AcDbLine
 10
-24.9682
 20
-1.981199999999999
 30
0.0
 11
-19.4818
 21
-1.981199999999999
 31
0.0
  0
LINE
  5
CA
330
AD
100
AcDbEntity
  8
AM_9
100
AcDbLine
 10
-19.4818
 20
1.981199999999999
 30
0.0
 11
-24.9682
 21
1.981199999999999
 31
0.0
  0
LINE
  5
CB
330
AD
100
AcDbEntity
  8
AM_9
100
AcDbLine
 10
-19.4818
 20
-1.981199999999999
 30
0.0
 11
-19.05
 21
-2.412999999999998
 31
0.0
  0
LINE
  5
CC
330
AD
100
AcDbEntity
  8
AM_9
100
AcDbLine
 10
-19.05
 20
2.412999999999998
 30
0.0
 11
-19.4818
 21
1.981199999999999
 31
0.0
  0
LINE
  5
CD
330
AD
100
AcDbEntity
  8
AM_9
100
AcDbLine
 10
-19.05
 20
2.412999999999998
 30
0.0
 11
-19.05
 21
-2.412999999999998
 31
0.0
  0
LINE
  5
CE
330
AD
100
AcDbEntity
  8
AM_9
100
AcDbLine
 10
-19.4818
 20
1.981199999999999
 30
0.0
 11
-19.4818
 21
-1.981199999999999
 31
0.0
  0
LINE
  5
CF
330
AD
100
AcDbEntity
  8
AM_9
100
AcDbLine
 10
-24.9682
 20
1.981199999999999
 30
0.0
 11
-25.28057159830409
 21
2.293571598304091
 31
0.0
  0
LINE
  5
D0
330
AD
100
AcDbEntity
  8
AM_9
100
AcDbLine
 10
-25.28106001738229
 20
-2.294060017382291
 30
0.0
 11
-24.9682
 21
-1.981199999999999
 31
0.0
  0
LINE
  5
D1
330
AD
100
AcDbEntity
  8
AM_9
100
AcDbLine
 10
-24.9682
 20
1.981199999999999
 30
0.0
 11
-24.9682
 21
-1.981199999999999
 31
0.0
  0
LWPOLYLINE
  5
D2
330
AD
100
AcDbEntity
  8
AM_9
100
AcDbPolyline
 90
        6
 70
     0
 43
0.0
 10
-25.39635933960474
 20
0.4300375491412788
 10
-25.38643016692052
 20
0.830158647529539
 10
-25.35777478450607
 20
1.463987014378448
 10
-25.32445150031309
 20
1.957589387049899
 10
-25.30004655404916
 20
2.251142901493713
 10
-25.29492956924183
 20
2.307929393871379
  0
LINE
  5
D3
330
AD
100
AcDbEntity
  8
AM_9
100
AcDbLine
 10
-25.39875568332902
 20
0.2514154700349617
 30
0.0
 11
-25.39635933960474
 21
0.4300375491412788
 31
0.0
  0
LINE
  5
D4
330
AD
100
AcDbEntity
  8
AM_9
100
AcDbLine
 10
-25.39463634614064
 20
-0.5219624960464558
 30
0.0
 11
-25.39961675870456
 21
-0.1395296059434289
 31
0.0
  0
LWPOLYLINE
  5
D5
330
AD
100
AcDbEntity
  8
AM_9
100
AcDbPolyline
 90
        6
 70
     0
 43
0.0
 10
-25.29492957582373
 20
-2.307929321733775
 10
-25.30067017167797
 20
-2.244123183776967
 10
-25.32735971175893
 20
-1.919596319847178
 10
-25.36358383371394
 20
-1.359637859933721
 10
-25.39169186634768
 20
-0.6496030822380815
 10
-25.39463634614064
 20
-0.5219624960464558
  0
LINE
  5
D7
330
AD
100
AcDbEntity
  8
AM_5
100
AcDbLine
 10
-25.28512272068302
 20
-2.412999999999998
 30
0.0
 11
-19.05
 21
-2.412999999999998
 31
0.0
  0
LINE
  5
D8
330
AD
100
AcDbEntity
  8
AM_5
100
AcDbLine
 10
-25.28512272068302
 20
2.413000000000002
 30
0.0
 11
-19.05
 21
2.413000000000002
 31
0.0
  0
LINE
  5
D9
330
AD
100
AcDbEntity
  8
AM_4
100
AcDbLine
 10
-9.77486954201906
 20
21.73057068413451
 30
0.0
 11
-10.56471901065347
 21
23.09863009414059
 31
0.0
  0
LINE
  5
DA
330
AD
100
AcDbEntity
  8
AM_4
100
AcDbLine
 10
25.28635995947222
 20
2.4
 30
0.0
 11
23.70666102220341
 21
2.4
 31
0.0
  0
ARC
  5
DB
330
AD
100
AcDbEntity
  8
AM_4
100
AcDbCircle
 10
0.0000000000000107
 20
0.0000000000000124
 30
0.0
 40
25.39999999999999
100
AcDbArc
 50
5.421862692405187
 51
114.5781373075949
  0
LINE
  5
DC
330
AD
100
AcDbEntity
  8
AM_4
100
AcDbLine
 10
-10.56471901065345
 20
-23.09863009414059
 30
0.0
 11
-9.774869542019042
 21
-21.73057068413452
 31
0.0
  0
LINE
  5
DD
330
AD
100
AcDbEntity
  8
AM_4
100
AcDbLine
 10
23.70666102220341
 20
-2.4
 30
0.0
 11
25.28635995947222
 21
-2.4
 31
0.0
  0
ARC
  5
DE
330
AD
100
AcDbEntity
  8
AM_4
100
AcDbCircle
 10
0.000000000000004
 20
-0.0000000000000071
 30
0.0
 40
25.39999999999999
100
AcDbArc
 50
245.4218626924051
 51
354.5781373075948
  0
LINE
  5
DF
330
AD
100
AcDbEntity
  8
AM_4
100
AcDbLine
 10
1.250000000000002
 20
14.94782592887675
 30
0.0
 11
1.250000000000002
 21
18.94920634920635
 31
0.0
  0
LINE
  5
E0
330
AD
100
AcDbEntity
  8
AM_4
100
AcDbLine
 10
-1.249999999999998
 20
14.94782592887675
 30
0.0
 11
-1.249999999999999
 21
18.94920634920635
 31
0.0
  0
LINE
  5
E1
330
AD
100
AcDbEntity
  8
AM_4
100
AcDbLine
 10
23.70666102220341
 20
2.4
 30
0.0
 11
23.70666102220341
 21
-2.4
 31
0.0
  0
LINE
  5
E2
330
AD
100
AcDbEntity
  8
AM_4
100
AcDbLine
 10
-13.93179148018436
 20
19.3305706841345
 30
0.0
 11
-9.77486954201906
 21
21.73057068413451
 31
0.0
  0
LINE
  5
E3
330
AD
100
AcDbEntity
  8
AM_4
100
AcDbLine
 10
-1.249999999999999
 20
18.94920634920635
 30
0.0
 11
1.250000000000002
 21
18.94920634920635
 31
0.0
  0
ARC
  5
E4
330
AD
100
AcDbEntity
  8
AM_4
100
AcDbCircle
 10
0.0
 20
0.0000000000000071
 30
0.0
 40
24.68
100
AcDbArc
 50
5.580531856409738
 51
114.4194681435902
  0
LINE
  5
E5
330
AD
100
AcDbEntity
  8
AM_4
100
AcDbLine
 10
-14.72164094881877
 20
20.69863009414058
 30
0.0
 11
-13.93179148018436
 21
19.3305706841345
 31
0.0
  0
LINE
  5
E6
330
AD
100
AcDbEntity
  8
AM_4
100
AcDbLine
 10
-13.93179148018435
 20
-19.33057068413452
 30
0.0
 11
-14.72164094881876
 21
-20.6986300941406
 31
0.0
  0
LINE
  5
E7
330
AD
100
AcDbEntity
  8
AM_4
100
AcDbLine
 10
-9.774869542019042
 20
-21.73057068413452
 30
0.0
 11
-13.93179148018435
 21
-19.33057068413452
 31
0.0
  0
ARC
  5
E8
330
AD
100
AcDbEntity
  8
AM_4
100
AcDbCircle
 10
0.0000000000000091
 20
-0.0000000000000071
 30
0.0
 40
24.67999999999999
100
AcDbArc
 50
245.5805318564098
 51
354.4194681435903
  0
ARC
  5
E9
330
AD
100
AcDbEntity
  8
AM_4
100
AcDbCircle
 10
-0.000000000000032
 20
0.0000000000000178
 30
0.0
 40
25.39999999999996
100
AcDbArc
 50
125.4218626924051
 51
179.1426289878456
  0
LINE
  5
EA
330
AD
100
AcDbEntity
  8
AM_4
100
AcDbLine
 10
-25.39715627272193
 20
0.3800700710933154
 30
0.0
 11
-25.39715627272193
 21
-0.3800700710933208
 31
0.0
  0
ARC
  5
EB
330
AD
100
AcDbEntity
  8
AM_4
100
AcDbCircle
 10
-0.0000000000000107
 20
-0.0000000000000098
 30
0.0
 40
25.39999999999999
100
AcDbArc
 50
180.8573710121545
 51
234.5781373075949
  0
ARC
  5
EC
330
AD
100
AcDbEntity
  8
AM_4
100
AcDbCircle
 10
0.0000000000000036
 20
-0.0000000000000018
 30
0.0
 40
24.68
100
AcDbArc
 50
125.5805318564098
 51
234.4194681435902
  0
ARC
  5
ED
330
AD
100
AcDbEntity
  8
AM_4
100
AcDbCircle
 10
0.0000000000000018
 20
0.0000000000000022
 30
0.0
 40
18.94920634920635
100
AcDbArc
 50
93.78230977753398
 51
86.21769022246603
  0
ARC
  5
EE
330
AD
100
AcDbEntity
  8
AM_4
100
AcDbCircle
 10
0.0000000000000018
 20
0.0000000000000011
 30
0.0
 40
15.0
100
AcDbArc
 50
94.78019184719916
 51
85.21980815280085
  0
ENDBLK
  5
B0
330
AD
100
AcDbEntity
  8
0
100
AcDbBlockEnd
  0
BLOCK
  5
F1
330
EF
100
AcDbEntity
  8
0
100
AcDbBlockBegin
  2
4_F4B_GTEZ_06_PCR_0_in_129712_0
 70
     2
 10
0.0
 20
0.0
 30
0.0
  3
4_F4B_GTEZ_06_PCR_0_in_129712_0
  1

  0
ATTDEF
  5
F3
330
EF
100
AcDbEntity
  8
AM_6
100
AcDbText
 10
59.0
 20
54.0
 30
0.0
 40
0.5
  1
GTEZ Normal Duty Polymer Housed 4 Bolt Flange Bearings
100
AcDbAttributeDefinition
  3

  2
NN
 70
     8
280
     0
  0
ATTDEF
  5
F4
330
EF
100
AcDbEntity
  8
AM_6
100
AcDbText
 10
59.0
 20
53.5
 30
0.0
 40
0.5
  1
GRIP TIGHT Adapter Ball Bearings - E-Z KLEEN
100
AcDbAttributeDefinition
  3

  2
NT
 70
     8
280
     0
  0
ATTDEF
  5
F5
330
EF
100
AcDbEntity
  8
AM_6
100
AcDbText
 10
59.0
 20
53.0
 30
0.0
 40
0.5
  1
F4B-GTEZ-06-PCR
100
AcDbAttributeDefinition
  3

  2
NB
 70
     8
280
     0
  0
ATTDEF
  5
F6
330
EF
100
AcDbEntity
  8
AM_6
100
AcDbText
 10
59.0
 20
52.5
 30
0.0
 40
0.5
  1
$PN.$LUBE.
100
AcDbAttributeDefinition
  3

  2
NBSYN
 70
     8
280
     0
  0
ATTDEF
  5
F7
330
EF
100
AcDbEntity
  8
AM_6
100
AcDbText
 10
59.0
 20
52.0
 30
0.0
 40
0.5
  1
F4B-GTEZ-06-PCR
100
AcDbAttributeDefinition
  3

  2
LINA
 70
     8
280
     0
  0
ATTDEF
  5
F8
330
EF
100
AcDbEntity
  8
AM_6
100
AcDbText
 10
59.0
 20
51.5
 30
0.0
 40
0.5
  1
206
100
AcDbAttributeDefinition
  3

  2
SERIES
 70
     8
280
     0
  0
ATTDEF
  5
F9
330
EF
100
AcDbEntity
  8
AM_6
100
AcDbText
 10
59.0
 20
51.0
 30
0.0
 40
0.5
  1
30
100
AcDbAttributeDefinition
  3

  2
SS
 70
     8
280
     0
  0
ATTDEF
  5
FA
330
EF
100
AcDbEntity
  8
AM_6
100
AcDbText
 10
59.0
 20
50.5
 30
0.0
 40
0.5
  1
F4B-GTEZ-06-PCR
100
AcDbAttributeDefinition
  3

  2
PN
 70
     8
280
     0
  0
ATTDEF
  5
FB
330
EF
100
AcDbEntity
  8
AM_6
100
AcDbText
 10
59.0
 20
50.0
 30
0.0
 40
0.5
  1
F4B-GTEZ-06-PCR
100
AcDbAttributeDefinition
  3

  2
DESCRIPTION
 70
     8
280
     0
  0
ATTDEF
  5
FC
330
EF
100
AcDbEntity
  8
AM_6
100
AcDbText
 10
59.0
 20
49.5
 30
0.0
 40
0.5
  1
0.5
100
AcDbAttributeDefinition
  3

  2
WEIGHT
 70
     8
280
     0
  0
ATTDEF
  5
FD
330
EF
100
AcDbEntity
  8
AM_6
100
AcDbText
 10
59.0
 20
49.0
 30
0.0
 40
0.5
  1
40.9
100
AcDbAttributeDefinition
  3

  2
A
 70
     8
280
     0
  0
ATTDEF
  5
FE
330
EF
100
AcDbEntity
  8
AM_6
100
AcDbText
 10
59.0
 20
48.5
 30
0.0
 40
0.5
  1
108.0
100
AcDbAttributeDefinition
  3

  2
B
 70
     8
280
     0
  0
ATTDEF
  5
FF
330
EF
100
AcDbEntity
  8
AM_6
100
AcDbText
 10
59.0
 20
48.0
 30
0.0
 40
0.5
  1
47.2
100
AcDbAttributeDefinition
  3

  2
C
 70
     8
280
     0
  0
ATTDEF
  5
100
330
EF
100
AcDbEntity
  8
AM_6
100
AcDbText
 10
59.0
 20
47.5
 30
0.0
 40
0.5
  1
82.6
100
AcDbAttributeDefinition
  3

  2
D
 70
     8
280
     0
  0
ATTDEF
  5
101
330
EF
100
AcDbEntity
  8
AM_6
100
AcDbText
 10
59.0
 20
47.0
 30
0.0
 40
0.5
  1
M10
100
AcDbAttributeDefinition
  3

  2
F
 70
     8
280
     0
  0
ATTDEF
  5
102
330
EF
100
AcDbEntity
  8
AM_6
100
AcDbText
 10
59.0
 20
46.5
 30
0.0
 40
0.5
  1
15.5
100
AcDbAttributeDefinition
  3

  2
H
 70
     8
280
     0
  0
ATTDEF
  5
103
330
EF
100
AcDbEntity
  8
AM_6
100
AcDbText
 10
59.0
 20
46.0
 30
0.0
 40
0.5
  1
13.9
100
AcDbAttributeDefinition
  3

  2
J
 70
     8
280
     0
  0
ATTDEF
  5
104
330
EF
100
AcDbEntity
  8
AM_6
100
AcDbText
 10
59.0
 20
45.5
 30
0.0
 40
0.5
  1
50.8
100
AcDbAttributeDefinition
  3

  2
L
 70
     8
280
     0
  0
ATTDEF
  5
105
330
EF
100
AcDbEntity
  8
AM_6
100
AcDbText
 10
59.0
 20
45.0
 30
0.0
 40
0.5
  1
46.0
100
AcDbAttributeDefinition
  3

  2
Z
 70
     8
280
     0
  0
ATTDEF
  5
106
330
EF
100
AcDbEntity
  8
AM_6
100
AcDbText
 10
59.0
 20
44.5
 30
0.0
 40
0.5
  1
Infotext
100
AcDbAttributeDefinition
  3

  2
INFO
 70
     8
280
     0
  0
ATTDEF
  5
107
330
EF
100
AcDbEntity
  8
AM_6
100
AcDbText
 10
59.0
 20
44.0
 30
0.0
 40
0.5
  1
baldor
100
AcDbAttributeDefinition
  3

  2
COMPANY
 70
     8
280
     0
  0
LINE
  5
10A
330
EF
100
AcDbEntity
  8
AM_7
100
AcDbLine
 10
35.63
 20
41.3
 30
0.0
 11
46.96999999999999
 21
41.3
 31
0.0
  0
LINE
  5
10B
330
EF
100
AcDbEntity
  8
AM_7
100
AcDbLine
 10
41.3
 20
35.63
 30
0.0
 11
41.3
 21
46.96999999999999
 31
0.0
  0
LINE
  5
10C
330
EF
100
AcDbEntity
  8
AM_7
100
AcDbLine
 10
35.63
 20
-41.3
 30
0.0
 11
46.96999999999999
 21
-41.3
 31
0.0
  0
LINE
  5
10D
330
EF
100
AcDbEntity
  8
AM_7
100
AcDbLine
 10
41.3
 20
-46.96999999999999
 30
0.0
 11
41.3
 21
-35.63
 31
0.0
  0
LINE
  5
10E
330
EF
100
AcDbEntity
  8
AM_7
100
AcDbLine
 10
-46.97
 20
-41.3
 30
0.0
 11
-35.63
 21
-41.3
 31
0.0
  0
LINE
  5
10F
330
EF
100
AcDbEntity
  8
AM_7
100
AcDbLine
 10
-41.3
 20
-46.97
 30
0.0
 11
-41.3
 21
-35.63
 31
0.0
  0
LINE
  5
110
330
EF
100
AcDbEntity
  8
AM_7
100
AcDbLine
 10
-46.97
 20
41.3
 30
0.0
 11
-35.63
 21
41.3
 31
0.0
  0
LINE
  5
111
330
EF
100
AcDbEntity
  8
AM_7
100
AcDbLine
 10
-41.3
 20
35.63
 30
0.0
 11
-41.3
 21
46.97
 31
0.0
  0
LINE
  5
112
330
EF
100
AcDbEntity
  8
AM_7
100
AcDbLine
 10
-32.55
 20
0.0
 30
0.0
 11
32.55
 21
0.0
 31
0.0
  0
LINE
  5
113
330
EF
100
AcDbEntity
  8
AM_7
100
AcDbLine
 10
0.0
 20
-32.55
 30
0.0
 11
0.0
 21
32.55
 31
0.0
  0
LINE
  5
114
330
EF
100
AcDbEntity
  8
AM_7
100
AcDbLine
 10
0.0
 20
50.75
 30
0.0
 11
0.0
 21
40.84999999999999
 31
0.0
  0
LINE
  5
115
330
EF
100
AcDbEntity
  8
AM_4
100
AcDbLine
 10
39.01693473946192
 20
22.18693473946193
 30
0.0
 11
54.0
 21
37.17
 31
0.0
  0
LINE
  5
116
330
EF
100
AcDbEntity
  8
AM_4
100
AcDbLine
 10
37.17
 20
54.0
 30
0.0
 11
22.18693473946192
 21
39.01693473946192
 31
0.0
  0
CIRCLE
  5
117
330
EF
100
AcDbEntity
  8
AM_4
100
AcDbCircle
 10
41.3
 20
41.3
 30
0.0
 40
5.399999999999995
  0
LINE
  5
118
330
EF
100
AcDbEntity
  8
AM_4
100
AcDbLine
 10
54.0
 20
-47.65
 30
0.0
 11
54.0
 21
47.65
 31
0.0
  0
LINE
  5
119
330
EF
100
AcDbEntity
  8
AM_4
100
AcDbLine
 10
54.0
 20
47.65
 30
0.0
 11
47.65
 21
54.0
 31
0.0
  0
LINE
  5
11A
330
EF
100
AcDbEntity
  8
AM_4
100
AcDbLine
 10
47.65
 20
-54.0
 30
0.0
 11
54.0
 21
-47.65
 31
0.0
  0
LINE
  5
11B
330
EF
100
AcDbEntity
  8
AM_4
100
AcDbLine
 10
22.18693473946192
 20
-39.01693473946192
 30
0.0
 11
37.17
 21
-54.0
 31
0.0
  0
LINE
  5
11C
330
EF
100
AcDbEntity
  8
AM_4
100
AcDbLine
 10
54.0
 20
-37.17
 30
0.0
 11
39.01693473946192
 21
-22.18693473946193
 31
0.0
  0
CIRCLE
  5
11D
330
EF
100
AcDbEntity
  8
AM_4
100
AcDbCircle
 10
41.3
 20
-41.3
 30
0.0
 40
5.399999999999995
  0
LINE
  5
11E
330
EF
100
AcDbEntity
  8
AM_4
100
AcDbLine
 10
-47.65
 20
-54.00000000000001
 30
0.0
 11
47.65
 21
-54.0
 31
0.0
  0
LINE
  5
11F
330
EF
100
AcDbEntity
  8
AM_4
100
AcDbLine
 10
-54.0
 20
-47.65000000000001
 30
0.0
 11
-47.65
 21
-54.00000000000001
 31
0.0
  0
CIRCLE
  5
120
330
EF
100
AcDbEntity
  8
AM_4
100
AcDbCircle
 10
-41.3
 20
-41.3
 30
0.0
 40
5.400000000000002
  0
LINE
  5
121
330
EF
100
AcDbEntity
  8
AM_4
100
AcDbLine
 10
-39.01693473946192
 20
-22.18693473946193
 30
0.0
 11
-54.0
 21
-37.17
 31
0.0
  0
LINE
  5
122
330
EF
100
AcDbEntity
  8
AM_4
100
AcDbLine
 10
-54.0
 20
47.65
 30
0.0
 11
-54.0
 21
-47.65000000000001
 31
0.0
  0
LINE
  5
123
330
EF
100
AcDbEntity
  8
AM_4
100
AcDbLine
 10
-37.16999999999999
 20
-54.0
 30
0.0
 11
-22.18693473946193
 21
-39.01693473946192
 31
0.0
  0
LINE
  5
124
330
EF
100
AcDbEntity
  8
AM_4
100
AcDbLine
 10
47.65
 20
54.0
 30
0.0
 11
-47.65
 21
54.0
 31
0.0
  0
LINE
  5
125
330
EF
100
AcDbEntity
  8
AM_4
100
AcDbLine
 10
-47.65
 20
54.0
 30
0.0
 11
-54.0
 21
47.65
 31
0.0
  0
CIRCLE
  5
126
330
EF
100
AcDbEntity
  8
AM_4
100
AcDbCircle
 10
-41.3
 20
41.3
 30
0.0
 40
5.400000000000002
  0
LINE
  5
127
330
EF
100
AcDbEntity
  8
AM_4
100
AcDbLine
 10
-22.18693473946192
 20
39.01693473946192
 30
0.0
 11
-37.17
 21
54.0
 31
0.0
  0
LINE
  5
128
330
EF
100
AcDbEntity
  8
AM_4
100
AcDbLine
 10
-54.0
 20
37.16999999999999
 30
0.0
 11
-39.01693473946192
 21
22.18693473946193
 31
0.0
  0
LINE
  5
129
330
EF
100
AcDbEntity
  8
AM_4
100
AcDbLine
 10
-1.661483519286544
 20
50.3
 30
0.0
 11
1.661483519286544
 21
50.3
 31
0.0
  0
ARC
  5
12A
330
EF
100
AcDbEntity
  8
AM_4
100
AcDbCircle
 10
1.661483519286539
 20
49.79999999999998
 30
0.0
 40
0.5000000000000202
100
AcDbArc
 50
21.80140948635394
 51
90.0
  0
ARC
  5
12B
330
EF
100
AcDbEntity
  8
AM_4
100
AcDbCircle
 10
-1.661483519286538
 20
49.79999999999998
 30
0.0
 40
0.5000000000000213
100
AcDbArc
 50
90.0
 51
158.1985905136461
  0
LINE
  5
12C
330
EF
100
AcDbEntity
  8
AM_4
100
AcDbLine
 10
-2.12572186472918
 20
49.98569533817705
 30
0.0
 11
2.12572186472918
 21
49.98569533817705
 31
0.0
  0
LINE
  5
12D
330
EF
100
AcDbEntity
  8
AM_4
100
AcDbLine
 10
-2.12572186472918
 20
49.98569533817705
 30
0.0
 11
-2.66389026452834
 21
48.64027433867915
 31
0.0
  0
LINE
  5
12E
330
EF
100
AcDbEntity
  8
AM_4
100
AcDbLine
 10
2.66389026452834
 20
48.64027433867915
 30
0.0
 11
2.12572186472918
 21
49.98569533817705
 31
0.0
  0
LINE
  5
12F
330
EF
100
AcDbEntity
  8
AM_4
100
AcDbLine
 10
-2.66389026452834
 20
48.64027433867915
 30
0.0
 11
2.66389026452834
 21
48.64027433867915
 31
0.0
  0
ARC
  5
130
330
EF
100
AcDbEntity
  8
AM_4
100
AcDbCircle
 10
2.199651919085714
 20
48.45457900050209
 30
0.0
 40
0.4999999999999963
100
AcDbArc
 50
314.1570851114437
 51
21.80140948635229
  0
ARC
  5
131
330
EF
100
AcDbEntity
  8
AM_4
100
AcDbCircle
 10
-2.199651919085714
 20
48.45457900050209
 30
0.0
 40
0.4999999999999982
100
AcDbArc
 50
158.1985905136477
 51
225.8429148885563
  0
LINE
  5
132
330
EF
100
AcDbEntity
  8
AM_4
100
AcDbLine
 10
2.8
 20
41.3
 30
0.0
 11
2.8
 21
41.8
 31
0.0
  0
LINE
  5
133
330
EF
100
AcDbEntity
  8
AM_4
100
AcDbLine
 10
-2.8
 20
41.8
 30
0.0
 11
-2.8
 21
41.3
 31
0.0
  0
LINE
  5
134
330
EF
100
AcDbEntity
  8
AM_4
100
AcDbLine
 10
-2.547965887548553
 20
48.09586270679122
 30
0.0
 11
2.547965887548553
 21
48.09586270679122
 31
0.0
  0
ARC
  5
135
330
EF
100
AcDbEntity
  8
AM_4
100
AcDbCircle
 10
3.806249999999994
 20
46.8
 30
0.0
 40
1.806249999999998
100
AcDbArc
 50
134.1570807509947
 51
236.144973871706
  0
ARC
  5
136
330
EF
100
AcDbEntity
  8
AM_4
100
AcDbCircle
 10
-3.80625
 20
46.8
 30
0.0
 40
1.80625
100
AcDbArc
 50
303.8550261282941
 51
45.8429192490052
  0
LINE
  5
137
330
EF
100
AcDbEntity
  8
AM_4
100
AcDbLine
 10
-2.8
 20
45.3
 30
0.0
 11
2.8
 21
45.3
 31
0.0
  0
LINE
  5
138
330
EF
100
AcDbEntity
  8
AM_4
100
AcDbLine
 10
2.8
 20
44.8
 30
0.0
 11
2.8
 21
45.3
 31
0.0
  0
LINE
  5
139
330
EF
100
AcDbEntity
  8
AM_4
100
AcDbLine
 10
-2.8
 20
45.3
 30
0.0
 11
-2.8
 21
44.8
 31
0.0
  0
LINE
  5
13A
330
EF
100
AcDbEntity
  8
AM_4
100
AcDbLine
 10
-4.0
 20
44.8
 30
0.0
 11
-4.0
 21
41.8
 31
0.0
  0
LINE
  5
13B
330
EF
100
AcDbEntity
  8
AM_4
100
AcDbLine
 10
-4.0
 20
44.8
 30
0.0
 11
4.0
 21
44.8
 31
0.0
  0
LINE
  5
13C
330
EF
100
AcDbEntity
  8
AM_4
100
AcDbLine
 10
-4.0
 20
41.8
 30
0.0
 11
4.0
 21
41.8
 31
0.0
  0
LINE
  5
13D
330
EF
100
AcDbEntity
  8
AM_4
100
AcDbLine
 10
4.0
 20
41.8
 30
0.0
 11
4.0
 21
44.8
 31
0.0
  0
LWPOLYLINE
  5
13E
330
EF
100
AcDbEntity
  8
AM_4
100
AcDbPolyline
 90
        3
 70
     0
 43
0.0
 10
2.0
 20
44.8
 10
3.0
 20
44.75623532278794
 10
4.0
 20
44.63419246269047
  0
LWPOLYLINE
  5
13F
330
EF
100
AcDbEntity
  8
AM_4
100
AcDbPolyline
 90
        3
 70
     0
 43
0.0
 10
4.0
 20
41.96580753730952
 10
3.004496269272692
 20
41.84415131336448
 10
1.999999999999999
 20
41.8
  0
LWPOLYLINE
  5
140
330
EF
100
AcDbEntity
  8
AM_4
100
AcDbPolyline
 90
        3
 70
     0
 43
0.0
 10
1.999999999999999
 20
41.8
 10
0.9999999999999993
 20
41.84376467721206
 10
0.0
 20
41.96580753730952
  0
LINE
  5
141
330
EF
100
AcDbEntity
  8
AM_4
100
AcDbLine
 10
0.0000000000000003
 20
44.63419246269047
 30
0.0
 11
0.0
 21
41.96580753730952
 31
0.0
  0
LWPOLYLINE
  5
142
330
EF
100
AcDbEntity
  8
AM_4
100
AcDbPolyline
 90
        3
 70
     0
 43
0.0
 10
-4.0
 20
44.63419246269047
 10
-3.004496269272692
 20
44.75584868663552
 10
-1.999999999999998
 20
44.8
  0
LWPOLYLINE
  5
143
330
EF
100
AcDbEntity
  8
AM_4
100
AcDbPolyline
 90
        3
 70
     0
 43
0.0
 10
-1.999999999999999
 20
41.8
 10
-2.999999999999999
 20
41.84376467721206
 10
-4.0
 20
41.96580753730952
  0
LWPOLYLINE
  5
144
330
EF
100
AcDbEntity
  8
AM_4
100
AcDbPolyline
 90
        3
 70
     0
 43
0.0
 10
0.0
 20
41.96580753730952
 10
-0.9955037307273061
 20
41.84415131336448
 10
-1.999999999999999
 20
41.8
  0
LWPOLYLINE
  5
145
330
EF
100
AcDbEntity
  8
AM_4
100
AcDbPolyline
 90
        3
 70
     0
 43
0.0
 10
-1.999999999999998
 20
44.8
 10
-0.9999999999999974
 20
44.75623532278794
 10
0.0000000000000003
 20
44.63419246269047
  0
LWPOLYLINE
  5
146
330
EF
100
AcDbEntity
  8
AM_4
100
AcDbPolyline
 90
        3
 70
     0
 43
0.0
 10
0.0000000000000003
 20
44.63419246269047
 10
0.9955037307273061
 20
44.75584868663552
 10
2.0
 20
44.8
  0
LINE
  5
147
330
EF
100
AcDbEntity
  8
AM_4
100
AcDbLine
 10
-6.958290000000003
 20
35.50497000000001
 30
0.0
 11
-8.35773
 21
35.50497000000001
 31
0.0
  0
LINE
  5
148
330
EF
100
AcDbEntity
  8
AM_4
100
AcDbLine
 10
-8.35773
 20
35.50497000000001
 30
0.0
 11
-8.35773
 21
38.09502999999999
 31
0.0
  0
LINE
  5
149
330
EF
100
AcDbEntity
  8
AM_4
100
AcDbLine
 10
-8.35773
 20
38.09502999999999
 30
0.0
 11
-6.95829
 21
38.09502999999999
 31
0.0
  0
LINE
  5
14A
330
EF
100
AcDbEntity
  8
AM_4
100
AcDbLine
 10
-6.95829
 20
38.09502999999999
 30
0.0
 11
-6.64731
 21
38.02103
 31
0.0
  0
LINE
  5
14B
330
EF
100
AcDbEntity
  8
AM_4
100
AcDbLine
 10
-6.64731
 20
38.02103
 30
0.0
 11
-6.41407
 21
37.87302
 31
0.0
  0
LINE
  5
14C
330
EF
100
AcDbEntity
  8
AM_4
100
AcDbLine
 10
-6.41407
 20
37.87302
 30
0.0
 11
-6.25858
 21
37.651019
 31
0.0
  0
LINE
  5
14D
330
EF
100
AcDbEntity
  8
AM_4
100
AcDbLine
 10
-6.25858
 20
37.651019
 30
0.0
 11
-6.18083
 21
37.35501199999999
 31
0.0
  0
LINE
  5
14E
330
EF
100
AcDbEntity
  8
AM_4
100
AcDbLine
 10
-6.18083
 20
37.35501199999999
 30
0.0
 11
-6.18083
 21
36.244988
 31
0.0
  0
LINE
  5
14F
330
EF
100
AcDbEntity
  8
AM_4
100
AcDbLine
 10
-6.18083
 20
36.244988
 30
0.0
 11
-6.25858
 21
35.948981
 31
0.0
  0
LINE
  5
150
330
EF
100
AcDbEntity
  8
AM_4
100
AcDbLine
 10
-6.25858
 20
35.948981
 30
0.0
 11
-6.41407
 21
35.72698
 31
0.0
  0
LINE
  5
151
330
EF
100
AcDbEntity
  8
AM_4
100
AcDbLine
 10
-6.41407
 20
35.72698
 30
0.0
 11
-6.64731
 21
35.57897
 31
0.0
  0
LINE
  5
152
330
EF
100
AcDbEntity
  8
AM_4
100
AcDbLine
 10
-6.64731
 20
35.57897
 30
0.0
 11
-6.958290000000003
 21
35.50497000000001
 31
0.0
  0
LINE
  5
153
330
EF
100
AcDbEntity
  8
AM_4
100
AcDbLine
 10
-2.52675
 20
35.948981
 30
0.0
 11
-2.68225
 21
35.72698
 31
0.0
  0
LINE
  5
154
330
EF
100
AcDbEntity
  8
AM_4
100
AcDbLine
 10
-4.39266
 20
37.87302
 30
0.0
 11
-4.15943
 21
38.02103
 31
0.0
  0
LINE
  5
155
330
EF
100
AcDbEntity
  8
AM_4
100
AcDbLine
 10
-4.15943
 20
38.02103
 30
0.0
 11
-3.84844
 21
38.09502999999999
 31
0.0
  0
LINE
  5
156
330
EF
100
AcDbEntity
  8
AM_4
100
AcDbLine
 10
-3.84844
 20
38.09502999999999
 30
0.0
 11
-3.22647
 21
38.09502999999999
 31
0.0
  0
LINE
  5
157
330
EF
100
AcDbEntity
  8
AM_4
100
AcDbLine
 10
-3.22647
 20
38.09502999999999
 30
0.0
 11
-2.91549
 21
38.02103
 31
0.0
  0
LINE
  5
158
330
EF
100
AcDbEntity
  8
AM_4
100
AcDbLine
 10
-2.91549
 20
38.02103
 30
0.0
 11
-2.68225
 21
37.87302
 31
0.0
  0
LINE
  5
159
330
EF
100
AcDbEntity
  8
AM_4
100
AcDbLine
 10
-2.68225
 20
37.87302
 30
0.0
 11
-2.52675
 21
37.651019
 31
0.0
  0
LINE
  5
15A
330
EF
100
AcDbEntity
  8
AM_4
100
AcDbLine
 10
-2.52675
 20
37.651019
 30
0.0
 11
-2.44901
 21
37.35501199999999
 31
0.0
  0
LINE
  5
15B
330
EF
100
AcDbEntity
  8
AM_4
100
AcDbLine
 10
-2.44901
 20
37.35501199999999
 30
0.0
 11
-2.44901
 21
36.244988
 31
0.0
  0
LINE
  5
15C
330
EF
100
AcDbEntity
  8
AM_4
100
AcDbLine
 10
-2.44901
 20
36.244988
 30
0.0
 11
-2.52675
 21
35.948981
 31
0.0
  0
LINE
  5
15D
330
EF
100
AcDbEntity
  8
AM_4
100
AcDbLine
 10
-2.68225
 20
35.72698
 30
0.0
 11
-2.91549
 21
35.57897
 31
0.0
  0
LINE
  5
15E
330
EF
100
AcDbEntity
  8
AM_4
100
AcDbLine
 10
-2.91549
 20
35.57897
 30
0.0
 11
-3.22647
 21
35.50497000000001
 31
0.0
  0
LINE
  5
15F
330
EF
100
AcDbEntity
  8
AM_4
100
AcDbLine
 10
-3.22647
 20
35.50497000000001
 30
0.0
 11
-3.84844
 21
35.50497000000001
 31
0.0
  0
LINE
  5
160
330
EF
100
AcDbEntity
  8
AM_4
100
AcDbLine
 10
-3.84844
 20
35.50497000000001
 30
0.0
 11
-4.15943
 21
35.57897
 31
0.0
  0
LINE
  5
161
330
EF
100
AcDbEntity
  8
AM_4
100
AcDbLine
 10
-4.15943
 20
35.57897
 30
0.0
 11
-4.39266
 21
35.72698
 31
0.0
  0
LINE
  5
162
330
EF
100
AcDbEntity
  8
AM_4
100
AcDbLine
 10
-4.6259
 20
37.35501199999999
 30
0.0
 11
-4.54816
 21
37.651019
 31
0.0
  0
LINE
  5
163
330
EF
100
AcDbEntity
  8
AM_4
100
AcDbLine
 10
-4.625899999999999
 20
36.244988
 30
0.0
 11
-4.6259
 21
37.35501199999999
 31
0.0
  0
LINE
  5
164
330
EF
100
AcDbEntity
  8
AM_4
100
AcDbLine
 10
-4.54816
 20
35.948981
 30
0.0
 11
-4.625899999999999
 21
36.244988
 31
0.0
  0
LINE
  5
165
330
EF
100
AcDbEntity
  8
AM_4
100
AcDbLine
 10
-4.39266
 20
35.72698
 30
0.0
 11
-4.54816
 21
35.948981
 31
0.0
  0
LINE
  5
166
330
EF
100
AcDbEntity
  8
AM_4
100
AcDbLine
 10
-4.54816
 20
37.651019
 30
0.0
 11
-4.39266
 21
37.87302
 31
0.0
  0
LINE
  5
167
330
EF
100
AcDbEntity
  8
AM_4
100
AcDbLine
 10
0.5053509999999977
 20
35.50497000000001
 30
0.0
 11
-0.894082
 21
35.50497000000001
 31
0.0
  0
LINE
  5
168
330
EF
100
AcDbEntity
  8
AM_4
100
AcDbLine
 10
-0.894082
 20
35.50497000000001
 30
0.0
 11
-0.8940820000000003
 21
38.09502999999999
 31
0.0
  0
LINE
  5
169
330
EF
100
AcDbEntity
  8
AM_4
100
AcDbLine
 10
-0.8940820000000003
 20
38.09502999999999
 30
0.0
 11
0.505351
 21
38.09502999999999
 31
0.0
  0
LINE
  5
16A
330
EF
100
AcDbEntity
  8
AM_4
100
AcDbLine
 10
0.505351
 20
38.09502999999999
 30
0.0
 11
0.816336
 21
38.02103
 31
0.0
  0
LINE
  5
16B
330
EF
100
AcDbEntity
  8
AM_4
100
AcDbLine
 10
0.816336
 20
38.02103
 30
0.0
 11
1.04957
 21
37.87302
 31
0.0
  0
LINE
  5
16C
330
EF
100
AcDbEntity
  8
AM_4
100
AcDbLine
 10
1.04957
 20
37.87302
 30
0.0
 11
1.20507
 21
37.651019
 31
0.0
  0
LINE
  5
16D
330
EF
100
AcDbEntity
  8
AM_4
100
AcDbLine
 10
1.20507
 20
37.651019
 30
0.0
 11
1.28281
 21
37.35501199999999
 31
0.0
  0
LINE
  5
16E
330
EF
100
AcDbEntity
  8
AM_4
100
AcDbLine
 10
1.28281
 20
37.35501199999999
 30
0.0
 11
1.28281
 21
36.244988
 31
0.0
  0
LINE
  5
16F
330
EF
100
AcDbEntity
  8
AM_4
100
AcDbLine
 10
1.28281
 20
36.244988
 30
0.0
 11
1.20507
 21
35.948981
 31
0.0
  0
LINE
  5
170
330
EF
100
AcDbEntity
  8
AM_4
100
AcDbLine
 10
1.20507
 20
35.948981
 30
0.0
 11
1.04957
 21
35.72698
 31
0.0
  0
LINE
  5
171
330
EF
100
AcDbEntity
  8
AM_4
100
AcDbLine
 10
1.04957
 20
35.72698
 30
0.0
 11
0.816336
 21
35.57897
 31
0.0
  0
LINE
  5
172
330
EF
100
AcDbEntity
  8
AM_4
100
AcDbLine
 10
0.816336
 20
35.57897
 30
0.0
 11
0.5053509999999977
 21
35.50497000000001
 31
0.0
  0
LINE
  5
173
330
EF
100
AcDbEntity
  8
AM_4
100
AcDbLine
 10
0.505351
 20
35.06095999999999
 30
0.0
 11
-1.36056
 21
35.06095999999999
 31
0.0
  0
LINE
  5
174
330
EF
100
AcDbEntity
  8
AM_4
100
AcDbLine
 10
1.20507
 20
35.28297
 30
0.0
 11
0.894082
 21
35.13496
 31
0.0
  0
LINE
  5
175
330
EF
100
AcDbEntity
  8
AM_4
100
AcDbLine
 10
-1.36056
 20
35.06095999999999
 30
0.0
 11
-1.36056
 21
38.53904000000001
 31
0.0
  0
LINE
  5
176
330
EF
100
AcDbEntity
  8
AM_4
100
AcDbLine
 10
1.51605
 20
38.02103
 30
0.0
 11
1.67155
 21
37.72502
 31
0.0
  0
LINE
  5
177
330
EF
100
AcDbEntity
  8
AM_4
100
AcDbLine
 10
0.894082
 20
35.13496
 30
0.0
 11
0.505351
 21
35.06095999999999
 31
0.0
  0
LINE
  5
178
330
EF
100
AcDbEntity
  8
AM_4
100
AcDbLine
 10
0.894082
 20
38.46504
 30
0.0
 11
1.20507
 21
38.31703
 31
0.0
  0
LINE
  5
179
330
EF
100
AcDbEntity
  8
AM_4
100
AcDbLine
 10
0.5053509999999977
 20
38.53904000000001
 30
0.0
 11
0.894082
 21
38.46504
 31
0.0
  0
LINE
  5
17A
330
EF
100
AcDbEntity
  8
AM_4
100
AcDbLine
 10
1.51605
 20
35.57897
 30
0.0
 11
1.20507
 21
35.28297
 31
0.0
  0
LINE
  5
17B
330
EF
100
AcDbEntity
  8
AM_4
100
AcDbLine
 10
1.20507
 20
38.31703
 30
0.0
 11
1.51605
 21
38.02103
 31
0.0
  0
LINE
  5
17C
330
EF
100
AcDbEntity
  8
AM_4
100
AcDbLine
 10
-1.36056
 20
38.53904000000001
 30
0.0
 11
0.5053509999999977
 21
38.53904000000001
 31
0.0
  0
LINE
  5
17D
330
EF
100
AcDbEntity
  8
AM_4
100
AcDbLine
 10
1.67155
 20
37.72502
 30
0.0
 11
1.74929
 21
37.35501199999999
 31
0.0
  0
LINE
  5
17E
330
EF
100
AcDbEntity
  8
AM_4
100
AcDbLine
 10
2.91549
 20
37.651019
 30
0.0
 11
2.83774
 21
37.35501199999999
 31
0.0
  0
LINE
  5
17F
330
EF
100
AcDbEntity
  8
AM_4
100
AcDbLine
 10
3.07098
 20
37.87302
 30
0.0
 11
2.91549
 21
37.651019
 31
0.0
  0
LINE
  5
180
330
EF
100
AcDbEntity
  8
AM_4
100
AcDbLine
 10
3.30422
 20
38.02103
 30
0.0
 11
3.07098
 21
37.87302
 31
0.0
  0
LINE
  5
181
330
EF
100
AcDbEntity
  8
AM_4
100
AcDbLine
 10
3.6152
 20
38.09502999999999
 30
0.0
 11
3.30422
 21
38.02103
 31
0.0
  0
LINE
  5
182
330
EF
100
AcDbEntity
  8
AM_4
100
AcDbLine
 10
4.31492
 20
38.09502999999999
 30
0.0
 11
3.6152
 21
38.09502999999999
 31
0.0
  0
LINE
  5
183
330
EF
100
AcDbEntity
  8
AM_4
100
AcDbLine
 10
1.67155
 20
35.87497999999999
 30
0.0
 11
1.51605
 21
35.57897
 31
0.0
  0
LINE
  5
184
330
EF
100
AcDbEntity
  8
AM_4
100
AcDbLine
 10
1.74929
 20
36.244988
 30
0.0
 11
1.67155
 21
35.87497999999999
 31
0.0
  0
LINE
  5
185
330
EF
100
AcDbEntity
  8
AM_4
100
AcDbLine
 10
1.74929
 20
37.35501199999999
 30
0.0
 11
1.74929
 21
36.244988
 31
0.0
  0
LINE
  5
186
330
EF
100
AcDbEntity
  8
AM_4
100
AcDbLine
 10
5.40337
 20
37.651019
 30
0.0
 11
4.93689
 21
37.651019
 31
0.0
  0
LINE
  5
187
330
EF
100
AcDbEntity
  8
AM_4
100
AcDbLine
 10
5.32562
 20
38.02103
 30
0.0
 11
5.40337
 21
37.651019
 31
0.0
  0
LINE
  5
188
330
EF
100
AcDbEntity
  8
AM_4
100
AcDbLine
 10
5.01464
 20
38.31703
 30
0.0
 11
5.32562
 21
38.02103
 31
0.0
  0
LINE
  5
189
330
EF
100
AcDbEntity
  8
AM_4
100
AcDbLine
 10
4.703650000000001
 20
38.46504
 30
0.0
 11
5.01464
 21
38.31703
 31
0.0
  0
LINE
  5
18A
330
EF
100
AcDbEntity
  8
AM_4
100
AcDbLine
 10
4.31492
 20
38.53904000000001
 30
0.0
 11
4.703650000000001
 21
38.46504
 31
0.0
  0
LINE
  5
18B
330
EF
100
AcDbEntity
  8
AM_4
100
AcDbLine
 10
3.6152
 20
38.53904000000001
 30
0.0
 11
4.31492
 21
38.53904000000001
 31
0.0
  0
LINE
  5
18C
330
EF
100
AcDbEntity
  8
AM_4
100
AcDbLine
 10
4.6259
 20
38.02103
 30
0.0
 11
4.31492
 21
38.09502999999999
 31
0.0
  0
LINE
  5
18D
330
EF
100
AcDbEntity
  8
AM_4
100
AcDbLine
 10
4.859140000000001
 20
37.87302
 30
0.0
 11
4.6259
 21
38.02103
 31
0.0
  0
LINE
  5
18E
330
EF
100
AcDbEntity
  8
AM_4
100
AcDbLine
 10
4.93689
 20
37.651019
 30
0.0
 11
4.859140000000001
 21
37.87302
 31
0.0
  0
LINE
  5
18F
330
EF
100
AcDbEntity
  8
AM_4
100
AcDbLine
 10
2.83774
 20
37.35501199999999
 30
0.0
 11
2.83774
 21
36.244988
 31
0.0
  0
CIRCLE
  5
190
330
EF
100
AcDbEntity
  8
AM_4
100
AcDbCircle
 10
0.0
 20
0.0
 30
0.0
 40
31.0
  0
LINE
  5
191
330
EF
100
AcDbEntity
  8
AM_4
100
AcDbLine
 10
-41.3
 20
13.80719219576364
 30
0.0
 11
-41.3
 21
-13.80719194959646
 31
0.0
  0
ARC
  5
192
330
EF
100
AcDbEntity
  8
AM_4
100
AcDbCircle
 10
-24.78000000000003
 20
-13.80719194959649
 30
0.0
 40
16.51999999999997
100
AcDbArc
 50
180.0
 51
225.0
  0
LINE
  5
193
330
EF
100
AcDbEntity
  8
AM_4
100
AcDbLine
 10
-36.46140402520177
 20
-25.48859597479823
 30
0.0
 11
-25.48859597479823
 21
-36.46140402520177
 31
0.0
  0
ARC
  5
194
330
EF
100
AcDbEntity
  8
AM_4
100
AcDbCircle
 10
-13.80719194959643
 20
-24.77999999999989
 30
0.0
 40
16.5200000000001
100
AcDbArc
 50
225.0000000000002
 51
270.0
  0
LINE
  5
195
330
EF
100
AcDbEntity
  8
AM_4
100
AcDbLine
 10
-13.80719194959646
 20
-41.3
 30
0.0
 11
13.80719194959647
 21
-41.3
 31
0.0
  0
ARC
  5
196
330
EF
100
AcDbEntity
  8
AM_4
100
AcDbCircle
 10
13.80719194959649
 20
-24.78000000000003
 30
0.0
 40
16.51999999999996
100
AcDbArc
 50
270.0
 51
315.0
  0
LINE
  5
197
330
EF
100
AcDbEntity
  8
AM_4
100
AcDbLine
 10
25.48859597479823
 20
-36.46140402520177
 30
0.0
 11
36.46140402520176
 21
-25.48859597479824
 31
0.0
  0
ARC
  5
198
330
EF
100
AcDbEntity
  8
AM_4
100
AcDbCircle
 10
24.77999999999996
 20
-13.80719194959645
 30
0.0
 40
16.52000000000004
100
AcDbArc
 50
315.0000000000001
 51
0.0
  0
LINE
  5
199
330
EF
100
AcDbEntity
  8
AM_4
100
AcDbLine
 10
41.3
 20
-13.80719194959645
 30
0.0
 11
41.3
 21
13.80719194959647
 31
0.0
  0
ARC
  5
19A
330
EF
100
AcDbEntity
  8
AM_4
100
AcDbCircle
 10
24.78000000000009
 20
13.8071919495965
 30
0.0
 40
16.51999999999991
100
AcDbArc
 50
0.0
 51
45.00000000000015
  0
LINE
  5
19B
330
EF
100
AcDbEntity
  8
AM_4
100
AcDbLine
 10
36.46140402520176
 20
25.48859597479824
 30
0.0
 11
25.48859597479823
 21
36.46140402520176
 31
0.0
  0
ARC
  5
19C
330
EF
100
AcDbEntity
  8
AM_4
100
AcDbCircle
 10
13.80719194959646
 20
24.78
 30
0.0
 40
16.52
100
AcDbArc
 50
44.99999999999996
 51
90.0
  0
LINE
  5
19D
330
EF
100
AcDbEntity
  8
AM_4
100
AcDbLine
 10
13.80719194959646
 20
41.3
 30
0.0
 11
-13.80719194959646
 21
41.3
 31
0.0
  0
ARC
  5
19E
330
EF
100
AcDbEntity
  8
AM_4
100
AcDbCircle
 10
-13.80719194959648
 20
24.78000000000002
 30
0.0
 40
16.51999999999997
100
AcDbArc
 50
90.0
 51
135.0
  0
LINE
  5
19F
330
EF
100
AcDbEntity
  8
AM_4
100
AcDbLine
 10
-25.48859597479823
 20
36.46140402520177
 30
0.0
 11
-36.46140402520177
 21
25.48859597479823
 31
0.0
  0
ARC
  5
1A0
330
EF
100
AcDbEntity
  8
AM_4
100
AcDbCircle
 10
-24.78
 20
13.80719194959647
 30
0.0
 40
16.51999999999999
100
AcDbArc
 50
135.0
 51
179.9999987925817
  0
LINE
  5
1A1
330
EF
100
AcDbEntity
  8
AM_4
100
AcDbLine
 10
-8.8242
 20
35.06095999999999
 30
0.0
 11
-8.8242
 21
38.53904000000001
 31
0.0
  0
LINE
  5
1A2
330
EF
100
AcDbEntity
  8
AM_4
100
AcDbLine
 10
-8.8242
 20
38.53904000000001
 30
0.0
 11
-6.95829
 21
38.53904000000001
 31
0.0
  0
LINE
  5
1A3
330
EF
100
AcDbEntity
  8
AM_4
100
AcDbLine
 10
-6.95829
 20
38.53904000000001
 30
0.0
 11
-6.56956
 21
38.46504000000001
 31
0.0
  0
LINE
  5
1A4
330
EF
100
AcDbEntity
  8
AM_4
100
AcDbLine
 10
-6.56956
 20
38.46504000000001
 30
0.0
 11
-6.25858
 21
38.31703
 31
0.0
  0
LINE
  5
1A5
330
EF
100
AcDbEntity
  8
AM_4
100
AcDbLine
 10
-6.25858
 20
38.31703
 30
0.0
 11
-5.94759
 21
38.02103
 31
0.0
  0
LINE
  5
1A6
330
EF
100
AcDbEntity
  8
AM_4
100
AcDbLine
 10
-5.94759
 20
38.02103
 30
0.0
 11
-5.7921
 21
37.72502
 31
0.0
  0
LINE
  5
1A7
330
EF
100
AcDbEntity
  8
AM_4
100
AcDbLine
 10
-5.7921
 20
37.72502
 30
0.0
 11
-5.71435
 21
37.35501199999999
 31
0.0
  0
LINE
  5
1A8
330
EF
100
AcDbEntity
  8
AM_4
100
AcDbLine
 10
-5.71435
 20
37.35501199999999
 30
0.0
 11
-5.71435
 21
36.244988
 31
0.0
  0
LINE
  5
1A9
330
EF
100
AcDbEntity
  8
AM_4
100
AcDbLine
 10
-5.71435
 20
36.244988
 30
0.0
 11
-5.7921
 21
35.87497999999999
 31
0.0
  0
LINE
  5
1AA
330
EF
100
AcDbEntity
  8
AM_4
100
AcDbLine
 10
-5.7921
 20
35.87497999999999
 30
0.0
 11
-5.94759
 21
35.57897
 31
0.0
  0
LINE
  5
1AB
330
EF
100
AcDbEntity
  8
AM_4
100
AcDbLine
 10
-5.94759
 20
35.57897
 30
0.0
 11
-6.25858
 21
35.28297
 31
0.0
  0
LINE
  5
1AC
330
EF
100
AcDbEntity
  8
AM_4
100
AcDbLine
 10
-6.25858
 20
35.28297
 30
0.0
 11
-6.56956
 21
35.13496
 31
0.0
  0
LINE
  5
1AD
330
EF
100
AcDbEntity
  8
AM_4
100
AcDbLine
 10
-6.56956
 20
35.13496
 30
0.0
 11
-6.95829
 21
35.06095999999999
 31
0.0
  0
LINE
  5
1AE
330
EF
100
AcDbEntity
  8
AM_4
100
AcDbLine
 10
-6.95829
 20
35.06095999999999
 30
0.0
 11
-8.8242
 21
35.06095999999999
 31
0.0
  0
LINE
  5
1AF
330
EF
100
AcDbEntity
  8
AM_4
100
AcDbLine
 10
-5.09238
 20
36.244988
 30
0.0
 11
-5.09238
 21
37.35501199999999
 31
0.0
  0
LINE
  5
1B0
330
EF
100
AcDbEntity
  8
AM_4
100
AcDbLine
 10
-5.09238
 20
37.35501199999999
 30
0.0
 11
-5.01464
 21
37.72502
 31
0.0
  0
LINE
  5
1B1
330
EF
100
AcDbEntity
  8
AM_4
100
AcDbLine
 10
-5.01464
 20
37.72502
 30
0.0
 11
-4.859139999999998
 21
38.02103000000001
 31
0.0
  0
LINE
  5
1B2
330
EF
100
AcDbEntity
  8
AM_4
100
AcDbLine
 10
-4.859139999999998
 20
38.02103000000001
 30
0.0
 11
-4.54816
 21
38.31703
 31
0.0
  0
LINE
  5
1B3
330
EF
100
AcDbEntity
  8
AM_4
100
AcDbLine
 10
-4.54816
 20
38.31703
 30
0.0
 11
-4.23717
 21
38.46504
 31
0.0
  0
LINE
  5
1B4
330
EF
100
AcDbEntity
  8
AM_4
100
AcDbLine
 10
-4.23717
 20
38.46504
 30
0.0
 11
-3.84844
 21
38.53904000000001
 31
0.0
  0
LINE
  5
1B5
330
EF
100
AcDbEntity
  8
AM_4
100
AcDbLine
 10
-3.84844
 20
38.53904000000001
 30
0.0
 11
-3.22647
 21
38.53904000000001
 31
0.0
  0
LINE
  5
1B6
330
EF
100
AcDbEntity
  8
AM_4
100
AcDbLine
 10
-3.22647
 20
38.53904000000001
 30
0.0
 11
-2.83774
 21
38.46504
 31
0.0
  0
LINE
  5
1B7
330
EF
100
AcDbEntity
  8
AM_4
100
AcDbLine
 10
-2.83774
 20
38.46504
 30
0.0
 11
-2.52675
 21
38.31703
 31
0.0
  0
LINE
  5
1B8
330
EF
100
AcDbEntity
  8
AM_4
100
AcDbLine
 10
-2.52675
 20
38.31703
 30
0.0
 11
-2.21577
 21
38.02103
 31
0.0
  0
LINE
  5
1B9
330
EF
100
AcDbEntity
  8
AM_4
100
AcDbLine
 10
-2.21577
 20
38.02103
 30
0.0
 11
-2.06028
 21
37.72502
 31
0.0
  0
LINE
  5
1BA
330
EF
100
AcDbEntity
  8
AM_4
100
AcDbLine
 10
-2.06028
 20
37.72502
 30
0.0
 11
-1.98253
 21
37.35501199999999
 31
0.0
  0
LINE
  5
1BB
330
EF
100
AcDbEntity
  8
AM_4
100
AcDbLine
 10
-1.98253
 20
37.35501199999999
 30
0.0
 11
-1.98253
 21
36.244988
 31
0.0
  0
LINE
  5
1BC
330
EF
100
AcDbEntity
  8
AM_4
100
AcDbLine
 10
-1.98253
 20
36.244988
 30
0.0
 11
-2.06028
 21
35.87497999999999
 31
0.0
  0
LINE
  5
1BD
330
EF
100
AcDbEntity
  8
AM_4
100
AcDbLine
 10
-2.06028
 20
35.87497999999999
 30
0.0
 11
-2.21577
 21
35.57897
 31
0.0
  0
LINE
  5
1BE
330
EF
100
AcDbEntity
  8
AM_4
100
AcDbLine
 10
-2.21577
 20
35.57897
 30
0.0
 11
-2.52675
 21
35.28297
 31
0.0
  0
LINE
  5
1BF
330
EF
100
AcDbEntity
  8
AM_4
100
AcDbLine
 10
-2.52675
 20
35.28297
 30
0.0
 11
-2.83774
 21
35.13496
 31
0.0
  0
LINE
  5
1C0
330
EF
100
AcDbEntity
  8
AM_4
100
AcDbLine
 10
-2.83774
 20
35.13496
 30
0.0
 11
-3.22647
 21
35.06095999999999
 31
0.0
  0
LINE
  5
1C1
330
EF
100
AcDbEntity
  8
AM_4
100
AcDbLine
 10
-3.22647
 20
35.06095999999999
 30
0.0
 11
-3.84844
 21
35.06095999999999
 31
0.0
  0
LINE
  5
1C2
330
EF
100
AcDbEntity
  8
AM_4
100
AcDbLine
 10
-3.84844
 20
35.06095999999999
 30
0.0
 11
-4.23717
 21
35.13496
 31
0.0
  0
LINE
  5
1C3
330
EF
100
AcDbEntity
  8
AM_4
100
AcDbLine
 10
-4.23717
 20
35.13496
 30
0.0
 11
-4.54816
 21
35.28297
 31
0.0
  0
LINE
  5
1C4
330
EF
100
AcDbEntity
  8
AM_4
100
AcDbLine
 10
-4.54816
 20
35.28297
 30
0.0
 11
-4.859140000000001
 21
35.57897
 31
0.0
  0
LINE
  5
1C5
330
EF
100
AcDbEntity
  8
AM_4
100
AcDbLine
 10
-4.859140000000001
 20
35.57897
 30
0.0
 11
-5.01464
 21
35.87497999999999
 31
0.0
  0
LINE
  5
1C6
330
EF
100
AcDbEntity
  8
AM_4
100
AcDbLine
 10
-5.01464
 20
35.87497999999999
 30
0.0
 11
-5.09238
 21
36.244988
 31
0.0
  0
LINE
  5
1C7
330
EF
100
AcDbEntity
  8
AM_4
100
AcDbLine
 10
2.37126
 20
36.244988
 30
0.0
 11
2.37126
 21
37.35501199999999
 31
0.0
  0
LINE
  5
1C8
330
EF
100
AcDbEntity
  8
AM_4
100
AcDbLine
 10
2.37126
 20
37.35501199999999
 30
0.0
 11
2.44901
 21
37.72502
 31
0.0
  0
LINE
  5
1C9
330
EF
100
AcDbEntity
  8
AM_4
100
AcDbLine
 10
2.44901
 20
37.72502
 30
0.0
 11
2.604499999999996
 21
38.02103
 31
0.0
  0
LINE
  5
1CA
330
EF
100
AcDbEntity
  8
AM_4
100
AcDbLine
 10
2.604499999999996
 20
38.02103
 30
0.0
 11
2.91549
 21
38.31703
 31
0.0
  0
LINE
  5
1CB
330
EF
100
AcDbEntity
  8
AM_4
100
AcDbLine
 10
2.91549
 20
38.31703
 30
0.0
 11
3.22647
 21
38.46504
 31
0.0
  0
LINE
  5
1CC
330
EF
100
AcDbEntity
  8
AM_4
100
AcDbLine
 10
3.22647
 20
38.46504
 30
0.0
 11
3.6152
 21
38.53904000000001
 31
0.0
  0
LINE
  5
1CD
330
EF
100
AcDbEntity
  8
AM_4
100
AcDbLine
 10
2.83774
 20
36.244988
 30
0.0
 11
2.91549
 21
35.948981
 31
0.0
  0
LINE
  5
1CE
330
EF
100
AcDbEntity
  8
AM_4
100
AcDbLine
 10
2.91549
 20
35.948981
 30
0.0
 11
3.07098
 21
35.72698
 31
0.0
  0
LINE
  5
1CF
330
EF
100
AcDbEntity
  8
AM_4
100
AcDbLine
 10
3.07098
 20
35.72698
 30
0.0
 11
3.30422
 21
35.57897
 31
0.0
  0
LINE
  5
1D0
330
EF
100
AcDbEntity
  8
AM_4
100
AcDbLine
 10
3.30422
 20
35.57897
 30
0.0
 11
3.6152
 21
35.50497000000001
 31
0.0
  0
LINE
  5
1D1
330
EF
100
AcDbEntity
  8
AM_4
100
AcDbLine
 10
3.6152
 20
35.50497000000001
 30
0.0
 11
4.31492
 21
35.50497000000001
 31
0.0
  0
LINE
  5
1D2
330
EF
100
AcDbEntity
  8
AM_4
100
AcDbLine
 10
4.31492
 20
35.50497000000001
 30
0.0
 11
4.6259
 21
35.57897
 31
0.0
  0
LINE
  5
1D3
330
EF
100
AcDbEntity
  8
AM_4
100
AcDbLine
 10
4.6259
 20
35.57897
 30
0.0
 11
4.859140000000001
 21
35.72698
 31
0.0
  0
LINE
  5
1D4
330
EF
100
AcDbEntity
  8
AM_4
100
AcDbLine
 10
4.859140000000001
 20
35.72698
 30
0.0
 11
4.93689
 21
35.948981
 31
0.0
  0
LINE
  5
1D5
330
EF
100
AcDbEntity
  8
AM_4
100
AcDbLine
 10
4.93689
 20
35.948981
 30
0.0
 11
4.93689
 21
36.540994
 31
0.0
  0
LINE
  5
1D6
330
EF
100
AcDbEntity
  8
AM_4
100
AcDbLine
 10
4.93689
 20
36.540994
 30
0.0
 11
4.23717
 21
36.540994
 31
0.0
  0
LINE
  5
1D7
330
EF
100
AcDbEntity
  8
AM_4
100
AcDbLine
 10
4.23717
 20
36.540994
 30
0.0
 11
4.23717
 21
36.985004
 31
0.0
  0
LINE
  5
1D8
330
EF
100
AcDbEntity
  8
AM_4
100
AcDbLine
 10
4.23717
 20
36.985004
 30
0.0
 11
5.40337
 21
36.985004
 31
0.0
  0
LINE
  5
1D9
330
EF
100
AcDbEntity
  8
AM_4
100
AcDbLine
 10
5.40337
 20
36.985004
 30
0.0
 11
5.40337
 21
35.87497999999999
 31
0.0
  0
LINE
  5
1DA
330
EF
100
AcDbEntity
  8
AM_4
100
AcDbLine
 10
5.40337
 20
35.87497999999999
 30
0.0
 11
5.32562
 21
35.57897
 31
0.0
  0
LINE
  5
1DB
330
EF
100
AcDbEntity
  8
AM_4
100
AcDbLine
 10
5.32562
 20
35.57897
 30
0.0
 11
5.01464
 21
35.28297
 31
0.0
  0
LINE
  5
1DC
330
EF
100
AcDbEntity
  8
AM_4
100
AcDbLine
 10
5.01464
 20
35.28297
 30
0.0
 11
4.703650000000001
 21
35.13496
 31
0.0
  0
LINE
  5
1DD
330
EF
100
AcDbEntity
  8
AM_4
100
AcDbLine
 10
4.703650000000001
 20
35.13496
 30
0.0
 11
4.31492
 21
35.06095999999999
 31
0.0
  0
LINE
  5
1DE
330
EF
100
AcDbEntity
  8
AM_4
100
AcDbLine
 10
4.31492
 20
35.06095999999999
 30
0.0
 11
3.6152
 21
35.06095999999999
 31
0.0
  0
LINE
  5
1DF
330
EF
100
AcDbEntity
  8
AM_4
100
AcDbLine
 10
3.6152
 20
35.06095999999999
 30
0.0
 11
3.22647
 21
35.13496
 31
0.0
  0
LINE
  5
1E0
330
EF
100
AcDbEntity
  8
AM_4
100
AcDbLine
 10
3.22647
 20
35.13496
 30
0.0
 11
2.91549
 21
35.28297
 31
0.0
  0
LINE
  5
1E1
330
EF
100
AcDbEntity
  8
AM_4
100
AcDbLine
 10
2.91549
 20
35.28297
 30
0.0
 11
2.6045
 21
35.57897
 31
0.0
  0
LINE
  5
1E2
330
EF
100
AcDbEntity
  8
AM_4
100
AcDbLine
 10
2.6045
 20
35.57897
 30
0.0
 11
2.44901
 21
35.87497999999999
 31
0.0
  0
LINE
  5
1E3
330
EF
100
AcDbEntity
  8
AM_4
100
AcDbLine
 10
2.44901
 20
35.87497999999999
 30
0.0
 11
2.37126
 21
36.244988
 31
0.0
  0
LINE
  5
1E4
330
EF
100
AcDbEntity
  8
AM_4
100
AcDbLine
 10
8.8242
 20
35.06095999999999
 30
0.0
 11
6.02534
 21
35.06095999999999
 31
0.0
  0
LINE
  5
1E5
330
EF
100
AcDbEntity
  8
AM_4
100
AcDbLine
 10
6.02534
 20
35.06095999999999
 30
0.0
 11
6.02534
 21
38.53904000000001
 31
0.0
  0
LINE
  5
1E6
330
EF
100
AcDbEntity
  8
AM_4
100
AcDbLine
 10
6.02534
 20
38.53904000000001
 30
0.0
 11
8.824199999999998
 21
38.53904000000001
 31
0.0
  0
LINE
  5
1E7
330
EF
100
AcDbEntity
  8
AM_4
100
AcDbLine
 10
8.824199999999998
 20
38.53904000000001
 30
0.0
 11
8.8242
 21
38.09502999999999
 31
0.0
  0
LINE
  5
1E8
330
EF
100
AcDbEntity
  8
AM_4
100
AcDbLine
 10
8.8242
 20
38.09502999999999
 30
0.0
 11
6.491810000000001
 21
38.09502999999999
 31
0.0
  0
LINE
  5
1E9
330
EF
100
AcDbEntity
  8
AM_4
100
AcDbLine
 10
6.491810000000001
 20
38.09502999999999
 30
0.0
 11
6.491810000000001
 21
37.133007
 31
0.0
  0
LINE
  5
1EA
330
EF
100
AcDbEntity
  8
AM_4
100
AcDbLine
 10
6.491810000000001
 20
37.133007
 30
0.0
 11
8.51322
 21
37.133007
 31
0.0
  0
LINE
  5
1EB
330
EF
100
AcDbEntity
  8
AM_4
100
AcDbLine
 10
8.51322
 20
37.133007
 30
0.0
 11
8.51322
 21
36.688998
 31
0.0
  0
LINE
  5
1EC
330
EF
100
AcDbEntity
  8
AM_4
100
AcDbLine
 10
8.51322
 20
36.688998
 30
0.0
 11
6.491810000000001
 21
36.688998
 31
0.0
  0
LINE
  5
1ED
330
EF
100
AcDbEntity
  8
AM_4
100
AcDbLine
 10
6.491810000000001
 20
36.688998
 30
0.0
 11
6.491810000000001
 21
35.50497000000001
 31
0.0
  0
LINE
  5
1EE
330
EF
100
AcDbEntity
  8
AM_4
100
AcDbLine
 10
6.491810000000001
 20
35.50497000000001
 30
0.0
 11
8.8242
 21
35.50497000000001
 31
0.0
  0
LINE
  5
1EF
330
EF
100
AcDbEntity
  8
AM_4
100
AcDbLine
 10
8.8242
 20
35.50497000000001
 30
0.0
 11
8.8242
 21
35.06095999999999
 31
0.0
  0
ENDBLK
  5
F2
330
EF
100
AcDbEntity
  8
0
100
AcDbBlockEnd
  0
ENDSEC
  0
SECTION
  2
ENTITIES
  0
INSERT
  5
6F
330
1F
100
AcDbEntity
  8
0
100
AcDbBlockReference
  2
1_129712_0
 10
0.0
 20
0.0
 30
0.0
  0
POINT
  5
1F1
330
1F
100
AcDbEntity
  8
ConnectionPoints
100
AcDbPoint
 10
0.0000000000000017
 20
0.0
 30
19.8
  0
POINT
  5
1F2
330
1F
100
AcDbEntity
  8
ConnectionPoints
100
AcDbPoint
 10
0.0000000000000017
 20
0.0
 30
6.300000000000004
  0
POINT
  5
1F3
330
1F
100
AcDbEntity
  8
ConnectionPoints
100
AcDbPoint
 10
0.0
 20
0.0
 30
6.300000000000004
  0
ENDSEC
  0
SECTION
  2
OBJECTS
  0
DICTIONARY
  5
C
330
0
100
AcDbDictionary
281
     1
  3
ACAD_DETAILVIEWSTYLE
350
1FB
  3
ACAD_GROUP
350
D
  3
ACAD_LAYOUT
350
1A
  3
ACAD_MATERIAL
350
43
  3
ACAD_MLEADERSTYLE
350
6B
  3
ACAD_MLINESTYLE
350
17
  3
ACAD_PLOTSETTINGS
350
19
  3
ACAD_PLOTSTYLENAME
350
E
  3
ACAD_SCALELIST
350
47
  3
ACAD_SECTIONVIEWSTYLE
350
1FC
  3
ACAD_TABLESTYLE
350
69
  3
ACAD_VISUALSTYLE
350
2A
  3
ACDB_RECOMPOSE_DATA
350
1F8
  3
AcDbVariableDictionary
350
1F4
  0
SUN
  5
6D
330
29
100
AcDbSun
 90
        1
290
     0
 63
     7
421
 16777215
 40
1.0
291
     1
 91
  2455826
 92
 54000000
292
     0
 70
     2
 71
   256
280
     1
  0
DICTIONARY
  5
1FB
102
{ACAD_REACTORS
330
C
102
}
330
C
100
AcDbDictionary
281
     1
  0
DICTIONARY
  5
D
102
{ACAD_REACTORS
330
C
102
}
330
C
100
AcDbDictionary
281
     1
  0
DICTIONARY
  5
1A
102
{ACAD_REACTORS
330
C
102
}
330
C
100
AcDbDictionary
281
     1
  3
Layout1
350
1E
  3
Layout2
350
26
  3
Model
350
22
  0
DICTIONARY
  5
43
102
{ACAD_REACTORS
330
C
102
}
330
C
100
AcDbDictionary
281
     1
  3
ByBlock
350
45
  3
ByLayer
350
44
  3
Global
350
46
  0
DICTIONARY
  5
6B
102
{ACAD_REACTORS
330
C
102
}
330
C
100
AcDbDictionary
281
     1
  3
Standard
350
6C
  0
DICTIONARY
  5
17
102
{ACAD_REACTORS
330
C
102
}
330
C
100
AcDbDictionary
281
     1
  3
Standard
350
18
  0
DICTIONARY
  5
19
102
{ACAD_REACTORS
330
C
102
}
330
C
100
AcDbDictionary
281
     1
  0
ACDBDICTIONARYWDFLT
  5
E
102
{ACAD_REACTORS
330
C
102
}
330
C
100
AcDbDictionary
281
     1
  3
Normal
350
F
100
AcDbDictionaryWithDefault
340
F
  0
DICTIONARY
  5
47
102
{ACAD_REACTORS
330
C
102
}
330
C
100
AcDbDictionary
281
     1
  3
A0
350
48
  3
A1
350
49
  3
A2
350
4A
  3
A3
350
4B
  3
A4
350
4C
  3
A5
350
4D
  3
A6
350
4E
  3
A7
350
4F
  3
A8
350
50
  3
A9
350
51
  3
B0
350
52
  3
B1
350
53
  3
B2
350
54
  3
B3
350
55
  3
B4
350
56
  3
B5
350
57
  3
B6
350
58
  3
B7
350
59
  3
B8
350
5A
  3
B9
350
5B
  3
C0
350
5C
  3
C1
350
5D
  3
C2
350
5E
  3
C3
350
5F
  3
C4
350
60
  3
C5
350
61
  3
C6
350
62
  3
C7
350
63
  3
C8
350
64
  3
C9
350
65
  3
D0
350
66
  3
D1
350
67
  3
D2
350
68
  0
DICTIONARY
  5
1FC
102
{ACAD_REACTORS
330
C
102
}
330
C
100
AcDbDictionary
281
     1
  0
DICTIONARY
  5
69
102
{ACAD_REACTORS
330
C
102
}
330
C
100
AcDbDictionary
281
     1
  3
Standard
350
6A
  0
DICTIONARY
  5
2A
102
{ACAD_REACTORS
330
C
102
}
330
C
100
AcDbDictionary
281
     1
  3
2dWireframe
350
2F
  3
Basic
350
32
  3
Brighten
350
36
  3
ColorChange
350
3A
  3
Conceptual
350
34
  3
Dim
350
35
  3
EdgeColorOff
350
3D
  3
Facepattern
350
39
  3
Flat
350
2B
  3
FlatWithEdges
350
2C
  3
Gouraud
350
2D
  3
GouraudWithEdges
350
2E
  3
Hidden
350
31
  3
JitterOff
350
3B
  3
Linepattern
350
38
  3
OverhangOff
350
3C
  3
Realistic
350
33
  3
Shaded
350
42
  3
Shaded with edges
350
41
  3
Shades of Gray
350
3E
  3
Sketchy
350
3F
  3
Thicken
350
37
  3
Wireframe
350
30
  3
X-Ray
350
40
  0
XRECORD
  5
1F8
102
{ACAD_REACTORS
330
C
102
}
330
C
100
AcDbXrecord
280
     1
 90
        1
330
6A
  0
DICTIONARY
  5
1F4
102
{ACAD_REACTORS
330
C
102
}
330
C
100
AcDbDictionary
281
     1
  3
CANNOSCALE
350
1F5
  3
CMLEADERSTYLE
350
1FA
  3
CTABLESTYLE
350
1F9
  0
LAYOUT
  5
1E
102
{ACAD_REACTORS
330
1A
102
}
330
1A
100
AcDbPlotSettings
  1

  2
none_device
  4

  6

 40
0.0
 41
0.0
 42
0.0
 43
0.0
 44
0.0
 45
0.0
 46
0.0
 47
0.0
 48
0.0
 49
0.0
140
0.0
141
0.0
142
1.0
143
1.0
 70
   688
 72
     1
 73
     0
 74
     5
  7

 75
    16
 76
     0
 77
     2
 78
   300
147
1.0
148
0.0
149
0.0
100
AcDbLayout
  1
Layout1
 70
     1
 71
     1
 10
0.0
 20
0.0
 11
420.0
 21
297.0
 12
0.0
 22
0.0
 32
0.0
 14
1.000000000000000E+20
 24
1.000000000000000E+20
 34
1.000000000000000E+20
 15
-1.000000000000000E+20
 25
-1.000000000000000E+20
 35
-1.000000000000000E+20
146
0.0
 13
0.0
 23
0.0
 33
0.0
 16
1.0
 26
0.0
 36
0.0
 17
0.0
 27
1.0
 37
0.0
 76
     0
330
1B
  0
LAYOUT
  5
26
102
{ACAD_REACTORS
330
1A
102
}
330
1A
100
AcDbPlotSettings
  1

  2
none_device
  4

  6

 40
0.0
 41
0.0
 42
0.0
 43
0.0
 44
0.0
 45
0.0
 46
0.0
 47
0.0
 48
0.0
 49
0.0
140
0.0
141
0.0
142
1.0
143
1.0
 70
   688
 72
     1
 73
     0
 74
     5
  7

 75
    16
 76
     0
 77
     2
 78
   300
147
1.0
148
0.0
149
0.0
100
AcDbLayout
  1
Layout2
 70
     1
 71
     2
 10
0.0
 20
0.0
 11
0.0
 21
0.0
 12
0.0
 22
0.0
 32
0.0
 14
0.0
 24
0.0
 34
0.0
 15
0.0
 25
0.0
 35
0.0
146
0.0
 13
0.0
 23
0.0
 33
0.0
 16
1.0
 26
0.0
 36
0.0
 17
0.0
 27
1.0
 37
0.0
 76
     0
330
23
  0
LAYOUT
  5
22
102
{ACAD_REACTORS
330
1A
102
}
330
1A
100
AcDbPlotSettings
  1

  2
none_device
  4
Letter_(8.50_x_11.00_Inches)
  6

 40
6.35
 41
6.35
 42
6.35000508
 43
6.35000508
 44
215.9
 45
279.4
 46
0.0
 47
0.0
 48
0.0
 49
0.0
140
0.0
141
0.0
142
1.0
143
1.0
 70
  1712
 72
     1
 73
     0
 74
     0
  7

 75
     0
 76
     0
 77
     2
 78
   300
147
1.0
148
0.0
149
0.0
100
AcDbLayout
  1
Model
 70
     1
 71
     0
 10
0.0
 20
0.0
 11
420.0
 21
297.0
 12
0.0
 22
0.0
 32
0.0
 14
1.000000000000000E+20
 24
1.000000000000000E+20
 34
1.000000000000000E+20
 15
-1.000000000000000E+20
 25
-1.000000000000000E+20
 35
-1.000000000000000E+20
146
0.0
 13
0.0
 23
0.0
 33
0.0
 16
1.0
 26
0.0
 36
0.0
 17
0.0
 27
1.0
 37
0.0
 76
     0
330
1F
331
29
  0
MATERIAL
  5
45
102
{ACAD_REACTORS
330
43
102
}
330
43
100
AcDbMaterial
  1
ByBlock
 72
     1
 94
      127
  0
MATERIAL
  5
44
102
{ACAD_REACTORS
330
43
102
}
330
43
100
AcDbMaterial
  1
ByLayer
 72
     1
 94
      127
  0
MATERIAL
  5
46
102
{ACAD_REACTORS
330
43
102
}
330
43
100
AcDbMaterial
  1
Global
 72
     1
 94
      127
  0
MLEADERSTYLE
  5
6C
102
{ACAD_REACTORS
330
6B
102
}
330
6B
100
AcDbMLeaderStyle
179
     2
170
     2
171
     1
172
     0
 90
        2
 40
0.0
 41
0.0
173
     1
 91
-1056964608
340
14
 92
       -2
290
     1
 42
2.0
291
     1
 43
8.0
  3
Standard
341
0
 44
4.0
300

342
11
174
     1
178
     6
175
     1
176
     0
 93
-1056964608
 45
4.0
292
     0
297
     0
 46
4.0
343
0
 94
-1056964608
 47
1.0
 49
1.0
140
1.0
293
     1
141
0.0
294
     1
177
     0
142
1.0
295
     0
296
     0
143
3.75
271
     0
272
     9
273
     9
298
     0
  0
MLINESTYLE
  5
18
102
{ACAD_REACTORS
330
17
102
}
330
17
100
AcDbMlineStyle
  2
Standard
 70
     0
  3

 62
   256
 51
90.0
 52
90.0
 71
     2
 49
0.5
 62
   256
  6
BYLAYER
 49
-0.5
 62
   256
  6
BYLAYER
  0
ACDBPLACEHOLDER
  5
F
102
{ACAD_REACTORS
330
E
102
}
330
E
  0
SCALE
  5
48
102
{ACAD_REACTORS
330
47
102
}
330
47
100
AcDbScale
 70
     0
300
1:1
140
1.0
141
1.0
290
     1
  0
SCALE
  5
49
102
{ACAD_REACTORS
330
47
102
}
330
47
100
AcDbScale
 70
     0
300
1:2
140
1.0
141
2.0
290
     0
  0
SCALE
  5
4A
102
{ACAD_REACTORS
330
47
102
}
330
47
100
AcDbScale
 70
     0
300
1:4
140
1.0
141
4.0
290
     0
  0
SCALE
  5
4B
102
{ACAD_REACTORS
330
47
102
}
330
47
100
AcDbScale
 70
     0
300
1:5
140
1.0
141
5.0
290
     0
  0
SCALE
  5
4C
102
{ACAD_REACTORS
330
47
102
}
330
47
100
AcDbScale
 70
     0
300
1:8
140
1.0
141
8.0
290
     0
  0
SCALE
  5
4D
102
{ACAD_REACTORS
330
47
102
}
330
47
100
AcDbScale
 70
     0
300
1:10
140
1.0
141
10.0
290
     0
  0
SCALE
  5
4E
102
{ACAD_REACTORS
330
47
102
}
330
47
100
AcDbScale
 70
     0
300
1:16
140
1.0
141
16.0
290
     0
  0
SCALE
  5
4F
102
{ACAD_REACTORS
330
47
102
}
330
47
100
AcDbScale
 70
     0
300
1:20
140
1.0
141
20.0
290
     0
  0
SCALE
  5
50
102
{ACAD_REACTORS
330
47
102
}
330
47
100
AcDbScale
 70
     0
300
1:30
140
1.0
141
30.0
290
     0
  0
SCALE
  5
51
102
{ACAD_REACTORS
330
47
102
}
330
47
100
AcDbScale
 70
     0
300
1:40
140
1.0
141
40.0
290
     0
  0
SCALE
  5
52
102
{ACAD_REACTORS
330
47
102
}
330
47
100
AcDbScale
 70
     0
300
1:50
140
1.0
141
50.0
290
     0
  0
SCALE
  5
53
102
{ACAD_REACTORS
330
47
102
}
330
47
100
AcDbScale
 70
     0
300
1:100
140
1.0
141
100.0
290
     0
  0
SCALE
  5
54
102
{ACAD_REACTORS
330
47
102
}
330
47
100
AcDbScale
 70
     0
300
2:1
140
2.0
141
1.0
290
     0
  0
SCALE
  5
55
102
{ACAD_REACTORS
330
47
102
}
330
47
100
AcDbScale
 70
     0
300
4:1
140
4.0
141
1.0
290
     0
  0
SCALE
  5
56
102
{ACAD_REACTORS
330
47
102
}
330
47
100
AcDbScale
 70
     0
300
8:1
140
8.0
141
1.0
290
     0
  0
SCALE
  5
57
102
{ACAD_REACTORS
330
47
102
}
330
47
100
AcDbScale
 70
     0
300
10:1
140
10.0
141
1.0
290
     0
  0
SCALE
  5
58
102
{ACAD_REACTORS
330
47
102
}
330
47
100
AcDbScale
 70
     0
300
100:1
140
100.0
141
1.0
290
     0
  0
SCALE
  5
59
102
{ACAD_REACTORS
330
47
102
}
330
47
100
AcDbScale
 70
     0
300
1/128" = 1'-0"
140
0.0078125
141
12.0
290
     0
  0
SCALE
  5
5A
102
{ACAD_REACTORS
330
47
102
}
330
47
100
AcDbScale
 70
     0
300
1/64" = 1'-0"
140
0.015625
141
12.0
290
     0
  0
SCALE
  5
5B
102
{ACAD_REACTORS
330
47
102
}
330
47
100
AcDbScale
 70
     0
300
1/32" = 1'-0"
140
0.03125
141
12.0
290
     0
  0
SCALE
  5
5C
102
{ACAD_REACTORS
330
47
102
}
330
47
100
AcDbScale
 70
     0
300
1/16" = 1'-0"
140
0.0625
141
12.0
290
     0
  0
SCALE
  5
5D
102
{ACAD_REACTORS
330
47
102
}
330
47
100
AcDbScale
 70
     0
300
3/32" = 1'-0"
140
0.09375
141
12.0
290
     0
  0
SCALE
  5
5E
102
{ACAD_REACTORS
330
47
102
}
330
47
100
AcDbScale
 70
     0
300
1/8" = 1'-0"
140
0.125
141
12.0
290
     0
  0
SCALE
  5
5F
102
{ACAD_REACTORS
330
47
102
}
330
47
100
AcDbScale
 70
     0
300
3/16" = 1'-0"
140
0.1875
141
12.0
290
     0
  0
SCALE
  5
60
102
{ACAD_REACTORS
330
47
102
}
330
47
100
AcDbScale
 70
     0
300
1/4" = 1'-0"
140
0.25
141
12.0
290
     0
  0
SCALE
  5
61
102
{ACAD_REACTORS
330
47
102
}
330
47
100
AcDbScale
 70
     0
300
3/8" = 1'-0"
140
0.375
141
12.0
290
     0
  0
SCALE
  5
62
102
{ACAD_REACTORS
330
47
102
}
330
47
100
AcDbScale
 70
     0
300
1/2" = 1'-0"
140
0.5
141
12.0
290
     0
  0
SCALE
  5
63
102
{ACAD_REACTORS
330
47
102
}
330
47
100
AcDbScale
 70
     0
300
3/4" = 1'-0"
140
0.75
141
12.0
290
     0
  0
SCALE
  5
64
102
{ACAD_REACTORS
330
47
102
}
330
47
100
AcDbScale
 70
     0
300
1" = 1'-0"
140
1.0
141
12.0
290
     0
  0
SCALE
  5
65
102
{ACAD_REACTORS
330
47
102
}
330
47
100
AcDbScale
 70
     0
300
1-1/2" = 1'-0"
140
1.5
141
12.0
290
     0
  0
SCALE
  5
66
102
{ACAD_REACTORS
330
47
102
}
330
47
100
AcDbScale
 70
     0
300
3" = 1'-0"
140
3.0
141
12.0
290
     0
  0
SCALE
  5
67
102
{ACAD_REACTORS
330
47
102
}
330
47
100
AcDbScale
 70
     0
300
6" = 1'-0"
140
6.0
141
12.0
290
     0
  0
SCALE
  5
68
102
{ACAD_REACTORS
330
47
102
}
330
47
100
AcDbScale
 70
     0
300
1'-0" = 1'-0"
140
12.0
141
12.0
290
     0
  0
TABLESTYLE
  5
6A
102
{ACAD_REACTORS
330
69
102
}
102
{ACAD_XDICTIONARY
360
1F6
102
}
330
69
100
AcDbTableStyle
  3
Standard
 70
     0
 71
     0
 40
0.06
 41
0.06
280
     0
281
     0
  7
Standard
140
4.5
170
     2
 62
     0
 63
   257
283
     0
 90
        4
 91
        0
  1

274
    -2
284
     1
 64
     0
275
    -2
285
     1
 65
     0
276
    -2
286
     1
 66
     0
277
    -2
287
     1
 67
     0
278
    -2
288
     1
 68
     0
279
    -2
289
     1
 69
     0
  7
Standard
140
6.0
170
     5
 62
     0
 63
   257
283
     0
 90
        4
 91
        0
  1

274
    -2
284
     1
 64
     0
275
    -2
285
     1
 65
     0
276
    -2
286
     1
 66
     0
277
    -2
287
     1
 67
     0
278
    -2
288
     1
 68
     0
279
    -2
289
     1
 69
     0
  7
Standard
140
4.5
170
     5
 62
     0
 63
   257
283
     0
 90
        4
 91
        0
  1

274
    -2
284
     1
 64
     0
275
    -2
285
     1
 65
     0
276
    -2
286
     1
 66
     0
277
    -2
287
     1
 67
     0
278
    -2
288
     1
 68
     0
279
    -2
289
     1
 69
     0
  0
VISUALSTYLE
  5
2F
102
{ACAD_REACTORS
330
2A
102
}
330
2A
100
AcDbVisualStyle
  2
2dWireframe
 70
     4
177
     3
291
     0
 70
    58
 90
        0
176
     1
 90
        2
176
     1
 90
        0
176
     1
 90
        0
176
     1
 40
0.6
176
     1
 40
30.0
176
     1
 62
     7
420
 16777215
176
     1
 90
        1
176
     1
 90
        4
176
     1
 62
     7
176
     1
 62
   257
176
     1
 90
        1
176
     1
 90
        1
176
     1
 40
1.0
176
     1
 90
        0
176
     1
 62
   257
176
     1
 40
1.0
176
     1
 90
        1
176
     1
 90
        6
176
     1
 90
        2
176
     1
 62
     7
176
     1
 90
        5
176
     1
 90
        0
176
     1
 90
        0
176
     1
290
     0
176
     1
 90
        1
176
     1
 40
0.0
176
     1
 90
        0
176
     1
290
     1
176
     1
290
     1
176
     1
290
     0
176
     1
290
     0
176
     1
290
     0
176
     1
290
     0
176
     1
290
     0
176
     1
290
     0
176
     1
290
     0
176
     1
 90
       50
176
     1
 40
0.0
176
     1
 40
1.0
176
     1
 90
        0
176
     1
 62
    18
420
        0
176
     1
 90
       50
176
     1
 90
        3
176
     1
 62
     5
420
      255
176
     1
290
     0
176
     1
 90
       50
176
     1
 90
       50
176
     1
 90
       50
176
     1
290
     0
176
     1
 90
       50
176
     1
 62
   256
176
     0
 40
1.0
176
     0
 90
        2
176
     1
  1
strokes_ogs.tif
176
     1
290
     0
176
     1
 40
1.0
176
     1
 40
1.0
176
     1
  0
VISUALSTYLE
  5
32
102
{ACAD_REACTORS
330
2A
102
}
330
2A
100
AcDbVisualStyle
  2
Basic
 70
     7
177
     3
291
     1
 70
    58
 90
        1
176
     1
 90
        0
176
     1
 90
        1
176
     1
 90
        0
176
     1
 40
0.6
176
     1
 40
30.0
176
     1
 62
     7
420
 16777215
176
     1
 90
        0
176
     1
 90
        4
176
     1
 62
     7
176
     1
 62
   257
176
     1
 90
        1
176
     1
 90
        1
176
     1
 40
1.0
176
     1
 90
        8
176
     1
 62
     7
176
     1
 40
1.0
176
     1
 90
        1
176
     1
 90
        6
176
     1
 90
        2
176
     1
 62
     7
176
     1
 90
        5
176
     1
 90
        0
176
     1
 90
        0
176
     1
290
     0
176
     1
 90
        1
176
     1
 40
0.0
176
     1
 90
        0
176
     1
290
     0
176
     1
290
     1
176
     1
290
     1
176
     1
290
     0
176
     1
290
     0
176
     1
290
     0
176
     1
290
     0
176
     1
290
     0
176
     1
290
     0
176
     1
 90
       50
176
     1
 40
0.0
176
     1
 40
1.0
176
     1
 90
        0
176
     1
 62
    18
420
        0
176
     1
 90
       50
176
     1
 90
        3
176
     1
 62
     5
420
      255
176
     1
290
     0
176
     1
 90
       50
176
     1
 90
       50
176
     1
 90
       50
176
     1
290
     0
176
     1
 90
       50
176
     1
 62
   256
176
     0
 40
1.0
176
     0
 90
        2
176
     1
  1
strokes_ogs.tif
176
     1
290
     0
176
     1
 40
1.0
176
     1
 40
1.0
176
     1
  0
VISUALSTYLE
  5
36
102
{ACAD_REACTORS
330
2A
102
}
330
2A
100
AcDbVisualStyle
  2
Brighten
 70
    12
177
     3
291
     1
 70
    58
 90
        2
176
     1
 90
        2
176
     1
 90
        0
176
     1
 90
        0
176
     1
 40
0.6
176
     1
 40
30.0
176
     1
 62
     7
420
 16777215
176
     1
 90
        1
176
     1
 90
        4
176
     1
 62
     7
176
     1
 62
   257
176
     1
 90
        1
176
     1
 90
        1
176
     1
 40
1.0
176
     1
 90
        8
176
     1
 62
     7
176
     1
 40
1.0
176
     1
 90
        1
176
     1
 90
        6
176
     1
 90
        2
176
     1
 62
     7
176
     1
 90
        5
176
     1
 90
        0
176
     1
 90
        0
176
     1
290
     0
176
     1
 90
        1
176
     1
 40
50.0
176
     1
 90
        0
176
     1
290
     0
176
     1
290
     1
176
     1
290
     1
176
     1
290
     0
176
     1
290
     0
176
     1
290
     0
176
     1
290
     0
176
     1
290
     0
176
     1
290
     0
176
     1
 90
       50
176
     1
 40
0.0
176
     1
 40
1.0
176
     1
 90
        0
176
     1
 62
    18
420
        0
176
     1
 90
       50
176
     1
 90
        3
176
     1
 62
     5
420
      255
176
     1
290
     0
176
     1
 90
       50
176
     1
 90
       50
176
     1
 90
       50
176
     1
290
     0
176
     1
 90
       50
176
     1
 62
   256
176
     0
 40
1.0
176
     0
 90
        2
176
     1
  1
strokes_ogs.tif
176
     1
290
     0
176
     1
 40
1.0
176
     1
 40
1.0
176
     1
  0
VISUALSTYLE
  5
3A
102
{ACAD_REACTORS
330
2A
102
}
330
2A
100
AcDbVisualStyle
  2
ColorChange
 70
    16
177
     3
291
     1
 70
    58
 90
        2
176
     1
 90
        2
176
     1
 90
        3
176
     1
 90
        0
176
     1
 40
0.6
176
     1
 40
30.0
176
     1
 62
     8
420
  8421504
176
     1
 90
        1
176
     1
 90
        4
176
     1
 62
     7
176
     1
 62
   257
176
     1
 90
        1
176
     1
 90
        1
176
     1
 40
1.0
176
     1
 90
        8
176
     1
 62
     8
420
  8421504
176
     1
 40
1.0
176
     1
 90
        1
176
     1
 90
        6
176
     1
 90
        2
176
     1
 62
     7
176
     1
 90
        5
176
     1
 90
        0
176
     1
 90
        0
176
     1
290
     0
176
     1
 90
        1
176
     1
 40
0.0
176
     1
 90
        0
176
     1
290
     0
176
     1
290
     1
176
     1
290
     1
176
     1
290
     0
176
     1
290
     0
176
     1
290
     0
176
     1
290
     0
176
     1
290
     0
176
     1
290
     0
176
     1
 90
       50
176
     1
 40
0.0
176
     1
 40
1.0
176
     1
 90
        0
176
     1
 62
    18
420
        0
176
     1
 90
       50
176
     1
 90
        3
176
     1
 62
     5
420
      255
176
     1
290
     0
176
     1
 90
       50
176
     1
 90
       50
176
     1
 90
       50
176
     1
290
     0
176
     1
 90
       50
176
     1
 62
   256
176
     0
 40
1.0
176
     0
 90
        2
176
     1
  1
strokes_ogs.tif
176
     1
290
     0
176
     1
 40
1.0
176
     1
 40
1.0
176
     1
  0
VISUALSTYLE
  5
34
102
{ACAD_REACTORS
330
2A
102
}
330
2A
100
AcDbVisualStyle
  2
Conceptual
 70
     9
177
     3
291
     0
 70
    58
 90
        3
176
     1
 90
        2
176
     1
 90
        0
176
     1
 90
        0
176
     1
 40
0.6
176
     1
 40
30.0
176
     1
 62
     7
420
 16777215
176
     1
 90
        2
176
     1
 90
        2
176
     1
 62
     7
176
     1
 62
   257
176
     1
 90
        1
176
     1
 90
        1
176
     1
 40
179.0
176
     1
 90
        8
176
     1
 62
     7
176
     1
 40
1.0
176
     1
 90
        1
176
     1
 90
        6
176
     1
 90
        2
176
     1
 62
     7
176
     1
 90
        3
176
     1
 90
        0
176
     1
 90
        0
176
     1
290
     0
176
     1
 90
        1
176
     1
 40
0.0
176
     1
 90
        0
176
     1
290
     0
176
     1
290
     1
176
     1
290
     1
176
     1
290
     0
176
     1
290
     0
176
     1
290
     0
176
     1
290
     0
176
     1
290
     0
176
     1
290
     0
176
     1
 90
       50
176
     1
 40
0.0
176
     1
 40
1.0
176
     1
 90
        0
176
     1
 62
    18
420
        0
176
     1
 90
       50
176
     1
 90
        3
176
     1
 62
     5
420
      255
176
     1
290
     0
176
     1
 90
       50
176
     1
 90
       50
176
     1
 90
       50
176
     1
290
     0
176
     1
 90
       50
176
     1
 62
   256
176
     0
 40
1.0
176
     0
 90
        2
176
     1
  1
strokes_ogs.tif
176
     1
290
     0
176
     1
 40
1.0
176
     1
 40
1.0
176
     1
  0
VISUALSTYLE
  5
35
102
{ACAD_REACTORS
330
2A
102
}
330
2A
100
AcDbVisualStyle
  2
Dim
 70
    11
177
     3
291
     1
 70
    58
 90
        2
176
     1
 90
        2
176
     1
 90
        0
176
     1
 90
        0
176
     1
 40
0.6
176
     1
 40
30.0
176
     1
 62
     7
420
 16777215
176
     1
 90
        1
176
     1
 90
        4
176
     1
 62
     7
176
     1
 62
   257
176
     1
 90
        1
176
     1
 90
        1
176
     1
 40
1.0
176
     1
 90
        8
176
     1
 62
     7
176
     1
 40
1.0
176
     1
 90
        1
176
     1
 90
        6
176
     1
 90
        2
176
     1
 62
     7
176
     1
 90
        5
176
     1
 90
        0
176
     1
 90
        0
176
     1
290
     0
176
     1
 90
        1
176
     1
 40
-50.0
176
     1
 90
        0
176
     1
290
     0
176
     1
290
     1
176
     1
290
     1
176
     1
290
     0
176
     1
290
     0
176
     1
290
     0
176
     1
290
     0
176
     1
290
     0
176
     1
290
     0
176
     1
 90
       50
176
     1
 40
0.0
176
     1
 40
1.0
176
     1
 90
        0
176
     1
 62
    18
420
        0
176
     1
 90
       50
176
     1
 90
        3
176
     1
 62
     5
420
      255
176
     1
290
     0
176
     1
 90
       50
176
     1
 90
       50
176
     1
 90
       50
176
     1
290
     0
176
     1
 90
       50
176
     1
 62
   256
176
     0
 40
1.0
176
     0
 90
        2
176
     1
  1
strokes_ogs.tif
176
     1
290
     0
176
     1
 40
1.0
176
     1
 40
1.0
176
     1
  0
VISUALSTYLE
  5
3D
102
{ACAD_REACTORS
330
2A
102
}
330
2A
100
AcDbVisualStyle
  2
EdgeColorOff
 70
    22
177
     3
291
     1
 70
    58
 90
        2
176
     0
 90
        2
176
     0
 90
        0
176
     0
 90
        0
176
     0
 40
0.6
176
     0
 40
30.0
176
     0
 62
     7
420
 16777215
176
     0
 90
        1
176
     0
 90
        4
176
     0
 62
     7
176
     0
 62
   257
176
     0
 90
        1
176
     0
 90
        1
176
     0
 40
1.0
176
     0
 90
        8
176
     2
 62
     7
176
     0
 40
1.0
176
     0
 90
        1
176
     0
 90
        6
176
     0
 90
        2
176
     0
 62
     7
176
     0
 90
        5
176
     0
 90
        0
176
     0
 90
        0
176
     0
290
     0
176
     0
 90
        1
176
     0
 40
0.0
176
     0
 90
        0
176
     0
290
     0
176
     0
290
     1
176
     0
290
     1
176
     0
290
     0
176
     0
290
     0
176
     0
290
     0
176
     0
290
     0
176
     0
290
     0
176
     0
290
     0
176
     0
 90
       50
176
     0
 40
0.0
176
     0
 40
1.0
176
     0
 90
        0
176
     0
 62
    18
420
        0
176
     0
 90
       50
176
     0
 90
        3
176
     0
 62
     5
420
      255
176
     0
290
     0
176
     0
 90
       50
176
     0
 90
       50
176
     0
 90
       50
176
     0
290
     0
176
     0
 90
       50
176
     0
 62
   256
176
     0
 40
1.0
176
     0
 90
        2
176
     0
  1
strokes_ogs.tif
176
     0
290
     0
176
     0
 40
1.0
176
     0
 40
1.0
176
     0
  0
VISUALSTYLE
  5
39
102
{ACAD_REACTORS
330
2A
102
}
330
2A
100
AcDbVisualStyle
  2
Facepattern
 70
    15
177
     3
291
     1
 70
    58
 90
        2
176
     1
 90
        2
176
     1
 90
        0
176
     1
 90
        0
176
     1
 40
0.6
176
     1
 40
30.0
176
     1
 62
     7
420
 16777215
176
     1
 90
        1
176
     1
 90
        4
176
     1
 62
     7
176
     1
 62
   257
176
     1
 90
        1
176
     1
 90
        1
176
     1
 40
1.0
176
     1
 90
        8
176
     1
 62
     7
176
     1
 40
1.0
176
     1
 90
        1
176
     1
 90
        6
176
     1
 90
        2
176
     1
 62
     7
176
     1
 90
        5
176
     1
 90
        0
176
     1
 90
        0
176
     1
290
     0
176
     1
 90
        1
176
     1
 40
0.0
176
     1
 90
        0
176
     1
290
     0
176
     1
290
     1
176
     1
290
     1
176
     1
290
     0
176
     1
290
     0
176
     1
290
     0
176
     1
290
     0
176
     1
290
     0
176
     1
290
     0
176
     1
 90
       50
176
     1
 40
0.0
176
     1
 40
1.0
176
     1
 90
        0
176
     1
 62
    18
420
        0
176
     1
 90
       50
176
     1
 90
        3
176
     1
 62
     5
420
      255
176
     1
290
     0
176
     1
 90
       50
176
     1
 90
       50
176
     1
 90
       50
176
     1
290
     0
176
     1
 90
       50
176
     1
 62
   256
176
     0
 40
1.0
176
     0
 90
        2
176
     1
  1
strokes_ogs.tif
176
     1
290
     0
176
     1
 40
1.0
176
     1
 40
1.0
176
     1
  0
VISUALSTYLE
  5
2B
102
{ACAD_REACTORS
330
2A
102
}
330
2A
100
AcDbVisualStyle
  2
Flat
 70
     0
177
     3
291
     1
 70
    58
 90
        2
176
     1
 90
        1
176
     1
 90
        1
176
     1
 90
        2
176
     1
 40
0.6
176
     1
 40
30.0
176
     1
 62
     7
420
 16777215
176
     1
 90
        0
176
     1
 90
        0
176
     1
 62
     7
176
     1
 62
   257
176
     1
 90
        1
176
     1
 90
        1
176
     1
 40
1.0
176
     1
 90
        8
176
     1
 62
     7
176
     1
 40
1.0
176
     1
 90
        1
176
     1
 90
        6
176
     1
 90
        2
176
     1
 62
     7
176
     1
 90
        5
176
     1
 90
        0
176
     1
 90
        0
176
     1
290
     0
176
     1
 90
       13
176
     1
 40
0.0
176
     1
 90
        0
176
     1
290
     0
176
     1
290
     1
176
     1
290
     1
176
     1
290
     0
176
     1
290
     0
176
     1
290
     0
176
     1
290
     0
176
     1
290
     0
176
     1
290
     0
176
     1
 90
       50
176
     1
 40
0.0
176
     1
 40
1.0
176
     1
 90
        0
176
     1
 62
    18
420
        0
176
     1
 90
       50
176
     1
 90
        3
176
     1
 62
     5
420
      255
176
     1
290
     0
176
     1
 90
       50
176
     1
 90
       50
176
     1
 90
       50
176
     1
290
     0
176
     1
 90
       50
176
     1
 62
   256
176
     0
 40
1.0
176
     0
 90
        2
176
     1
  1
strokes_ogs.tif
176
     1
290
     0
176
     1
 40
1.0
176
     1
 40
1.0
176
     1
  0
VISUALSTYLE
  5
2C
102
{ACAD_REACTORS
330
2A
102
}
330
2A
100
AcDbVisualStyle
  2
FlatWithEdges
 70
     1
177
     3
291
     1
 70
    58
 90
        2
176
     1
 90
        1
176
     1
 90
        1
176
     1
 90
        2
176
     1
 40
0.6
176
     1
 40
30.0
176
     1
 62
     7
420
 16777215
176
     1
 90
        1
176
     1
 90
        0
176
     1
 62
     7
176
     1
 62
   257
176
     1
 90
        1
176
     1
 90
        1
176
     1
 40
1.0
176
     1
 90
        0
176
     1
 62
   257
176
     1
 40
1.0
176
     1
 90
        1
176
     1
 90
        6
176
     1
 90
        2
176
     1
 62
     7
176
     1
 90
        5
176
     1
 90
        0
176
     1
 90
        0
176
     1
290
     0
176
     1
 90
       13
176
     1
 40
0.0
176
     1
 90
        0
176
     1
290
     0
176
     1
290
     1
176
     1
290
     1
176
     1
290
     0
176
     1
290
     0
176
     1
290
     0
176
     1
290
     0
176
     1
290
     0
176
     1
290
     0
176
     1
 90
       50
176
     1
 40
0.0
176
     1
 40
1.0
176
     1
 90
        0
176
     1
 62
    18
420
        0
176
     1
 90
       50
176
     1
 90
        3
176
     1
 62
     5
420
      255
176
     1
290
     0
176
     1
 90
       50
176
     1
 90
       50
176
     1
 90
       50
176
     1
290
     0
176
     1
 90
       50
176
     1
 62
   256
176
     0
 40
1.0
176
     0
 90
        2
176
     1
  1
strokes_ogs.tif
176
     1
290
     0
176
     1
 40
1.0
176
     1
 40
1.0
176
     1
  0
VISUALSTYLE
  5
2D
102
{ACAD_REACTORS
330
2A
102
}
330
2A
100
AcDbVisualStyle
  2
Gouraud
 70
     2
177
     3
291
     1
 70
    58
 90
        2
176
     1
 90
        2
176
     1
 90
        1
176
     1
 90
        2
176
     1
 40
0.6
176
     1
 40
30.0
176
     1
 62
     7
420
 16777215
176
     1
 90
        0
176
     1
 90
        0
176
     1
 62
     7
176
     1
 62
   257
176
     1
 90
        1
176
     1
 90
        1
176
     1
 40
1.0
176
     1
 90
        0
176
     1
 62
     7
176
     1
 40
1.0
176
     1
 90
        1
176
     1
 90
        6
176
     1
 90
        2
176
     1
 62
     7
176
     1
 90
        5
176
     1
 90
        0
176
     1
 90
        0
176
     1
290
     0
176
     1
 90
       13
176
     1
 40
0.0
176
     1
 90
        0
176
     1
290
     0
176
     1
290
     1
176
     1
290
     1
176
     1
290
     0
176
     1
290
     0
176
     1
290
     0
176
     1
290
     0
176
     1
290
     0
176
     1
290
     0
176
     1
 90
       50
176
     1
 40
0.0
176
     1
 40
1.0
176
     1
 90
        0
176
     1
 62
    18
420
        0
176
     1
 90
       50
176
     1
 90
        3
176
     1
 62
     5
420
      255
176
     1
290
     0
176
     1
 90
       50
176
     1
 90
       50
176
     1
 90
       50
176
     1
290
     0
176
     1
 90
       50
176
     1
 62
   256
176
     0
 40
1.0
176
     0
 90
        2
176
     1
  1
strokes_ogs.tif
176
     1
290
     0
176
     1
 40
1.0
176
     1
 40
1.0
176
     1
  0
VISUALSTYLE
  5
2E
102
{ACAD_REACTORS
330
2A
102
}
330
2A
100
AcDbVisualStyle
  2
GouraudWithEdges
 70
     3
177
     3
291
     1
 70
    58
 90
        2
176
     1
 90
        2
176
     1
 90
        1
176
     1
 90
        2
176
     1
 40
0.6
176
     1
 40
30.0
176
     1
 62
     7
420
 16777215
176
     1
 90
        1
176
     1
 90
        0
176
     1
 62
     7
176
     1
 62
   257
176
     1
 90
        1
176
     1
 90
        1
176
     1
 40
1.0
176
     1
 90
        0
176
     1
 62
   257
176
     1
 40
1.0
176
     1
 90
        1
176
     1
 90
        6
176
     1
 90
        2
176
     1
 62
     7
176
     1
 90
        5
176
     1
 90
        0
176
     1
 90
        0
176
     1
290
     0
176
     1
 90
       13
176
     1
 40
0.0
176
     1
 90
        0
176
     1
290
     0
176
     1
290
     1
176
     1
290
     1
176
     1
290
     0
176
     1
290
     0
176
     1
290
     0
176
     1
290
     0
176
     1
290
     0
176
     1
290
     0
176
     1
 90
       50
176
     1
 40
0.0
176
     1
 40
1.0
176
     1
 90
        0
176
     1
 62
    18
420
        0
176
     1
 90
       50
176
     1
 90
        3
176
     1
 62
     5
420
      255
176
     1
290
     0
176
     1
 90
       50
176
     1
 90
       50
176
     1
 90
       50
176
     1
290
     0
176
     1
 90
       50
176
     1
 62
   256
176
     0
 40
1.0
176
     0
 90
        2
176
     1
  1
strokes_ogs.tif
176
     1
290
     0
176
     1
 40
1.0
176
     1
 40
1.0
176
     1
  0
VISUALSTYLE
  5
31
102
{ACAD_REACTORS
330
2A
102
}
330
2A
100
AcDbVisualStyle
  2
Hidden
 70
     6
177
     3
291
     0
 70
    58
 90
        1
176
     1
 90
        2
176
     1
 90
        2
176
     1
 90
        0
176
     1
 40
0.6
176
     1
 40
30.0
176
     1
 62
     7
420
 16777215
176
     1
 90
        2
176
     1
 90
        2
176
     1
 62
     7
176
     1
 62
   257
176
     1
 90
        2
176
     1
 90
        1
176
     1
 40
40.0
176
     1
 90
        0
176
     1
 62
   257
176
     1
 40
1.0
176
     1
 90
        1
176
     1
 90
        6
176
     1
 90
        2
176
     1
 62
     7
176
     1
 90
        3
176
     1
 90
        0
176
     1
 90
        0
176
     1
290
     0
176
     1
 90
        1
176
     1
 40
0.0
176
     1
 90
        0
176
     1
290
     0
176
     1
290
     1
176
     1
290
     1
176
     1
290
     0
176
     1
290
     0
176
     1
290
     0
176
     1
290
     0
176
     1
290
     0
176
     1
290
     0
176
     1
 90
       50
176
     1
 40
0.0
176
     1
 40
1.0
176
     1
 90
        0
176
     1
 62
    18
420
        0
176
     1
 90
       50
176
     1
 90
        3
176
     1
 62
     5
420
      255
176
     1
290
     0
176
     1
 90
       50
176
     1
 90
       50
176
     1
 90
       50
176
     1
290
     0
176
     1
 90
       50
176
     1
 62
   256
176
     0
 40
1.0
176
     0
 90
        2
176
     1
  1
strokes_ogs.tif
176
     1
290
     0
176
     1
 40
1.0
176
     1
 40
1.0
176
     1
  0
VISUALSTYLE
  5
3B
102
{ACAD_REACTORS
330
2A
102
}
330
2A
100
AcDbVisualStyle
  2
JitterOff
 70
    20
177
     3
291
     1
 70
    58
 90
        2
176
     0
 90
        2
176
     0
 90
        0
176
     0
 90
        0
176
     0
 40
0.6
176
     0
 40
30.0
176
     0
 62
     7
420
 16777215
176
     0
 90
        1
176
     0
 90
        4
176
     0
 62
     7
176
     0
 62
   257
176
     0
 90
        1
176
     0
 90
        1
176
     0
 40
1.0
176
     0
 90
       10
176
     2
 62
     7
176
     0
 40
1.0
176
     0
 90
        1
176
     0
 90
        6
176
     0
 90
        2
176
     0
 62
     7
176
     0
 90
        5
176
     0
 90
        0
176
     0
 90
        0
176
     0
290
     0
176
     0
 90
        1
176
     0
 40
0.0
176
     0
 90
        0
176
     0
290
     0
176
     0
290
     1
176
     0
290
     1
176
     0
290
     0
176
     0
290
     0
176
     0
290
     0
176
     0
290
     0
176
     0
290
     0
176
     0
290
     0
176
     0
 90
       50
176
     0
 40
0.0
176
     0
 40
1.0
176
     0
 90
        0
176
     0
 62
    18
420
        0
176
     0
 90
       50
176
     0
 90
        3
176
     0
 62
     5
420
      255
176
     0
290
     0
176
     0
 90
       50
176
     0
 90
       50
176
     0
 90
       50
176
     0
290
     0
176
     0
 90
       50
176
     0
 62
   256
176
     0
 40
1.0
176
     0
 90
        2
176
     0
  1
strokes_ogs.tif
176
     0
290
     0
176
     0
 40
1.0
176
     0
 40
1.0
176
     0
  0
VISUALSTYLE
  5
38
102
{ACAD_REACTORS
330
2A
102
}
330
2A
100
AcDbVisualStyle
  2
Linepattern
 70
    14
177
     3
291
     1
 70
    58
 90
        2
176
     1
 90
        2
176
     1
 90
        0
176
     1
 90
        0
176
     1
 40
0.6
176
     1
 40
30.0
176
     1
 62
     7
420
 16777215
176
     1
 90
        1
176
     1
 90
        4
176
     1
 62
     7
176
     1
 62
   257
176
     1
 90
        7
176
     1
 90
        7
176
     1
 40
1.0
176
     1
 90
        8
176
     1
 62
     7
176
     1
 40
1.0
176
     1
 90
        1
176
     1
 90
        6
176
     1
 90
        2
176
     1
 62
     7
176
     1
 90
        5
176
     1
 90
        0
176
     1
 90
        0
176
     1
290
     0
176
     1
 90
        1
176
     1
 40
0.0
176
     1
 90
        0
176
     1
290
     0
176
     1
290
     1
176
     1
290
     1
176
     1
290
     0
176
     1
290
     0
176
     1
290
     0
176
     1
290
     0
176
     1
290
     0
176
     1
290
     0
176
     1
 90
       50
176
     1
 40
0.0
176
     1
 40
1.0
176
     1
 90
        0
176
     1
 62
    18
420
        0
176
     1
 90
       50
176
     1
 90
        3
176
     1
 62
     5
420
      255
176
     1
290
     0
176
     1
 90
       50
176
     1
 90
       50
176
     1
 90
       50
176
     1
290
     0
176
     1
 90
       50
176
     1
 62
   256
176
     0
 40
1.0
176
     0
 90
        2
176
     1
  1
strokes_ogs.tif
176
     1
290
     0
176
     1
 40
1.0
176
     1
 40
1.0
176
     1
  0
VISUALSTYLE
  5
3C
102
{ACAD_REACTORS
330
2A
102
}
330
2A
100
AcDbVisualStyle
  2
OverhangOff
 70
    21
177
     3
291
     1
 70
    58
 90
        2
176
     0
 90
        2
176
     0
 90
        0
176
     0
 90
        0
176
     0
 40
0.6
176
     0
 40
30.0
176
     0
 62
     7
420
 16777215
176
     0
 90
        1
176
     0
 90
        4
176
     0
 62
     7
176
     0
 62
   257
176
     0
 90
        1
176
     0
 90
        1
176
     0
 40
1.0
176
     0
 90
        9
176
     2
 62
     7
176
     0
 40
1.0
176
     0
 90
        1
176
     0
 90
        6
176
     0
 90
        2
176
     0
 62
     7
176
     0
 90
        5
176
     0
 90
        0
176
     0
 90
        0
176
     0
290
     0
176
     0
 90
        1
176
     0
 40
0.0
176
     0
 90
        0
176
     0
290
     0
176
     0
290
     1
176
     0
290
     1
176
     0
290
     0
176
     0
290
     0
176
     0
290
     0
176
     0
290
     0
176
     0
290
     0
176
     0
290
     0
176
     0
 90
       50
176
     0
 40
0.0
176
     0
 40
1.0
176
     0
 90
        0
176
     0
 62
    18
420
        0
176
     0
 90
       50
176
     0
 90
        3
176
     0
 62
     5
420
      255
176
     0
290
     0
176
     0
 90
       50
176
     0
 90
       50
176
     0
 90
       50
176
     0
290
     0
176
     0
 90
       50
176
     0
 62
   256
176
     0
 40
1.0
176
     0
 90
        2
176
     0
  1
strokes_ogs.tif
176
     0
290
     0
176
     0
 40
1.0
176
     0
 40
1.0
176
     0
  0
VISUALSTYLE
  5
33
102
{ACAD_REACTORS
330
2A
102
}
330
2A
100
AcDbVisualStyle
  2
Realistic
 70
     8
177
     3
291
     0
 70
    58
 90
        2
176
     1
 90
        3
176
     1
 90
        0
176
     1
 90
        2
176
     1
 40
0.6
176
     1
 40
30.0
176
     1
 62
     7
420
 16777215
176
     1
 90
        0
176
     1
 90
        0
176
     1
 62
     7
176
     1
 62
   257
176
     1
 90
        1
176
     1
 90
        1
176
     1
 40
1.0
176
     1
 90
        8
176
     1
 62
   257
176
     1
 40
1.0
176
     1
 90
        1
176
     1
 90
        6
176
     1
 90
        2
176
     1
 62
     7
176
     1
 90
        3
176
     1
 90
        0
176
     1
 90
        0
176
     1
290
     0
176
     1
 90
       13
176
     1
 40
0.0
176
     1
 90
        0
176
     1
290
     0
176
     1
290
     1
176
     1
290
     1
176
     1
290
     0
176
     1
290
     0
176
     1
290
     0
176
     1
290
     0
176
     1
290
     0
176
     1
290
     0
176
     1
 90
       50
176
     1
 40
0.0
176
     1
 40
1.0
176
     1
 90
        0
176
     1
 62
    18
420
        0
176
     1
 90
       50
176
     1
 90
        3
176
     1
 62
     5
420
      255
176
     1
290
     0
176
     1
 90
       50
176
     1
 90
       50
176
     1
 90
       50
176
     1
290
     0
176
     1
 90
       50
176
     1
 62
   256
176
     0
 40
1.0
176
     0
 90
        2
176
     1
  1
strokes_ogs.tif
176
     1
290
     0
176
     1
 40
1.0
176
     1
 40
1.0
176
     1
  0
VISUALSTYLE
  5
42
102
{ACAD_REACTORS
330
2A
102
}
330
2A
100
AcDbVisualStyle
  2
Shaded
 70
    27
177
     3
291
     0
 70
    58
 90
        2
176
     1
 90
        2
176
     1
 90
        1
176
     1
 90
        2
176
     1
 40
0.6
176
     1
 40
30.0
176
     1
 62
     7
420
 16777215
176
     1
 90
        0
176
     1
 90
        4
176
     1
 62
     7
176
     1
 62
   257
176
     1
 90
        1
176
     1
 90
        1
176
     1
 40
1.0
176
     1
 90
        8
176
     1
 62
   257
176
     1
 40
1.0
176
     1
 90
        1
176
     1
 90
        6
176
     1
 90
        2
176
     1
 62
     8
420
  7895160
176
     1
 90
        3
176
     1
 90
        0
176
     1
 90
        0
176
     1
290
     0
176
     1
 90
        5
176
     1
 40
0.0
176
     1
 90
        0
176
     1
290
     0
176
     1
290
     1
176
     1
290
     1
176
     1
290
     0
176
     1
290
     0
176
     1
290
     0
176
     1
290
     0
176
     1
290
     0
176
     1
290
     0
176
     1
 90
       50
176
     1
 40
0.0
176
     1
 40
1.0
176
     1
 90
        0
176
     1
 62
    18
420
        0
176
     1
 90
       50
176
     1
 90
        3
176
     1
 62
     5
420
      255
176
     1
290
     0
176
     1
 90
       50
176
     1
 90
       50
176
     1
 90
       50
176
     1
290
     0
176
     1
 90
       50
176
     1
 62
   256
176
     0
 40
1.0
176
     0
 90
        2
176
     1
  1
strokes_ogs.tif
176
     1
290
     0
176
     1
 40
1.0
176
     1
 40
1.0
176
     1
  0
VISUALSTYLE
  5
41
102
{ACAD_REACTORS
330
2A
102
}
330
2A
100
AcDbVisualStyle
  2
Shaded with edges
 70
    26
177
     3
291
     0
 70
    58
 90
        2
176
     1
 90
        2
176
     1
 90
        1
176
     1
 90
        2
176
     1
 40
0.6
176
     1
 40
30.0
176
     1
 62
     7
420
 16777215
176
     1
 90
        1
176
     1
 90
       10
176
     1
 62
     7
176
     1
 62
   257
176
     1
 90
        2
176
     1
 90
        1
176
     1
 40
1.0
176
     1
 90
        8
176
     1
 62
   257
176
     1
 40
1.0
176
     1
 90
        1
176
     1
 90
        6
176
     1
 90
        2
176
     1
 62
     7
176
     1
 90
        3
176
     1
 90
        0
176
     1
 90
        0
176
     1
290
     0
176
     1
 90
        5
176
     1
 40
0.0
176
     1
 90
        0
176
     1
290
     0
176
     1
290
     1
176
     1
290
     1
176
     1
290
     0
176
     1
290
     0
176
     1
290
     0
176
     1
290
     0
176
     1
290
     0
176
     1
290
     0
176
     1
 90
       50
176
     1
 40
0.0
176
     1
 40
1.0
176
     1
 90
        0
176
     1
 62
    18
420
        0
176
     1
 90
       50
176
     1
 90
        3
176
     1
 62
     5
420
      255
176
     1
290
     0
176
     1
 90
       50
176
     1
 90
       50
176
     1
 90
       50
176
     1
290
     0
176
     1
 90
       50
176
     1
 62
   256
176
     0
 40
1.0
176
     0
 90
        2
176
     1
  1
strokes_ogs.tif
176
     1
290
     0
176
     1
 40
1.0
176
     1
 40
1.0
176
     1
  0
VISUALSTYLE
  5
3E
102
{ACAD_REACTORS
330
2A
102
}
330
2A
100
AcDbVisualStyle
  2
Shades of Gray
 70
    23
177
     3
291
     0
 70
    58
 90
        2
176
     1
 90
        2
176
     1
 90
        3
176
     1
 90
        0
176
     1
 40
0.6
176
     1
 40
30.0
176
     1
 62
     7
420
 16777215
176
     1
 90
        2
176
     1
 90
        2
176
     1
 62
     7
176
     1
 62
     7
176
     1
 90
        1
176
     1
 90
        1
176
     1
 40
40.0
176
     1
 90
        8
176
     1
 62
     7
176
     1
 40
1.0
176
     1
 90
        1
176
     1
 90
        6
176
     1
 90
        2
176
     1
 62
     7
176
     1
 90
        3
176
     1
 90
        0
176
     1
 90
        0
176
     1
290
     0
176
     1
 90
        1
176
     1
 40
0.0
176
     1
 90
        0
176
     1
290
     0
176
     1
290
     1
176
     1
290
     1
176
     1
290
     0
176
     1
290
     0
176
     1
290
     0
176
     1
290
     0
176
     1
290
     0
176
     1
290
     0
176
     1
 90
       50
176
     1
 40
0.0
176
     1
 40
1.0
176
     1
 90
        0
176
     1
 62
    18
420
        0
176
     1
 90
       50
176
     1
 90
        3
176
     1
 62
     5
420
      255
176
     1
290
     0
176
     1
 90
       50
176
     1
 90
       50
176
     1
 90
       50
176
     1
290
     0
176
     1
 90
       50
176
     1
 62
   256
176
     0
 40
1.0
176
     0
 90
        2
176
     1
  1
strokes_ogs.tif
176
     1
290
     0
176
     1
 40
1.0
176
     1
 40
1.0
176
     1
  0
VISUALSTYLE
  5
3F
102
{ACAD_REACTORS
330
2A
102
}
330
2A
100
AcDbVisualStyle
  2
Sketchy
 70
    24
177
     3
291
     0
 70
    58
 90
        1
176
     1
 90
        2
176
     1
 90
        2
176
     1
 90
        0
176
     1
 40
0.6
176
     1
 40
30.0
176
     1
 62
     7
420
 16777215
176
     1
 90
        2
176
     1
 90
        2
176
     1
 62
     7
176
     1
 62
     7
176
     1
 90
        1
176
     1
 90
        1
176
     1
 40
40.0
176
     1
 90
       11
176
     1
 62
     7
176
     1
 40
1.0
176
     1
 90
        1
176
     1
 90
        6
176
     1
 90
        2
176
     1
 62
     7
176
     1
 90
        6
176
     1
 90
        0
176
     1
 90
        0
176
     1
290
     0
176
     1
 90
        1
176
     1
 40
0.0
176
     1
 90
        0
176
     1
290
     0
176
     1
290
     1
176
     1
290
     1
176
     1
290
     0
176
     1
290
     0
176
     1
290
     0
176
     1
290
     0
176
     1
290
     0
176
     1
290
     0
176
     1
 90
       50
176
     1
 40
0.0
176
     1
 40
1.0
176
     1
 90
        0
176
     1
 62
    18
420
        0
176
     1
 90
       50
176
     1
 90
        3
176
     1
 62
     5
420
      255
176
     1
290
     0
176
     1
 90
       50
176
     1
 90
       50
176
     1
 90
       50
176
     1
290
     0
176
     1
 90
       50
176
     1
 62
   256
176
     0
 40
1.0
176
     0
 90
        2
176
     1
  1
strokes_ogs.tif
176
     1
290
     0
176
     1
 40
1.0
176
     1
 40
1.0
176
     1
  0
VISUALSTYLE
  5
37
102
{ACAD_REACTORS
330
2A
102
}
330
2A
100
AcDbVisualStyle
  2
Thicken
 70
    13
177
     3
291
     1
 70
    58
 90
        2
176
     1
 90
        2
176
     1
 90
        0
176
     1
 90
        0
176
     1
 40
0.6
176
     1
 40
30.0
176
     1
 62
     7
420
 16777215
176
     1
 90
        1
176
     1
 90
        4
176
     1
 62
     7
176
     1
 62
   257
176
     1
 90
        1
176
     1
 90
        1
176
     1
 40
1.0
176
     1
 90
       12
176
     1
 62
     7
176
     1
 40
1.0
176
     1
 90
        1
176
     1
 90
        6
176
     1
 90
        2
176
     1
 62
     7
176
     1
 90
        5
176
     1
 90
        0
176
     1
 90
        0
176
     1
290
     0
176
     1
 90
        1
176
     1
 40
0.0
176
     1
 90
        0
176
     1
290
     0
176
     1
290
     1
176
     1
290
     1
176
     1
290
     0
176
     1
290
     0
176
     1
290
     0
176
     1
290
     0
176
     1
290
     0
176
     1
290
     0
176
     1
 90
       50
176
     1
 40
0.0
176
     1
 40
1.0
176
     1
 90
        0
176
     1
 62
    18
420
        0
176
     1
 90
       50
176
     1
 90
        3
176
     1
 62
     5
420
      255
176
     1
290
     0
176
     1
 90
       50
176
     1
 90
       50
176
     1
 90
       50
176
     1
290
     0
176
     1
 90
       50
176
     1
 62
   256
176
     0
 40
1.0
176
     0
 90
        2
176
     1
  1
strokes_ogs.tif
176
     1
290
     0
176
     1
 40
1.0
176
     1
 40
1.0
176
     1
  0
VISUALSTYLE
  5
30
102
{ACAD_REACTORS
330
2A
102
}
330
2A
100
AcDbVisualStyle
  2
Wireframe
 70
     5
177
     3
291
     0
 70
    58
 90
        0
176
     1
 90
        2
176
     1
 90
        0
176
     1
 90
        0
176
     1
 40
0.6
176
     1
 40
30.0
176
     1
 62
     7
420
 16777215
176
     1
 90
        1
176
     1
 90
        4
176
     1
 62
     7
176
     1
 62
   257
176
     1
 90
        1
176
     1
 90
        1
176
     1
 40
1.0
176
     1
 90
        0
176
     1
 62
   257
176
     1
 40
1.0
176
     1
 90
        1
176
     1
 90
        6
176
     1
 90
        2
176
     1
 62
     7
176
     1
 90
        3
176
     1
 90
        0
176
     1
 90
        0
176
     1
290
     0
176
     1
 90
        1
176
     1
 40
0.0
176
     1
 90
        0
176
     1
290
     0
176
     1
290
     1
176
     1
290
     1
176
     1
290
     0
176
     1
290
     0
176
     1
290
     0
176
     1
290
     0
176
     1
290
     0
176
     1
290
     0
176
     1
 90
       50
176
     1
 40
0.0
176
     1
 40
1.0
176
     1
 90
        0
176
     1
 62
    18
420
        0
176
     1
 90
       50
176
     1
 90
        3
176
     1
 62
     5
420
      255
176
     1
290
     0
176
     1
 90
       50
176
     1
 90
       50
176
     1
 90
       50
176
     1
290
     0
176
     1
 90
       50
176
     1
 62
   256
176
     0
 40
1.0
176
     0
 90
        2
176
     1
  1
strokes_ogs.tif
176
     1
290
     0
176
     1
 40
1.0
176
     1
 40
1.0
176
     1
  0
VISUALSTYLE
  5
40
102
{ACAD_REACTORS
330
2A
102
}
330
2A
100
AcDbVisualStyle
  2
X-Ray
 70
    25
177
     3
291
     0
 70
    58
 90
        2
176
     1
 90
        2
176
     1
 90
        1
176
     1
 90
        1
176
     1
 40
0.5
176
     1
 40
30.0
176
     1
 62
     7
420
 16777215
176
     1
 90
        1
176
     1
 90
        0
176
     1
 62
     7
176
     1
 62
   257
176
     1
 90
        1
176
     1
 90
        1
176
     1
 40
1.0
176
     1
 90
        8
176
     1
 62
     7
176
     1
 40
1.0
176
     1
 90
        1
176
     1
 90
        6
176
     1
 90
        2
176
     1
 62
     7
176
     1
 90
        3
176
     1
 90
        0
176
     1
 90
        0
176
     1
290
     0
176
     1
 90
       13
176
     1
 40
0.0
176
     1
 90
        0
176
     1
290
     0
176
     1
290
     1
176
     1
290
     1
176
     1
290
     0
176
     1
290
     0
176
     1
290
     0
176
     1
290
     0
176
     1
290
     0
176
     1
290
     0
176
     1
 90
       50
176
     1
 40
0.0
176
     1
 40
1.0
176
     1
 90
        0
176
     1
 62
    18
420
        0
176
     1
 90
       50
176
     1
 90
        3
176
     1
 62
     5
420
      255
176
     1
290
     0
176
     1
 90
       50
176
     1
 90
       50
176
     1
 90
       50
176
     1
290
     0
176
     1
 90
       50
176
     1
 62
   256
176
     0
 40
1.0
176
     0
 90
        2
176
     1
  1
strokes_ogs.tif
176
     1
290
     0
176
     1
 40
1.0
176
     1
 40
1.0
176
     1
  0
DICTIONARYVAR
  5
1F5
102
{ACAD_REACTORS
330
1F4
102
}
330
1F4
100
DictionaryVariables
280
     0
  1
1:1
  0
DICTIONARYVAR
  5
1FA
102
{ACAD_REACTORS
330
1F4
102
}
330
1F4
100
DictionaryVariables
280
     0
  1
Standard
  0
DICTIONARYVAR
  5
1F9
102
{ACAD_REACTORS
330
1F4
102
}
330
1F4
100
DictionaryVariables
280
     0
  1
Standard
  0
DICTIONARY
  5
1F6
330
6A
100
AcDbDictionary
280
     1
281
     1
  3
ACAD_ROUNDTRIP_2008_TABLESTYLE_CELLSTYLEMAP
360
1F7
  0
CELLSTYLEMAP
  5
1F7
102
{ACAD_REACTORS
330
1F6
102
}
330
1F6
100
AcDbCellStyleMap
 90
        3
300
CELLSTYLE
  1
TABLEFORMAT_BEGIN
 90
        5
170
     1
 91
        0
 92
    32768
 62
   257
 93
        1
300
CONTENTFORMAT
  1
CONTENTFORMAT_BEGIN
 90
        0
 91
        0
 92
        4
 93
        0
300

 40
0.0
140
1.0
 94
        5
 62
     0
340
11
144
6.0
309
CONTENTFORMAT_END
171
     1
301
MARGIN
  1
CELLMARGIN_BEGIN
 40
1.5
 40
1.5
 40
1.5
 40
1.5
 40
1.5
 40
1.5
309
CELLMARGIN_END
 94
        6
 95
        1
302
GRIDFORMAT
  1
GRIDFORMAT_BEGIN
 90
        0
 91
        1
 62
     0
 92
       -2
340
14
 93
        0
 40
0.045
309
GRIDFORMAT_END
 95
        2
302
GRIDFORMAT
  1
GRIDFORMAT_BEGIN
 90
        0
 91
        1
 62
     0
 92
       -2
340
14
 93
        0
 40
0.045
309
GRIDFORMAT_END
 95
        4
302
GRIDFORMAT
  1
GRIDFORMAT_BEGIN
 90
        0
 91
        1
 62
     0
 92
       -2
340
14
 93
        0
 40
0.045
309
GRIDFORMAT_END
 95
        8
302
GRIDFORMAT
  1
GRIDFORMAT_BEGIN
 90
        0
 91
        1
 62
     0
 92
       -2
340
14
 93
        0
 40
0.045
309
GRIDFORMAT_END
 95
       16
302
GRIDFORMAT
  1
GRIDFORMAT_BEGIN
 90
        0
 91
        1
 62
     0
 92
       -2
340
14
 93
        0
 40
0.045
309
GRIDFORMAT_END
 95
       32
302
GRIDFORMAT
  1
GRIDFORMAT_BEGIN
 90
        0
 91
        1
 62
     0
 92
       -2
340
14
 93
        0
 40
0.045
309
GRIDFORMAT_END
309
TABLEFORMAT_END
  1
CELLSTYLE_BEGIN
 90
        1
 91
        1
300
_TITLE
309
CELLSTYLE_END
300
CELLSTYLE
  1
TABLEFORMAT_BEGIN
 90
        5
170
     1
 91
        0
 92
        0
 62
   257
 93
        1
300
CONTENTFORMAT
  1
CONTENTFORMAT_BEGIN
 90
        0
 91
        0
 92
        4
 93
        0
300

 40
0.0
140
1.0
 94
        5
 62
     0
340
11
144
4.5
309
CONTENTFORMAT_END
171
     1
301
MARGIN
  1
CELLMARGIN_BEGIN
 40
1.5
 40
1.5
 40
1.5
 40
1.5
 40
1.5
 40
1.5
309
CELLMARGIN_END
 94
        6
 95
        1
302
GRIDFORMAT
  1
GRIDFORMAT_BEGIN
 90
        0
 91
        1
 62
     0
 92
       -2
340
14
 93
        0
 40
0.045
309
GRIDFORMAT_END
 95
        2
302
GRIDFORMAT
  1
GRIDFORMAT_BEGIN
 90
        0
 91
        1
 62
     0
 92
       -2
340
14
 93
        0
 40
0.045
309
GRIDFORMAT_END
 95
        4
302
GRIDFORMAT
  1
GRIDFORMAT_BEGIN
 90
        0
 91
        1
 62
     0
 92
       -2
340
14
 93
        0
 40
0.045
309
GRIDFORMAT_END
 95
        8
302
GRIDFORMAT
  1
GRIDFORMAT_BEGIN
 90
        0
 91
        1
 62
     0
 92
       -2
340
14
 93
        0
 40
0.045
309
GRIDFORMAT_END
 95
       16
302
GRIDFORMAT
  1
GRIDFORMAT_BEGIN
 90
        0
 91
        1
 62
     0
 92
       -2
340
14
 93
        0
 40
0.045
309
GRIDFORMAT_END
 95
       32
302
GRIDFORMAT
  1
GRIDFORMAT_BEGIN
 90
        0
 91
        1
 62
     0
 92
       -2
340
14
 93
        0
 40
0.045
309
GRIDFORMAT_END
309
TABLEFORMAT_END
  1
CELLSTYLE_BEGIN
 90
        2
 91
        1
300
_HEADER
309
CELLSTYLE_END
300
CELLSTYLE
  1
TABLEFORMAT_BEGIN
 90
        5
170
     1
 91
        0
 92
        0
 62
   257
 93
        1
300
CONTENTFORMAT
  1
CONTENTFORMAT_BEGIN
 90
        0
 91
        0
 92
        4
 93
        0
300

 40
0.0
140
1.0
 94
        2
 62
     0
340
11
144
4.5
309
CONTENTFORMAT_END
171
     1
301
MARGIN
  1
CELLMARGIN_BEGIN
 40
1.5
 40
1.5
 40
1.5
 40
1.5
 40
1.5
 40
1.5
309
CELLMARGIN_END
 94
        6
 95
        1
302
GRIDFORMAT
  1
GRIDFORMAT_BEGIN
 90
        0
 91
        1
 62
     0
 92
       -2
340
14
 93
        0
 40
0.045
309
GRIDFORMAT_END
 95
        2
302
GRIDFORMAT
  1
GRIDFORMAT_BEGIN
 90
        0
 91
        1
 62
     0
 92
       -2
340
14
 93
        0
 40
0.045
309
GRIDFORMAT_END
 95
        4
302
GRIDFORMAT
  1
GRIDFORMAT_BEGIN
 90
        0
 91
        1
 62
     0
 92
       -2
340
14
 93
        0
 40
0.045
309
GRIDFORMAT_END
 95
        8
302
GRIDFORMAT
  1
GRIDFORMAT_BEGIN
 90
        0
 91
        1
 62
     0
 92
       -2
340
14
 93
        0
 40
0.045
309
GRIDFORMAT_END
 95
       16
302
GRIDFORMAT
  1
GRIDFORMAT_BEGIN
 90
        0
 91
        1
 62
     0
 92
       -2
340
14
 93
        0
 40
0.045
309
GRIDFORMAT_END
 95
       32
302
GRIDFORMAT
  1
GRIDFORMAT_BEGIN
 90
        0
 91
        1
 62
     0
 92
       -2
340
14
 93
        0
 40
0.045
309
GRIDFORMAT_END
309
TABLEFORMAT_END
  1
CELLSTYLE_BEGIN
 90
        3
 91
        2
300
_DATA
309
CELLSTYLE_END
  0
ENDSEC
  0
EOF