0
SECTION
  2
HEADER
  9
$ACADVER
  1
AC1027
  9
$ACADMAINTVER
 70
   105
  9
$DWGCODEPAGE
  3
ANSI_1252
  9
$REQUIREDVERSIONS
160
                 0
  9
$COMMENTS
  1
File was created by Cadenas
  9
$CUSTOMPROPERTYTAG
  1
NN
  9
$CUSTOMPROPERTY
  1
Grip Tight EZ Kleen Polymer Housed Four Bolt Flange Metric Bore
  9
$CUSTOMPROPERTYTAG
  1
NT
  9
$CUSTOMPROPERTY
  1
GTEZ Normal Duty Polymer Housed 4 Bolt Flange Bearings
  9
$CUSTOMPROPERTYTAG
  1
NB
  9
$CUSTOMPROPERTY
  1
129705
  9
$CUSTOMPROPERTYTAG
  1
NBSYN
  9
$CUSTOMPROPERTY
  1
$PN.$LUBE.
  9
$CUSTOMPROPERTYTAG
  1
LINA
  9
$CUSTOMPROPERTY
  1
129705
  9
$CUSTOMPROPERTYTAG
  1
SERIES
  9
$CUSTOMPROPERTY
  1
209
  9
$CUSTOMPROPERTYTAG
  1
SS
  9
$CUSTOMPROPERTY
  1
45
  9
$CUSTOMPROPERTYTAG
  1
PN
  9
$CUSTOMPROPERTY
  1
129705
  9
$CUSTOMPROPERTYTAG
  1
DESCRIPTION
  9
$CUSTOMPROPERTY
  1
F4B-GTEZ-45M-PCR
  9
$CUSTOMPROPERTYTAG
  1
A
  9
$CUSTOMPROPERTY
  1
46.8
  9
$CUSTOMPROPERTYTAG
  1
B
  9
$CUSTOMPROPERTY
  1
136.5
  9
$CUSTOMPROPERTYTAG
  1
C
  9
$CUSTOMPROPERTY
  1
53.6
  9
$CUSTOMPROPERTYTAG
  1
D
  9
$CUSTOMPROPERTY
  1
104.8
  9
$CUSTOMPROPERTYTAG
  1
F
  9
$CUSTOMPROPERTY
  1
M14
  9
$CUSTOMPROPERTYTAG
  1
H
  9
$CUSTOMPROPERTY
  1
18.3
  9
$CUSTOMPROPERTYTAG
  1
J
  9
$CUSTOMPROPERTY
  1
15.1
  9
$CUSTOMPROPERTYTAG
  1
L
  9
$CUSTOMPROPERTY
  1
67.9
  9
$CUSTOMPROPERTYTAG
  1
Z
  9
$CUSTOMPROPERTY
  1
52.8
  9
$CUSTOMPROPERTYTAG
  1
PPATH
  9
$CUSTOMPROPERTY
  1
f4b_gtez_templ.prj
  9
$CUSTOMPROPERTYTAG
  1
COMPANY
  9
$CUSTOMPROPERTY
  1
baldor
  9
$INSBASE
 10
0.0
 20
0.0
 30
0.0
  9
$EXTMIN
 10
1.000000000000000E+20
 20
1.000000000000000E+20
 30
1.000000000000000E+20
  9
$EXTMAX
 10
-1.000000000000000E+20
 20
-1.000000000000000E+20
 30
-1.000000000000000E+20
  9
$LIMMIN
 10
0.0
 20
0.0
  9
$LIMMAX
 10
420.0
 20
297.0
  9
$ORTHOMODE
 70
     0
  9
$REGENMODE
 70
     1
  9
$FILLMODE
 70
     1
  9
$QTEXTMODE
 70
     0
  9
$MIRRTEXT
 70
     1
  9
$LTSCALE
 40
1.0
  9
$ATTMODE
 70
     1
  9
$TEXTSIZE
 40
2.5
  9
$TRACEWID
 40
1.0
  9
$TEXTSTYLE
  7
Standard
  9
$CLAYER
  8
0
  9
$CELTYPE
  6
ByLayer
  9
$CECOLOR
 62
   256
  9
$CELTSCALE
 40
1.0
  9
$DISPSILH
 70
     0
  9
$DIMSCALE
 40
1.0
  9
$DIMASZ
 40
2.5
  9
$DIMEXO
 40
0.625
  9
$DIMDLI
 40
3.75
  9
$DIMRND
 40
0.0
  9
$DIMDLE
 40
0.0
  9
$DIMEXE
 40
1.25
  9
$DIMTP
 40
0.0
  9
$DIMTM
 40
0.0
  9
$DIMTXT
 40
2.5
  9
$DIMCEN
 40
2.5
  9
$DIMTSZ
 40
0.0
  9
$DIMTOL
 70
     0
  9
$DIMLIM
 70
     0
  9
$DIMTIH
 70
     0
  9
$DIMTOH
 70
     0
  9
$DIMSE1
 70
     0
  9
$DIMSE2
 70
     0
  9
$DIMTAD
 70
     1
  9
$DIMZIN
 70
     8
  9
$DIMBLK
  1

  9
$DIMASO
 70
     1
  9
$DIMSHO
 70
     1
  9
$DIMPOST
  1

  9
$DIMAPOST
  1

  9
$DIMALT
 70
     0
  9
$DIMALTD
 70
     3
  9
$DIMALTF
 40
0.03937007874016
  9
$DIMLFAC
 40
1.0
  9
$DIMTOFL
 70
     1
  9
$DIMTVP
 40
0.0
  9
$DIMTIX
 70
     0
  9
$DIMSOXD
 70
     0
  9
$DIMSAH
 70
     0
  9
$DIMBLK1
  1

  9
$DIMBLK2
  1

  9
$DIMSTYLE
  2
ISO-25
  9
$DIMCLRD
 70
     0
  9
$DIMCLRE
 70
     0
  9
$DIMCLRT
 70
     0
  9
$DIMTFAC
 40
1.0
  9
$DIMGAP
 40
0.625
  9
$DIMJUST
 70
     0
  9
$DIMSD1
 70
     0
  9
$DIMSD2
 70
     0
  9
$DIMTOLJ
 70
     0
  9
$DIMTZIN
 70
     8
  9
$DIMALTZ
 70
     0
  9
$DIMALTTZ
 70
     0
  9
$DIMUPT
 70
     0
  9
$DIMDEC
 70
     2
  9
$DIMTDEC
 70
     2
  9
$DIMALTU
 70
     2
  9
$DIMALTTD
 70
     3
  9
$DIMTXSTY
  7
Standard
  9
$DIMAUNIT
 70
     0
  9
$DIMADEC
 70
     0
  9
$DIMALTRND
 40
0.0
  9
$DIMAZIN
 70
     0
  9
$DIMDSEP
 70
    44
  9
$DIMATFIT
 70
     3
  9
$DIMFRAC
 70
     0
  9
$DIMLDRBLK
  1

  9
$DIMLUNIT
 70
     2
  9
$DIMLWD
 70
    -2
  9
$DIMLWE
 70
    -2
  9
$DIMTMOVE
 70
     0
  9
$DIMFXL
 40
1.0
  9
$DIMFXLON
 70
     0
  9
$DIMJOGANG
 40
0.7853981633974483
  9
$DIMTFILL
 70
     0
  9
$DIMTFILLCLR
 70
     0
  9
$DIMARCSYM
 70
     0
  9
$DIMLTYPE
  6

  9
$DIMLTEX1
  6

  9
$DIMLTEX2
  6

  9
$DIMTXTDIRECTION
 70
     0
  9
$LUNITS
 70
     2
  9
$LUPREC
 70
     4
  9
$SKETCHINC
 40
1.0
  9
$FILLETRAD
 40
10.0
  9
$AUNITS
 70
     0
  9
$AUPREC
 70
     0
  9
$MENU
  1
.
  9
$ELEVATION
 40
0.0
  9
$PELEVATION
 40
0.0
  9
$THICKNESS
 40
0.0
  9
$LIMCHECK
 70
     0
  9
$CHAMFERA
 40
0.0
  9
$CHAMFERB
 40
0.0
  9
$CHAMFERC
 40
0.0
  9
$CHAMFERD
 40
0.0
  9
$SKPOLY
 70
     0
  9
$TDCREATE
 40
2458168.992520671
  9
$TDUCREATE
 40
2458168.950854005
  9
$TDUPDATE
 40
2458168.992520857
  9
$TDUUPDATE
 40
2458168.95085419
  9
$TDINDWG
 40
0.0000000116
  9
$TDUSRTIMER
 40
0.0000000116
  9
$USRTIMER
 70
     1
  9
$ANGBASE
 50
0.0
  9
$ANGDIR
 70
     0
  9
$PDMODE
 70
     0
  9
$PDSIZE
 40
0.0
  9
$PLINEWID
 40
0.0
  9
$SPLFRAME
 70
     0
  9
$SPLINETYPE
 70
     6
  9
$SPLINESEGS
 70
     8
  9
$HANDSEED
  5
1A7
  9
$SURFTAB1
 70
     6
  9
$SURFTAB2
 70
     6
  9
$SURFTYPE
 70
     6
  9
$SURFU
 70
     6
  9
$SURFV
 70
     6
  9
$UCSBASE
  2

  9
$UCSNAME
  2

  9
$UCSORG
 10
0.0
 20
0.0
 30
0.0
  9
$UCSXDIR
 10
1.0
 20
0.0
 30
0.0
  9
$UCSYDIR
 10
0.0
 20
1.0
 30
0.0
  9
$UCSORTHOREF
  2

  9
$UCSORTHOVIEW
 70
     0
  9
$UCSORGTOP
 10
0.0
 20
0.0
 30
0.0
  9
$UCSORGBOTTOM
 10
0.0
 20
0.0
 30
0.0
  9
$UCSORGLEFT
 10
0.0
 20
0.0
 30
0.0
  9
$UCSORGRIGHT
 10
0.0
 20
0.0
 30
0.0
  9
$UCSORGFRONT
 10
0.0
 20
0.0
 30
0.0
  9
$UCSORGBACK
 10
0.0
 20
0.0
 30
0.0
  9
$PUCSBASE
  2

  9
$PUCSNAME
  2

  9
$PUCSORG
 10
0.0
 20
0.0
 30
0.0
  9
$PUCSXDIR
 10
1.0
 20
0.0
 30
0.0
  9
$PUCSYDIR
 10
0.0
 20
1.0
 30
0.0
  9
$PUCSORTHOREF
  2

  9
$PUCSORTHOVIEW
 70
     0
  9
$PUCSORGTOP
 10
0.0
 20
0.0
 30
0.0
  9
$PUCSORGBOTTOM
 10
0.0
 20
0.0
 30
0.0
  9
$PUCSORGLEFT
 10
0.0
 20
0.0
 30
0.0
  9
$PUCSORGRIGHT
 10
0.0
 20
0.0
 30
0.0
  9
$PUCSORGFRONT
 10
0.0
 20
0.0
 30
0.0
  9
$PUCSORGBACK
 10
0.0
 20
0.0
 30
0.0
  9
$USERI1
 70
     0
  9
$USERI2
 70
     0
  9
$USERI3
 70
     0
  9
$USERI4
 70
     0
  9
$USERI5
 70
     0
  9
$USERR1
 40
0.0
  9
$USERR2
 40
0.0
  9
$USERR3
 40
0.0
  9
$USERR4
 40
0.0
  9
$USERR5
 40
0.0
  9
$WORLDVIEW
 70
     1
  9
$SHADEDGE
 70
     3
  9
$SHADEDIF
 70
    70
  9
$TILEMODE
 70
     1
  9
$MAXACTVP
 70
    64
  9
$PINSBASE
 10
0.0
 20
0.0
 30
0.0
  9
$PLIMCHECK
 70
     0
  9
$PEXTMIN
 10
1.000000000000000E+20
 20
1.000000000000000E+20
 30
1.000000000000000E+20
  9
$PEXTMAX
 10
-1.000000000000000E+20
 20
-1.000000000000000E+20
 30
-1.000000000000000E+20
  9
$PLIMMIN
 10
0.0
 20
0.0
  9
$PLIMMAX
 10
420.0
 20
297.0
  9
$UNITMODE
 70
     0
  9
$VISRETAIN
 70
     1
  9
$PLINEGEN
 70
     0
  9
$PSLTSCALE
 70
     1
  9
$TREEDEPTH
 70
  3020
  9
$CMLSTYLE
  2
Standard
  9
$CMLJUST
 70
     0
  9
$CMLSCALE
 40
20.0
  9
$PROXYGRAPHICS
 70
     1
  9
$MEASUREMENT
 70
     1
  9
$CELWEIGHT
370
    -1
  9
$ENDCAPS
280
     0
  9
$JOINSTYLE
280
     0
  9
$LWDISPLAY
290
     0
  9
$INSUNITS
 70
     4
  9
$HYPERLINKBASE
  1

  9
$STYLESHEET
  1

  9
$XEDIT
290
     1
  9
$CEPSNTYPE
380
     0
  9
$PSTYLEMODE
290
     1
  9
$FINGERPRINTGUID
  2
{CC702586-6C2B-4ABD-BD57-BCCAA0488B47}
  9
$VERSIONGUID
  2
{FAEB1C32-E019-11D5-929B-00C0DF256EC4}
  9
$EXTNAMES
290
     1
  9
$PSVPSCALE
 40
0.0
  9
$OLESTARTUP
290
     0
  9
$SORTENTS
280
   127
  9
$INDEXCTL
280
     0
  9
$HIDETEXT
280
     1
  9
$XCLIPFRAME
280
     2
  9
$HALOGAP
280
     0
  9
$OBSCOLOR
 70
   257
  9
$OBSLTYPE
280
     0
  9
$INTERSECTIONDISPLAY
280
     0
  9
$INTERSECTIONCOLOR
 70
   257
  9
$DIMASSOC
280
     2
  9
$PROJECTNAME
  1

  9
$CAMERADISPLAY
290
     0
  9
$LENSLENGTH
 40
50.0
  9
$CAMERAHEIGHT
 40
0.0
  9
$STEPSPERSEC
 40
2.0
  9
$STEPSIZE
 40
6.0
  9
$3DDWFPREC
 40
2.0
  9
$PSOLWIDTH
 40
5.0
  9
$PSOLHEIGHT
 40
80.0
  9
$LOFTANG1
 40
1.570796326794897
  9
$LOFTANG2
 40
1.570796326794897
  9
$LOFTMAG1
 40
0.0
  9
$LOFTMAG2
 40
0.0
  9
$LOFTPARAM
 70
     7
  9
$LOFTNORMALS
280
     1
  9
$LATITUDE
 40
37.795
  9
$LONGITUDE
 40
-122.394
  9
$NORTHDIRECTION
 40
0.0
  9
$TIMEZONE
 70
 -8000
  9
$LIGHTGLYPHDISPLAY
280
     1
  9
$TILEMODELIGHTSYNCH
280
     1
  9
$CMATERIAL
347
44
  9
$SOLIDHIST
280
     0
  9
$SHOWHIST
280
     1
  9
$DWFFRAME
280
     2
  9
$DGNFRAME
280
     2
  9
$REALWORLDSCALE
290
     1
  9
$INTERFERECOLOR
 62
   256
  9
$CSHADOW
280
     0
  9
$SHADOWPLANELOCATION
 40
0.0
  0
ENDSEC
  0
SECTION
  2
CLASSES
  0
CLASS
  1
ACDBDICTIONARYWDFLT
  2
AcDbDictionaryWithDefault
  3
ObjectDBX Classes
 90
        0
 91
        4
280
     0
281
     0
  0
CLASS
  1
VISUALSTYLE
  2
AcDbVisualStyle
  3
ObjectDBX Classes
 90
     4095
 91
        4
280
     0
281
     0
  0
CLASS
  1
MATERIAL
  2
AcDbMaterial
  3
ObjectDBX Classes
 90
     1153
 91
        4
280
     0
281
     0
  0
CLASS
  1
SCALE
  2
AcDbScale
  3
ObjectDBX Classes
 90
     1153
 91
        4
280
     0
281
     0
  0
CLASS
  1
TABLESTYLE
  2
AcDbTableStyle
  3
ObjectDBX Classes
 90
     4095
 91
        4
280
     0
281
     0
  0
CLASS
  1
MLEADERSTYLE
  2
AcDbMLeaderStyle
  3
ACDB_MLEADERSTYLE_CLASS
 90
     4095
 91
        4
280
     0
281
     0
  0
CLASS
  1
SUN
  2
AcDbSun
  3
SCENEOE
 90
     1153
 91
        4
280
     0
281
     0
  0
CLASS
  1
DICTIONARYVAR
  2
AcDbDictionaryVar
  3
ObjectDBX Classes
 90
        0
 91
        4
280
     0
281
     0
  0
CLASS
  1
CELLSTYLEMAP
  2
AcDbCellStyleMap
  3
ObjectDBX Classes
 90
     1152
 91
        4
280
     0
281
     0
  0
ENDSEC
  0
SECTION
  2
TABLES
  0
TABLE
  2
VPORT
  5
8
330
0
100
AcDbSymbolTable
 70
     1
  0
VPORT
  5
29
330
8
100
AcDbSymbolTableRecord
100
AcDbViewportTableRecord
  2
*Active
 70
     0
 10
0.0
 20
0.0
 11
1.0
 21
1.0
 12
-22.20607142857142
 22
0.25
 13
0.0
 23
0.0
 14
10.0
 24
10.0
 15
10.0
 25
10.0
 16
0.0
 26
0.0
 36
1.0
 17
0.0
 27
0.0
 37
0.0
 40
139.74
 41
0.4924661105318041
 42
50.0
 43
0.0
 44
0.0
 50
0.0
 51
0.0
 71
     0
 72
   100
 73
     1
 74
     3
 75
     0
 76
     0
 77
     0
 78
     0
281
     0
 65
     1
110
0.0
120
0.0
130
0.0
111
1.0
121
0.0
131
0.0
112
0.0
122
1.0
132
0.0
 79
     0
146
0.0
348
2F
 60
     3
 61
     5
292
     1
282
     1
141
0.0
142
0.0
 63
   250
361
6D
  0
ENDTAB
  0
TABLE
  2
LTYPE
  5
5
330
0
100
AcDbSymbolTable
 70
     3
  0
LTYPE
  5
14
330
5
100
AcDbSymbolTableRecord
100
AcDbLinetypeTableRecord
  2
ByBlock
 70
     0
  3

 72
    65
 73
     0
 40
0.0
  0
LTYPE
  5
15
330
5
100
AcDbSymbolTableRecord
100
AcDbLinetypeTableRecord
  2
ByLayer
 70
     0
  3

 72
    65
 73
     0
 40
0.0
  0
LTYPE
  5
16
330
5
100
AcDbSymbolTableRecord
100
AcDbLinetypeTableRecord
  2
Continuous
 70
     0
  3
Solid line
 72
    65
 73
     0
 40
0.0
  0
LTYPE
  5
99
330
5
100
AcDbSymbolTableRecord
100
AcDbLinetypeTableRecord
  2
Dashed
 70
     0
  3

 72
    65
 73
     2
 40
2.0
 49
1.0
 74
     0
 49
-1.0
 74
     0
  0
LTYPE
  5
108
330
5
100
AcDbSymbolTableRecord
100
AcDbLinetypeTableRecord
  2
Center
 70
     0
  3

 72
    65
 73
     4
 40
1.5
 49
0.45
 74
     0
 49
-0.5
 74
     0
 49
0.05
 74
     0
 49
-0.5
 74
     0
  0
ENDTAB
  0
TABLE
  2
LAYER
  5
2
330
0
100
AcDbSymbolTable
 70
     8
  0
LAYER
  5
10
330
2
100
AcDbSymbolTableRecord
100
AcDbLayerTableRecord
  2
0
 70
     0
 62
     7
  6
Continuous
370
    -3
390
F
347
46
348
0
  0
LAYER
  5
6E
330
2
100
AcDbSymbolTableRecord
100
AcDbLayerTableRecord
  2
AM_6
 70
     0
 62
    -2
  6
Continuous
370
    35
390
F
347
46
348
0
  0
LAYER
  5
9A
330
2
100
AcDbSymbolTableRecord
100
AcDbLayerTableRecord
  2
AM_9
 70
     0
 62
     6
  6
Dashed
370
    25
390
F
347
46
348
0
  0
LAYER
  5
C5
330
2
100
AcDbSymbolTableRecord
100
AcDbLayerTableRecord
  2
AM_0
 70
     0
 62
     7
  6
Continuous
370
    50
390
F
347
46
348
0
  0
LAYER
  5
106
330
2
100
AcDbSymbolTableRecord
100
AcDbLayerTableRecord
  2
AM_5
 70
     0
 62
     3
  6
Continuous
370
    25
390
F
347
46
348
0
  0
LAYER
  5
109
330
2
100
AcDbSymbolTableRecord
100
AcDbLayerTableRecord
  2
AM_7
 70
     0
 62
     7
  6
Center
370
    25
390
F
347
46
348
0
  0
LAYER
  5
165
330
2
100
AcDbSymbolTableRecord
100
AcDbLayerTableRecord
  2
AM_4
 70
     0
 62
     3
  6
Continuous
370
    25
390
F
347
46
348
0
  0
LAYER
  5
199
330
2
100
AcDbSymbolTableRecord
100
AcDbLayerTableRecord
  2
ConnectionPoints
 70
     0
 62
     7
  6
Continuous
370
    50
390
F
347
46
348
0
  0
ENDTAB
  0
TABLE
  2
STYLE
  5
3
330
0
100
AcDbSymbolTable
 70
     1
  0
STYLE
  5
11
330
3
100
AcDbSymbolTableRecord
100
AcDbTextStyleTableRecord
  2
Standard
 70
     0
 40
0.0
 41
1.0
 50
0.0
 71
     0
 42
2.5
  3
txt
  4

  0
ENDTAB
  0
TABLE
  2
VIEW
  5
6
330
0
100
AcDbSymbolTable
 70
     0
  0
ENDTAB
  0
TABLE
  2
UCS
  5
7
330
0
100
AcDbSymbolTable
 70
     0
  0
ENDTAB
  0
TABLE
  2
APPID
  5
9
330
0
100
AcDbSymbolTable
 70
     1
  0
APPID
  5
12
330
9
100
AcDbSymbolTableRecord
100
AcDbRegAppTableRecord
  2
ACAD
 70
     0
  0
ENDTAB
  0
TABLE
  2
DIMSTYLE
  5
A
330
0
100
AcDbSymbolTable
 70
     1
100
AcDbDimStyleTable
  0
DIMSTYLE
105
27
330
A
100
AcDbSymbolTableRecord
100
AcDbDimStyleTableRecord
  2
ISO-25
 70
     0
 41
2.5
 42
0.625
 43
3.75
 44
1.25
 73
     0
 74
     0
 77
     1
 78
     8
140
2.5
141
2.5
143
0.03937007874016
147
0.625
171
     3
172
     1
178
     0
271
     2
272
     2
274
     3
278
    44
283
     0
284
     8
340
11
  0
ENDTAB
  0
TABLE
  2
BLOCK_RECORD
  5
1
330
0
100
AcDbSymbolTable
 70
     4
  0
BLOCK_RECORD
  5
1F
330
1
100
AcDbSymbolTableRecord
100
AcDbBlockTableRecord
  2
*Model_Space
340
22
 70
     0
280
     1
281
     0
  0
BLOCK_RECORD
  5
1B
330
1
100
AcDbSymbolTableRecord
100
AcDbBlockTableRecord
  2
*Paper_Space
340
1E
 70
     0
280
     1
281
     0
  0
BLOCK_RECORD
  5
23
330
1
100
AcDbSymbolTableRecord
100
AcDbBlockTableRecord
  2
*Paper_Space0
340
26
 70
     0
280
     1
281
     0
  0
BLOCK_RECORD
  5
83
330
1
100
AcDbSymbolTableRecord
100
AcDbBlockTableRecord
  2
1_INS_GT_09_CR_0_in_129705_2
340
0
102
{BLKREFS
331
84
102
}
 70
     0
280
     1
281
     0
  0
BLOCK_RECORD
  5
C8
330
1
100
AcDbSymbolTableRecord
100
AcDbBlockTableRecord
  2
2_129985_0_in_129705_2
340
0
102
{BLKREFS
331
C9
102
}
 70
     0
280
     1
281
     0
  0
BLOCK_RECORD
  5
11C
330
1
100
AcDbSymbolTableRecord
100
AcDbBlockTableRecord
  2
3_F4B_GTEZ_09_PCR_0_in_129705_2
340
0
102
{BLKREFS
331
11D
102
}
 70
     0
280
     1
281
     0
  0
ENDTAB
  0
ENDSEC
  0
SECTION
  2
BLOCKS
  0
BLOCK
  5
20
330
1F
100
AcDbEntity
  8
0
100
AcDbBlockBegin
  2
*Model_Space
 70
     0
 10
0.0
 20
0.0
 30
0.0
  3
*Model_Space
  1

  0
ENDBLK
  5
21
330
1F
100
AcDbEntity
  8
0
100
AcDbBlockEnd
  0
BLOCK
  5
1C
330
1B
100
AcDbEntity
 67
     1
  8
0
100
AcDbBlockBegin
  2
*Paper_Space
 70
     0
 10
0.0
 20
0.0
 30
0.0
  3
*Paper_Space
  1

  0
ENDBLK
  5
1D
330
1B
100
AcDbEntity
 67
     1
  8
0
100
AcDbBlockEnd
  0
BLOCK
  5
24
330
23
100
AcDbEntity
  8
0
100
AcDbBlockBegin
  2
*Paper_Space0
 70
     0
 10
0.0
 20
0.0
 30
0.0
  3
*Paper_Space0
  1

  0
ENDBLK
  5
25
330
23
100
AcDbEntity
  8
0
100
AcDbBlockEnd
  0
BLOCK
  5
85
330
83
100
AcDbEntity
  8
0
100
AcDbBlockBegin
  2
1_INS_GT_09_CR_0_in_129705_2
 70
     2
 10
0.0
 20
0.0
 30
0.0
  3
1_INS_GT_09_CR_0_in_129705_2
  1

  0
ATTDEF
  5
87
330
83
100
AcDbEntity
  8
AM_6
100
AcDbText
 10
-3.470000000000004
 20
42.49672779515492
 30
0.0
 40
0.5
  1
INS-GT-CR-M
100
AcDbAttributeDefinition
  3

  2
NN
 70
     8
280
     0
  0
ATTDEF
  5
88
330
83
100
AcDbEntity
  8
AM_6
100
AcDbText
 10
-3.470000000000004
 20
41.99672779515492
 30
0.0
 40
0.5
  1
GT Normal Duty Corrosion Resistant Bearing Inserts
100
AcDbAttributeDefinition
  3

  2
NT
 70
     8
280
     0
  0
ATTDEF
  5
89
330
83
100
AcDbEntity
  8
AM_6
100
AcDbText
 10
-3.470000000000004
 20
41.49672779515492
 30
0.0
 40
0.5
  1
INS-GT-09-CR
100
AcDbAttributeDefinition
  3

  2
NB
 70
     8
280
     0
  0
ATTDEF
  5
8A
330
83
100
AcDbEntity
  8
AM_6
100
AcDbText
 10
-3.470000000000004
 20
40.99672779515492
 30
0.0
 40
0.5
  1
$PN.
100
AcDbAttributeDefinition
  3

  2
NBSYN
 70
     8
280
     0
  0
ATTDEF
  5
8B
330
83
100
AcDbEntity
  8
AM_6
100
AcDbText
 10
-3.470000000000004
 20
40.49672779515492
 30
0.0
 40
0.5
  1
INS-GT-09-CR
100
AcDbAttributeDefinition
  3

  2
LINA
 70
     8
280
     0
  0
ATTDEF
  5
8C
330
83
100
AcDbEntity
  8
AM_6
100
AcDbText
 10
-3.470000000000004
 20
39.99672779515492
 30
0.0
 40
0.5
  1
209
100
AcDbAttributeDefinition
  3

  2
SERIES
 70
     8
280
     0
  0
ATTDEF
  5
8D
330
83
100
AcDbEntity
  8
AM_6
100
AcDbText
 10
-3.470000000000004
 20
39.49672779515492
 30
0.0
 40
0.5
  1
INS-GT-09-CR
100
AcDbAttributeDefinition
  3

  2
PN
 70
     8
280
     0
  0
ATTDEF
  5
8E
330
83
100
AcDbEntity
  8
AM_6
100
AcDbText
 10
-3.470000000000004
 20
38.99672779515492
 30
0.0
 40
0.5
  1
INS-GT-09-CR
100
AcDbAttributeDefinition
  3

  2
DESCRIPTION
 70
     8
280
     0
  0
ATTDEF
  5
8F
330
83
100
AcDbEntity
  8
AM_6
100
AcDbText
 10
-3.470000000000004
 20
38.49672779515492
 30
0.0
 40
0.5
  1
46.8
100
AcDbAttributeDefinition
  3

  2
A
 70
     8
280
     0
  0
ATTDEF
  5
90
330
83
100
AcDbEntity
  8
AM_6
100
AcDbText
 10
-3.470000000000004
 20
37.99672779515492
 30
0.0
 40
0.5
  1
22.0
100
AcDbAttributeDefinition
  3

  2
C
 70
     8
280
     0
  0
ATTDEF
  5
91
330
83
100
AcDbEntity
  8
AM_6
100
AcDbText
 10
-3.470000000000004
 20
37.49672779515492
 30
0.0
 40
0.5
  1
85.0
100
AcDbAttributeDefinition
  3

  2
D
 70
     8
280
     0
  0
ATTDEF
  5
92
330
83
100
AcDbEntity
  8
AM_6
100
AcDbText
 10
-3.470000000000004
 20
36.99672779515492
 30
0.0
 40
0.5
  1
6.3
100
AcDbAttributeDefinition
  3

  2
J
 70
     8
280
     0
  0
ATTDEF
  5
93
330
83
100
AcDbEntity
  8
AM_6
100
AcDbText
 10
-3.470000000000004
 20
36.49672779515492
 30
0.0
 40
0.5
  1
67.9
100
AcDbAttributeDefinition
  3

  2
L
 70
     8
280
     0
  0
ATTDEF
  5
94
330
83
100
AcDbEntity
  8
AM_6
100
AcDbText
 10
-3.470000000000004
 20
35.99672779515492
 30
0.0
 40
0.5
  1
10 - 32 x 1/4
100
AcDbAttributeDefinition
  3

  2
N
 70
     8
280
     0
  0
ATTDEF
  5
95
330
83
100
AcDbEntity
  8
AM_6
100
AcDbText
 10
-3.470000000000004
 20
35.49672779515492
 30
0.0
 40
0.5
  1
16.7
100
AcDbAttributeDefinition
  3

  2
W
 70
     8
280
     0
  0
ATTDEF
  5
96
330
83
100
AcDbEntity
  8
AM_6
100
AcDbText
 10
-3.470000000000004
 20
34.99672779515492
 30
0.0
 40
0.5
  1
29.4
100
AcDbAttributeDefinition
  3

  2
X
 70
     8
280
     0
  0
ATTDEF
  5
97
330
83
100
AcDbEntity
  8
AM_6
100
AcDbText
 10
-3.470000000000004
 20
34.49672779515492
 30
0.0
 40
0.5
  1
30.2
100
AcDbAttributeDefinition
  3

  2
Y
 70
     8
280
     0
  0
ATTDEF
  5
98
330
83
100
AcDbEntity
  8
AM_6
100
AcDbText
 10
-3.470000000000004
 20
33.99672779515492
 30
0.0
 40
0.5
  1
baldor
100
AcDbAttributeDefinition
  3

  2
COMPANY
 70
     8
280
     0
  0
LINE
  5
9B
330
83
100
AcDbEntity
  8
AM_9
 48
0.8733646908046893
100
AcDbLine
 10
-45.54999999999999
 20
-25.32777777777778
 30
0.0
 11
-34.52500000000008
 21
-25.32777777777778
 31
0.0
  0
LINE
  5
9C
330
83
100
AcDbEntity
  8
AM_9
 48
0.8733646908046893
100
AcDbLine
 10
-34.52500000000008
 20
25.32777777777778
 30
0.0
 11
-45.54999999999999
 21
25.32777777777778
 31
0.0
  0
LINE
  5
9D
330
83
100
AcDbEntity
  8
AM_9
 48
0.8733646908046893
100
AcDbLine
 10
-34.52500000000008
 20
25.32777777777778
 30
0.0
 11
-34.52500000000008
 21
-25.32777777777778
 31
0.0
  0
LINE
  5
9E
330
83
100
AcDbEntity
  8
AM_9
 48
0.8733646908046893
100
AcDbLine
 10
-34.52500000000008
 20
-25.32777777777778
 30
0.0
 11
-8.470000000000004
 21
-26.23763842688527
 31
0.0
  0
LINE
  5
9F
330
83
100
AcDbEntity
  8
AM_9
 48
0.8733646908046893
100
AcDbLine
 10
-8.470000000000004
 20
26.23763842688527
 30
0.0
 11
-34.52500000000008
 21
25.32777777777778
 31
0.0
  0
LINE
  5
A0
330
83
100
AcDbEntity
  8
AM_9
 48
0.8733646908046893
100
AcDbLine
 10
-41.87499999999999
 20
-27.75277777777779
 30
0.0
 11
-38.2
 21
-27.75277777777779
 31
0.0
  0
LINE
  5
A1
330
83
100
AcDbEntity
  8
AM_9
 48
0.8733646908046893
100
AcDbLine
 10
-38.2
 20
27.75277777777779
 30
0.0
 11
-41.87499999999999
 21
27.75277777777779
 31
0.0
  0
LINE
  5
A2
330
83
100
AcDbEntity
  8
AM_9
 48
0.8733646908046893
100
AcDbLine
 10
-8.470000000000004
 20
29.29777777777779
 30
0.0
 11
-8.470000000000004
 21
-29.29777777777779
 31
0.0
  0
LINE
  5
A3
330
83
100
AcDbEntity
  8
AM_9
 48
0.8733646908046893
100
AcDbLine
 10
-8.470000000000004
 20
29.29777777777779
 30
0.0
 11
-9.350000000000005
 21
30.17777777777778
 31
0.0
  0
LINE
  5
A4
330
83
100
AcDbEntity
  8
AM_9
 48
0.8733646908046893
100
AcDbLine
 10
-9.350000000000005
 20
-30.17777777777778
 30
0.0
 11
-8.470000000000004
 21
-29.29777777777779
 31
0.0
  0
LINE
  5
A5
330
83
100
AcDbEntity
  8
AM_9
 48
0.8733646908046893
100
AcDbLine
 10
-44.67
 20
-30.17777777777778
 30
0.0
 11
-41.87499999999999
 21
-30.17777777777778
 31
0.0
  0
LINE
  5
A6
330
83
100
AcDbEntity
  8
AM_9
 48
0.8733646908046893
100
AcDbLine
 10
-41.87499999999999
 20
30.17777777777778
 30
0.0
 11
-44.67
 21
30.17777777777778
 31
0.0
  0
LINE
  5
A7
330
83
100
AcDbEntity
  8
AM_9
 48
0.8733646908046893
100
AcDbLine
 10
-44.67
 20
30.17777777777778
 30
0.0
 11
-44.67
 21
-30.17777777777778
 31
0.0
  0
LINE
  5
A8
330
83
100
AcDbEntity
  8
AM_9
 48
0.8733646908046893
100
AcDbLine
 10
-45.54999999999999
 20
-29.29777777777779
 30
0.0
 11
-44.67
 21
-30.17777777777778
 31
0.0
  0
LINE
  5
A9
330
83
100
AcDbEntity
  8
AM_9
 48
0.8733646908046893
100
AcDbLine
 10
-44.67
 20
30.17777777777778
 30
0.0
 11
-45.54999999999999
 21
29.29777777777779
 31
0.0
  0
LINE
  5
AA
330
83
100
AcDbEntity
  8
AM_9
 48
0.8733646908046893
100
AcDbLine
 10
-37.7
 20
-30.17777777777779
 30
0.0
 11
-34.5
 21
-30.17777777777779
 31
0.0
  0
LINE
  5
AB
330
83
100
AcDbEntity
  8
AM_9
 48
0.8733646908046893
100
AcDbLine
 10
-34.5
 20
30.17777777777779
 30
0.0
 11
-37.7
 21
30.17777777777779
 31
0.0
  0
LINE
  5
AC
330
83
100
AcDbEntity
  8
AM_9
 48
0.8733646908046893
100
AcDbLine
 10
-9.350000000000005
 20
30.17777777777778
 30
0.0
 11
-9.350000000000005
 21
-30.17777777777778
 31
0.0
  0
LINE
  5
AD
330
83
100
AcDbEntity
  8
AM_9
 48
0.8733646908046893
100
AcDbLine
 10
-12.5
 20
-30.17777777777779
 30
0.0
 11
-9.350000000000005
 21
-30.17777777777779
 31
0.0
  0
LINE
  5
AE
330
83
100
AcDbEntity
  8
AM_9
 48
0.8733646908046893
100
AcDbLine
 10
-9.350000000000005
 20
30.17777777777779
 30
0.0
 11
-12.5
 21
30.17777777777779
 31
0.0
  0
LINE
  5
AF
330
83
100
AcDbEntity
  8
AM_9
 48
0.8733646908046893
100
AcDbLine
 10
-31.06000000000001
 20
-40.3
 30
0.0
 11
-28.54
 21
-40.3
 31
0.0
  0
LINE
  5
B0
330
83
100
AcDbEntity
  8
AM_9
 48
0.8733646908046893
100
AcDbLine
 10
-28.54
 20
40.3
 30
0.0
 11
-31.06000000000001
 21
40.3
 31
0.0
  0
LINE
  5
B1
330
83
100
AcDbEntity
  8
AM_9
 48
0.8733646908046893
100
AcDbLine
 10
-34.50000000000001
 20
39.70666580556274
 30
0.0
 11
-34.50000000000001
 21
-39.70666580546008
 31
0.0
  0
ARC
  5
B2
330
83
100
AcDbEntity
  8
AM_9
 48
0.8733646908046893
100
AcDbCircle
 10
-33.62
 20
-39.70666580556272
 30
0.0
 40
0.8799999999999955
100
AcDbArc
 50
180.0000000000009
 51
248.5875329531166
  0
ARC
  5
B3
330
83
100
AcDbEntity
  8
AM_9
 48
0.8733646908046893
100
AcDbCircle
 10
-33.62
 20
39.70666580556272
 30
0.0
 40
0.8799999999999996
100
AcDbArc
 50
111.4124670468834
 51
179.9999999999991
  0
LINE
  5
B4
330
83
100
AcDbEntity
  8
AM_9
 48
0.8733646908046893
100
AcDbLine
 10
-12.5
 20
39.70666580556274
 30
0.0
 11
-12.5
 21
-39.70666580546008
 31
0.0
  0
ARC
  5
B5
330
83
100
AcDbEntity
  8
AM_9
 48
0.8733646908046893
100
AcDbCircle
 10
-13.37999999999999
 20
-39.70666580556274
 30
0.0
 40
0.8799999999999863
100
AcDbArc
 50
291.4124554045154
 51
0.0
  0
ARC
  5
B6
330
83
100
AcDbEntity
  8
AM_9
 48
0.8733646908046893
100
AcDbCircle
 10
-13.38000000000001
 20
39.70666580556272
 30
0.0
 40
0.8800000000000061
100
AcDbArc
 50
0.0000000000009253
 51
68.58754459548373
  0
LINE
  5
B7
330
83
100
AcDbEntity
  8
AM_9
 48
0.8733646908046893
100
AcDbLine
 10
-33.94126984126984
 20
40.52592503748536
 30
0.0
 11
-33.94126984126984
 21
-40.52592503748536
 31
0.0
  0
ARC
  5
B8
330
83
100
AcDbEntity
  8
AM_9
 48
0.8733646908046893
100
AcDbCircle
 10
-23.49999999999878
 20
-13.89999999999647
 30
0.0
 40
28.60000000000374
100
AcDbArc
 50
248.5875329531163
 51
254.0894253587721
  0
ARC
  5
B9
330
83
100
AcDbEntity
  8
AM_9
 48
0.8733646908046893
100
AcDbCircle
 10
-23.49999999999732
 20
13.89999999999216
 30
0.0
 40
28.60000000000829
100
AcDbArc
 50
105.9105746412283
 51
111.4124670468833
  0
LINE
  5
BA
330
83
100
AcDbEntity
  8
AM_9
 48
0.8733646908046893
100
AcDbLine
 10
-31.34031005529008
 20
41.40435489585091
 30
0.0
 11
-31.34031005529008
 21
-41.40435489585091
 31
0.0
  0
LINE
  5
BB
330
83
100
AcDbEntity
  8
AM_9
 48
0.8733646908046893
100
AcDbLine
 10
-31.06000000000001
 20
41.19278292882571
 30
0.0
 11
-31.06000000000001
 21
-41.19278292876047
 31
0.0
  0
ARC
  5
BC
330
83
100
AcDbEntity
  8
AM_9
 48
0.8733646908046893
100
AcDbCircle
 10
-31.28000000000001
 20
-41.19278292882571
 30
0.0
 40
0.2200000000000011
100
AcDbArc
 50
254.0894313323832
 51
0.0000000000018505
  0
ARC
  5
BD
330
83
100
AcDbEntity
  8
AM_9
 48
0.8733646908046893
100
AcDbCircle
 10
-31.28000000000001
 20
41.19278292882571
 30
0.0
 40
0.2200000000000024
100
AcDbArc
 50
359.9999999999981
 51
105.9105686676167
  0
LINE
  5
BE
330
83
100
AcDbEntity
  8
AM_9
 48
0.8733646908046893
100
AcDbLine
 10
-28.54
 20
41.86769565051795
 30
0.0
 11
-28.54
 21
-41.86769565047904
 31
0.0
  0
ARC
  5
BF
330
83
100
AcDbEntity
  8
AM_9
 48
0.8733646908046893
100
AcDbCircle
 10
-28.31999999999999
 20
-41.86769565051792
 30
0.0
 40
0.2200000000000131
100
AcDbArc
 50
180.0000000000074
 51
260.2216048273868
  0
ARC
  5
C0
330
83
100
AcDbEntity
  8
AM_9
 48
0.8733646908046893
100
AcDbCircle
 10
-28.31999999999999
 20
41.86769565051792
 30
0.0
 40
0.2200000000000167
100
AcDbArc
 50
99.7783951726131
 51
179.9999999999926
  0
LINE
  5
C1
330
83
100
AcDbEntity
  8
AM_9
 48
0.8733646908046893
100
AcDbLine
 10
-28.35736434108528
 20
42.08449949277001
 30
0.0
 11
-28.35736434108528
 21
-42.08449949277001
 31
0.0
  0
LINE
  5
C2
330
83
100
AcDbEntity
  8
AM_9
 48
0.8733646908046893
100
AcDbLine
 10
-13.05873032520172
 20
40.52592510276661
 30
0.0
 11
-13.05873032520172
 21
-40.52592510276661
 31
0.0
  0
ARC
  5
C3
330
83
100
AcDbEntity
  8
AM_9
 48
0.8733646908046893
100
AcDbCircle
 10
-23.49999999999999
 20
-13.90000000000015
 30
0.0
 40
28.59999999999985
100
AcDbArc
 50
260.221604827391
 51
291.4124666886574
  0
ARC
  5
C4
330
83
100
AcDbEntity
  8
AM_9
 48
0.8733646908046893
100
AcDbCircle
 10
-23.49999999999996
 20
13.90000000000039
 30
0.0
 40
28.59999999999962
100
AcDbArc
 50
68.58753331134244
 51
99.77839517260915
  0
LINE
  5
C6
330
83
100
AcDbEntity
  8
AM_0
 48
0.8733646908046893
100
AcDbLine
 10
-38.2
 20
-30.17777777777779
 30
0.0
 11
-37.7
 21
-30.17777777777779
 31
0.0
  0
LINE
  5
C7
330
83
100
AcDbEntity
  8
AM_0
 48
0.8733646908046893
100
AcDbLine
 10
-37.7
 20
30.17777777777779
 30
0.0
 11
-38.2
 21
30.17777777777779
 31
0.0
  0
ENDBLK
  5
86
330
83
100
AcDbEntity
  8
0
100
AcDbBlockEnd
  0
BLOCK
  5
CA
330
C8
100
AcDbEntity
  8
0
100
AcDbBlockBegin
  2
2_129985_0_in_129705_2
 70
     2
 10
0.0
 20
0.0
 30
0.0
  3
2_129985_0_in_129705_2
  1

  0
ATTDEF
  5
CC
330
C8
100
AcDbEntity
  8
AM_6
100
AcDbText
 10
-1.800000000000004
 20
33.95
 30
0.0
 40
0.5
  1
Grip Tight Adapter and Nut - Corrosion Resistant Metric Bore
100
AcDbAttributeDefinition
  3

  2
NN
 70
     8
280
     0
  0
ATTDEF
  5
CD
330
C8
100
AcDbEntity
  8
AM_6
100
AcDbText
 10
-1.800000000000004
 20
33.45
 30
0.0
 40
0.5
  1
GT and GTM Adapter & Lock Nut Assemblies
100
AcDbAttributeDefinition
  3

  2
NT
 70
     8
280
     0
  0
ATTDEF
  5
CE
330
C8
100
AcDbEntity
  8
AM_6
100
AcDbText
 10
-1.800000000000004
 20
32.95
 30
0.0
 40
0.5
  1
129985
100
AcDbAttributeDefinition
  3

  2
NB
 70
     8
280
     0
  0
ATTDEF
  5
CF
330
C8
100
AcDbEntity
  8
AM_6
100
AcDbText
 10
-1.800000000000004
 20
32.45
 30
0.0
 40
0.5
  1
$PN.
100
AcDbAttributeDefinition
  3

  2
NBSYN
 70
     8
280
     0
  0
ATTDEF
  5
D0
330
C8
100
AcDbEntity
  8
AM_6
100
AcDbText
 10
-1.800000000000004
 20
31.95
 30
0.0
 40
0.5
  1
129985
100
AcDbAttributeDefinition
  3

  2
LINA
 70
     8
280
     0
  0
ATTDEF
  5
D1
330
C8
100
AcDbEntity
  8
AM_6
100
AcDbText
 10
-1.800000000000004
 20
31.45
 30
0.0
 40
0.5
  1
209
100
AcDbAttributeDefinition
  3

  2
SERIES
 70
     8
280
     0
  0
ATTDEF
  5
D2
330
C8
100
AcDbEntity
  8
AM_6
100
AcDbText
 10
-1.800000000000004
 20
30.95
 30
0.0
 40
0.5
  1
45
100
AcDbAttributeDefinition
  3

  2
SS
 70
     8
280
     0
  0
ATTDEF
  5
D3
330
C8
100
AcDbEntity
  8
AM_6
100
AcDbText
 10
-1.800000000000004
 20
30.45
 30
0.0
 40
0.5
  1
129985
100
AcDbAttributeDefinition
  3

  2
PN
 70
     8
280
     0
  0
ATTDEF
  5
D4
330
C8
100
AcDbEntity
  8
AM_6
100
AcDbText
 10
-1.800000000000004
 20
29.95
 30
0.0
 40
0.5
  1
AN-GT-09-45M-CR
100
AcDbAttributeDefinition
  3

  2
DESCRIPTION
 70
     8
280
     0
  0
ATTDEF
  5
D5
330
C8
100
AcDbEntity
  8
AM_6
100
AcDbText
 10
-1.800000000000004
 20
29.45
 30
0.0
 40
0.5
  1
46.8
100
AcDbAttributeDefinition
  3

  2
A
 70
     8
280
     0
  0
ATTDEF
  5
D6
330
C8
100
AcDbEntity
  8
AM_6
100
AcDbText
 10
-1.800000000000004
 20
28.95
 30
0.0
 40
0.5
  1
22.0
100
AcDbAttributeDefinition
  3

  2
C
 70
     8
280
     0
  0
ATTDEF
  5
D7
330
C8
100
AcDbEntity
  8
AM_6
100
AcDbText
 10
-1.800000000000004
 20
28.45
 30
0.0
 40
0.5
  1
85.0
100
AcDbAttributeDefinition
  3

  2
D
 70
     8
280
     0
  0
ATTDEF
  5
D8
330
C8
100
AcDbEntity
  8
AM_6
100
AcDbText
 10
-1.800000000000004
 20
27.95
 30
0.0
 40
0.5
  1
6.3
100
AcDbAttributeDefinition
  3

  2
J
 70
     8
280
     0
  0
ATTDEF
  5
D9
330
C8
100
AcDbEntity
  8
AM_6
100
AcDbText
 10
-1.800000000000004
 20
27.45
 30
0.0
 40
0.5
  1
67.9
100
AcDbAttributeDefinition
  3

  2
L
 70
     8
280
     0
  0
ATTDEF
  5
DA
330
C8
100
AcDbEntity
  8
AM_6
100
AcDbText
 10
-1.800000000000004
 20
26.95
 30
0.0
 40
0.5
  1
10 - 32 x 1/4
100
AcDbAttributeDefinition
  3

  2
N
 70
     8
280
     0
  0
ATTDEF
  5
DB
330
C8
100
AcDbEntity
  8
AM_6
100
AcDbText
 10
-1.800000000000004
 20
26.45
 30
0.0
 40
0.5
  1
16.7
100
AcDbAttributeDefinition
  3

  2
W
 70
     8
280
     0
  0
ATTDEF
  5
DC
330
C8
100
AcDbEntity
  8
AM_6
100
AcDbText
 10
-1.800000000000004
 20
25.95
 30
0.0
 40
0.5
  1
29.4
100
AcDbAttributeDefinition
  3

  2
X
 70
     8
280
     0
  0
ATTDEF
  5
DD
330
C8
100
AcDbEntity
  8
AM_6
100
AcDbText
 10
-1.800000000000004
 20
25.45
 30
0.0
 40
0.5
  1
30.2
100
AcDbAttributeDefinition
  3

  2
Y
 70
     8
280
     0
  0
ATTDEF
  5
DE
330
C8
100
AcDbEntity
  8
AM_6
100
AcDbText
 10
-1.800000000000004
 20
24.95
 30
0.0
 40
0.5
  1
baldor
100
AcDbAttributeDefinition
  3

  2
COMPANY
 70
     8
280
     0
  0
LWPOLYLINE
  5
DF
330
C8
100
AcDbEntity
  8
AM_9
 48
0.7089841072441628
100
AcDbPolyline
 90
        5
 70
     0
 43
0.0
 10
-52.02000000000001
 20
1.171027199108119
 10
-52.13818081809387
 20
0.6157546904929291
 10
-52.18309717756391
 20
0.024213891565664
 10
-52.14422034465414
 20
-0.572973777513795
 10
-52.02
 20
-1.171027199108133
  0
LWPOLYLINE
  5
E0
330
C8
100
AcDbEntity
  8
AM_9
 48
0.7089841072441628
100
AcDbPolyline
 90
       14
 70
     0
 43
0.0
 10
-47.80467590421332
 20
1.098164648049285
 10
-48.00835556394849
 20
1.40581816467689
 10
-48.26793467725358
 20
1.68766572728917
 10
-48.57909733998964
 20
1.930181887237239
 10
-48.92542213299686
 20
2.119320946823587
 10
-49.31019697445081
 20
2.253335686512697
 10
-49.71175102844552
 20
2.322894818461791
 10
-50.12824920713521
 20
2.324899360868415
 10
-50.5393003128879
 20
2.257933153199388
 10
-50.93519008512233
 20
2.12173344572689
 10
-51.30228688717541
 20
1.920697755177524
 10
-51.55402754295073
 20
1.727745601686868
 10
-51.77808315773358
 20
1.503288439493826
 10
-52.02000000000001
 20
1.171027199108119
  0
LWPOLYLINE
  5
E1
330
C8
100
AcDbEntity
  8
AM_9
 48
0.7089841072441628
100
AcDbPolyline
 90
       15
 70
     0
 43
0.0
 10
-52.02
 20
-1.171027199108133
 10
-51.94262483510293
 20
-1.29126635331956
 10
-51.69809589469411
 20
-1.590197682530379
 10
-51.40846175496437
 20
-1.845743876705776
 10
-51.07034946613949
 20
-2.057082894503524
 10
-50.70240320498655
 20
-2.210989973129388
 10
-50.30238003228902
 20
-2.305067440252636
 10
-49.89229635137911
 20
-2.332423501134498
 10
-49.47642430133658
 20
-2.29027742501918
 10
-49.07345125033874
 20
-2.179475308359427
 10
-48.69536750464913
 20
-2.001795735787239
 10
-48.35307376651518
 20
-1.762526830821565
 10
-48.06284397667497
 20
-1.472848174241996
 10
-47.82691491257581
 20
-1.13751526163099
 10
-47.71617186643004
 20
-0.9201778632033059
  0
CIRCLE
  5
E2
330
C8
100
AcDbEntity
  8
AM_9
 48
0.7089841072441628
100
AcDbCircle
 10
-49.93333333333333
 20
0.0
 30
0.0
 40
2.413000000000002
  0
CIRCLE
  5
E3
330
C8
100
AcDbEntity
  8
AM_9
 48
0.7089841072441628
100
AcDbCircle
 10
-49.93333333333333
 20
0.0
 30
0.0
 40
1.981200000000003
  0
LINE
  5
E4
330
C8
100
AcDbEntity
  8
AM_9
 48
0.7089841072441628
100
AcDbLine
 10
-52.02000000000001
 20
1.171027199108119
 30
0.0
 11
-52.02
 21
3.15
 31
0.0
  0
LINE
  5
E5
330
C8
100
AcDbEntity
  8
AM_9
 48
0.7089841072441628
100
AcDbLine
 10
-52.02
 20
-3.15
 30
0.0
 11
-52.02
 21
-1.171027199108133
 31
0.0
  0
LINE
  5
E6
330
C8
100
AcDbEntity
  8
AM_9
 48
0.7089841072441628
100
AcDbLine
 10
-39.08000000000001
 20
-3.149999999999999
 30
0.0
 11
-39.08000000000001
 21
3.149999999999999
 31
0.0
  0
LINE
  5
E7
330
C8
100
AcDbEntity
  8
AM_9
 48
0.7089841072441628
100
AcDbLine
 10
-38.2
 20
25.86645176088058
 30
0.0
 11
-52.90000000000001
 21
25.86645176088058
 31
0.0
  0
LINE
  5
E8
330
C8
100
AcDbEntity
  8
AM_9
 48
0.7089841072441628
100
AcDbLine
 10
-38.2
 20
26.93424060721365
 30
0.0
 11
-39.08000000000001
 21
27.69973313285707
 31
0.0
  0
LINE
  5
E9
330
C8
100
AcDbEntity
  8
AM_9
 48
0.7089841072441628
100
AcDbLine
 10
-39.08000000000001
 20
27.69973313285707
 30
0.0
 11
-52.02
 21
27.69973313285707
 31
0.0
  0
LINE
  5
EA
330
C8
100
AcDbEntity
  8
AM_9
 48
0.7089841072441628
100
AcDbLine
 10
-52.02
 20
27.69973313285707
 30
0.0
 11
-52.90000000000001
 21
26.93424060721365
 31
0.0
  0
LINE
  5
EB
330
C8
100
AcDbEntity
  8
AM_9
 48
0.7089841072441628
100
AcDbLine
 10
-38.2
 20
-25.86645176088059
 30
0.0
 11
-52.90000000000001
 21
-25.86645176088059
 31
0.0
  0
LINE
  5
EC
330
C8
100
AcDbEntity
  8
AM_9
 48
0.7089841072441628
100
AcDbLine
 10
-52.90000000000001
 20
-26.93424060721366
 30
0.0
 11
-52.02
 21
-27.69973313285709
 31
0.0
  0
LINE
  5
ED
330
C8
100
AcDbEntity
  8
AM_9
 48
0.7089841072441628
100
AcDbLine
 10
-52.02
 20
-27.69973313285709
 30
0.0
 11
-39.08000000000001
 21
-27.69973313285708
 31
0.0
  0
LINE
  5
EE
330
C8
100
AcDbEntity
  8
AM_9
 48
0.7089841072441628
100
AcDbLine
 10
-39.08000000000001
 20
-27.69973313285708
 30
0.0
 11
-38.2
 21
-26.93424060721366
 31
0.0
  0
LINE
  5
EF
330
C8
100
AcDbEntity
  8
AM_9
 48
0.7089841072441628
100
AcDbLine
 10
-38.2
 20
29.01645176088058
 30
0.0
 11
-52.90000000000001
 21
29.01645176088058
 31
0.0
  0
LINE
  5
F0
330
C8
100
AcDbEntity
  8
AM_9
 48
0.7089841072441628
100
AcDbLine
 10
-38.2
 20
-29.01645176088059
 30
0.0
 11
-52.90000000000001
 21
-29.01645176088059
 31
0.0
  0
LINE
  5
F1
330
C8
100
AcDbEntity
  8
AM_9
 48
0.7089841072441628
100
AcDbLine
 10
-45.55
 20
25.32777777777778
 30
0.0
 11
-52.90000000000001
 21
25.32777777777778
 31
0.0
  0
LINE
  5
F2
330
C8
100
AcDbEntity
  8
AM_9
 48
0.7089841072441628
100
AcDbLine
 10
-6.800000000000004
 20
22.46525094451428
 30
0.0
 11
-53.6
 21
22.46525094451428
 31
0.0
  0
LINE
  5
F3
330
C8
100
AcDbEntity
  8
AM_9
 48
0.7089841072441628
100
AcDbLine
 10
-53.59999999999999
 20
-22.5
 30
0.0
 11
-6.800000000000004
 21
-22.5
 31
0.0
  0
LINE
  5
F4
330
C8
100
AcDbEntity
  8
AM_9
 48
0.7089841072441628
100
AcDbLine
 10
-45.54999999999999
 20
25.29691339196332
 30
0.0
 11
-34.52500000000029
 21
25.29691339196332
 31
0.0
  0
LINE
  5
F5
330
C8
100
AcDbEntity
  8
AM_9
 48
0.7089841072441628
100
AcDbLine
 10
-45.54999999999999
 20
-25.32777777777777
 30
0.0
 11
-34.52500000000029
 21
-25.32777777777777
 31
0.0
  0
LINE
  5
F6
330
C8
100
AcDbEntity
  8
AM_9
 48
0.7089841072441628
100
AcDbLine
 10
-6.800000000000004
 20
26.26622941803581
 30
0.0
 11
-6.800000000000004
 21
-26.29595611193648
 31
0.0
  0
LINE
  5
F7
330
C8
100
AcDbEntity
  8
AM_9
 48
0.7089841072441628
100
AcDbLine
 10
-34.52500000000029
 20
25.29691339196332
 30
0.0
 11
-6.800000000000004
 21
26.26622941803581
 31
0.0
  0
LINE
  5
F8
330
C8
100
AcDbEntity
  8
AM_9
 48
0.7089841072441628
100
AcDbLine
 10
-34.52500000000029
 20
25.29691339196332
 30
0.0
 11
-34.52500000000029
 21
-25.32777777777777
 31
0.0
  0
LINE
  5
F9
330
C8
100
AcDbEntity
  8
AM_9
 48
0.7089841072441628
100
AcDbLine
 10
-34.52500000000029
 20
-25.32777777777777
 30
0.0
 11
-6.800000000000004
 21
-26.29595611193648
 31
0.0
  0
LINE
  5
FA
330
C8
100
AcDbEntity
  8
AM_9
 48
0.7089841072441628
100
AcDbLine
 10
-41.87499999999999
 20
-27.75277777777777
 30
0.0
 11
-38.2
 21
-27.75277777777777
 31
0.0
  0
LINE
  5
FB
330
C8
100
AcDbEntity
  8
AM_9
 48
0.7089841072441628
100
AcDbLine
 10
-38.2
 20
27.75277777777777
 30
0.0
 11
-41.87499999999999
 21
27.75277777777777
 31
0.0
  0
LINE
  5
FC
330
C8
100
AcDbEntity
  8
AM_9
 48
0.7089841072441628
100
AcDbLine
 10
-41.87499999999999
 20
30.51727777777778
 30
0.0
 11
-41.87499999999999
 21
-30.51727777777778
 31
0.0
  0
LINE
  5
FD
330
C8
100
AcDbEntity
  8
AM_9
 48
0.7089841072441628
100
AcDbLine
 10
-45.54999999999999
 20
30.51727777777778
 30
0.0
 11
-45.54999999999999
 21
-30.51727777777778
 31
0.0
  0
LINE
  5
FE
330
C8
100
AcDbEntity
  8
AM_9
 48
0.7089841072441628
100
AcDbLine
 10
-45.54999999999999
 20
-30.51727777777778
 30
0.0
 11
-41.87499999999999
 21
-30.51727777777778
 31
0.0
  0
LINE
  5
FF
330
C8
100
AcDbEntity
  8
AM_9
 48
0.7089841072441628
100
AcDbLine
 10
-41.87499999999999
 20
30.51727777777778
 30
0.0
 11
-45.54999999999999
 21
30.51727777777778
 31
0.0
  0
LINE
  5
100
330
C8
100
AcDbEntity
  8
AM_9
 48
0.7089841072441628
100
AcDbLine
 10
-38.2
 20
-30.08424060721366
 30
0.0
 11
-39.08000000000001
 21
-30.84973313285708
 31
0.0
  0
LINE
  5
101
330
C8
100
AcDbEntity
  8
AM_9
 48
0.7089841072441628
100
AcDbLine
 10
-39.08000000000001
 20
30.84973313285707
 30
0.0
 11
-38.2
 21
30.08424060721365
 31
0.0
  0
LINE
  5
102
330
C8
100
AcDbEntity
  8
AM_9
 48
0.7089841072441628
100
AcDbLine
 10
-52.02
 20
30.84973313285707
 30
0.0
 11
-39.08000000000001
 21
30.84973313285707
 31
0.0
  0
LINE
  5
103
330
C8
100
AcDbEntity
  8
AM_9
 48
0.7089841072441628
100
AcDbLine
 10
-39.08000000000001
 20
-30.84973313285708
 30
0.0
 11
-52.02
 21
-30.84973313285708
 31
0.0
  0
LINE
  5
104
330
C8
100
AcDbEntity
  8
AM_9
 48
0.7089841072441628
100
AcDbLine
 10
-52.02
 20
-30.84973313285708
 30
0.0
 11
-52.90000000000001
 21
-30.08424060721366
 31
0.0
  0
LINE
  5
105
330
C8
100
AcDbEntity
  8
AM_9
 48
0.7089841072441628
100
AcDbLine
 10
-52.90000000000001
 20
30.08424060721365
 30
0.0
 11
-52.02
 21
30.84973313285707
 31
0.0
  0
ARC
  5
107
330
C8
100
AcDbEntity
  8
AM_5
 48
0.7089841072441628
100
AcDbCircle
 10
-49.93333944446482
 20
0.0000000000000024
 30
0.0
 40
2.413000000000002
100
AcDbArc
 50
75.00000000000016
 51
15.00000000000013
  0
LINE
  5
10A
330
C8
100
AcDbEntity
  8
AM_7
 48
0.7089841072441628
100
AcDbLine
 10
-49.93333333333333
 20
-2.533650000000002
 30
0.0
 11
-49.93333333333333
 21
2.533650000000002
 31
0.0
  0
LINE
  5
10B
330
C8
100
AcDbEntity
  8
AM_0
 48
0.7089841072441628
100
AcDbLine
 10
-53.6
 20
25.29691339196332
 30
0.0
 11
-52.90000000000001
 21
25.29691339196332
 31
0.0
  0
LINE
  5
10C
330
C8
100
AcDbEntity
  8
AM_0
 48
0.7089841072441628
100
AcDbLine
 10
-53.6
 20
25.29691339196332
 30
0.0
 11
-53.59999999999999
 21
-25.32777777777777
 31
0.0
  0
LINE
  5
10D
330
C8
100
AcDbEntity
  8
AM_0
 48
0.7089841072441628
100
AcDbLine
 10
-53.59999999999999
 20
-25.32777777777777
 30
0.0
 11
-52.90000000000001
 21
-25.32777777777777
 31
0.0
  0
LINE
  5
10E
330
C8
100
AcDbEntity
  8
AM_0
 48
0.7089841072441628
100
AcDbLine
 10
-52.90000000000001
 20
-3.15
 30
0.0
 11
-38.2
 21
-3.15
 31
0.0
  0
LINE
  5
10F
330
C8
100
AcDbEntity
  8
AM_0
 48
0.7089841072441628
100
AcDbLine
 10
-39.08000000000001
 20
-33.95
 30
0.0
 11
-38.2
 21
-33.07
 31
0.0
  0
LINE
  5
110
330
C8
100
AcDbEntity
  8
AM_0
 48
0.7089841072441628
100
AcDbLine
 10
-38.2
 20
3.15
 30
0.0
 11
-52.90000000000001
 21
3.15
 31
0.0
  0
LINE
  5
111
330
C8
100
AcDbEntity
  8
AM_0
 48
0.7089841072441628
100
AcDbLine
 10
-38.2
 20
33.07
 30
0.0
 11
-39.08000000000001
 21
33.95
 31
0.0
  0
LINE
  5
112
330
C8
100
AcDbEntity
  8
AM_0
 48
0.7089841072441628
100
AcDbLine
 10
-38.2
 20
33.07
 30
0.0
 11
-38.2
 21
-33.07
 31
0.0
  0
LINE
  5
113
330
C8
100
AcDbEntity
  8
AM_0
 48
0.7089841072441628
100
AcDbLine
 10
-39.08000000000001
 20
33.95
 30
0.0
 11
-52.02
 21
33.95
 31
0.0
  0
LINE
  5
114
330
C8
100
AcDbEntity
  8
AM_0
 48
0.7089841072441628
100
AcDbLine
 10
-39.08000000000001
 20
33.95
 30
0.0
 11
-39.08000000000001
 21
3.149999999999999
 31
0.0
  0
LINE
  5
115
330
C8
100
AcDbEntity
  8
AM_0
 48
0.7089841072441628
100
AcDbLine
 10
-39.08000000000001
 20
-3.149999999999999
 30
0.0
 11
-39.08000000000001
 21
-33.95
 31
0.0
  0
LINE
  5
116
330
C8
100
AcDbEntity
  8
AM_0
 48
0.7089841072441628
100
AcDbLine
 10
-52.02
 20
-33.95
 30
0.0
 11
-39.08000000000001
 21
-33.95
 31
0.0
  0
LINE
  5
117
330
C8
100
AcDbEntity
  8
AM_0
 48
0.7089841072441628
100
AcDbLine
 10
-52.02
 20
-3.15
 30
0.0
 11
-52.02
 21
-33.95
 31
0.0
  0
LINE
  5
118
330
C8
100
AcDbEntity
  8
AM_0
 48
0.7089841072441628
100
AcDbLine
 10
-52.90000000000001
 20
33.07
 30
0.0
 11
-52.90000000000001
 21
-33.07
 31
0.0
  0
LINE
  5
119
330
C8
100
AcDbEntity
  8
AM_0
 48
0.7089841072441628
100
AcDbLine
 10
-52.90000000000001
 20
-33.07
 30
0.0
 11
-52.02
 21
-33.95
 31
0.0
  0
LINE
  5
11A
330
C8
100
AcDbEntity
  8
AM_0
 48
0.7089841072441628
100
AcDbLine
 10
-52.02
 20
33.95
 30
0.0
 11
-52.90000000000001
 21
33.07
 31
0.0
  0
LINE
  5
11B
330
C8
100
AcDbEntity
  8
AM_0
 48
0.7089841072441628
100
AcDbLine
 10
-52.02
 20
33.95
 30
0.0
 11
-52.02
 21
3.15
 31
0.0
  0
ENDBLK
  5
CB
330
C8
100
AcDbEntity
  8
0
100
AcDbBlockEnd
  0
BLOCK
  5
11E
330
11C
100
AcDbEntity
  8
0
100
AcDbBlockBegin
  2
3_F4B_GTEZ_09_PCR_0_in_129705_2
 70
     2
 10
0.0
 20
0.0
 30
0.0
  3
3_F4B_GTEZ_09_PCR_0_in_129705_2
  1

  0
ATTDEF
  5
120
330
11C
100
AcDbEntity
  8
AM_6
100
AcDbText
 10
6.885
 20
68.25
 30
0.0
 40
0.5
  1
GTEZ Normal Duty Polymer Housed 4 Bolt Flange Bearings
100
AcDbAttributeDefinition
  3

  2
NN
 70
     8
280
     0
  0
ATTDEF
  5
121
330
11C
100
AcDbEntity
  8
AM_6
100
AcDbText
 10
6.885
 20
67.75
 30
0.0
 40
0.5
  1
GRIP TIGHT Adapter Ball Bearings - E-Z KLEEN
100
AcDbAttributeDefinition
  3

  2
NT
 70
     8
280
     0
  0
ATTDEF
  5
122
330
11C
100
AcDbEntity
  8
AM_6
100
AcDbText
 10
6.885
 20
67.25
 30
0.0
 40
0.5
  1
F4B-GTEZ-09-PCR
100
AcDbAttributeDefinition
  3

  2
NB
 70
     8
280
     0
  0
ATTDEF
  5
123
330
11C
100
AcDbEntity
  8
AM_6
100
AcDbText
 10
6.885
 20
66.75
 30
0.0
 40
0.5
  1
$PN.$LUBE.
100
AcDbAttributeDefinition
  3

  2
NBSYN
 70
     8
280
     0
  0
ATTDEF
  5
124
330
11C
100
AcDbEntity
  8
AM_6
100
AcDbText
 10
6.885
 20
66.25
 30
0.0
 40
0.5
  1
F4B-GTEZ-09-PCR
100
AcDbAttributeDefinition
  3

  2
LINA
 70
     8
280
     0
  0
ATTDEF
  5
125
330
11C
100
AcDbEntity
  8
AM_6
100
AcDbText
 10
6.885
 20
65.75
 30
0.0
 40
0.5
  1
209
100
AcDbAttributeDefinition
  3

  2
SERIES
 70
     8
280
     0
  0
ATTDEF
  5
126
330
11C
100
AcDbEntity
  8
AM_6
100
AcDbText
 10
6.885
 20
65.25
 30
0.0
 40
0.5
  1
45
100
AcDbAttributeDefinition
  3

  2
SS
 70
     8
280
     0
  0
ATTDEF
  5
127
330
11C
100
AcDbEntity
  8
AM_6
100
AcDbText
 10
6.885
 20
64.75
 30
0.0
 40
0.5
  1
F4B-GTEZ-09-PCR
100
AcDbAttributeDefinition
  3

  2
PN
 70
     8
280
     0
  0
ATTDEF
  5
128
330
11C
100
AcDbEntity
  8
AM_6
100
AcDbText
 10
6.885
 20
64.25
 30
0.0
 40
0.5
  1
F4B-GTEZ-09-PCR
100
AcDbAttributeDefinition
  3

  2
DESCRIPTION
 70
     8
280
     0
  0
ATTDEF
  5
129
330
11C
100
AcDbEntity
  8
AM_6
100
AcDbText
 10
6.885
 20
63.75
 30
0.0
 40
0.5
  1
1.0
100
AcDbAttributeDefinition
  3

  2
WEIGHT
 70
     8
280
     0
  0
ATTDEF
  5
12A
330
11C
100
AcDbEntity
  8
AM_6
100
AcDbText
 10
6.885
 20
63.25
 30
0.0
 40
0.5
  1
46.8
100
AcDbAttributeDefinition
  3

  2
A
 70
     8
280
     0
  0
ATTDEF
  5
12B
330
11C
100
AcDbEntity
  8
AM_6
100
AcDbText
 10
6.885
 20
62.75
 30
0.0
 40
0.5
  1
136.5
100
AcDbAttributeDefinition
  3

  2
B
 70
     8
280
     0
  0
ATTDEF
  5
12C
330
11C
100
AcDbEntity
  8
AM_6
100
AcDbText
 10
6.885
 20
62.25
 30
0.0
 40
0.5
  1
53.6
100
AcDbAttributeDefinition
  3

  2
C
 70
     8
280
     0
  0
ATTDEF
  5
12D
330
11C
100
AcDbEntity
  8
AM_6
100
AcDbText
 10
6.885
 20
61.75
 30
0.0
 40
0.5
  1
104.8
100
AcDbAttributeDefinition
  3

  2
D
 70
     8
280
     0
  0
ATTDEF
  5
12E
330
11C
100
AcDbEntity
  8
AM_6
100
AcDbText
 10
6.885
 20
61.25
 30
0.0
 40
0.5
  1
M14
100
AcDbAttributeDefinition
  3

  2
F
 70
     8
280
     0
  0
ATTDEF
  5
12F
330
11C
100
AcDbEntity
  8
AM_6
100
AcDbText
 10
6.885
 20
60.75
 30
0.0
 40
0.5
  1
18.3
100
AcDbAttributeDefinition
  3

  2
H
 70
     8
280
     0
  0
ATTDEF
  5
130
330
11C
100
AcDbEntity
  8
AM_6
100
AcDbText
 10
6.885
 20
60.25
 30
0.0
 40
0.5
  1
15.1
100
AcDbAttributeDefinition
  3

  2
J
 70
     8
280
     0
  0
ATTDEF
  5
131
330
11C
100
AcDbEntity
  8
AM_6
100
AcDbText
 10
6.885
 20
59.75
 30
0.0
 40
0.5
  1
67.9
100
AcDbAttributeDefinition
  3

  2
L
 70
     8
280
     0
  0
ATTDEF
  5
132
330
11C
100
AcDbEntity
  8
AM_6
100
AcDbText
 10
6.885
 20
59.25
 30
0.0
 40
0.5
  1
52.8
100
AcDbAttributeDefinition
  3

  2
Z
 70
     8
280
     0
  0
ATTDEF
  5
133
330
11C
100
AcDbEntity
  8
AM_6
100
AcDbText
 10
6.885
 20
58.75
 30
0.0
 40
0.5
  1
Infotext
100
AcDbAttributeDefinition
  3

  2
INFO
 70
     8
280
     0
  0
ATTDEF
  5
134
330
11C
100
AcDbEntity
  8
AM_6
100
AcDbText
 10
6.885
 20
58.25
 30
0.0
 40
0.5
  1
baldor
100
AcDbAttributeDefinition
  3

  2
COMPANY
 70
     8
280
     0
  0
LINE
  5
135
330
11C
100
AcDbEntity
  8
AM_9
100
AcDbLine
 10
-37.7
 20
48.82501999999999
 30
0.0
 11
-35.87
 21
48.82501999999999
 31
0.0
  0
LINE
  5
136
330
11C
100
AcDbEntity
  8
AM_9
100
AcDbLine
 10
-37.7
 20
47.34498800000001
 30
0.0
 11
-35.87
 21
47.34498800000001
 31
0.0
  0
LINE
  5
137
330
11C
100
AcDbEntity
  8
AM_9
100
AcDbLine
 10
-37.7
 20
48.455012
 30
0.0
 11
-35.87
 21
48.455012
 31
0.0
  0
LINE
  5
138
330
11C
100
AcDbEntity
  8
AM_9
100
AcDbLine
 10
-37.7
 20
46.23496
 30
0.0
 11
-35.87
 21
46.23496
 31
0.0
  0
LINE
  5
139
330
11C
100
AcDbEntity
  8
AM_9
100
AcDbLine
 10
-37.7
 20
49.56504
 30
0.0
 11
-35.87
 21
49.56504
 31
0.0
  0
LINE
  5
13A
330
11C
100
AcDbEntity
  8
AM_9
100
AcDbLine
 10
-37.7
 20
48.97302
 30
0.0
 11
-35.87
 21
48.97302
 31
0.0
  0
LINE
  5
13B
330
11C
100
AcDbEntity
  8
AM_9
100
AcDbLine
 10
-37.7
 20
47.640994
 30
0.0
 11
-35.87
 21
47.640994
 31
0.0
  0
LINE
  5
13C
330
11C
100
AcDbEntity
  8
AM_9
100
AcDbLine
 10
-37.7
 20
46.82698
 30
0.0
 11
-35.87
 21
46.82698
 31
0.0
  0
LINE
  5
13D
330
11C
100
AcDbEntity
  8
AM_9
100
AcDbLine
 10
-37.7
 20
47.048981
 30
0.0
 11
-35.87
 21
47.048981
 31
0.0
  0
LINE
  5
13E
330
11C
100
AcDbEntity
  8
AM_9
100
AcDbLine
 10
-37.7
 20
46.38297
 30
0.0
 11
-35.87
 21
46.38297
 31
0.0
  0
LINE
  5
13F
330
11C
100
AcDbEntity
  8
AM_9
100
AcDbLine
 10
-37.7
 20
49.41703
 30
0.0
 11
-35.87
 21
49.41703
 31
0.0
  0
LINE
  5
140
330
11C
100
AcDbEntity
  8
AM_9
100
AcDbLine
 10
-37.7
 20
46.67897
 30
0.0
 11
-35.87
 21
46.67897
 31
0.0
  0
LINE
  5
141
330
11C
100
AcDbEntity
  8
AM_9
100
AcDbLine
 10
-37.7
 20
49.12103
 30
0.0
 11
-35.87
 21
49.12103
 31
0.0
  0
LINE
  5
142
330
11C
100
AcDbEntity
  8
AM_9
100
AcDbLine
 10
-37.7
 20
46.97498000000001
 30
0.0
 11
-35.87
 21
46.97498000000001
 31
0.0
  0
LINE
  5
143
330
11C
100
AcDbEntity
  8
AM_9
100
AcDbLine
 10
-37.7
 20
48.751019
 30
0.0
 11
-35.87
 21
48.751019
 31
0.0
  0
LINE
  5
144
330
11C
100
AcDbEntity
  8
AM_9
100
AcDbLine
 10
-37.7
 20
48.085004
 30
0.0
 11
-35.87
 21
48.085004
 31
0.0
  0
LINE
  5
145
330
11C
100
AcDbEntity
  8
AM_9
100
AcDbLine
 10
-37.7
 20
47.788998
 30
0.0
 11
-35.87
 21
47.788998
 31
0.0
  0
LINE
  5
146
330
11C
100
AcDbEntity
  8
AM_9
100
AcDbLine
 10
-37.7
 20
48.233007
 30
0.0
 11
-35.87
 21
48.233007
 31
0.0
  0
LINE
  5
147
330
11C
100
AcDbEntity
  8
AM_9
100
AcDbLine
 10
-37.7
 20
49.19503
 30
0.0
 11
-35.87
 21
49.19503
 31
0.0
  0
LINE
  5
148
330
11C
100
AcDbEntity
  8
AM_9
100
AcDbLine
 10
-37.7
 20
46.16096
 30
0.0
 11
-35.87
 21
46.16096
 31
0.0
  0
LINE
  5
149
330
11C
100
AcDbEntity
  8
AM_9
100
AcDbLine
 10
-37.7
 20
46.60497
 30
0.0
 11
-35.87
 21
46.60497
 31
0.0
  0
LINE
  5
14A
330
11C
100
AcDbEntity
  8
AM_9
100
AcDbLine
 10
-35.87
 20
46.16096
 30
0.0
 11
-35.87
 21
49.63904
 31
0.0
  0
LINE
  5
14B
330
11C
100
AcDbEntity
  8
AM_9
100
AcDbLine
 10
-37.7
 20
49.63904
 30
0.0
 11
-35.87
 21
49.63904
 31
0.0
  0
LINE
  5
14C
330
11C
100
AcDbEntity
  8
AM_9
100
AcDbLine
 10
-16.47
 20
49.40512123821281
 30
0.0
 11
-18.3
 21
49.40512123821281
 31
0.0
  0
LINE
  5
14D
330
11C
100
AcDbEntity
  8
AM_9
100
AcDbLine
 10
-18.3
 20
52.40000000000001
 30
0.0
 11
-16.47
 21
52.40000000000001
 31
0.0
  0
LINE
  5
14E
330
11C
100
AcDbEntity
  8
AM_9
100
AcDbLine
 10
-18.3
 20
-49.40512123821282
 30
0.0
 11
-16.47
 21
-49.40512123821281
 31
0.0
  0
LINE
  5
14F
330
11C
100
AcDbEntity
  8
AM_9
100
AcDbLine
 10
-18.3
 20
-52.40000000000001
 30
0.0
 11
-16.47
 21
-52.40000000000001
 31
0.0
  0
LINE
  5
150
330
11C
100
AcDbEntity
  8
AM_9
100
AcDbLine
 10
0.0
 20
42.5
 30
0.0
 11
-37.7
 21
42.5
 31
0.0
  0
LINE
  5
151
330
11C
100
AcDbEntity
  8
AM_9
100
AcDbLine
 10
-37.7
 20
-42.5
 30
0.0
 11
0.0
 21
-42.5
 31
0.0
  0
LINE
  5
152
330
11C
100
AcDbEntity
  8
AM_9
100
AcDbLine
 10
-16.47
 20
68.25
 30
0.0
 11
-16.47
 21
49.40512123821281
 31
0.0
  0
LINE
  5
153
330
11C
100
AcDbEntity
  8
AM_9
100
AcDbLine
 10
-16.47
 20
-49.40512123821281
 30
0.0
 11
-16.47
 21
-68.25
 31
0.0
  0
LINE
  5
154
330
11C
100
AcDbEntity
  8
AM_9
100
AcDbLine
 10
-18.3
 20
-58.8
 30
0.0
 11
-0.0000000000000003
 21
-58.8
 31
0.0
  0
LINE
  5
155
330
11C
100
AcDbEntity
  8
AM_9
100
AcDbLine
 10
-0.0000000000000003
 20
-46.0
 30
0.0
 11
-18.3
 21
-46.0
 31
0.0
  0
LINE
  5
156
330
11C
100
AcDbEntity
  8
AM_9
100
AcDbLine
 10
-18.3
 20
46.0
 30
0.0
 11
-0.0000000000000003
 21
46.0
 31
0.0
  0
LINE
  5
157
330
11C
100
AcDbEntity
  8
AM_9
100
AcDbLine
 10
-0.0000000000000003
 20
58.8
 30
0.0
 11
-18.3
 21
58.8
 31
0.0
  0
LINE
  5
158
330
11C
100
AcDbEntity
  8
AM_7
100
AcDbLine
 10
0.9607499999999896
 20
52.40000000000001
 30
0.0
 11
-20.17575
 21
52.40000000000001
 31
0.0
  0
LINE
  5
159
330
11C
100
AcDbEntity
  8
AM_7
100
AcDbLine
 10
0.9607499999999896
 20
-52.40000000000001
 30
0.0
 11
-20.17575
 21
-52.40000000000001
 31
0.0
  0
LINE
  5
15A
330
11C
100
AcDbEntity
  8
AM_7
100
AcDbLine
 10
-55.94
 20
0.0
 30
0.0
 11
1.885
 21
0.0
 31
0.0
  0
LINE
  5
15B
330
11C
100
AcDbEntity
  8
AM_7
100
AcDbLine
 10
-28.0
 20
61.85000000000001
 30
0.0
 11
-28.0
 21
51.95
 31
0.0
  0
LINE
  5
15C
330
11C
100
AcDbEntity
  8
AM_0
100
AcDbLine
 10
-32.0
 20
52.90000000000001
 30
0.0
 11
-24.0
 21
52.90000000000001
 31
0.0
  0
LINE
  5
15D
330
11C
100
AcDbEntity
  8
AM_0
100
AcDbLine
 10
-24.0
 20
52.90000000000001
 30
0.0
 11
-23.38119784648299
 21
53.06580753730952
 31
0.0
  0
LINE
  5
15E
330
11C
100
AcDbEntity
  8
AM_0
100
AcDbLine
 10
-32.0
 20
55.9
 30
0.0
 11
-24.0
 21
55.9
 31
0.0
  0
LINE
  5
15F
330
11C
100
AcDbEntity
  8
AM_0
100
AcDbLine
 10
-23.38119784648299
 20
55.73419246269048
 30
0.0
 11
-24.0
 21
55.9
 31
0.0
  0
LINE
  5
160
330
11C
100
AcDbEntity
  8
AM_0
100
AcDbLine
 10
-32.61880215351701
 20
53.06580753730952
 30
0.0
 11
-32.0
 21
52.90000000000001
 31
0.0
  0
LINE
  5
161
330
11C
100
AcDbEntity
  8
AM_0
100
AcDbLine
 10
-32.0
 20
55.9
 30
0.0
 11
-32.61880215351701
 21
55.73419246269048
 31
0.0
  0
LINE
  5
162
330
11C
100
AcDbEntity
  8
AM_0
100
AcDbLine
 10
-29.66148351928655
 20
61.40000000000001
 30
0.0
 11
-26.33851653922216
 21
61.40000000000001
 31
0.0
  0
ARC
  5
163
330
11C
100
AcDbEntity
  8
AM_0
100
AcDbCircle
 10
-26.33851648071348
 20
60.89999999999996
 30
0.0
 40
0.5000000000000505
100
AcDbArc
 50
21.80140948635605
 51
89.99999999999632
  0
ARC
  5
164
330
11C
100
AcDbEntity
  8
AM_0
100
AcDbCircle
 10
-29.66148351928652
 20
60.89999999999996
 30
0.0
 40
0.5000000000000497
100
AcDbArc
 50
90.00000000000325
 51
158.1985905136439
  0
LINE
  5
166
330
11C
100
AcDbEntity
  8
AM_4
100
AcDbLine
 10
-30.12572186472918
 20
61.08569533817706
 30
0.0
 11
-25.87427813527082
 21
61.08569533817706
 31
0.0
  0
LINE
  5
167
330
11C
100
AcDbEntity
  8
AM_0
100
AcDbLine
 10
-30.12572186472918
 20
61.08569533817706
 30
0.0
 11
-30.66389026452834
 21
59.74027433867915
 31
0.0
  0
LINE
  5
168
330
11C
100
AcDbEntity
  8
AM_0
100
AcDbLine
 10
-25.33610973547166
 20
59.74027433867915
 30
0.0
 11
-25.87427813527082
 21
61.08569533817706
 31
0.0
  0
LINE
  5
169
330
11C
100
AcDbEntity
  8
AM_4
100
AcDbLine
 10
-30.66389026452834
 20
59.74027433867915
 30
0.0
 11
-25.33610973547166
 21
59.74027433867915
 31
0.0
  0
ARC
  5
16A
330
11C
100
AcDbEntity
  8
AM_0
100
AcDbCircle
 10
-25.80034808091427
 20
59.55457900050209
 30
0.0
 40
0.4999999999999805
100
AcDbArc
 50
314.1570851114418
 51
21.80140948635333
  0
ARC
  5
16B
330
11C
100
AcDbEntity
  8
AM_0
100
AcDbCircle
 10
-30.19965191908572
 20
59.55457900050209
 30
0.0
 40
0.4999999999999957
100
AcDbArc
 50
158.1985905136476
 51
225.8429148885564
  0
LINE
  5
16C
330
11C
100
AcDbEntity
  8
AM_4
100
AcDbLine
 10
-30.54796588754856
 20
59.19586270679122
 30
0.0
 11
-25.45203411245145
 21
59.19586270679122
 31
0.0
  0
ARC
  5
16D
330
11C
100
AcDbEntity
  8
AM_0
100
AcDbCircle
 10
-24.19375
 20
57.90000000000001
 30
0.0
 40
1.806249999999999
100
AcDbArc
 50
134.157080750995
 51
236.144973871706
  0
ARC
  5
16E
330
11C
100
AcDbEntity
  8
AM_0
100
AcDbCircle
 10
-31.80624999999998
 20
57.9
 30
0.0
 40
1.806249999999989
100
AcDbArc
 50
303.8550261282936
 51
45.84291924900563
  0
LINE
  5
16F
330
11C
100
AcDbEntity
  8
AM_0
100
AcDbLine
 10
-25.2
 20
52.40000000000001
 30
0.0
 11
-25.2
 21
52.90000000000001
 31
0.0
  0
LINE
  5
170
330
11C
100
AcDbEntity
  8
AM_0
100
AcDbLine
 10
-30.8
 20
52.90000000000001
 30
0.0
 11
-30.8
 21
52.40000000000001
 31
0.0
  0
LINE
  5
171
330
11C
100
AcDbEntity
  8
AM_0
100
AcDbLine
 10
-30.8
 20
56.4
 30
0.0
 11
-25.2
 21
56.4
 31
0.0
  0
LINE
  5
172
330
11C
100
AcDbEntity
  8
AM_0
100
AcDbLine
 10
-25.2
 20
55.9
 30
0.0
 11
-25.2
 21
56.4
 31
0.0
  0
LINE
  5
173
330
11C
100
AcDbEntity
  8
AM_0
100
AcDbLine
 10
-30.8
 20
56.4
 30
0.0
 11
-30.8
 21
55.9
 31
0.0
  0
LWPOLYLINE
  5
174
330
11C
100
AcDbEntity
  8
AM_0
100
AcDbPolyline
 90
        4
 70
     0
 43
0.0
 10
-25.6905989232415
 20
53.06580753730952
 10
-26.24986499154157
 20
52.99810059768898
 10
-27.12240228747063
 20
52.92549288656468
 10
-28.0
 20
52.90000000000001
  0
LWPOLYLINE
  5
175
330
11C
100
AcDbEntity
  8
AM_0
100
AcDbPolyline
 90
        3
 70
     0
 43
0.0
 10
-28.0
 20
52.90000000000001
 10
-29.15470053837925
 20
52.94376467721206
 10
-30.3094010767585
 20
53.06580753730952
  0
LWPOLYLINE
  5
176
330
11C
100
AcDbEntity
  8
AM_0
100
AcDbPolyline
 90
        4
 70
     0
 43
0.0
 10
-28.0
 20
55.9
 10
-27.12493249577078
 20
55.87465220346891
 10
-26.24986499154156
 20
55.80189940231102
 10
-25.6905989232415
 20
55.73419246269048
  0
LINE
  5
177
330
11C
100
AcDbEntity
  8
AM_0
100
AcDbLine
 10
-23.38119784648299
 20
55.73419246269048
 30
0.0
 11
-23.38119784648299
 21
53.06580753730952
 31
0.0
  0
LWPOLYLINE
  5
178
330
11C
100
AcDbEntity
  8
AM_0
100
AcDbPolyline
 90
        3
 70
     0
 43
0.0
 10
-24.53589838486225
 20
55.9
 10
-23.95854811567262
 20
55.85623532278794
 10
-23.38119784648299
 20
55.73419246269048
  0
LWPOLYLINE
  5
179
330
11C
100
AcDbEntity
  8
AM_0
100
AcDbPolyline
 90
        3
 70
     0
 43
0.0
 10
-25.6905989232415
 20
55.73419246269048
 10
-25.11584457632681
 20
55.85584868663552
 10
-24.53589838486225
 20
55.9
  0
LINE
  5
17A
330
11C
100
AcDbEntity
  8
AM_0
100
AcDbLine
 10
-25.6905989232415
 20
55.73419246269048
 30
0.0
 11
-25.6905989232415
 21
53.06580753730952
 31
0.0
  0
LWPOLYLINE
  5
17B
330
11C
100
AcDbEntity
  8
AM_0
100
AcDbPolyline
 90
        3
 70
     0
 43
0.0
 10
-24.53589838486224
 20
52.90000000000001
 10
-25.11324865405187
 20
52.94376467721206
 10
-25.6905989232415
 20
53.06580753730952
  0
LWPOLYLINE
  5
17C
330
11C
100
AcDbEntity
  8
AM_0
100
AcDbPolyline
 90
        3
 70
     0
 43
0.0
 10
-23.38119784648299
 20
53.06580753730952
 10
-23.95595219339768
 20
52.94415131336448
 10
-24.53589838486224
 20
52.90000000000001
  0
LWPOLYLINE
  5
17D
330
11C
100
AcDbEntity
  8
AM_0
100
AcDbPolyline
 90
        3
 70
     0
 43
0.0
 10
-30.3094010767585
 20
55.73419246269048
 10
-29.15989238292913
 20
55.85584868663552
 10
-28.0
 20
55.9
  0
LINE
  5
17E
330
11C
100
AcDbEntity
  8
AM_0
100
AcDbLine
 10
-30.3094010767585
 20
55.73419246269048
 30
0.0
 11
-30.3094010767585
 21
53.06580753730952
 31
0.0
  0
LWPOLYLINE
  5
17F
330
11C
100
AcDbEntity
  8
AM_0
100
AcDbPolyline
 90
        3
 70
     0
 43
0.0
 10
-31.46410161513775
 20
55.9
 10
-30.88675134594813
 20
55.85623532278794
 10
-30.3094010767585
 20
55.73419246269048
  0
LWPOLYLINE
  5
180
330
11C
100
AcDbEntity
  8
AM_0
100
AcDbPolyline
 90
        3
 70
     0
 43
0.0
 10
-32.61880215351701
 20
55.73419246269048
 10
-32.04404780660232
 20
55.85584868663552
 10
-31.46410161513775
 20
55.9
  0
LINE
  5
181
330
11C
100
AcDbEntity
  8
AM_0
100
AcDbLine
 10
-32.61880215351701
 20
55.73419246269048
 30
0.0
 11
-32.61880215351701
 21
53.06580753730952
 31
0.0
  0
LWPOLYLINE
  5
182
330
11C
100
AcDbEntity
  8
AM_0
100
AcDbPolyline
 90
        3
 70
     0
 43
0.0
 10
-31.46410161513775
 20
52.90000000000001
 10
-32.04145188432738
 20
52.94376467721206
 10
-32.61880215351701
 20
53.06580753730952
  0
LWPOLYLINE
  5
183
330
11C
100
AcDbEntity
  8
AM_0
100
AcDbPolyline
 90
        3
 70
     0
 43
0.0
 10
-30.3094010767585
 20
53.06580753730952
 10
-30.88415542367319
 20
52.94415131336448
 10
-31.46410161513775
 20
52.90000000000001
  0
LINE
  5
184
330
11C
100
AcDbEntity
  8
AM_0
100
AcDbLine
 10
-37.7
 20
52.40000000000001
 30
0.0
 11
-18.3
 21
52.40000000000001
 31
0.0
  0
LINE
  5
185
330
11C
100
AcDbEntity
  8
AM_0
100
AcDbLine
 10
-37.7
 20
-52.40000000000001
 30
0.0
 11
-18.3
 21
-52.40000000000001
 31
0.0
  0
LINE
  5
186
330
11C
100
AcDbEntity
  8
AM_4
100
AcDbLine
 10
-37.7
 20
46.26095813367004
 30
0.0
 11
-18.3
 21
46.26095813367004
 31
0.0
  0
LINE
  5
187
330
11C
100
AcDbEntity
  8
AM_4
100
AcDbLine
 10
-37.7
 20
-46.26095813367004
 30
0.0
 11
-18.3
 21
-46.26095813367004
 31
0.0
  0
LINE
  5
188
330
11C
100
AcDbEntity
  8
AM_0
100
AcDbLine
 10
-37.7
 20
-52.40000000000001
 30
0.0
 11
-37.7
 21
52.40000000000001
 31
0.0
  0
LINE
  5
189
330
11C
100
AcDbEntity
  8
AM_4
100
AcDbLine
 10
-37.7
 20
32.33904186632998
 30
0.0
 11
-18.3
 21
32.33904186632998
 31
0.0
  0
LINE
  5
18A
330
11C
100
AcDbEntity
  8
AM_4
100
AcDbLine
 10
-37.7
 20
17.51808373265992
 30
0.0
 11
-16.47
 21
17.51808373265992
 31
0.0
  0
LINE
  5
18B
330
11C
100
AcDbEntity
  8
AM_4
100
AcDbLine
 10
-37.7
 20
-17.51808373265993
 30
0.0
 11
-16.47
 21
-17.51808373265993
 31
0.0
  0
LINE
  5
18C
330
11C
100
AcDbEntity
  8
AM_4
100
AcDbLine
 10
-37.7
 20
-32.33904186632996
 30
0.0
 11
-18.3
 21
-32.33904186632996
 31
0.0
  0
LINE
  5
18D
330
11C
100
AcDbEntity
  8
AM_0
100
AcDbLine
 10
-18.3
 20
-68.25
 30
0.0
 11
0.0000000000000037
 21
-68.25
 31
0.0
  0
LINE
  5
18E
330
11C
100
AcDbEntity
  8
AM_0
100
AcDbLine
 10
0.0000000000000037
 20
-68.25
 30
0.0
 11
0.0000000000000037
 21
68.25
 31
0.0
  0
LINE
  5
18F
330
11C
100
AcDbEntity
  8
AM_0
100
AcDbLine
 10
-18.3
 20
68.25
 30
0.0
 11
0.0000000000000037
 21
68.25
 31
0.0
  0
LINE
  5
190
330
11C
100
AcDbEntity
  8
AM_0
100
AcDbLine
 10
-18.3
 20
28.3151212382128
 30
0.0
 11
-18.3
 21
68.25
 31
0.0
  0
LINE
  5
191
330
11C
100
AcDbEntity
  8
AM_0
100
AcDbLine
 10
-18.3
 20
28.3151212382128
 30
0.0
 11
-16.47
 21
28.3151212382128
 31
0.0
  0
LINE
  5
192
330
11C
100
AcDbEntity
  8
AM_0
100
AcDbLine
 10
-16.47
 20
-28.31512123821281
 30
0.0
 11
-18.3
 21
-28.31512123821281
 31
0.0
  0
LINE
  5
193
330
11C
100
AcDbEntity
  8
AM_0
100
AcDbLine
 10
-18.3
 20
-68.25
 30
0.0
 11
-18.3
 21
-28.31512123821281
 31
0.0
  0
LINE
  5
194
330
11C
100
AcDbEntity
  8
AM_0
100
AcDbLine
 10
-16.47
 20
-47.16
 30
0.0
 11
-16.47
 21
47.16
 31
0.0
  0
LINE
  5
195
330
11C
100
AcDbEntity
  8
AM_0
100
AcDbLine
 10
-16.47
 20
-47.16
 30
0.0
 11
-18.3
 21
-47.16
 31
0.0
  0
LINE
  5
196
330
11C
100
AcDbEntity
  8
AM_0
100
AcDbLine
 10
-18.3
 20
-60.325
 30
0.0
 11
0.0000000000000042
 21
-60.325
 31
0.0
  0
LINE
  5
197
330
11C
100
AcDbEntity
  8
AM_0
100
AcDbLine
 10
-18.3
 20
60.325
 30
0.0
 11
0.0000000000000042
 21
60.325
 31
0.0
  0
LINE
  5
198
330
11C
100
AcDbEntity
  8
AM_0
100
AcDbLine
 10
-16.47
 20
47.16
 30
0.0
 11
-18.3
 21
47.16
 31
0.0
  0
ENDBLK
  5
11F
330
11C
100
AcDbEntity
  8
0
100
AcDbBlockEnd
  0
ENDSEC
  0
SECTION
  2
ENTITIES
  0
ATTDEF
  5
6F
330
1F
100
AcDbEntity
  8
AM_6
100
AcDbText
 10
6.885
 20
68.25
 30
0.0
 40
0.5
  1
Grip Tight EZ Kleen Polymer Housed Four Bolt Flange Metric Bore
100
AcDbAttributeDefinition
  3

  2
NN
 70
     8
280
     0
  0
ATTDEF
  5
70
330
1F
100
AcDbEntity
  8
AM_6
100
AcDbText
 10
6.885
 20
67.75
 30
0.0
 40
0.5
  1
GTEZ Normal Duty Polymer Housed 4 Bolt Flange Bearings
100
AcDbAttributeDefinition
  3

  2
NT
 70
     8
280
     0
  0
ATTDEF
  5
71
330
1F
100
AcDbEntity
  8
AM_6
100
AcDbText
 10
6.885
 20
67.25
 30
0.0
 40
0.5
  1
129705
100
AcDbAttributeDefinition
  3

  2
NB
 70
     8
280
     0
  0
ATTDEF
  5
72
330
1F
100
AcDbEntity
  8
AM_6
100
AcDbText
 10
6.885
 20
66.75
 30
0.0
 40
0.5
  1
$PN.$LUBE.
100
AcDbAttributeDefinition
  3

  2
NBSYN
 70
     8
280
     0
  0
ATTDEF
  5
73
330
1F
100
AcDbEntity
  8
AM_6
100
AcDbText
 10
6.885
 20
66.25
 30
0.0
 40
0.5
  1
129705
100
AcDbAttributeDefinition
  3

  2
LINA
 70
     8
280
     0
  0
ATTDEF
  5
74
330
1F
100
AcDbEntity
  8
AM_6
100
AcDbText
 10
6.885
 20
65.75
 30
0.0
 40
0.5
  1
209
100
AcDbAttributeDefinition
  3

  2
SERIES
 70
     8
280
     0
  0
ATTDEF
  5
75
330
1F
100
AcDbEntity
  8
AM_6
100
AcDbText
 10
6.885
 20
65.25
 30
0.0
 40
0.5
  1
45
100
AcDbAttributeDefinition
  3

  2
SS
 70
     8
280
     0
  0
ATTDEF
  5
76
330
1F
100
AcDbEntity
  8
AM_6
100
AcDbText
 10
6.885
 20
64.75
 30
0.0
 40
0.5
  1
129705
100
AcDbAttributeDefinition
  3

  2
PN
 70
     8
280
     0
  0
ATTDEF
  5
77
330
1F
100
AcDbEntity
  8
AM_6
100
AcDbText
 10
6.885
 20
64.25
 30
0.0
 40
0.5
  1
F4B-GTEZ-45M-PCR
100
AcDbAttributeDefinition
  3

  2
DESCRIPTION
 70
     8
280
     0
  0
ATTDEF
  5
78
330
1F
100
AcDbEntity
  8
AM_6
100
AcDbText
 10
6.885
 20
63.75
 30
0.0
 40
0.5
  1
46.8
100
AcDbAttributeDefinition
  3

  2
A
 70
     8
280
     0
  0
ATTDEF
  5
79
330
1F
100
AcDbEntity
  8
AM_6
100
AcDbText
 10
6.885
 20
63.25
 30
0.0
 40
0.5
  1
136.5
100
AcDbAttributeDefinition
  3

  2
B
 70
     8
280
     0
  0
ATTDEF
  5
7A
330
1F
100
AcDbEntity
  8
AM_6
100
AcDbText
 10
6.885
 20
62.75
 30
0.0
 40
0.5
  1
53.6
100
AcDbAttributeDefinition
  3

  2
C
 70
     8
280
     0
  0
ATTDEF
  5
7B
330
1F
100
AcDbEntity
  8
AM_6
100
AcDbText
 10
6.885
 20
62.25
 30
0.0
 40
0.5
  1
104.8
100
AcDbAttributeDefinition
  3

  2
D
 70
     8
280
     0
  0
ATTDEF
  5
7C
330
1F
100
AcDbEntity
  8
AM_6
100
AcDbText
 10
6.885
 20
61.75
 30
0.0
 40
0.5
  1
M14
100
AcDbAttributeDefinition
  3

  2
F
 70
     8
280
     0
  0
ATTDEF
  5
7D
330
1F
100
AcDbEntity
  8
AM_6
100
AcDbText
 10
6.885
 20
61.25
 30
0.0
 40
0.5
  1
18.3
100
AcDbAttributeDefinition
  3

  2
H
 70
     8
280
     0
  0
ATTDEF
  5
7E
330
1F
100
AcDbEntity
  8
AM_6
100
AcDbText
 10
6.885
 20
60.75
 30
0.0
 40
0.5
  1
15.1
100
AcDbAttributeDefinition
  3

  2
J
 70
     8
280
     0
  0
ATTDEF
  5
7F
330
1F
100
AcDbEntity
  8
AM_6
100
AcDbText
 10
6.885
 20
60.25
 30
0.0
 40
0.5
  1
67.9
100
AcDbAttributeDefinition
  3

  2
L
 70
     8
280
     0
  0
ATTDEF
  5
80
330
1F
100
AcDbEntity
  8
AM_6
100
AcDbText
 10
6.885
 20
59.75
 30
0.0
 40
0.5
  1
52.8
100
AcDbAttributeDefinition
  3

  2
Z
 70
     8
280
     0
  0
ATTDEF
  5
81
330
1F
100
AcDbEntity
  8
AM_6
100
AcDbText
 10
6.885
 20
59.25
 30
0.0
 40
0.5
  1
f4b_gtez_templ.prj
100
AcDbAttributeDefinition
  3

  2
PPATH
 70
     8
280
     0
  0
ATTDEF
  5
82
330
1F
100
AcDbEntity
  8
AM_6
100
AcDbText
 10
6.885
 20
58.75
 30
0.0
 40
0.5
  1
baldor
100
AcDbAttributeDefinition
  3

  2
COMPANY
 70
     8
280
     0
  0
INSERT
  5
84
330
1F
100
AcDbEntity
  8
0
100
AcDbBlockReference
  2
1_INS_GT_09_CR_0_in_129705_2
 10
0.0
 20
0.0
 30
0.0
  0
INSERT
  5
C9
330
1F
100
AcDbEntity
  8
0
100
AcDbBlockReference
  2
2_129985_0_in_129705_2
 10
0.0
 20
0.0
 30
0.0
  0
INSERT
  5
11D
330
1F
100
AcDbEntity
  8
0
100
AcDbBlockReference
  2
3_F4B_GTEZ_09_PCR_0_in_129705_2
 10
0.0
 20
0.0
 30
0.0
  0
POINT
  5
19A
330
1F
100
AcDbEntity
  8
ConnectionPoints
100
AcDbPoint
 10
-23.5
 20
0.0
 30
0.0000000000000035
  0
POINT
  5
19B
330
1F
100
AcDbEntity
  8
ConnectionPoints
100
AcDbPoint
 10
-6.800000000000004
 20
0.0
 30
0.0000000000000025
  0
POINT
  5
19C
330
1F
100
AcDbEntity
  8
ConnectionPoints
100
AcDbPoint
 10
-6.800000000000004
 20
0.0
 30
0.0000000000000004
  0
ENDSEC
  0
SECTION
  2
OBJECTS
  0
DICTIONARY
  5
C
330
0
100
AcDbDictionary
281
     1
  3
ACAD_DETAILVIEWSTYLE
350
1A4
  3
ACAD_GROUP
350
D
  3
ACAD_LAYOUT
350
1A
  3
ACAD_MATERIAL
350
43
  3
ACAD_MLEADERSTYLE
350
6B
  3
ACAD_MLINESTYLE
350
17
  3
ACAD_PLOTSETTINGS
350
19
  3
ACAD_PLOTSTYLENAME
350
E
  3
ACAD_SCALELIST
350
47
  3
ACAD_SECTIONVIEWSTYLE
350
1A5
  3
ACAD_TABLESTYLE
350
69
  3
ACAD_VISUALSTYLE
350
2A
  3
ACDB_RECOMPOSE_DATA
350
1A1
  3
AcDbVariableDictionary
350
19D
  0
SUN
  5
6D
330
29
100
AcDbSun
 90
        1
290
     0
 63
     7
421
 16777215
 40
1.0
291
     1
 91
  2455826
 92
 54000000
292
     0
 70
     2
 71
   256
280
     1
  0
DICTIONARY
  5
1A4
102
{ACAD_REACTORS
330
C
102
}
330
C
100
AcDbDictionary
281
     1
  0
DICTIONARY
  5
D
102
{ACAD_REACTORS
330
C
102
}
330
C
100
AcDbDictionary
281
     1
  0
DICTIONARY
  5
1A
102
{ACAD_REACTORS
330
C
102
}
330
C
100
AcDbDictionary
281
     1
  3
Layout1
350
1E
  3
Layout2
350
26
  3
Model
350
22
  0
DICTIONARY
  5
43
102
{ACAD_REACTORS
330
C
102
}
330
C
100
AcDbDictionary
281
     1
  3
ByBlock
350
45
  3
ByLayer
350
44
  3
Global
350
46
  0
DICTIONARY
  5
6B
102
{ACAD_REACTORS
330
C
102
}
330
C
100
AcDbDictionary
281
     1
  3
Standard
350
6C
  0
DICTIONARY
  5
17
102
{ACAD_REACTORS
330
C
102
}
330
C
100
AcDbDictionary
281
     1
  3
Standard
350
18
  0
DICTIONARY
  5
19
102
{ACAD_REACTORS
330
C
102
}
330
C
100
AcDbDictionary
281
     1
  0
ACDBDICTIONARYWDFLT
  5
E
102
{ACAD_REACTORS
330
C
102
}
330
C
100
AcDbDictionary
281
     1
  3
Normal
350
F
100
AcDbDictionaryWithDefault
340
F
  0
DICTIONARY
  5
47
102
{ACAD_REACTORS
330
C
102
}
330
C
100
AcDbDictionary
281
     1
  3
A0
350
48
  3
A1
350
49
  3
A2
350
4A
  3
A3
350
4B
  3
A4
350
4C
  3
A5
350
4D
  3
A6
350
4E
  3
A7
350
4F
  3
A8
350
50
  3
A9
350
51
  3
B0
350
52
  3
B1
350
53
  3
B2
350
54
  3
B3
350
55
  3
B4
350
56
  3
B5
350
57
  3
B6
350
58
  3
B7
350
59
  3
B8
350
5A
  3
B9
350
5B
  3
C0
350
5C
  3
C1
350
5D
  3
C2
350
5E
  3
C3
350
5F
  3
C4
350
60
  3
C5
350
61
  3
C6
350
62
  3
C7
350
63
  3
C8
350
64
  3
C9
350
65
  3
D0
350
66
  3
D1
350
67
  3
D2
350
68
  0
DICTIONARY
  5
1A5
102
{ACAD_REACTORS
330
C
102
}
330
C
100
AcDbDictionary
281
     1
  0
DICTIONARY
  5
69
102
{ACAD_REACTORS
330
C
102
}
330
C
100
AcDbDictionary
281
     1
  3
Standard
350
6A
  0
DICTIONARY
  5
2A
102
{ACAD_REACTORS
330
C
102
}
330
C
100
AcDbDictionary
281
     1
  3
2dWireframe
350
2F
  3
Basic
350
32
  3
Brighten
350
36
  3
ColorChange
350
3A
  3
Conceptual
350
34
  3
Dim
350
35
  3
EdgeColorOff
350
3D
  3
Facepattern
350
39
  3
Flat
350
2B
  3
FlatWithEdges
350
2C
  3
Gouraud
350
2D
  3
GouraudWithEdges
350
2E
  3
Hidden
350
31
  3
JitterOff
350
3B
  3
Linepattern
350
38
  3
OverhangOff
350
3C
  3
Realistic
350
33
  3
Shaded
350
42
  3
Shaded with edges
350
41
  3
Shades of Gray
350
3E
  3
Sketchy
350
3F
  3
Thicken
350
37
  3
Wireframe
350
30
  3
X-Ray
350
40
  0
XRECORD
  5
1A1
102
{ACAD_REACTORS
330
C
102
}
330
C
100
AcDbXrecord
280
     1
 90
        1
330
6A
  0
DICTIONARY
  5
19D
102
{ACAD_REACTORS
330
C
102
}
330
C
100
AcDbDictionary
281
     1
  3
CANNOSCALE
350
19E
  3
CMLEADERSTYLE
350
1A3
  3
CTABLESTYLE
350
1A2
  3
SECTIONTHICKNESSINC
350
1A6
  0
LAYOUT
  5
1E
102
{ACAD_REACTORS
330
1A
102
}
330
1A
100
AcDbPlotSettings
  1

  2
none_device
  4

  6

 40
0.0
 41
0.0
 42
0.0
 43
0.0
 44
0.0
 45
0.0
 46
0.0
 47
0.0
 48
0.0
 49
0.0
140
0.0
141
0.0
142
1.0
143
1.0
 70
   688
 72
     1
 73
     0
 74
     5
  7

 75
    16
 76
     0
 77
     2
 78
   300
147
1.0
148
0.0
149
0.0
100
AcDbLayout
  1
Layout1
 70
     1
 71
     1
 10
0.0
 20
0.0
 11
420.0
 21
297.0
 12
0.0
 22
0.0
 32
0.0
 14
1.000000000000000E+20
 24
1.000000000000000E+20
 34
1.000000000000000E+20
 15
-1.000000000000000E+20
 25
-1.000000000000000E+20
 35
-1.000000000000000E+20
146
0.0
 13
0.0
 23
0.0
 33
0.0
 16
1.0
 26
0.0
 36
0.0
 17
0.0
 27
1.0
 37
0.0
 76
     0
330
1B
  0
LAYOUT
  5
26
102
{ACAD_REACTORS
330
1A
102
}
330
1A
100
AcDbPlotSettings
  1

  2
none_device
  4

  6

 40
0.0
 41
0.0
 42
0.0
 43
0.0
 44
0.0
 45
0.0
 46
0.0
 47
0.0
 48
0.0
 49
0.0
140
0.0
141
0.0
142
1.0
143
1.0
 70
   688
 72
     1
 73
     0
 74
     5
  7

 75
    16
 76
     0
 77
     2
 78
   300
147
1.0
148
0.0
149
0.0
100
AcDbLayout
  1
Layout2
 70
     1
 71
     2
 10
0.0
 20
0.0
 11
0.0
 21
0.0
 12
0.0
 22
0.0
 32
0.0
 14
0.0
 24
0.0
 34
0.0
 15
0.0
 25
0.0
 35
0.0
146
0.0
 13
0.0
 23
0.0
 33
0.0
 16
1.0
 26
0.0
 36
0.0
 17
0.0
 27
1.0
 37
0.0
 76
     0
330
23
  0
LAYOUT
  5
22
102
{ACAD_REACTORS
330
1A
102
}
330
1A
100
AcDbPlotSettings
  1

  2
none_device
  4
Letter_(8.50_x_11.00_Inches)
  6

 40
6.35
 41
6.35
 42
6.35000508
 43
6.35000508
 44
215.9
 45
279.4
 46
0.0
 47
0.0
 48
0.0
 49
0.0
140
0.0
141
0.0
142
1.0
143
1.0
 70
  1712
 72
     1
 73
     0
 74
     0
  7

 75
     0
 76
     0
 77
     2
 78
   300
147
1.0
148
0.0
149
0.0
100
AcDbLayout
  1
Model
 70
     1
 71
     0
 10
0.0
 20
0.0
 11
420.0
 21
297.0
 12
0.0
 22
0.0
 32
0.0
 14
1.000000000000000E+20
 24
1.000000000000000E+20
 34
1.000000000000000E+20
 15
-1.000000000000000E+20
 25
-1.000000000000000E+20
 35
-1.000000000000000E+20
146
0.0
 13
0.0
 23
0.0
 33
0.0
 16
1.0
 26
0.0
 36
0.0
 17
0.0
 27
1.0
 37
0.0
 76
     0
330
1F
331
29
  0
MATERIAL
  5
45
102
{ACAD_REACTORS
330
43
102
}
330
43
100
AcDbMaterial
  1
ByBlock
 72
     1
 94
      127
  0
MATERIAL
  5
44
102
{ACAD_REACTORS
330
43
102
}
330
43
100
AcDbMaterial
  1
ByLayer
 72
     1
 94
      127
  0
MATERIAL
  5
46
102
{ACAD_REACTORS
330
43
102
}
330
43
100
AcDbMaterial
  1
Global
 72
     1
 94
      127
  0
MLEADERSTYLE
  5
6C
102
{ACAD_REACTORS
330
6B
102
}
330
6B
100
AcDbMLeaderStyle
179
     2
170
     2
171
     1
172
     0
 90
        2
 40
0.0
 41
0.0
173
     1
 91
-1056964608
340
14
 92
       -2
290
     1
 42
2.0
291
     1
 43
8.0
  3
Standard
341
0
 44
4.0
300

342
11
174
     1
178
     6
175
     1
176
     0
 93
-1056964608
 45
4.0
292
     0
297
     0
 46
4.0
343
0
 94
-1056964608
 47
1.0
 49
1.0
140
1.0
293
     1
141
0.0
294
     1
177
     0
142
1.0
295
     0
296
     0
143
3.75
271
     0
272
     9
273
     9
298
     0
  0
MLINESTYLE
  5
18
102
{ACAD_REACTORS
330
17
102
}
330
17
100
AcDbMlineStyle
  2
Standard
 70
     0
  3

 62
   256
 51
90.0
 52
90.0
 71
     2
 49
0.5
 62
   256
  6
BYLAYER
 49
-0.5
 62
   256
  6
BYLAYER
  0
ACDBPLACEHOLDER
  5
F
102
{ACAD_REACTORS
330
E
102
}
330
E
  0
SCALE
  5
48
102
{ACAD_REACTORS
330
47
102
}
330
47
100
AcDbScale
 70
     0
300
1:1
140
1.0
141
1.0
290
     1
  0
SCALE
  5
49
102
{ACAD_REACTORS
330
47
102
}
330
47
100
AcDbScale
 70
     0
300
1:2
140
1.0
141
2.0
290
     0
  0
SCALE
  5
4A
102
{ACAD_REACTORS
330
47
102
}
330
47
100
AcDbScale
 70
     0
300
1:4
140
1.0
141
4.0
290
     0
  0
SCALE
  5
4B
102
{ACAD_REACTORS
330
47
102
}
330
47
100
AcDbScale
 70
     0
300
1:5
140
1.0
141
5.0
290
     0
  0
SCALE
  5
4C
102
{ACAD_REACTORS
330
47
102
}
330
47
100
AcDbScale
 70
     0
300
1:8
140
1.0
141
8.0
290
     0
  0
SCALE
  5
4D
102
{ACAD_REACTORS
330
47
102
}
330
47
100
AcDbScale
 70
     0
300
1:10
140
1.0
141
10.0
290
     0
  0
SCALE
  5
4E
102
{ACAD_REACTORS
330
47
102
}
330
47
100
AcDbScale
 70
     0
300
1:16
140
1.0
141
16.0
290
     0
  0
SCALE
  5
4F
102
{ACAD_REACTORS
330
47
102
}
330
47
100
AcDbScale
 70
     0
300
1:20
140
1.0
141
20.0
290
     0
  0
SCALE
  5
50
102
{ACAD_REACTORS
330
47
102
}
330
47
100
AcDbScale
 70
     0
300
1:30
140
1.0
141
30.0
290
     0
  0
SCALE
  5
51
102
{ACAD_REACTORS
330
47
102
}
330
47
100
AcDbScale
 70
     0
300
1:40
140
1.0
141
40.0
290
     0
  0
SCALE
  5
52
102
{ACAD_REACTORS
330
47
102
}
330
47
100
AcDbScale
 70
     0
300
1:50
140
1.0
141
50.0
290
     0
  0
SCALE
  5
53
102
{ACAD_REACTORS
330
47
102
}
330
47
100
AcDbScale
 70
     0
300
1:100
140
1.0
141
100.0
290
     0
  0
SCALE
  5
54
102
{ACAD_REACTORS
330
47
102
}
330
47
100
AcDbScale
 70
     0
300
2:1
140
2.0
141
1.0
290
     0
  0
SCALE
  5
55
102
{ACAD_REACTORS
330
47
102
}
330
47
100
AcDbScale
 70
     0
300
4:1
140
4.0
141
1.0
290
     0
  0
SCALE
  5
56
102
{ACAD_REACTORS
330
47
102
}
330
47
100
AcDbScale
 70
     0
300
8:1
140
8.0
141
1.0
290
     0
  0
SCALE
  5
57
102
{ACAD_REACTORS
330
47
102
}
330
47
100
AcDbScale
 70
     0
300
10:1
140
10.0
141
1.0
290
     0
  0
SCALE
  5
58
102
{ACAD_REACTORS
330
47
102
}
330
47
100
AcDbScale
 70
     0
300
100:1
140
100.0
141
1.0
290
     0
  0
SCALE
  5
59
102
{ACAD_REACTORS
330
47
102
}
330
47
100
AcDbScale
 70
     0
300
1/128" = 1'-0"
140
0.0078125
141
12.0
290
     0
  0
SCALE
  5
5A
102
{ACAD_REACTORS
330
47
102
}
330
47
100
AcDbScale
 70
     0
300
1/64" = 1'-0"
140
0.015625
141
12.0
290
     0
  0
SCALE
  5
5B
102
{ACAD_REACTORS
330
47
102
}
330
47
100
AcDbScale
 70
     0
300
1/32" = 1'-0"
140
0.03125
141
12.0
290
     0
  0
SCALE
  5
5C
102
{ACAD_REACTORS
330
47
102
}
330
47
100
AcDbScale
 70
     0
300
1/16" = 1'-0"
140
0.0625
141
12.0
290
     0
  0
SCALE
  5
5D
102
{ACAD_REACTORS
330
47
102
}
330
47
100
AcDbScale
 70
     0
300
3/32" = 1'-0"
140
0.09375
141
12.0
290
     0
  0
SCALE
  5
5E
102
{ACAD_REACTORS
330
47
102
}
330
47
100
AcDbScale
 70
     0
300
1/8" = 1'-0"
140
0.125
141
12.0
290
     0
  0
SCALE
  5
5F
102
{ACAD_REACTORS
330
47
102
}
330
47
100
AcDbScale
 70
     0
300
3/16" = 1'-0"
140
0.1875
141
12.0
290
     0
  0
SCALE
  5
60
102
{ACAD_REACTORS
330
47
102
}
330
47
100
AcDbScale
 70
     0
300
1/4" = 1'-0"
140
0.25
141
12.0
290
     0
  0
SCALE
  5
61
102
{ACAD_REACTORS
330
47
102
}
330
47
100
AcDbScale
 70
     0
300
3/8" = 1'-0"
140
0.375
141
12.0
290
     0
  0
SCALE
  5
62
102
{ACAD_REACTORS
330
47
102
}
330
47
100
AcDbScale
 70
     0
300
1/2" = 1'-0"
140
0.5
141
12.0
290
     0
  0
SCALE
  5
63
102
{ACAD_REACTORS
330
47
102
}
330
47
100
AcDbScale
 70
     0
300
3/4" = 1'-0"
140
0.75
141
12.0
290
     0
  0
SCALE
  5
64
102
{ACAD_REACTORS
330
47
102
}
330
47
100
AcDbScale
 70
     0
300
1" = 1'-0"
140
1.0
141
12.0
290
     0
  0
SCALE
  5
65
102
{ACAD_REACTORS
330
47
102
}
330
47
100
AcDbScale
 70
     0
300
1-1/2" = 1'-0"
140
1.5
141
12.0
290
     0
  0
SCALE
  5
66
102
{ACAD_REACTORS
330
47
102
}
330
47
100
AcDbScale
 70
     0
300
3" = 1'-0"
140
3.0
141
12.0
290
     0
  0
SCALE
  5
67
102
{ACAD_REACTORS
330
47
102
}
330
47
100
AcDbScale
 70
     0
300
6" = 1'-0"
140
6.0
141
12.0
290
     0
  0
SCALE
  5
68
102
{ACAD_REACTORS
330
47
102
}
330
47
100
AcDbScale
 70
     0
300
1'-0" = 1'-0"
140
12.0
141
12.0
290
     0
  0
TABLESTYLE
  5
6A
102
{ACAD_REACTORS
330
69
102
}
102
{ACAD_XDICTIONARY
360
19F
102
}
330
69
100
AcDbTableStyle
  3
Standard
 70
     0
 71
     0
 40
0.06
 41
0.06
280
     0
281
     0
  7
Standard
140
4.5
170
     2
 62
     0
 63
   257
283
     0
 90
        4
 91
        0
  1

274
    -2
284
     1
 64
     0
275
    -2
285
     1
 65
     0
276
    -2
286
     1
 66
     0
277
    -2
287
     1
 67
     0
278
    -2
288
     1
 68
     0
279
    -2
289
     1
 69
     0
  7
Standard
140
6.0
170
     5
 62
     0
 63
   257
283
     0
 90
        4
 91
        0
  1

274
    -2
284
     1
 64
     0
275
    -2
285
     1
 65
     0
276
    -2
286
     1
 66
     0
277
    -2
287
     1
 67
     0
278
    -2
288
     1
 68
     0
279
    -2
289
     1
 69
     0
  7
Standard
140
4.5
170
     5
 62
     0
 63
   257
283
     0
 90
        4
 91
        0
  1

274
    -2
284
     1
 64
     0
275
    -2
285
     1
 65
     0
276
    -2
286
     1
 66
     0
277
    -2
287
     1
 67
     0
278
    -2
288
     1
 68
     0
279
    -2
289
     1
 69
     0
  0
VISUALSTYLE
  5
2F
102
{ACAD_REACTORS
330
2A
102
}
330
2A
100
AcDbVisualStyle
  2
2dWireframe
 70
     4
177
     3
291
     0
 70
    58
 90
        0
176
     1
 90
        2
176
     1
 90
        0
176
     1
 90
        0
176
     1
 40
0.6
176
     1
 40
30.0
176
     1
 62
     7
420
 16777215
176
     1
 90
        1
176
     1
 90
        4
176
     1
 62
     7
176
     1
 62
   257
176
     1
 90
        1
176
     1
 90
        1
176
     1
 40
1.0
176
     1
 90
        0
176
     1
 62
   257
176
     1
 40
1.0
176
     1
 90
        1
176
     1
 90
        6
176
     1
 90
        2
176
     1
 62
     7
176
     1
 90
        5
176
     1
 90
        0
176
     1
 90
        0
176
     1
290
     0
176
     1
 90
        1
176
     1
 40
0.0
176
     1
 90
        0
176
     1
290
     1
176
     1
290
     1
176
     1
290
     0
176
     1
290
     0
176
     1
290
     0
176
     1
290
     0
176
     1
290
     0
176
     1
290
     0
176
     1
290
     0
176
     1
 90
       50
176
     1
 40
0.0
176
     1
 40
1.0
176
     1
 90
        0
176
     1
 62
    18
420
        0
176
     1
 90
       50
176
     1
 90
        3
176
     1
 62
     5
420
      255
176
     1
290
     0
176
     1
 90
       50
176
     1
 90
       50
176
     1
 90
       50
176
     1
290
     0
176
     1
 90
       50
176
     1
 62
   256
176
     0
 40
1.0
176
     0
 90
        2
176
     1
  1
strokes_ogs.tif
176
     1
290
     0
176
     1
 40
1.0
176
     1
 40
1.0
176
     1
  0
VISUALSTYLE
  5
32
102
{ACAD_REACTORS
330
2A
102
}
330
2A
100
AcDbVisualStyle
  2
Basic
 70
     7
177
     3
291
     1
 70
    58
 90
        1
176
     1
 90
        0
176
     1
 90
        1
176
     1
 90
        0
176
     1
 40
0.6
176
     1
 40
30.0
176
     1
 62
     7
420
 16777215
176
     1
 90
        0
176
     1
 90
        4
176
     1
 62
     7
176
     1
 62
   257
176
     1
 90
        1
176
     1
 90
        1
176
     1
 40
1.0
176
     1
 90
        8
176
     1
 62
     7
176
     1
 40
1.0
176
     1
 90
        1
176
     1
 90
        6
176
     1
 90
        2
176
     1
 62
     7
176
     1
 90
        5
176
     1
 90
        0
176
     1
 90
        0
176
     1
290
     0
176
     1
 90
        1
176
     1
 40
0.0
176
     1
 90
        0
176
     1
290
     0
176
     1
290
     1
176
     1
290
     1
176
     1
290
     0
176
     1
290
     0
176
     1
290
     0
176
     1
290
     0
176
     1
290
     0
176
     1
290
     0
176
     1
 90
       50
176
     1
 40
0.0
176
     1
 40
1.0
176
     1
 90
        0
176
     1
 62
    18
420
        0
176
     1
 90
       50
176
     1
 90
        3
176
     1
 62
     5
420
      255
176
     1
290
     0
176
     1
 90
       50
176
     1
 90
       50
176
     1
 90
       50
176
     1
290
     0
176
     1
 90
       50
176
     1
 62
   256
176
     0
 40
1.0
176
     0
 90
        2
176
     1
  1
strokes_ogs.tif
176
     1
290
     0
176
     1
 40
1.0
176
     1
 40
1.0
176
     1
  0
VISUALSTYLE
  5
36
102
{ACAD_REACTORS
330
2A
102
}
330
2A
100
AcDbVisualStyle
  2
Brighten
 70
    12
177
     3
291
     1
 70
    58
 90
        2
176
     1
 90
        2
176
     1
 90
        0
176
     1
 90
        0
176
     1
 40
0.6
176
     1
 40
30.0
176
     1
 62
     7
420
 16777215
176
     1
 90
        1
176
     1
 90
        4
176
     1
 62
     7
176
     1
 62
   257
176
     1
 90
        1
176
     1
 90
        1
176
     1
 40
1.0
176
     1
 90
        8
176
     1
 62
     7
176
     1
 40
1.0
176
     1
 90
        1
176
     1
 90
        6
176
     1
 90
        2
176
     1
 62
     7
176
     1
 90
        5
176
     1
 90
        0
176
     1
 90
        0
176
     1
290
     0
176
     1
 90
        1
176
     1
 40
50.0
176
     1
 90
        0
176
     1
290
     0
176
     1
290
     1
176
     1
290
     1
176
     1
290
     0
176
     1
290
     0
176
     1
290
     0
176
     1
290
     0
176
     1
290
     0
176
     1
290
     0
176
     1
 90
       50
176
     1
 40
0.0
176
     1
 40
1.0
176
     1
 90
        0
176
     1
 62
    18
420
        0
176
     1
 90
       50
176
     1
 90
        3
176
     1
 62
     5
420
      255
176
     1
290
     0
176
     1
 90
       50
176
     1
 90
       50
176
     1
 90
       50
176
     1
290
     0
176
     1
 90
       50
176
     1
 62
   256
176
     0
 40
1.0
176
     0
 90
        2
176
     1
  1
strokes_ogs.tif
176
     1
290
     0
176
     1
 40
1.0
176
     1
 40
1.0
176
     1
  0
VISUALSTYLE
  5
3A
102
{ACAD_REACTORS
330
2A
102
}
330
2A
100
AcDbVisualStyle
  2
ColorChange
 70
    16
177
     3
291
     1
 70
    58
 90
        2
176
     1
 90
        2
176
     1
 90
        3
176
     1
 90
        0
176
     1
 40
0.6
176
     1
 40
30.0
176
     1
 62
     8
420
  8421504
176
     1
 90
        1
176
     1
 90
        4
176
     1
 62
     7
176
     1
 62
   257
176
     1
 90
        1
176
     1
 90
        1
176
     1
 40
1.0
176
     1
 90
        8
176
     1
 62
     8
420
  8421504
176
     1
 40
1.0
176
     1
 90
        1
176
     1
 90
        6
176
     1
 90
        2
176
     1
 62
     7
176
     1
 90
        5
176
     1
 90
        0
176
     1
 90
        0
176
     1
290
     0
176
     1
 90
        1
176
     1
 40
0.0
176
     1
 90
        0
176
     1
290
     0
176
     1
290
     1
176
     1
290
     1
176
     1
290
     0
176
     1
290
     0
176
     1
290
     0
176
     1
290
     0
176
     1
290
     0
176
     1
290
     0
176
     1
 90
       50
176
     1
 40
0.0
176
     1
 40
1.0
176
     1
 90
        0
176
     1
 62
    18
420
        0
176
     1
 90
       50
176
     1
 90
        3
176
     1
 62
     5
420
      255
176
     1
290
     0
176
     1
 90
       50
176
     1
 90
       50
176
     1
 90
       50
176
     1
290
     0
176
     1
 90
       50
176
     1
 62
   256
176
     0
 40
1.0
176
     0
 90
        2
176
     1
  1
strokes_ogs.tif
176
     1
290
     0
176
     1
 40
1.0
176
     1
 40
1.0
176
     1
  0
VISUALSTYLE
  5
34
102
{ACAD_REACTORS
330
2A
102
}
330
2A
100
AcDbVisualStyle
  2
Conceptual
 70
     9
177
     3
291
     0
 70
    58
 90
        3
176
     1
 90
        2
176
     1
 90
        0
176
     1
 90
        0
176
     1
 40
0.6
176
     1
 40
30.0
176
     1
 62
     7
420
 16777215
176
     1
 90
        2
176
     1
 90
        2
176
     1
 62
     7
176
     1
 62
   257
176
     1
 90
        1
176
     1
 90
        1
176
     1
 40
179.0
176
     1
 90
        8
176
     1
 62
     7
176
     1
 40
1.0
176
     1
 90
        1
176
     1
 90
        6
176
     1
 90
        2
176
     1
 62
     7
176
     1
 90
        3
176
     1
 90
        0
176
     1
 90
        0
176
     1
290
     0
176
     1
 90
        1
176
     1
 40
0.0
176
     1
 90
        0
176
     1
290
     0
176
     1
290
     1
176
     1
290
     1
176
     1
290
     0
176
     1
290
     0
176
     1
290
     0
176
     1
290
     0
176
     1
290
     0
176
     1
290
     0
176
     1
 90
       50
176
     1
 40
0.0
176
     1
 40
1.0
176
     1
 90
        0
176
     1
 62
    18
420
        0
176
     1
 90
       50
176
     1
 90
        3
176
     1
 62
     5
420
      255
176
     1
290
     0
176
     1
 90
       50
176
     1
 90
       50
176
     1
 90
       50
176
     1
290
     0
176
     1
 90
       50
176
     1
 62
   256
176
     0
 40
1.0
176
     0
 90
        2
176
     1
  1
strokes_ogs.tif
176
     1
290
     0
176
     1
 40
1.0
176
     1
 40
1.0
176
     1
  0
VISUALSTYLE
  5
35
102
{ACAD_REACTORS
330
2A
102
}
330
2A
100
AcDbVisualStyle
  2
Dim
 70
    11
177
     3
291
     1
 70
    58
 90
        2
176
     1
 90
        2
176
     1
 90
        0
176
     1
 90
        0
176
     1
 40
0.6
176
     1
 40
30.0
176
     1
 62
     7
420
 16777215
176
     1
 90
        1
176
     1
 90
        4
176
     1
 62
     7
176
     1
 62
   257
176
     1
 90
        1
176
     1
 90
        1
176
     1
 40
1.0
176
     1
 90
        8
176
     1
 62
     7
176
     1
 40
1.0
176
     1
 90
        1
176
     1
 90
        6
176
     1
 90
        2
176
     1
 62
     7
176
     1
 90
        5
176
     1
 90
        0
176
     1
 90
        0
176
     1
290
     0
176
     1
 90
        1
176
     1
 40
-50.0
176
     1
 90
        0
176
     1
290
     0
176
     1
290
     1
176
     1
290
     1
176
     1
290
     0
176
     1
290
     0
176
     1
290
     0
176
     1
290
     0
176
     1
290
     0
176
     1
290
     0
176
     1
 90
       50
176
     1
 40
0.0
176
     1
 40
1.0
176
     1
 90
        0
176
     1
 62
    18
420
        0
176
     1
 90
       50
176
     1
 90
        3
176
     1
 62
     5
420
      255
176
     1
290
     0
176
     1
 90
       50
176
     1
 90
       50
176
     1
 90
       50
176
     1
290
     0
176
     1
 90
       50
176
     1
 62
   256
176
     0
 40
1.0
176
     0
 90
        2
176
     1
  1
strokes_ogs.tif
176
     1
290
     0
176
     1
 40
1.0
176
     1
 40
1.0
176
     1
  0
VISUALSTYLE
  5
3D
102
{ACAD_REACTORS
330
2A
102
}
330
2A
100
AcDbVisualStyle
  2
EdgeColorOff
 70
    22
177
     3
291
     1
 70
    58
 90
        2
176
     0
 90
        2
176
     0
 90
        0
176
     0
 90
        0
176
     0
 40
0.6
176
     0
 40
30.0
176
     0
 62
     7
420
 16777215
176
     0
 90
        1
176
     0
 90
        4
176
     0
 62
     7
176
     0
 62
   257
176
     0
 90
        1
176
     0
 90
        1
176
     0
 40
1.0
176
     0
 90
        8
176
     2
 62
     7
176
     0
 40
1.0
176
     0
 90
        1
176
     0
 90
        6
176
     0
 90
        2
176
     0
 62
     7
176
     0
 90
        5
176
     0
 90
        0
176
     0
 90
        0
176
     0
290
     0
176
     0
 90
        1
176
     0
 40
0.0
176
     0
 90
        0
176
     0
290
     0
176
     0
290
     1
176
     0
290
     1
176
     0
290
     0
176
     0
290
     0
176
     0
290
     0
176
     0
290
     0
176
     0
290
     0
176
     0
290
     0
176
     0
 90
       50
176
     0
 40
0.0
176
     0
 40
1.0
176
     0
 90
        0
176
     0
 62
    18
420
        0
176
     0
 90
       50
176
     0
 90
        3
176
     0
 62
     5
420
      255
176
     0
290
     0
176
     0
 90
       50
176
     0
 90
       50
176
     0
 90
       50
176
     0
290
     0
176
     0
 90
       50
176
     0
 62
   256
176
     0
 40
1.0
176
     0
 90
        2
176
     0
  1
strokes_ogs.tif
176
     0
290
     0
176
     0
 40
1.0
176
     0
 40
1.0
176
     0
  0
VISUALSTYLE
  5
39
102
{ACAD_REACTORS
330
2A
102
}
330
2A
100
AcDbVisualStyle
  2
Facepattern
 70
    15
177
     3
291
     1
 70
    58
 90
        2
176
     1
 90
        2
176
     1
 90
        0
176
     1
 90
        0
176
     1
 40
0.6
176
     1
 40
30.0
176
     1
 62
     7
420
 16777215
176
     1
 90
        1
176
     1
 90
        4
176
     1
 62
     7
176
     1
 62
   257
176
     1
 90
        1
176
     1
 90
        1
176
     1
 40
1.0
176
     1
 90
        8
176
     1
 62
     7
176
     1
 40
1.0
176
     1
 90
        1
176
     1
 90
        6
176
     1
 90
        2
176
     1
 62
     7
176
     1
 90
        5
176
     1
 90
        0
176
     1
 90
        0
176
     1
290
     0
176
     1
 90
        1
176
     1
 40
0.0
176
     1
 90
        0
176
     1
290
     0
176
     1
290
     1
176
     1
290
     1
176
     1
290
     0
176
     1
290
     0
176
     1
290
     0
176
     1
290
     0
176
     1
290
     0
176
     1
290
     0
176
     1
 90
       50
176
     1
 40
0.0
176
     1
 40
1.0
176
     1
 90
        0
176
     1
 62
    18
420
        0
176
     1
 90
       50
176
     1
 90
        3
176
     1
 62
     5
420
      255
176
     1
290
     0
176
     1
 90
       50
176
     1
 90
       50
176
     1
 90
       50
176
     1
290
     0
176
     1
 90
       50
176
     1
 62
   256
176
     0
 40
1.0
176
     0
 90
        2
176
     1
  1
strokes_ogs.tif
176
     1
290
     0
176
     1
 40
1.0
176
     1
 40
1.0
176
     1
  0
VISUALSTYLE
  5
2B
102
{ACAD_REACTORS
330
2A
102
}
330
2A
100
AcDbVisualStyle
  2
Flat
 70
     0
177
     3
291
     1
 70
    58
 90
        2
176
     1
 90
        1
176
     1
 90
        1
176
     1
 90
        2
176
     1
 40
0.6
176
     1
 40
30.0
176
     1
 62
     7
420
 16777215
176
     1
 90
        0
176
     1
 90
        0
176
     1
 62
     7
176
     1
 62
   257
176
     1
 90
        1
176
     1
 90
        1
176
     1
 40
1.0
176
     1
 90
        8
176
     1
 62
     7
176
     1
 40
1.0
176
     1
 90
        1
176
     1
 90
        6
176
     1
 90
        2
176
     1
 62
     7
176
     1
 90
        5
176
     1
 90
        0
176
     1
 90
        0
176
     1
290
     0
176
     1
 90
       13
176
     1
 40
0.0
176
     1
 90
        0
176
     1
290
     0
176
     1
290
     1
176
     1
290
     1
176
     1
290
     0
176
     1
290
     0
176
     1
290
     0
176
     1
290
     0
176
     1
290
     0
176
     1
290
     0
176
     1
 90
       50
176
     1
 40
0.0
176
     1
 40
1.0
176
     1
 90
        0
176
     1
 62
    18
420
        0
176
     1
 90
       50
176
     1
 90
        3
176
     1
 62
     5
420
      255
176
     1
290
     0
176
     1
 90
       50
176
     1
 90
       50
176
     1
 90
       50
176
     1
290
     0
176
     1
 90
       50
176
     1
 62
   256
176
     0
 40
1.0
176
     0
 90
        2
176
     1
  1
strokes_ogs.tif
176
     1
290
     0
176
     1
 40
1.0
176
     1
 40
1.0
176
     1
  0
VISUALSTYLE
  5
2C
102
{ACAD_REACTORS
330
2A
102
}
330
2A
100
AcDbVisualStyle
  2
FlatWithEdges
 70
     1
177
     3
291
     1
 70
    58
 90
        2
176
     1
 90
        1
176
     1
 90
        1
176
     1
 90
        2
176
     1
 40
0.6
176
     1
 40
30.0
176
     1
 62
     7
420
 16777215
176
     1
 90
        1
176
     1
 90
        0
176
     1
 62
     7
176
     1
 62
   257
176
     1
 90
        1
176
     1
 90
        1
176
     1
 40
1.0
176
     1
 90
        0
176
     1
 62
   257
176
     1
 40
1.0
176
     1
 90
        1
176
     1
 90
        6
176
     1
 90
        2
176
     1
 62
     7
176
     1
 90
        5
176
     1
 90
        0
176
     1
 90
        0
176
     1
290
     0
176
     1
 90
       13
176
     1
 40
0.0
176
     1
 90
        0
176
     1
290
     0
176
     1
290
     1
176
     1
290
     1
176
     1
290
     0
176
     1
290
     0
176
     1
290
     0
176
     1
290
     0
176
     1
290
     0
176
     1
290
     0
176
     1
 90
       50
176
     1
 40
0.0
176
     1
 40
1.0
176
     1
 90
        0
176
     1
 62
    18
420
        0
176
     1
 90
       50
176
     1
 90
        3
176
     1
 62
     5
420
      255
176
     1
290
     0
176
     1
 90
       50
176
     1
 90
       50
176
     1
 90
       50
176
     1
290
     0
176
     1
 90
       50
176
     1
 62
   256
176
     0
 40
1.0
176
     0
 90
        2
176
     1
  1
strokes_ogs.tif
176
     1
290
     0
176
     1
 40
1.0
176
     1
 40
1.0
176
     1
  0
VISUALSTYLE
  5
2D
102
{ACAD_REACTORS
330
2A
102
}
330
2A
100
AcDbVisualStyle
  2
Gouraud
 70
     2
177
     3
291
     1
 70
    58
 90
        2
176
     1
 90
        2
176
     1
 90
        1
176
     1
 90
        2
176
     1
 40
0.6
176
     1
 40
30.0
176
     1
 62
     7
420
 16777215
176
     1
 90
        0
176
     1
 90
        0
176
     1
 62
     7
176
     1
 62
   257
176
     1
 90
        1
176
     1
 90
        1
176
     1
 40
1.0
176
     1
 90
        0
176
     1
 62
     7
176
     1
 40
1.0
176
     1
 90
        1
176
     1
 90
        6
176
     1
 90
        2
176
     1
 62
     7
176
     1
 90
        5
176
     1
 90
        0
176
     1
 90
        0
176
     1
290
     0
176
     1
 90
       13
176
     1
 40
0.0
176
     1
 90
        0
176
     1
290
     0
176
     1
290
     1
176
     1
290
     1
176
     1
290
     0
176
     1
290
     0
176
     1
290
     0
176
     1
290
     0
176
     1
290
     0
176
     1
290
     0
176
     1
 90
       50
176
     1
 40
0.0
176
     1
 40
1.0
176
     1
 90
        0
176
     1
 62
    18
420
        0
176
     1
 90
       50
176
     1
 90
        3
176
     1
 62
     5
420
      255
176
     1
290
     0
176
     1
 90
       50
176
     1
 90
       50
176
     1
 90
       50
176
     1
290
     0
176
     1
 90
       50
176
     1
 62
   256
176
     0
 40
1.0
176
     0
 90
        2
176
     1
  1
strokes_ogs.tif
176
     1
290
     0
176
     1
 40
1.0
176
     1
 40
1.0
176
     1
  0
VISUALSTYLE
  5
2E
102
{ACAD_REACTORS
330
2A
102
}
330
2A
100
AcDbVisualStyle
  2
GouraudWithEdges
 70
     3
177
     3
291
     1
 70
    58
 90
        2
176
     1
 90
        2
176
     1
 90
        1
176
     1
 90
        2
176
     1
 40
0.6
176
     1
 40
30.0
176
     1
 62
     7
420
 16777215
176
     1
 90
        1
176
     1
 90
        0
176
     1
 62
     7
176
     1
 62
   257
176
     1
 90
        1
176
     1
 90
        1
176
     1
 40
1.0
176
     1
 90
        0
176
     1
 62
   257
176
     1
 40
1.0
176
     1
 90
        1
176
     1
 90
        6
176
     1
 90
        2
176
     1
 62
     7
176
     1
 90
        5
176
     1
 90
        0
176
     1
 90
        0
176
     1
290
     0
176
     1
 90
       13
176
     1
 40
0.0
176
     1
 90
        0
176
     1
290
     0
176
     1
290
     1
176
     1
290
     1
176
     1
290
     0
176
     1
290
     0
176
     1
290
     0
176
     1
290
     0
176
     1
290
     0
176
     1
290
     0
176
     1
 90
       50
176
     1
 40
0.0
176
     1
 40
1.0
176
     1
 90
        0
176
     1
 62
    18
420
        0
176
     1
 90
       50
176
     1
 90
        3
176
     1
 62
     5
420
      255
176
     1
290
     0
176
     1
 90
       50
176
     1
 90
       50
176
     1
 90
       50
176
     1
290
     0
176
     1
 90
       50
176
     1
 62
   256
176
     0
 40
1.0
176
     0
 90
        2
176
     1
  1
strokes_ogs.tif
176
     1
290
     0
176
     1
 40
1.0
176
     1
 40
1.0
176
     1
  0
VISUALSTYLE
  5
31
102
{ACAD_REACTORS
330
2A
102
}
330
2A
100
AcDbVisualStyle
  2
Hidden
 70
     6
177
     3
291
     0
 70
    58
 90
        1
176
     1
 90
        2
176
     1
 90
        2
176
     1
 90
        0
176
     1
 40
0.6
176
     1
 40
30.0
176
     1
 62
     7
420
 16777215
176
     1
 90
        2
176
     1
 90
        2
176
     1
 62
     7
176
     1
 62
   257
176
     1
 90
        2
176
     1
 90
        1
176
     1
 40
40.0
176
     1
 90
        0
176
     1
 62
   257
176
     1
 40
1.0
176
     1
 90
        1
176
     1
 90
        6
176
     1
 90
        2
176
     1
 62
     7
176
     1
 90
        3
176
     1
 90
        0
176
     1
 90
        0
176
     1
290
     0
176
     1
 90
        1
176
     1
 40
0.0
176
     1
 90
        0
176
     1
290
     0
176
     1
290
     1
176
     1
290
     1
176
     1
290
     0
176
     1
290
     0
176
     1
290
     0
176
     1
290
     0
176
     1
290
     0
176
     1
290
     0
176
     1
 90
       50
176
     1
 40
0.0
176
     1
 40
1.0
176
     1
 90
        0
176
     1
 62
    18
420
        0
176
     1
 90
       50
176
     1
 90
        3
176
     1
 62
     5
420
      255
176
     1
290
     0
176
     1
 90
       50
176
     1
 90
       50
176
     1
 90
       50
176
     1
290
     0
176
     1
 90
       50
176
     1
 62
   256
176
     0
 40
1.0
176
     0
 90
        2
176
     1
  1
strokes_ogs.tif
176
     1
290
     0
176
     1
 40
1.0
176
     1
 40
1.0
176
     1
  0
VISUALSTYLE
  5
3B
102
{ACAD_REACTORS
330
2A
102
}
330
2A
100
AcDbVisualStyle
  2
JitterOff
 70
    20
177
     3
291
     1
 70
    58
 90
        2
176
     0
 90
        2
176
     0
 90
        0
176
     0
 90
        0
176
     0
 40
0.6
176
     0
 40
30.0
176
     0
 62
     7
420
 16777215
176
     0
 90
        1
176
     0
 90
        4
176
     0
 62
     7
176
     0
 62
   257
176
     0
 90
        1
176
     0
 90
        1
176
     0
 40
1.0
176
     0
 90
       10
176
     2
 62
     7
176
     0
 40
1.0
176
     0
 90
        1
176
     0
 90
        6
176
     0
 90
        2
176
     0
 62
     7
176
     0
 90
        5
176
     0
 90
        0
176
     0
 90
        0
176
     0
290
     0
176
     0
 90
        1
176
     0
 40
0.0
176
     0
 90
        0
176
     0
290
     0
176
     0
290
     1
176
     0
290
     1
176
     0
290
     0
176
     0
290
     0
176
     0
290
     0
176
     0
290
     0
176
     0
290
     0
176
     0
290
     0
176
     0
 90
       50
176
     0
 40
0.0
176
     0
 40
1.0
176
     0
 90
        0
176
     0
 62
    18
420
        0
176
     0
 90
       50
176
     0
 90
        3
176
     0
 62
     5
420
      255
176
     0
290
     0
176
     0
 90
       50
176
     0
 90
       50
176
     0
 90
       50
176
     0
290
     0
176
     0
 90
       50
176
     0
 62
   256
176
     0
 40
1.0
176
     0
 90
        2
176
     0
  1
strokes_ogs.tif
176
     0
290
     0
176
     0
 40
1.0
176
     0
 40
1.0
176
     0
  0
VISUALSTYLE
  5
38
102
{ACAD_REACTORS
330
2A
102
}
330
2A
100
AcDbVisualStyle
  2
Linepattern
 70
    14
177
     3
291
     1
 70
    58
 90
        2
176
     1
 90
        2
176
     1
 90
        0
176
     1
 90
        0
176
     1
 40
0.6
176
     1
 40
30.0
176
     1
 62
     7
420
 16777215
176
     1
 90
        1
176
     1
 90
        4
176
     1
 62
     7
176
     1
 62
   257
176
     1
 90
        7
176
     1
 90
        7
176
     1
 40
1.0
176
     1
 90
        8
176
     1
 62
     7
176
     1
 40
1.0
176
     1
 90
        1
176
     1
 90
        6
176
     1
 90
        2
176
     1
 62
     7
176
     1
 90
        5
176
     1
 90
        0
176
     1
 90
        0
176
     1
290
     0
176
     1
 90
        1
176
     1
 40
0.0
176
     1
 90
        0
176
     1
290
     0
176
     1
290
     1
176
     1
290
     1
176
     1
290
     0
176
     1
290
     0
176
     1
290
     0
176
     1
290
     0
176
     1
290
     0
176
     1
290
     0
176
     1
 90
       50
176
     1
 40
0.0
176
     1
 40
1.0
176
     1
 90
        0
176
     1
 62
    18
420
        0
176
     1
 90
       50
176
     1
 90
        3
176
     1
 62
     5
420
      255
176
     1
290
     0
176
     1
 90
       50
176
     1
 90
       50
176
     1
 90
       50
176
     1
290
     0
176
     1
 90
       50
176
     1
 62
   256
176
     0
 40
1.0
176
     0
 90
        2
176
     1
  1
strokes_ogs.tif
176
     1
290
     0
176
     1
 40
1.0
176
     1
 40
1.0
176
     1
  0
VISUALSTYLE
  5
3C
102
{ACAD_REACTORS
330
2A
102
}
330
2A
100
AcDbVisualStyle
  2
OverhangOff
 70
    21
177
     3
291
     1
 70
    58
 90
        2
176
     0
 90
        2
176
     0
 90
        0
176
     0
 90
        0
176
     0
 40
0.6
176
     0
 40
30.0
176
     0
 62
     7
420
 16777215
176
     0
 90
        1
176
     0
 90
        4
176
     0
 62
     7
176
     0
 62
   257
176
     0
 90
        1
176
     0
 90
        1
176
     0
 40
1.0
176
     0
 90
        9
176
     2
 62
     7
176
     0
 40
1.0
176
     0
 90
        1
176
     0
 90
        6
176
     0
 90
        2
176
     0
 62
     7
176
     0
 90
        5
176
     0
 90
        0
176
     0
 90
        0
176
     0
290
     0
176
     0
 90
        1
176
     0
 40
0.0
176
     0
 90
        0
176
     0
290
     0
176
     0
290
     1
176
     0
290
     1
176
     0
290
     0
176
     0
290
     0
176
     0
290
     0
176
     0
290
     0
176
     0
290
     0
176
     0
290
     0
176
     0
 90
       50
176
     0
 40
0.0
176
     0
 40
1.0
176
     0
 90
        0
176
     0
 62
    18
420
        0
176
     0
 90
       50
176
     0
 90
        3
176
     0
 62
     5
420
      255
176
     0
290
     0
176
     0
 90
       50
176
     0
 90
       50
176
     0
 90
       50
176
     0
290
     0
176
     0
 90
       50
176
     0
 62
   256
176
     0
 40
1.0
176
     0
 90
        2
176
     0
  1
strokes_ogs.tif
176
     0
290
     0
176
     0
 40
1.0
176
     0
 40
1.0
176
     0
  0
VISUALSTYLE
  5
33
102
{ACAD_REACTORS
330
2A
102
}
330
2A
100
AcDbVisualStyle
  2
Realistic
 70
     8
177
     3
291
     0
 70
    58
 90
        2
176
     1
 90
        3
176
     1
 90
        0
176
     1
 90
        2
176
     1
 40
0.6
176
     1
 40
30.0
176
     1
 62
     7
420
 16777215
176
     1
 90
        0
176
     1
 90
        0
176
     1
 62
     7
176
     1
 62
   257
176
     1
 90
        1
176
     1
 90
        1
176
     1
 40
1.0
176
     1
 90
        8
176
     1
 62
   257
176
     1
 40
1.0
176
     1
 90
        1
176
     1
 90
        6
176
     1
 90
        2
176
     1
 62
     7
176
     1
 90
        3
176
     1
 90
        0
176
     1
 90
        0
176
     1
290
     0
176
     1
 90
       13
176
     1
 40
0.0
176
     1
 90
        0
176
     1
290
     0
176
     1
290
     1
176
     1
290
     1
176
     1
290
     0
176
     1
290
     0
176
     1
290
     0
176
     1
290
     0
176
     1
290
     0
176
     1
290
     0
176
     1
 90
       50
176
     1
 40
0.0
176
     1
 40
1.0
176
     1
 90
        0
176
     1
 62
    18
420
        0
176
     1
 90
       50
176
     1
 90
        3
176
     1
 62
     5
420
      255
176
     1
290
     0
176
     1
 90
       50
176
     1
 90
       50
176
     1
 90
       50
176
     1
290
     0
176
     1
 90
       50
176
     1
 62
   256
176
     0
 40
1.0
176
     0
 90
        2
176
     1
  1
strokes_ogs.tif
176
     1
290
     0
176
     1
 40
1.0
176
     1
 40
1.0
176
     1
  0
VISUALSTYLE
  5
42
102
{ACAD_REACTORS
330
2A
102
}
330
2A
100
AcDbVisualStyle
  2
Shaded
 70
    27
177
     3
291
     0
 70
    58
 90
        2
176
     1
 90
        2
176
     1
 90
        1
176
     1
 90
        2
176
     1
 40
0.6
176
     1
 40
30.0
176
     1
 62
     7
420
 16777215
176
     1
 90
        0
176
     1
 90
        4
176
     1
 62
     7
176
     1
 62
   257
176
     1
 90
        1
176
     1
 90
        1
176
     1
 40
1.0
176
     1
 90
        8
176
     1
 62
   257
176
     1
 40
1.0
176
     1
 90
        1
176
     1
 90
        6
176
     1
 90
        2
176
     1
 62
     8
420
  7895160
176
     1
 90
        3
176
     1
 90
        0
176
     1
 90
        0
176
     1
290
     0
176
     1
 90
        5
176
     1
 40
0.0
176
     1
 90
        0
176
     1
290
     0
176
     1
290
     1
176
     1
290
     1
176
     1
290
     0
176
     1
290
     0
176
     1
290
     0
176
     1
290
     0
176
     1
290
     0
176
     1
290
     0
176
     1
 90
       50
176
     1
 40
0.0
176
     1
 40
1.0
176
     1
 90
        0
176
     1
 62
    18
420
        0
176
     1
 90
       50
176
     1
 90
        3
176
     1
 62
     5
420
      255
176
     1
290
     0
176
     1
 90
       50
176
     1
 90
       50
176
     1
 90
       50
176
     1
290
     0
176
     1
 90
       50
176
     1
 62
   256
176
     0
 40
1.0
176
     0
 90
        2
176
     1
  1
strokes_ogs.tif
176
     1
290
     0
176
     1
 40
1.0
176
     1
 40
1.0
176
     1
  0
VISUALSTYLE
  5
41
102
{ACAD_REACTORS
330
2A
102
}
330
2A
100
AcDbVisualStyle
  2
Shaded with edges
 70
    26
177
     3
291
     0
 70
    58
 90
        2
176
     1
 90
        2
176
     1
 90
        1
176
     1
 90
        2
176
     1
 40
0.6
176
     1
 40
30.0
176
     1
 62
     7
420
 16777215
176
     1
 90
        1
176
     1
 90
       10
176
     1
 62
     7
176
     1
 62
   257
176
     1
 90
        2
176
     1
 90
        1
176
     1
 40
1.0
176
     1
 90
        8
176
     1
 62
   257
176
     1
 40
1.0
176
     1
 90
        1
176
     1
 90
        6
176
     1
 90
        2
176
     1
 62
     7
176
     1
 90
        3
176
     1
 90
        0
176
     1
 90
        0
176
     1
290
     0
176
     1
 90
        5
176
     1
 40
0.0
176
     1
 90
        0
176
     1
290
     0
176
     1
290
     1
176
     1
290
     1
176
     1
290
     0
176
     1
290
     0
176
     1
290
     0
176
     1
290
     0
176
     1
290
     0
176
     1
290
     0
176
     1
 90
       50
176
     1
 40
0.0
176
     1
 40
1.0
176
     1
 90
        0
176
     1
 62
    18
420
        0
176
     1
 90
       50
176
     1
 90
        3
176
     1
 62
     5
420
      255
176
     1
290
     0
176
     1
 90
       50
176
     1
 90
       50
176
     1
 90
       50
176
     1
290
     0
176
     1
 90
       50
176
     1
 62
   256
176
     0
 40
1.0
176
     0
 90
        2
176
     1
  1
strokes_ogs.tif
176
     1
290
     0
176
     1
 40
1.0
176
     1
 40
1.0
176
     1
  0
VISUALSTYLE
  5
3E
102
{ACAD_REACTORS
330
2A
102
}
330
2A
100
AcDbVisualStyle
  2
Shades of Gray
 70
    23
177
     3
291
     0
 70
    58
 90
        2
176
     1
 90
        2
176
     1
 90
        3
176
     1
 90
        0
176
     1
 40
0.6
176
     1
 40
30.0
176
     1
 62
     7
420
 16777215
176
     1
 90
        2
176
     1
 90
        2
176
     1
 62
     7
176
     1
 62
     7
176
     1
 90
        1
176
     1
 90
        1
176
     1
 40
40.0
176
     1
 90
        8
176
     1
 62
     7
176
     1
 40
1.0
176
     1
 90
        1
176
     1
 90
        6
176
     1
 90
        2
176
     1
 62
     7
176
     1
 90
        3
176
     1
 90
        0
176
     1
 90
        0
176
     1
290
     0
176
     1
 90
        1
176
     1
 40
0.0
176
     1
 90
        0
176
     1
290
     0
176
     1
290
     1
176
     1
290
     1
176
     1
290
     0
176
     1
290
     0
176
     1
290
     0
176
     1
290
     0
176
     1
290
     0
176
     1
290
     0
176
     1
 90
       50
176
     1
 40
0.0
176
     1
 40
1.0
176
     1
 90
        0
176
     1
 62
    18
420
        0
176
     1
 90
       50
176
     1
 90
        3
176
     1
 62
     5
420
      255
176
     1
290
     0
176
     1
 90
       50
176
     1
 90
       50
176
     1
 90
       50
176
     1
290
     0
176
     1
 90
       50
176
     1
 62
   256
176
     0
 40
1.0
176
     0
 90
        2
176
     1
  1
strokes_ogs.tif
176
     1
290
     0
176
     1
 40
1.0
176
     1
 40
1.0
176
     1
  0
VISUALSTYLE
  5
3F
102
{ACAD_REACTORS
330
2A
102
}
330
2A
100
AcDbVisualStyle
  2
Sketchy
 70
    24
177
     3
291
     0
 70
    58
 90
        1
176
     1
 90
        2
176
     1
 90
        2
176
     1
 90
        0
176
     1
 40
0.6
176
     1
 40
30.0
176
     1
 62
     7
420
 16777215
176
     1
 90
        2
176
     1
 90
        2
176
     1
 62
     7
176
     1
 62
     7
176
     1
 90
        1
176
     1
 90
        1
176
     1
 40
40.0
176
     1
 90
       11
176
     1
 62
     7
176
     1
 40
1.0
176
     1
 90
        1
176
     1
 90
        6
176
     1
 90
        2
176
     1
 62
     7
176
     1
 90
        6
176
     1
 90
        0
176
     1
 90
        0
176
     1
290
     0
176
     1
 90
        1
176
     1
 40
0.0
176
     1
 90
        0
176
     1
290
     0
176
     1
290
     1
176
     1
290
     1
176
     1
290
     0
176
     1
290
     0
176
     1
290
     0
176
     1
290
     0
176
     1
290
     0
176
     1
290
     0
176
     1
 90
       50
176
     1
 40
0.0
176
     1
 40
1.0
176
     1
 90
        0
176
     1
 62
    18
420
        0
176
     1
 90
       50
176
     1
 90
        3
176
     1
 62
     5
420
      255
176
     1
290
     0
176
     1
 90
       50
176
     1
 90
       50
176
     1
 90
       50
176
     1
290
     0
176
     1
 90
       50
176
     1
 62
   256
176
     0
 40
1.0
176
     0
 90
        2
176
     1
  1
strokes_ogs.tif
176
     1
290
     0
176
     1
 40
1.0
176
     1
 40
1.0
176
     1
  0
VISUALSTYLE
  5
37
102
{ACAD_REACTORS
330
2A
102
}
330
2A
100
AcDbVisualStyle
  2
Thicken
 70
    13
177
     3
291
     1
 70
    58
 90
        2
176
     1
 90
        2
176
     1
 90
        0
176
     1
 90
        0
176
     1
 40
0.6
176
     1
 40
30.0
176
     1
 62
     7
420
 16777215
176
     1
 90
        1
176
     1
 90
        4
176
     1
 62
     7
176
     1
 62
   257
176
     1
 90
        1
176
     1
 90
        1
176
     1
 40
1.0
176
     1
 90
       12
176
     1
 62
     7
176
     1
 40
1.0
176
     1
 90
        1
176
     1
 90
        6
176
     1
 90
        2
176
     1
 62
     7
176
     1
 90
        5
176
     1
 90
        0
176
     1
 90
        0
176
     1
290
     0
176
     1
 90
        1
176
     1
 40
0.0
176
     1
 90
        0
176
     1
290
     0
176
     1
290
     1
176
     1
290
     1
176
     1
290
     0
176
     1
290
     0
176
     1
290
     0
176
     1
290
     0
176
     1
290
     0
176
     1
290
     0
176
     1
 90
       50
176
     1
 40
0.0
176
     1
 40
1.0
176
     1
 90
        0
176
     1
 62
    18
420
        0
176
     1
 90
       50
176
     1
 90
        3
176
     1
 62
     5
420
      255
176
     1
290
     0
176
     1
 90
       50
176
     1
 90
       50
176
     1
 90
       50
176
     1
290
     0
176
     1
 90
       50
176
     1
 62
   256
176
     0
 40
1.0
176
     0
 90
        2
176
     1
  1
strokes_ogs.tif
176
     1
290
     0
176
     1
 40
1.0
176
     1
 40
1.0
176
     1
  0
VISUALSTYLE
  5
30
102
{ACAD_REACTORS
330
2A
102
}
330
2A
100
AcDbVisualStyle
  2
Wireframe
 70
     5
177
     3
291
     0
 70
    58
 90
        0
176
     1
 90
        2
176
     1
 90
        0
176
     1
 90
        0
176
     1
 40
0.6
176
     1
 40
30.0
176
     1
 62
     7
420
 16777215
176
     1
 90
        1
176
     1
 90
        4
176
     1
 62
     7
176
     1
 62
   257
176
     1
 90
        1
176
     1
 90
        1
176
     1
 40
1.0
176
     1
 90
        0
176
     1
 62
   257
176
     1
 40
1.0
176
     1
 90
        1
176
     1
 90
        6
176
     1
 90
        2
176
     1
 62
     7
176
     1
 90
        3
176
     1
 90
        0
176
     1
 90
        0
176
     1
290
     0
176
     1
 90
        1
176
     1
 40
0.0
176
     1
 90
        0
176
     1
290
     0
176
     1
290
     1
176
     1
290
     1
176
     1
290
     0
176
     1
290
     0
176
     1
290
     0
176
     1
290
     0
176
     1
290
     0
176
     1
290
     0
176
     1
 90
       50
176
     1
 40
0.0
176
     1
 40
1.0
176
     1
 90
        0
176
     1
 62
    18
420
        0
176
     1
 90
       50
176
     1
 90
        3
176
     1
 62
     5
420
      255
176
     1
290
     0
176
     1
 90
       50
176
     1
 90
       50
176
     1
 90
       50
176
     1
290
     0
176
     1
 90
       50
176
     1
 62
   256
176
     0
 40
1.0
176
     0
 90
        2
176
     1
  1
strokes_ogs.tif
176
     1
290
     0
176
     1
 40
1.0
176
     1
 40
1.0
176
     1
  0
VISUALSTYLE
  5
40
102
{ACAD_REACTORS
330
2A
102
}
330
2A
100
AcDbVisualStyle
  2
X-Ray
 70
    25
177
     3
291
     0
 70
    58
 90
        2
176
     1
 90
        2
176
     1
 90
        1
176
     1
 90
        1
176
     1
 40
0.5
176
     1
 40
30.0
176
     1
 62
     7
420
 16777215
176
     1
 90
        1
176
     1
 90
        0
176
     1
 62
     7
176
     1
 62
   257
176
     1
 90
        1
176
     1
 90
        1
176
     1
 40
1.0
176
     1
 90
        8
176
     1
 62
     7
176
     1
 40
1.0
176
     1
 90
        1
176
     1
 90
        6
176
     1
 90
        2
176
     1
 62
     7
176
     1
 90
        3
176
     1
 90
        0
176
     1
 90
        0
176
     1
290
     0
176
     1
 90
       13
176
     1
 40
0.0
176
     1
 90
        0
176
     1
290
     0
176
     1
290
     1
176
     1
290
     1
176
     1
290
     0
176
     1
290
     0
176
     1
290
     0
176
     1
290
     0
176
     1
290
     0
176
     1
290
     0
176
     1
 90
       50
176
     1
 40
0.0
176
     1
 40
1.0
176
     1
 90
        0
176
     1
 62
    18
420
        0
176
     1
 90
       50
176
     1
 90
        3
176
     1
 62
     5
420
      255
176
     1
290
     0
176
     1
 90
       50
176
     1
 90
       50
176
     1
 90
       50
176
     1
290
     0
176
     1
 90
       50
176
     1
 62
   256
176
     0
 40
1.0
176
     0
 90
        2
176
     1
  1
strokes_ogs.tif
176
     1
290
     0
176
     1
 40
1.0
176
     1
 40
1.0
176
     1
  0
DICTIONARYVAR
  5
19E
102
{ACAD_REACTORS
330
19D
102
}
330
19D
100
DictionaryVariables
280
     0
  1
1:1
  0
DICTIONARYVAR
  5
1A3
102
{ACAD_REACTORS
330
19D
102
}
330
19D
100
DictionaryVariables
280
     0
  1
Standard
  0
DICTIONARYVAR
  5
1A2
102
{ACAD_REACTORS
330
19D
102
}
330
19D
100
DictionaryVariables
280
     0
  1
Standard
  0
DICTIONARYVAR
  5
1A6
102
{ACAD_REACTORS
330
19D
102
}
330
19D
100
DictionaryVariables
280
     0
  1
6.000000
  0
DICTIONARY
  5
19F
330
6A
100
AcDbDictionary
280
     1
281
     1
  3
ACAD_ROUNDTRIP_2008_TABLESTYLE_CELLSTYLEMAP
360
1A0
  0
CELLSTYLEMAP
  5
1A0
102
{ACAD_REACTORS
330
19F
102
}
330
19F
100
AcDbCellStyleMap
 90
        3
300
CELLSTYLE
  1
TABLEFORMAT_BEGIN
 90
        5
170
     1
 91
        0
 92
    32768
 62
   257
 93
        1
300
CONTENTFORMAT
  1
CONTENTFORMAT_BEGIN
 90
        0
 91
        0
 92
        4
 93
        0
300

 40
0.0
140
1.0
 94
        5
 62
     0
340
11
144
6.0
309
CONTENTFORMAT_END
171
     1
301
MARGIN
  1
CELLMARGIN_BEGIN
 40
1.5
 40
1.5
 40
1.5
 40
1.5
 40
1.5
 40
1.5
309
CELLMARGIN_END
 94
        6
 95
        1
302
GRIDFORMAT
  1
GRIDFORMAT_BEGIN
 90
        0
 91
        1
 62
     0
 92
       -2
340
14
 93
        0
 40
0.045
309
GRIDFORMAT_END
 95
        2
302
GRIDFORMAT
  1
GRIDFORMAT_BEGIN
 90
        0
 91
        1
 62
     0
 92
       -2
340
14
 93
        0
 40
0.045
309
GRIDFORMAT_END
 95
        4
302
GRIDFORMAT
  1
GRIDFORMAT_BEGIN
 90
        0
 91
        1
 62
     0
 92
       -2
340
14
 93
        0
 40
0.045
309
GRIDFORMAT_END
 95
        8
302
GRIDFORMAT
  1
GRIDFORMAT_BEGIN
 90
        0
 91
        1
 62
     0
 92
       -2
340
14
 93
        0
 40
0.045
309
GRIDFORMAT_END
 95
       16
302
GRIDFORMAT
  1
GRIDFORMAT_BEGIN
 90
        0
 91
        1
 62
     0
 92
       -2
340
14
 93
        0
 40
0.045
309
GRIDFORMAT_END
 95
       32
302
GRIDFORMAT
  1
GRIDFORMAT_BEGIN
 90
        0
 91
        1
 62
     0
 92
       -2
340
14
 93
        0
 40
0.045
309
GRIDFORMAT_END
309
TABLEFORMAT_END
  1
CELLSTYLE_BEGIN
 90
        1
 91
        1
300
_TITLE
309
CELLSTYLE_END
300
CELLSTYLE
  1
TABLEFORMAT_BEGIN
 90
        5
170
     1
 91
        0
 92
        0
 62
   257
 93
        1
300
CONTENTFORMAT
  1
CONTENTFORMAT_BEGIN
 90
        0
 91
        0
 92
        4
 93
        0
300

 40
0.0
140
1.0
 94
        5
 62
     0
340
11
144
4.5
309
CONTENTFORMAT_END
171
     1
301
MARGIN
  1
CELLMARGIN_BEGIN
 40
1.5
 40
1.5
 40
1.5
 40
1.5
 40
1.5
 40
1.5
309
CELLMARGIN_END
 94
        6
 95
        1
302
GRIDFORMAT
  1
GRIDFORMAT_BEGIN
 90
        0
 91
        1
 62
     0
 92
       -2
340
14
 93
        0
 40
0.045
309
GRIDFORMAT_END
 95
        2
302
GRIDFORMAT
  1
GRIDFORMAT_BEGIN
 90
        0
 91
        1
 62
     0
 92
       -2
340
14
 93
        0
 40
0.045
309
GRIDFORMAT_END
 95
        4
302
GRIDFORMAT
  1
GRIDFORMAT_BEGIN
 90
        0
 91
        1
 62
     0
 92
       -2
340
14
 93
        0
 40
0.045
309
GRIDFORMAT_END
 95
        8
302
GRIDFORMAT
  1
GRIDFORMAT_BEGIN
 90
        0
 91
        1
 62
     0
 92
       -2
340
14
 93
        0
 40
0.045
309
GRIDFORMAT_END
 95
       16
302
GRIDFORMAT
  1
GRIDFORMAT_BEGIN
 90
        0
 91
        1
 62
     0
 92
       -2
340
14
 93
        0
 40
0.045
309
GRIDFORMAT_END
 95
       32
302
GRIDFORMAT
  1
GRIDFORMAT_BEGIN
 90
        0
 91
        1
 62
     0
 92
       -2
340
14
 93
        0
 40
0.045
309
GRIDFORMAT_END
309
TABLEFORMAT_END
  1
CELLSTYLE_BEGIN
 90
        2
 91
        1
300
_HEADER
309
CELLSTYLE_END
300
CELLSTYLE
  1
TABLEFORMAT_BEGIN
 90
        5
170
     1
 91
        0
 92
        0
 62
   257
 93
        1
300
CONTENTFORMAT
  1
CONTENTFORMAT_BEGIN
 90
        0
 91
        0
 92
        4
 93
        0
300

 40
0.0
140
1.0
 94
        2
 62
     0
340
11
144
4.5
309
CONTENTFORMAT_END
171
     1
301
MARGIN
  1
CELLMARGIN_BEGIN
 40
1.5
 40
1.5
 40
1.5
 40
1.5
 40
1.5
 40
1.5
309
CELLMARGIN_END
 94
        6
 95
        1
302
GRIDFORMAT
  1
GRIDFORMAT_BEGIN
 90
        0
 91
        1
 62
     0
 92
       -2
340
14
 93
        0
 40
0.045
309
GRIDFORMAT_END
 95
        2
302
GRIDFORMAT
  1
GRIDFORMAT_BEGIN
 90
        0
 91
        1
 62
     0
 92
       -2
340
14
 93
        0
 40
0.045
309
GRIDFORMAT_END
 95
        4
302
GRIDFORMAT
  1
GRIDFORMAT_BEGIN
 90
        0
 91
        1
 62
     0
 92
       -2
340
14
 93
        0
 40
0.045
309
GRIDFORMAT_END
 95
        8
302
GRIDFORMAT
  1
GRIDFORMAT_BEGIN
 90
        0
 91
        1
 62
     0
 92
       -2
340
14
 93
        0
 40
0.045
309
GRIDFORMAT_END
 95
       16
302
GRIDFORMAT
  1
GRIDFORMAT_BEGIN
 90
        0
 91
        1
 62
     0
 92
       -2
340
14
 93
        0
 40
0.045
309
GRIDFORMAT_END
 95
       32
302
GRIDFORMAT
  1
GRIDFORMAT_BEGIN
 90
        0
 91
        1
 62
     0
 92
       -2
340
14
 93
        0
 40
0.045
309
GRIDFORMAT_END
309
TABLEFORMAT_END
  1
CELLSTYLE_BEGIN
 90
        3
 91
        2
300
_DATA
309
CELLSTYLE_END
  0
ENDSEC
  0
EOF