0
SECTION
  2
HEADER
  9
$ACADVER
  1
AC1027
  9
$ACADMAINTVER
 70
     8
  9
$DWGCODEPAGE
  3
ANSI_1252
  9
$REQUIREDVERSIONS
160
                 0
  9
$COMMENTS
  1
File was created by Cadenas
  9
$CUSTOMPROPERTYTAG
  1
NN
  9
$CUSTOMPROPERTY
  1
Grip Tight Medium Duty Air-handling Four-Bolt Flange
  9
$CUSTOMPROPERTYTAG
  1
NT
  9
$CUSTOMPROPERTY
  1
GTMAH Air Handling  Medium Duty 4 Bolt Flange Bearings
  9
$CUSTOMPROPERTYTAG
  1
NB
  9
$CUSTOMPROPERTY
  1
129704
  9
$CUSTOMPROPERTYTAG
  1
NBSYN
  9
$CUSTOMPROPERTY
  1
$PN.$LUBE.
  9
$CUSTOMPROPERTYTAG
  1
LINA
  9
$CUSTOMPROPERTY
  1
129704
  9
$CUSTOMPROPERTYTAG
  1
SERIES
  9
$CUSTOMPROPERTY
  1
218
  9
$CUSTOMPROPERTYTAG
  1
SS
  9
$CUSTOMPROPERTY
  1
3-7/16
  9
$CUSTOMPROPERTYTAG
  1
PN
  9
$CUSTOMPROPERTY
  1
129704
  9
$CUSTOMPROPERTYTAG
  1
DESCRIPTION
  9
$CUSTOMPROPERTY
  1
F4B-GTMAH-307
  9
$CUSTOMPROPERTYTAG
  1
A
  9
$CUSTOMPROPERTY
  1
2-51/64
  9
$CUSTOMPROPERTYTAG
  1
B
  9
$CUSTOMPROPERTY
  1
8-7/16
  9
$CUSTOMPROPERTYTAG
  1
C
  9
$CUSTOMPROPERTY
  1
3-37/64
  9
$CUSTOMPROPERTYTAG
  1
D
  9
$CUSTOMPROPERTY
  1
6-3/4
  9
$CUSTOMPROPERTYTAG
  1
F
  9
$CUSTOMPROPERTY
  1
3/4
  9
$CUSTOMPROPERTYTAG
  1
H
  9
$CUSTOMPROPERTY
  1
1
  9
$CUSTOMPROPERTYTAG
  1
J
  9
$CUSTOMPROPERTY
  1
3/4
  9
$CUSTOMPROPERTYTAG
  1
L
  9
$CUSTOMPROPERTY
  1
5
  9
$CUSTOMPROPERTYTAG
  1
N
  9
$CUSTOMPROPERTY
  1
4-5/8
  9
$CUSTOMPROPERTYTAG
  1
Z
  9
$CUSTOMPROPERTY
  1
3-17/32
  9
$CUSTOMPROPERTYTAG
  1
COMPANY
  9
$CUSTOMPROPERTY
  1
baldor
  9
$INSBASE
 10
0.0
 20
0.0
 30
0.0
  9
$EXTMIN
 10
1.000000000000000E+20
 20
1.000000000000000E+20
 30
1.000000000000000E+20
  9
$EXTMAX
 10
-1.000000000000000E+20
 20
-1.000000000000000E+20
 30
-1.000000000000000E+20
  9
$LIMMIN
 10
0.0
 20
0.0
  9
$LIMMAX
 10
12.0
 20
9.0
  9
$ORTHOMODE
 70
     0
  9
$REGENMODE
 70
     1
  9
$FILLMODE
 70
     1
  9
$QTEXTMODE
 70
     0
  9
$MIRRTEXT
 70
     1
  9
$LTSCALE
 40
1.0
  9
$ATTMODE
 70
     1
  9
$TEXTSIZE
 40
0.2
  9
$TRACEWID
 40
0.05
  9
$TEXTSTYLE
  7
Standard
  9
$CLAYER
  8
0
  9
$CELTYPE
  6
ByLayer
  9
$CECOLOR
 62
   256
  9
$CELTSCALE
 40
1.0
  9
$DISPSILH
 70
     0
  9
$DIMSCALE
 40
1.0
  9
$DIMASZ
 40
0.18
  9
$DIMEXO
 40
0.0625
  9
$DIMDLI
 40
0.38
  9
$DIMRND
 40
0.0
  9
$DIMDLE
 40
0.0
  9
$DIMEXE
 40
0.18
  9
$DIMTP
 40
0.0
  9
$DIMTM
 40
0.0
  9
$DIMTXT
 40
0.18
  9
$DIMCEN
 40
0.09
  9
$DIMTSZ
 40
0.0
  9
$DIMTOL
 70
     0
  9
$DIMLIM
 70
     0
  9
$DIMTIH
 70
     1
  9
$DIMTOH
 70
     1
  9
$DIMSE1
 70
     0
  9
$DIMSE2
 70
     0
  9
$DIMTAD
 70
     0
  9
$DIMZIN
 70
     0
  9
$DIMBLK
  1

  9
$DIMASO
 70
     1
  9
$DIMSHO
 70
     1
  9
$DIMPOST
  1

  9
$DIMAPOST
  1

  9
$DIMALT
 70
     0
  9
$DIMALTD
 70
     2
  9
$DIMALTF
 40
25.4
  9
$DIMLFAC
 40
1.0
  9
$DIMTOFL
 70
     0
  9
$DIMTVP
 40
0.0
  9
$DIMTIX
 70
     0
  9
$DIMSOXD
 70
     0
  9
$DIMSAH
 70
     0
  9
$DIMBLK1
  1

  9
$DIMBLK2
  1

  9
$DIMSTYLE
  2
Standard
  9
$DIMCLRD
 70
     0
  9
$DIMCLRE
 70
     0
  9
$DIMCLRT
 70
     0
  9
$DIMTFAC
 40
1.0
  9
$DIMGAP
 40
0.09
  9
$DIMJUST
 70
     0
  9
$DIMSD1
 70
     0
  9
$DIMSD2
 70
     0
  9
$DIMTOLJ
 70
     1
  9
$DIMTZIN
 70
     0
  9
$DIMALTZ
 70
     0
  9
$DIMALTTZ
 70
     0
  9
$DIMUPT
 70
     0
  9
$DIMDEC
 70
     4
  9
$DIMTDEC
 70
     4
  9
$DIMALTU
 70
     2
  9
$DIMALTTD
 70
     2
  9
$DIMTXSTY
  7
Standard
  9
$DIMAUNIT
 70
     0
  9
$DIMADEC
 70
     0
  9
$DIMALTRND
 40
0.0
  9
$DIMAZIN
 70
     0
  9
$DIMDSEP
 70
    46
  9
$DIMATFIT
 70
     3
  9
$DIMFRAC
 70
     0
  9
$DIMLDRBLK
  1

  9
$DIMLUNIT
 70
     2
  9
$DIMLWD
 70
    -2
  9
$DIMLWE
 70
    -2
  9
$DIMTMOVE
 70
     0
  9
$DIMFXL
 40
1.0
  9
$DIMFXLON
 70
     0
  9
$DIMJOGANG
 40
0.7853981633974483
  9
$DIMTFILL
 70
     0
  9
$DIMTFILLCLR
 70
     0
  9
$DIMARCSYM
 70
     0
  9
$DIMLTYPE
  6

  9
$DIMLTEX1
  6

  9
$DIMLTEX2
  6

  9
$DIMTXTDIRECTION
 70
     0
  9
$LUNITS
 70
     2
  9
$LUPREC
 70
     4
  9
$SKETCHINC
 40
0.1
  9
$FILLETRAD
 40
0.5
  9
$AUNITS
 70
     0
  9
$AUPREC
 70
     0
  9
$MENU
  1
.
  9
$ELEVATION
 40
0.0
  9
$PELEVATION
 40
0.0
  9
$THICKNESS
 40
0.0
  9
$LIMCHECK
 70
     0
  9
$CHAMFERA
 40
0.0
  9
$CHAMFERB
 40
0.0
  9
$CHAMFERC
 40
0.0
  9
$CHAMFERD
 40
0.0
  9
$SKPOLY
 70
     0
  9
$TDCREATE
 40
2458168.977001158
  9
$TDUCREATE
 40
2458168.935334491
  9
$TDUPDATE
 40
2458168.977001342
  9
$TDUUPDATE
 40
2458168.935334676
  9
$TDINDWG
 40
0.0000000116
  9
$TDUSRTIMER
 40
0.0000000116
  9
$USRTIMER
 70
     1
  9
$ANGBASE
 50
0.0
  9
$ANGDIR
 70
     0
  9
$PDMODE
 70
     0
  9
$PDSIZE
 40
0.0
  9
$PLINEWID
 40
0.0
  9
$SPLFRAME
 70
     0
  9
$SPLINETYPE
 70
     6
  9
$SPLINESEGS
 70
     8
  9
$HANDSEED
  5
225
  9
$SURFTAB1
 70
     6
  9
$SURFTAB2
 70
     6
  9
$SURFTYPE
 70
     6
  9
$SURFU
 70
     6
  9
$SURFV
 70
     6
  9
$UCSBASE
  2

  9
$UCSNAME
  2

  9
$UCSORG
 10
0.0
 20
0.0
 30
0.0
  9
$UCSXDIR
 10
1.0
 20
0.0
 30
0.0
  9
$UCSYDIR
 10
0.0
 20
1.0
 30
0.0
  9
$UCSORTHOREF
  2

  9
$UCSORTHOVIEW
 70
     0
  9
$UCSORGTOP
 10
0.0
 20
0.0
 30
0.0
  9
$UCSORGBOTTOM
 10
0.0
 20
0.0
 30
0.0
  9
$UCSORGLEFT
 10
0.0
 20
0.0
 30
0.0
  9
$UCSORGRIGHT
 10
0.0
 20
0.0
 30
0.0
  9
$UCSORGFRONT
 10
0.0
 20
0.0
 30
0.0
  9
$UCSORGBACK
 10
0.0
 20
0.0
 30
0.0
  9
$PUCSBASE
  2

  9
$PUCSNAME
  2

  9
$PUCSORG
 10
0.0
 20
0.0
 30
0.0
  9
$PUCSXDIR
 10
1.0
 20
0.0
 30
0.0
  9
$PUCSYDIR
 10
0.0
 20
1.0
 30
0.0
  9
$PUCSORTHOREF
  2

  9
$PUCSORTHOVIEW
 70
     0
  9
$PUCSORGTOP
 10
0.0
 20
0.0
 30
0.0
  9
$PUCSORGBOTTOM
 10
0.0
 20
0.0
 30
0.0
  9
$PUCSORGLEFT
 10
0.0
 20
0.0
 30
0.0
  9
$PUCSORGRIGHT
 10
0.0
 20
0.0
 30
0.0
  9
$PUCSORGFRONT
 10
0.0
 20
0.0
 30
0.0
  9
$PUCSORGBACK
 10
0.0
 20
0.0
 30
0.0
  9
$USERI1
 70
     0
  9
$USERI2
 70
     0
  9
$USERI3
 70
     0
  9
$USERI4
 70
     0
  9
$USERI5
 70
     0
  9
$USERR1
 40
0.0
  9
$USERR2
 40
0.0
  9
$USERR3
 40
0.0
  9
$USERR4
 40
0.0
  9
$USERR5
 40
0.0
  9
$WORLDVIEW
 70
     1
  9
$SHADEDGE
 70
     3
  9
$SHADEDIF
 70
    70
  9
$TILEMODE
 70
     1
  9
$MAXACTVP
 70
    64
  9
$PINSBASE
 10
0.0
 20
0.0
 30
0.0
  9
$PLIMCHECK
 70
     0
  9
$PEXTMIN
 10
1.000000000000000E+20
 20
1.000000000000000E+20
 30
1.000000000000000E+20
  9
$PEXTMAX
 10
-1.000000000000000E+20
 20
-1.000000000000000E+20
 30
-1.000000000000000E+20
  9
$PLIMMIN
 10
0.0
 20
0.0
  9
$PLIMMAX
 10
12.0
 20
9.0
  9
$UNITMODE
 70
     0
  9
$VISRETAIN
 70
     1
  9
$PLINEGEN
 70
     0
  9
$PSLTSCALE
 70
     1
  9
$TREEDEPTH
 70
  3020
  9
$CMLSTYLE
  2
Standard
  9
$CMLJUST
 70
     0
  9
$CMLSCALE
 40
1.0
  9
$PROXYGRAPHICS
 70
     1
  9
$MEASUREMENT
 70
     0
  9
$CELWEIGHT
370
    -1
  9
$ENDCAPS
280
     0
  9
$JOINSTYLE
280
     0
  9
$LWDISPLAY
290
     0
  9
$INSUNITS
 70
     1
  9
$HYPERLINKBASE
  1

  9
$STYLESHEET
  1

  9
$XEDIT
290
     1
  9
$CEPSNTYPE
380
     0
  9
$PSTYLEMODE
290
     1
  9
$FINGERPRINTGUID
  2
{9C68CDC2-659C-43A8-8934-D98AD5F563E6}
  9
$VERSIONGUID
  2
{FAEB1C32-E019-11D5-929B-00C0DF256EC4}
  9
$EXTNAMES
290
     1
  9
$PSVPSCALE
 40
0.0
  9
$OLESTARTUP
290
     0
  9
$SORTENTS
280
   127
  9
$INDEXCTL
280
     0
  9
$HIDETEXT
280
     1
  9
$XCLIPFRAME
280
     2
  9
$HALOGAP
280
     0
  9
$OBSCOLOR
 70
   257
  9
$OBSLTYPE
280
     0
  9
$INTERSECTIONDISPLAY
280
     0
  9
$INTERSECTIONCOLOR
 70
   257
  9
$DIMASSOC
280
     2
  9
$PROJECTNAME
  1

  9
$CAMERADISPLAY
290
     0
  9
$LENSLENGTH
 40
50.0
  9
$CAMERAHEIGHT
 40
0.0
  9
$STEPSPERSEC
 40
2.0
  9
$STEPSIZE
 40
6.0
  9
$3DDWFPREC
 40
2.0
  9
$PSOLWIDTH
 40
0.25
  9
$PSOLHEIGHT
 40
4.0
  9
$LOFTANG1
 40
1.570796326794897
  9
$LOFTANG2
 40
1.570796326794897
  9
$LOFTMAG1
 40
0.0
  9
$LOFTMAG2
 40
0.0
  9
$LOFTPARAM
 70
     7
  9
$LOFTNORMALS
280
     1
  9
$LATITUDE
 40
37.795
  9
$LONGITUDE
 40
-122.394
  9
$NORTHDIRECTION
 40
0.0
  9
$TIMEZONE
 70
 -8000
  9
$LIGHTGLYPHDISPLAY
280
     1
  9
$TILEMODELIGHTSYNCH
280
     1
  9
$CMATERIAL
347
44
  9
$SOLIDHIST
280
     0
  9
$SHOWHIST
280
     1
  9
$DWFFRAME
280
     2
  9
$DGNFRAME
280
     2
  9
$REALWORLDSCALE
290
     1
  9
$INTERFERECOLOR
 62
   256
  9
$CSHADOW
280
     0
  9
$SHADOWPLANELOCATION
 40
0.0
  0
ENDSEC
  0
SECTION
  2
CLASSES
  0
CLASS
  1
ACDBDICTIONARYWDFLT
  2
AcDbDictionaryWithDefault
  3
ObjectDBX Classes
 90
        0
 91
        4
280
     0
281
     0
  0
CLASS
  1
VISUALSTYLE
  2
AcDbVisualStyle
  3
ObjectDBX Classes
 90
     4095
 91
        4
280
     0
281
     0
  0
CLASS
  1
MATERIAL
  2
AcDbMaterial
  3
ObjectDBX Classes
 90
     1153
 91
        4
280
     0
281
     0
  0
CLASS
  1
SCALE
  2
AcDbScale
  3
ObjectDBX Classes
 90
     1153
 91
        4
280
     0
281
     0
  0
CLASS
  1
TABLESTYLE
  2
AcDbTableStyle
  3
ObjectDBX Classes
 90
     4095
 91
        4
280
     0
281
     0
  0
CLASS
  1
MLEADERSTYLE
  2
AcDbMLeaderStyle
  3
ACDB_MLEADERSTYLE_CLASS
 90
     4095
 91
        4
280
     0
281
     0
  0
CLASS
  1
SUN
  2
AcDbSun
  3
SCENEOE
 90
     1153
 91
        4
280
     0
281
     0
  0
CLASS
  1
DICTIONARYVAR
  2
AcDbDictionaryVar
  3
ObjectDBX Classes
 90
        0
 91
        4
280
     0
281
     0
  0
CLASS
  1
CELLSTYLEMAP
  2
AcDbCellStyleMap
  3
ObjectDBX Classes
 90
     1152
 91
        4
280
     0
281
     0
  0
ENDSEC
  0
SECTION
  2
TABLES
  0
TABLE
  2
VPORT
  5
8
330
0
100
AcDbSymbolTable
 70
     1
  0
VPORT
  5
29
330
8
100
AcDbSymbolTableRecord
100
AcDbViewportTableRecord
  2
*Active
 70
     0
 10
0.0
 20
0.0
 11
1.0
 21
1.0
 12
0.0
 22
0.2160772736692902
 13
0.0
 23
0.0
 14
0.5
 24
0.5
 15
0.5
 25
0.5
 16
0.0
 26
0.0
 36
1.0
 17
0.0
 27
0.0
 37
0.0
 40
9.047557638285355
 41
0.9512799303515805
 42
50.0
 43
0.0
 44
0.0
 50
0.0
 51
0.0
 71
     0
 72
   100
 73
     1
 74
     3
 75
     0
 76
     0
 77
     0
 78
     0
281
     0
 65
     1
110
0.0
120
0.0
130
0.0
111
1.0
121
0.0
131
0.0
112
0.0
122
1.0
132
0.0
 79
     0
146
0.0
348
2F
 60
     3
 61
     5
292
     1
282
     1
141
0.0
142
0.0
 63
   250
361
6D
  0
ENDTAB
  0
TABLE
  2
LTYPE
  5
5
330
0
100
AcDbSymbolTable
 70
     3
  0
LTYPE
  5
14
330
5
100
AcDbSymbolTableRecord
100
AcDbLinetypeTableRecord
  2
ByBlock
 70
     0
  3

 72
    65
 73
     0
 40
0.0
  0
LTYPE
  5
15
330
5
100
AcDbSymbolTableRecord
100
AcDbLinetypeTableRecord
  2
ByLayer
 70
     0
  3

 72
    65
 73
     0
 40
0.0
  0
LTYPE
  5
16
330
5
100
AcDbSymbolTableRecord
100
AcDbLinetypeTableRecord
  2
Continuous
 70
     0
  3
Solid line
 72
    65
 73
     0
 40
0.0
  0
LTYPE
  5
9D
330
5
100
AcDbSymbolTableRecord
100
AcDbLinetypeTableRecord
  2
Dashed
 70
     0
  3

 72
    65
 73
     2
 40
2.0
 49
1.0
 74
     0
 49
-1.0
 74
     0
  0
LTYPE
  5
10D
330
5
100
AcDbSymbolTableRecord
100
AcDbLinetypeTableRecord
  2
Center
 70
     0
  3

 72
    65
 73
     4
 40
1.5
 49
0.45
 74
     0
 49
-0.5
 74
     0
 49
0.05
 74
     0
 49
-0.5
 74
     0
  0
ENDTAB
  0
TABLE
  2
LAYER
  5
2
330
0
100
AcDbSymbolTable
 70
     7
  0
LAYER
  5
10
330
2
100
AcDbSymbolTableRecord
100
AcDbLayerTableRecord
  2
0
 70
     0
 62
     7
  6
Continuous
370
    -3
390
F
347
46
348
0
  0
LAYER
  5
72
330
2
100
AcDbSymbolTableRecord
100
AcDbLayerTableRecord
  2
AM_6
 70
     0
 62
    -2
  6
Continuous
370
    35
390
F
347
46
348
0
  0
LAYER
  5
9E
330
2
100
AcDbSymbolTableRecord
100
AcDbLayerTableRecord
  2
AM_9
 70
     0
 62
     6
  6
Dashed
370
    25
390
F
347
46
348
0
  0
LAYER
  5
A6
330
2
100
AcDbSymbolTableRecord
100
AcDbLayerTableRecord
  2
AM_4
 70
     0
 62
     3
  6
Continuous
370
    25
390
F
347
46
348
0
  0
LAYER
  5
D1
330
2
100
AcDbSymbolTableRecord
100
AcDbLayerTableRecord
  2
AM_5
 70
     0
 62
     3
  6
Continuous
370
    25
390
F
347
46
348
0
  0
LAYER
  5
10E
330
2
100
AcDbSymbolTableRecord
100
AcDbLayerTableRecord
  2
AM_7
 70
     0
 62
     7
  6
Center
370
    25
390
F
347
46
348
0
  0
LAYER
  5
218
330
2
100
AcDbSymbolTableRecord
100
AcDbLayerTableRecord
  2
ConnectionPoints
 70
     0
 62
     7
  6
Continuous
370
    50
390
F
347
46
348
0
  0
ENDTAB
  0
TABLE
  2
STYLE
  5
3
330
0
100
AcDbSymbolTable
 70
     1
  0
STYLE
  5
11
330
3
100
AcDbSymbolTableRecord
100
AcDbTextStyleTableRecord
  2
Standard
 70
     0
 40
0.0
 41
1.0
 50
0.0
 71
     0
 42
0.2
  3
txt
  4

  0
ENDTAB
  0
TABLE
  2
VIEW
  5
6
330
0
100
AcDbSymbolTable
 70
     0
  0
ENDTAB
  0
TABLE
  2
UCS
  5
7
330
0
100
AcDbSymbolTable
 70
     0
  0
ENDTAB
  0
TABLE
  2
APPID
  5
9
330
0
100
AcDbSymbolTable
 70
     1
  0
APPID
  5
12
330
9
100
AcDbSymbolTableRecord
100
AcDbRegAppTableRecord
  2
ACAD
 70
     0
  0
ENDTAB
  0
TABLE
  2
DIMSTYLE
  5
A
330
0
100
AcDbSymbolTable
 70
     1
100
AcDbDimStyleTable
  0
DIMSTYLE
105
27
330
A
100
AcDbSymbolTableRecord
100
AcDbDimStyleTableRecord
  2
Standard
 70
     0
178
     0
340
11
  0
ENDTAB
  0
TABLE
  2
BLOCK_RECORD
  5
1
330
0
100
AcDbSymbolTable
 70
     5
  0
BLOCK_RECORD
  5
1F
330
1
100
AcDbSymbolTableRecord
100
AcDbBlockTableRecord
  2
*Model_Space
340
22
 70
     0
280
     1
281
     0
  0
BLOCK_RECORD
  5
1B
330
1
100
AcDbSymbolTableRecord
100
AcDbBlockTableRecord
  2
*Paper_Space
340
1E
 70
     0
280
     1
281
     0
  0
BLOCK_RECORD
  5
23
330
1
100
AcDbSymbolTableRecord
100
AcDbBlockTableRecord
  2
*Paper_Space0
340
26
 70
     0
280
     1
281
     0
  0
BLOCK_RECORD
  5
6E
330
1
100
AcDbSymbolTableRecord
100
AcDbBlockTableRecord
  2
1_129704_0
340
0
102
{BLKREFS
331
6F
102
}
 70
     0
280
     1
281
     0
  0
BLOCK_RECORD
  5
87
330
1
100
AcDbSymbolTableRecord
100
AcDbBlockTableRecord
  2
2_129529I_0_in_129704_0
340
0
102
{BLKREFS
331
88
102
}
 70
     0
280
     1
281
     0
  0
BLOCK_RECORD
  5
AC
330
1
100
AcDbSymbolTableRecord
100
AcDbBlockTableRecord
  2
3_129940_0_in_129704_0
340
0
102
{BLKREFS
331
AD
102
}
 70
     0
280
     1
281
     0
  0
BLOCK_RECORD
  5
E8
330
1
100
AcDbSymbolTableRecord
100
AcDbBlockTableRecord
  2
4_129489I_0_in_129704_0
340
0
102
{BLKREFS
331
E9
102
}
 70
     0
280
     1
281
     0
  0
ENDTAB
  0
ENDSEC
  0
SECTION
  2
BLOCKS
  0
BLOCK
  5
20
330
1F
100
AcDbEntity
  8
0
100
AcDbBlockBegin
  2
*Model_Space
 70
     0
 10
0.0
 20
0.0
 30
0.0
  3
*Model_Space
  1

  0
ENDBLK
  5
21
330
1F
100
AcDbEntity
  8
0
100
AcDbBlockEnd
  0
BLOCK
  5
1C
330
1B
100
AcDbEntity
 67
     1
  8
0
100
AcDbBlockBegin
  2
*Paper_Space
 70
     0
 10
0.0
 20
0.0
 30
0.0
  3
*Paper_Space
  1

  0
ENDBLK
  5
1D
330
1B
100
AcDbEntity
 67
     1
  8
0
100
AcDbBlockEnd
  0
BLOCK
  5
24
330
23
100
AcDbEntity
  8
0
100
AcDbBlockBegin
  2
*Paper_Space0
 70
     0
 10
0.0
 20
0.0
 30
0.0
  3
*Paper_Space0
  1

  0
ENDBLK
  5
25
330
23
100
AcDbEntity
  8
0
100
AcDbBlockEnd
  0
BLOCK
  5
70
330
6E
100
AcDbEntity
  8
0
100
AcDbBlockBegin
  2
1_129704_0
 70
     2
 10
0.0
 20
0.0
 30
0.0
  3
1_129704_0
  1

  0
ATTDEF
  5
73
330
6E
100
AcDbEntity
  8
AM_6
100
AcDbText
 10
9.219000000000001
 20
4.651154547338582
 30
0.0
 40
0.5
  1
Grip Tight Medium Duty Air-handling Four-Bolt Flange
100
AcDbAttributeDefinition
  3

  2
NN
 70
     8
280
     0
  0
ATTDEF
  5
74
330
6E
100
AcDbEntity
  8
AM_6
100
AcDbText
 10
9.219000000000001
 20
4.151154547338582
 30
0.0
 40
0.5
  1
GTMAH Air Handling  Medium Duty 4 Bolt Flange Bearings
100
AcDbAttributeDefinition
  3

  2
NT
 70
     8
280
     0
  0
ATTDEF
  5
75
330
6E
100
AcDbEntity
  8
AM_6
100
AcDbText
 10
9.219000000000001
 20
3.651154547338582
 30
0.0
 40
0.5
  1
129704
100
AcDbAttributeDefinition
  3

  2
NB
 70
     8
280
     0
  0
ATTDEF
  5
76
330
6E
100
AcDbEntity
  8
AM_6
100
AcDbText
 10
9.219000000000001
 20
3.151154547338582
 30
0.0
 40
0.5
  1
$PN.$LUBE.
100
AcDbAttributeDefinition
  3

  2
NBSYN
 70
     8
280
     0
  0
ATTDEF
  5
77
330
6E
100
AcDbEntity
  8
AM_6
100
AcDbText
 10
9.219000000000001
 20
2.651154547338582
 30
0.0
 40
0.5
  1
129704
100
AcDbAttributeDefinition
  3

  2
LINA
 70
     8
280
     0
  0
ATTDEF
  5
78
330
6E
100
AcDbEntity
  8
AM_6
100
AcDbText
 10
9.219000000000001
 20
2.151154547338582
 30
0.0
 40
0.5
  1
218
100
AcDbAttributeDefinition
  3

  2
SERIES
 70
     8
280
     0
  0
ATTDEF
  5
79
330
6E
100
AcDbEntity
  8
AM_6
100
AcDbText
 10
9.219000000000001
 20
1.651154547338582
 30
0.0
 40
0.5
  1
3-7/16
100
AcDbAttributeDefinition
  3

  2
SS
 70
     8
280
     0
  0
ATTDEF
  5
7A
330
6E
100
AcDbEntity
  8
AM_6
100
AcDbText
 10
9.219000000000001
 20
1.151154547338582
 30
0.0
 40
0.5
  1
129704
100
AcDbAttributeDefinition
  3

  2
PN
 70
     8
280
     0
  0
ATTDEF
  5
7B
330
6E
100
AcDbEntity
  8
AM_6
100
AcDbText
 10
9.219000000000001
 20
0.6511545473385825
 30
0.0
 40
0.5
  1
F4B-GTMAH-307
100
AcDbAttributeDefinition
  3

  2
DESCRIPTION
 70
     8
280
     0
  0
ATTDEF
  5
7C
330
6E
100
AcDbEntity
  8
AM_6
100
AcDbText
 10
9.219000000000001
 20
0.1511545473385825
 30
0.0
 40
0.5
  1
2-51/64
100
AcDbAttributeDefinition
  3

  2
A
 70
     8
280
     0
  0
ATTDEF
  5
7D
330
6E
100
AcDbEntity
  8
AM_6
100
AcDbText
 10
9.219000000000001
 20
-0.3488454526614175
 30
0.0
 40
0.5
  1
8-7/16
100
AcDbAttributeDefinition
  3

  2
B
 70
     8
280
     0
  0
ATTDEF
  5
7E
330
6E
100
AcDbEntity
  8
AM_6
100
AcDbText
 10
9.219000000000001
 20
-0.8488454526614175
 30
0.0
 40
0.5
  1
3-37/64
100
AcDbAttributeDefinition
  3

  2
C
 70
     8
280
     0
  0
ATTDEF
  5
7F
330
6E
100
AcDbEntity
  8
AM_6
100
AcDbText
 10
9.219000000000001
 20
-1.348845452661418
 30
0.0
 40
0.5
  1
6-3/4
100
AcDbAttributeDefinition
  3

  2
D
 70
     8
280
     0
  0
ATTDEF
  5
80
330
6E
100
AcDbEntity
  8
AM_6
100
AcDbText
 10
9.219000000000001
 20
-1.848845452661418
 30
0.0
 40
0.5
  1
3/4
100
AcDbAttributeDefinition
  3

  2
F
 70
     8
280
     0
  0
ATTDEF
  5
81
330
6E
100
AcDbEntity
  8
AM_6
100
AcDbText
 10
9.219000000000001
 20
-2.348845452661418
 30
0.0
 40
0.5
  1
1
100
AcDbAttributeDefinition
  3

  2
H
 70
     8
280
     0
  0
ATTDEF
  5
82
330
6E
100
AcDbEntity
  8
AM_6
100
AcDbText
 10
9.219000000000001
 20
-2.848845452661418
 30
0.0
 40
0.5
  1
3/4
100
AcDbAttributeDefinition
  3

  2
J
 70
     8
280
     0
  0
ATTDEF
  5
83
330
6E
100
AcDbEntity
  8
AM_6
100
AcDbText
 10
9.219000000000001
 20
-3.348845452661418
 30
0.0
 40
0.5
  1
5
100
AcDbAttributeDefinition
  3

  2
L
 70
     8
280
     0
  0
ATTDEF
  5
84
330
6E
100
AcDbEntity
  8
AM_6
100
AcDbText
 10
9.219000000000001
 20
-3.848845452661418
 30
0.0
 40
0.5
  1
4-5/8
100
AcDbAttributeDefinition
  3

  2
N
 70
     8
280
     0
  0
ATTDEF
  5
85
330
6E
100
AcDbEntity
  8
AM_6
100
AcDbText
 10
9.219000000000001
 20
-4.348845452661418
 30
0.0
 40
0.5
  1
3-17/32
100
AcDbAttributeDefinition
  3

  2
Z
 70
     8
280
     0
  0
ATTDEF
  5
86
330
6E
100
AcDbEntity
  8
AM_6
100
AcDbText
 10
9.219000000000001
 20
-4.848845452661418
 30
0.0
 40
0.5
  1
baldor
100
AcDbAttributeDefinition
  3

  2
COMPANY
 70
     8
280
     0
  0
INSERT
  5
88
330
6E
100
AcDbEntity
  8
0
100
AcDbBlockReference
  2
2_129529I_0_in_129704_0
 10
0.0
 20
0.0
 30
0.0
  0
INSERT
  5
AD
330
6E
100
AcDbEntity
  8
0
100
AcDbBlockReference
  2
3_129940_0_in_129704_0
 10
0.0
 20
0.0
 30
0.0
  0
INSERT
  5
E9
330
6E
100
AcDbEntity
  8
0
100
AcDbBlockReference
  2
4_129489I_0_in_129704_0
 10
0.0
 20
0.0
 30
0.0
  0
ENDBLK
  5
71
330
6E
100
AcDbEntity
  8
0
100
AcDbBlockEnd
  0
BLOCK
  5
89
330
87
100
AcDbEntity
  8
0
100
AcDbBlockBegin
  2
2_129529I_0_in_129704_0
 70
     2
 10
0.0
 20
0.0
 30
0.0
  3
2_129529I_0_in_129704_0
  1

  0
ATTDEF
  5
8B
330
87
100
AcDbEntity
  8
AM_6
100
AcDbText
 10
8.134567647264811
 20
3.134567647264811
 30
0.0
 40
0.5
  1
INS-GT B
100
AcDbAttributeDefinition
  3

  2
NN
 70
     8
280
     0
  0
ATTDEF
  5
8C
330
87
100
AcDbEntity
  8
AM_6
100
AcDbText
 10
8.134567647264811
 20
2.634567647264811
 30
0.0
 40
0.5
  1
GT Normal Duty Bearing Inserts
100
AcDbAttributeDefinition
  3

  2
NT
 70
     8
280
     0
  0
ATTDEF
  5
8D
330
87
100
AcDbEntity
  8
AM_6
100
AcDbText
 10
8.134567647264811
 20
2.134567647264811
 30
0.0
 40
0.5
  1
129529I
100
AcDbAttributeDefinition
  3

  2
NB
 70
     8
280
     0
  0
ATTDEF
  5
8E
330
87
100
AcDbEntity
  8
AM_6
100
AcDbText
 10
8.134567647264811
 20
1.634567647264811
 30
0.0
 40
0.5
  1
$PN.I
100
AcDbAttributeDefinition
  3

  2
NBSYN
 70
     8
280
     0
  0
ATTDEF
  5
8F
330
87
100
AcDbEntity
  8
AM_6
100
AcDbText
 10
8.134567647264811
 20
1.134567647264811
 30
0.0
 40
0.5
  1
129529
100
AcDbAttributeDefinition
  3

  2
LINA
 70
     8
280
     0
  0
ATTDEF
  5
90
330
87
100
AcDbEntity
  8
AM_6
100
AcDbText
 10
8.134567647264811
 20
0.6345676472648107
 30
0.0
 40
0.5
  1
218
100
AcDbAttributeDefinition
  3

  2
SERIES
 70
     8
280
     0
  0
ATTDEF
  5
91
330
87
100
AcDbEntity
  8
AM_6
100
AcDbText
 10
8.134567647264811
 20
0.1345676472648107
 30
0.0
 40
0.5
  1
129529
100
AcDbAttributeDefinition
  3

  2
PN
 70
     8
280
     0
  0
ATTDEF
  5
92
330
87
100
AcDbEntity
  8
AM_6
100
AcDbText
 10
8.134567647264811
 20
-0.3654323527351893
 30
0.0
 40
0.5
  1
INS-GT-18
100
AcDbAttributeDefinition
  3

  2
DESCRIPTION
 70
     8
280
     0
  0
ATTDEF
  5
93
330
87
100
AcDbEntity
  8
AM_6
100
AcDbText
 10
8.134567647264811
 20
-0.8654323527351893
 30
0.0
 40
0.5
  1
2.80
100
AcDbAttributeDefinition
  3

  2
A
 70
     8
280
     0
  0
ATTDEF
  5
94
330
87
100
AcDbEntity
  8
AM_6
100
AcDbText
 10
8.134567647264811
 20
-1.365432352735189
 30
0.0
 40
0.5
  1
1.34
100
AcDbAttributeDefinition
  3

  2
C
 70
     8
280
     0
  0
ATTDEF
  5
95
330
87
100
AcDbEntity
  8
AM_6
100
AcDbText
 10
8.134567647264811
 20
-1.865432352735189
 30
0.0
 40
0.5
  1
6.2992
100
AcDbAttributeDefinition
  3

  2
D
 70
     8
280
     0
  0
ATTDEF
  5
96
330
87
100
AcDbEntity
  8
AM_6
100
AcDbText
 10
8.134567647264811
 20
-2.365432352735189
 30
0.0
 40
0.5
  1
0.30
100
AcDbAttributeDefinition
  3

  2
J
 70
     8
280
     0
  0
ATTDEF
  5
97
330
87
100
AcDbEntity
  8
AM_6
100
AcDbText
 10
8.134567647264811
 20
-2.865432352735189
 30
0.0
 40
0.5
  1
5.19
100
AcDbAttributeDefinition
  3

  2
L
 70
     8
280
     0
  0
ATTDEF
  5
98
330
87
100
AcDbEntity
  8
AM_6
100
AcDbText
 10
8.134567647264811
 20
-3.365432352735189
 30
0.0
 40
0.5
  1
#10 - 32 x 1/4
100
AcDbAttributeDefinition
  3

  2
N
 70
     8
280
     0
  0
ATTDEF
  5
99
330
87
100
AcDbEntity
  8
AM_6
100
AcDbText
 10
8.134567647264811
 20
-3.865432352735189
 30
0.0
 40
0.5
  1
0.96000
100
AcDbAttributeDefinition
  3

  2
W
 70
     8
280
     0
  0
ATTDEF
  5
9A
330
87
100
AcDbEntity
  8
AM_6
100
AcDbText
 10
8.134567647264811
 20
-4.365432352735189
 30
0.0
 40
0.5
  1
1.81
100
AcDbAttributeDefinition
  3

  2
X
 70
     8
280
     0
  0
ATTDEF
  5
9B
330
87
100
AcDbEntity
  8
AM_6
100
AcDbText
 10
8.134567647264811
 20
-4.865432352735189
 30
0.0
 40
0.5
  1
1.84
100
AcDbAttributeDefinition
  3

  2
Y
 70
     8
280
     0
  0
ATTDEF
  5
9C
330
87
100
AcDbEntity
  8
AM_6
100
AcDbText
 10
8.134567647264811
 20
-5.365432352735189
 30
0.0
 40
0.5
  1
baldor
100
AcDbAttributeDefinition
  3

  2
COMPANY
 70
     8
280
     0
  0
CIRCLE
  5
9F
330
87
100
AcDbEntity
  8
AM_9
100
AcDbCircle
 10
0.0000000000000001
 20
0.0
 30
0.0
 40
1.989826209663794
  0
CIRCLE
  5
A0
330
87
100
AcDbEntity
  8
AM_9
100
AcDbCircle
 10
0.0000000000000001
 20
0.0
 30
0.0
 40
3.0156
  0
CIRCLE
  5
A1
330
87
100
AcDbEntity
  8
AM_9
100
AcDbCircle
 10
0.0000000000000001
 20
0.0
 30
0.0
 40
3.095388612356417
  0
CIRCLE
  5
A2
330
87
100
AcDbEntity
  8
AM_9
100
AcDbCircle
 10
0.0000000000000001
 20
0.0
 30
0.0
 40
2.121309449666666
  0
CIRCLE
  5
A3
330
87
100
AcDbEntity
  8
AM_9
100
AcDbCircle
 10
0.0000000000000001
 20
0.0
 30
0.0
 40
1.935952232666667
  0
CIRCLE
  5
A4
330
87
100
AcDbEntity
  8
AM_9
100
AcDbCircle
 10
0.0000000000000001
 20
0.0
 30
0.0
 40
2.253066666666667
  0
CIRCLE
  5
A5
330
87
100
AcDbEntity
  8
AM_9
100
AcDbCircle
 10
0.0000000000000001
 20
0.0
 30
0.0
 40
2.306666666666667
  0
CIRCLE
  5
A7
330
87
100
AcDbEntity
  8
AM_4
100
AcDbCircle
 10
0.0000000000000001
 20
0.0
 30
0.0
 40
3.134567647264811
  0
CIRCLE
  5
A8
330
87
100
AcDbEntity
  8
AM_4
100
AcDbCircle
 10
0.0000000000000001
 20
0.0
 30
0.0
 40
3.121283284624119
  0
CIRCLE
  5
A9
330
87
100
AcDbEntity
  8
AM_4
100
AcDbCircle
 10
0.0000000000000001
 20
0.0
 30
0.0
 40
3.108472245010343
  0
CIRCLE
  5
AA
330
87
100
AcDbEntity
  8
AM_4
100
AcDbCircle
 10
0.0000000000000001
 20
0.0
 30
0.0
 40
3.029360877766621
  0
CIRCLE
  5
AB
330
87
100
AcDbEntity
  8
AM_4
100
AcDbCircle
 10
0.0000000000000001
 20
0.0
 30
0.0
 40
2.979460553611555
  0
ENDBLK
  5
8A
330
87
100
AcDbEntity
  8
0
100
AcDbBlockEnd
  0
BLOCK
  5
AE
330
AC
100
AcDbEntity
  8
0
100
AcDbBlockBegin
  2
3_129940_0_in_129704_0
 70
     2
 10
0.0
 20
0.0
 30
0.0
  3
3_129940_0_in_129704_0
  1

  0
ATTDEF
  5
B0
330
AC
100
AcDbEntity
  8
AM_6
100
AcDbText
 10
7.495495942693557
 20
2.498524205563034
 30
0.0
 40
0.5
  1
Grip Tight Normal Duty Adapter and Nut Inch Bore
100
AcDbAttributeDefinition
  3

  2
NN
 70
     8
280
     0
  0
ATTDEF
  5
B1
330
AC
100
AcDbEntity
  8
AM_6
100
AcDbText
 10
7.495495942693557
 20
1.998524205563034
 30
0.0
 40
0.5
  1
GT and GTM Adapter & Lock Nut Assemblies
100
AcDbAttributeDefinition
  3

  2
NT
 70
     8
280
     0
  0
ATTDEF
  5
B2
330
AC
100
AcDbEntity
  8
AM_6
100
AcDbText
 10
7.495495942693557
 20
1.498524205563034
 30
0.0
 40
0.5
  1
129940
100
AcDbAttributeDefinition
  3

  2
NB
 70
     8
280
     0
  0
ATTDEF
  5
B3
330
AC
100
AcDbEntity
  8
AM_6
100
AcDbText
 10
7.495495942693557
 20
0.9985242055630343
 30
0.0
 40
0.5
  1
$PN.
100
AcDbAttributeDefinition
  3

  2
NBSYN
 70
     8
280
     0
  0
ATTDEF
  5
B4
330
AC
100
AcDbEntity
  8
AM_6
100
AcDbText
 10
7.495495942693557
 20
0.4985242055630343
 30
0.0
 40
0.5
  1
129940
100
AcDbAttributeDefinition
  3

  2
LINA
 70
     8
280
     0
  0
ATTDEF
  5
B5
330
AC
100
AcDbEntity
  8
AM_6
100
AcDbText
 10
7.495495942693557
 20
-0.0014757944369657
 30
0.0
 40
0.5
  1
218
100
AcDbAttributeDefinition
  3

  2
SERIES
 70
     8
280
     0
  0
ATTDEF
  5
B6
330
AC
100
AcDbEntity
  8
AM_6
100
AcDbText
 10
7.495495942693557
 20
-0.5014757944369657
 30
0.0
 40
0.5
  1
3-7/16
100
AcDbAttributeDefinition
  3

  2
SS
 70
     8
280
     0
  0
ATTDEF
  5
B7
330
AC
100
AcDbEntity
  8
AM_6
100
AcDbText
 10
7.495495942693557
 20
-1.001475794436966
 30
0.0
 40
0.5
  1
129940
100
AcDbAttributeDefinition
  3

  2
PN
 70
     8
280
     0
  0
ATTDEF
  5
B8
330
AC
100
AcDbEntity
  8
AM_6
100
AcDbText
 10
7.495495942693557
 20
-1.501475794436966
 30
0.0
 40
0.5
  1
AN-GTM-18-307
100
AcDbAttributeDefinition
  3

  2
DESCRIPTION
 70
     8
280
     0
  0
ATTDEF
  5
B9
330
AC
100
AcDbEntity
  8
AM_6
100
AcDbText
 10
7.495495942693557
 20
-2.001475794436966
 30
0.0
 40
0.5
  1
2-51/64
100
AcDbAttributeDefinition
  3

  2
A
 70
     8
280
     0
  0
ATTDEF
  5
BA
330
AC
100
AcDbEntity
  8
AM_6
100
AcDbText
 10
7.495495942693557
 20
-2.501475794436966
 30
0.0
 40
0.5
  1
1.3400
100
AcDbAttributeDefinition
  3

  2
C
 70
     8
280
     0
  0
ATTDEF
  5
BB
330
AC
100
AcDbEntity
  8
AM_6
100
AcDbText
 10
7.495495942693557
 20
-3.001475794436966
 30
0.0
 40
0.5
  1
6.2992
100
AcDbAttributeDefinition
  3

  2
D
 70
     8
280
     0
  0
ATTDEF
  5
BC
330
AC
100
AcDbEntity
  8
AM_6
100
AcDbText
 10
7.495495942693557
 20
-3.501475794436966
 30
0.0
 40
0.5
  1
0.300
100
AcDbAttributeDefinition
  3

  2
J
 70
     8
280
     0
  0
ATTDEF
  5
BD
330
AC
100
AcDbEntity
  8
AM_6
100
AcDbText
 10
7.495495942693557
 20
-4.001475794436965
 30
0.0
 40
0.5
  1
5
100
AcDbAttributeDefinition
  3

  2
L
 70
     8
280
     0
  0
ATTDEF
  5
BE
330
AC
100
AcDbEntity
  8
AM_6
100
AcDbText
 10
7.495495942693557
 20
-4.501475794436965
 30
0.0
 40
0.5
  1
10 - 32 x 1/4
100
AcDbAttributeDefinition
  3

  2
N
 70
     8
280
     0
  0
ATTDEF
  5
BF
330
AC
100
AcDbEntity
  8
AM_6
100
AcDbText
 10
7.495495942693557
 20
-5.001475794436965
 30
0.0
 40
0.5
  1
1
100
AcDbAttributeDefinition
  3

  2
W
 70
     8
280
     0
  0
ATTDEF
  5
C0
330
AC
100
AcDbEntity
  8
AM_6
100
AcDbText
 10
7.495495942693557
 20
-5.501475794436965
 30
0.0
 40
0.5
  1
1-3/4
100
AcDbAttributeDefinition
  3

  2
X
 70
     8
280
     0
  0
ATTDEF
  5
C1
330
AC
100
AcDbEntity
  8
AM_6
100
AcDbText
 10
7.495495942693557
 20
-6.001475794436965
 30
0.0
 40
0.5
  1
1-51/64
100
AcDbAttributeDefinition
  3

  2
Y
 70
     8
280
     0
  0
ATTDEF
  5
C2
330
AC
100
AcDbEntity
  8
AM_6
100
AcDbText
 10
7.495495942693557
 20
-6.501475794436965
 30
0.0
 40
0.5
  1
baldor
100
AcDbAttributeDefinition
  3

  2
COMPANY
 70
     8
280
     0
  0
LINE
  5
C3
330
AC
100
AcDbEntity
  8
AM_9
100
AcDbLine
 10
0.0500000000000001
 20
1.865083254095976
 30
0.0
 11
0.0500000000000001
 21
1.922266725539649
 31
0.0
  0
LINE
  5
C4
330
AC
100
AcDbEntity
  8
AM_9
100
AcDbLine
 10
-0.0499999999999999
 20
1.865083254095976
 30
0.0
 11
-0.0499999999999999
 21
1.922266725539649
 31
0.0
  0
ARC
  5
C5
330
AC
100
AcDbEntity
  8
AM_9
100
AcDbCircle
 10
0.0000000000000001
 20
-0.0000000000000003
 30
0.0
 40
1.922916889550072
100
AcDbArc
 50
91.48998217730205
 51
88.51001782269796
  0
CIRCLE
  5
C6
330
AC
100
AcDbEntity
  8
AM_9
100
AcDbCircle
 10
0.0000000000000001
 20
0.0
 30
0.0
 40
2.043650793650793
  0
CIRCLE
  5
C7
330
AC
100
AcDbEntity
  8
AM_9
100
AcDbCircle
 10
0.0000000000000001
 20
0.0
 30
0.0
 40
2.222222222222222
  0
LINE
  5
C8
330
AC
100
AcDbEntity
  8
AM_9
100
AcDbLine
 10
-2.47745
 20
-0.0724499999999999
 30
0.0
 11
-1.89755
 21
-0.0724499999999999
 31
0.0
  0
LINE
  5
C9
330
AC
100
AcDbEntity
  8
AM_9
100
AcDbLine
 10
-1.89755
 20
0.0724499999999999
 30
0.0
 11
-2.47745
 21
0.0724499999999999
 31
0.0
  0
LINE
  5
CA
330
AC
100
AcDbEntity
  8
AM_9
100
AcDbLine
 10
-1.89755
 20
-0.0724499999999999
 30
0.0
 11
-1.875
 21
-0.0949999999999999
 31
0.0
  0
LINE
  5
CB
330
AC
100
AcDbEntity
  8
AM_9
100
AcDbLine
 10
-1.875
 20
0.0949999999999999
 30
0.0
 11
-1.89755
 21
0.0724499999999999
 31
0.0
  0
LINE
  5
CC
330
AC
100
AcDbEntity
  8
AM_9
100
AcDbLine
 10
-1.875
 20
0.0949999999999999
 30
0.0
 11
-1.875
 21
-0.0949999999999999
 31
0.0
  0
LINE
  5
CD
330
AC
100
AcDbEntity
  8
AM_9
100
AcDbLine
 10
-1.89755
 20
0.0724499999999999
 30
0.0
 11
-1.89755
 21
-0.0724499999999999
 31
0.0
  0
LINE
  5
CE
330
AC
100
AcDbEntity
  8
AM_9
100
AcDbLine
 10
-2.47745
 20
0.0724499999999999
 30
0.0
 11
-2.497607488506036
 21
0.0926074885060365
 31
0.0
  0
LINE
  5
CF
330
AC
100
AcDbEntity
  8
AM_9
100
AcDbLine
 10
-2.5
 20
-0.0949999999999994
 30
0.0
 11
-2.47745
 21
-0.0724499999999999
 31
0.0
  0
LINE
  5
D0
330
AC
100
AcDbEntity
  8
AM_9
100
AcDbLine
 10
-2.47745
 20
0.0724499999999999
 30
0.0
 11
-2.47745
 21
-0.0724499999999999
 31
0.0
  0
LINE
  5
D2
330
AC
100
AcDbEntity
  8
AM_5
100
AcDbLine
 10
-2.498194347924116
 20
-0.0949999999999999
 30
0.0
 11
-1.875
 21
-0.0949999999999999
 31
0.0
  0
LINE
  5
D3
330
AC
100
AcDbEntity
  8
AM_5
100
AcDbLine
 10
-2.498194347924116
 20
0.0949999999999999
 30
0.0
 11
-1.875
 21
0.0949999999999999
 31
0.0
  0
LINE
  5
D4
330
AC
100
AcDbEntity
  8
AM_4
100
AcDbLine
 10
-1.036762644431912
 20
2.095725575545536
 30
0.0
 11
-1.117844160779113
 21
2.236162881413615
 31
0.0
  0
LINE
  5
D5
330
AC
100
AcDbEntity
  8
AM_4
100
AcDbLine
 10
2.495495942693556
 20
0.15
 30
0.0
 11
2.333332909999153
 21
0.15
 31
0.0
  0
ARC
  5
D6
330
AC
100
AcDbEntity
  8
AM_4
100
AcDbCircle
 10
0.0000000000000004
 20
0.0
 30
0.0
 40
2.5
100
AcDbArc
 50
3.439812767515191
 51
116.5601872324848
  0
LINE
  5
D7
330
AC
100
AcDbEntity
  8
AM_4
100
AcDbLine
 10
-1.377651781914445
 20
2.086162881413615
 30
0.0
 11
-1.296570265567244
 21
1.945725575545536
 31
0.0
  0
LINE
  5
D8
330
AC
100
AcDbEntity
  8
AM_4
100
AcDbLine
 10
-1.296570265567242
 20
-1.945725575545536
 30
0.0
 11
-1.377651781914443
 21
-2.086162881413616
 31
0.0
  0
ARC
  5
D9
330
AC
100
AcDbEntity
  8
AM_4
100
AcDbCircle
 10
0.0000000000000011
 20
0.0
 30
0.0
 40
2.500000000000001
100
AcDbArc
 50
123.4398127675152
 51
236.5601872324848
  0
LINE
  5
DA
330
AC
100
AcDbEntity
  8
AM_4
100
AcDbLine
 10
2.333332909999153
 20
0.15
 30
0.0
 11
2.333332909999153
 21
-0.15
 31
0.0
  0
LINE
  5
DB
330
AC
100
AcDbEntity
  8
AM_4
100
AcDbLine
 10
-1.296570265567244
 20
1.945725575545536
 30
0.0
 11
-1.036762644431912
 21
2.095725575545536
 31
0.0
  0
LINE
  5
DC
330
AC
100
AcDbEntity
  8
AM_4
100
AcDbLine
 10
-0.0499999999999999
 20
1.865079365079365
 30
0.0
 11
0.0500000000000001
 21
1.865079365079365
 31
0.0
  0
LINE
  5
DD
330
AC
100
AcDbEntity
  8
AM_4
100
AcDbLine
 10
2.333332909999153
 20
-0.15
 30
0.0
 11
2.495495942693556
 21
-0.15
 31
0.0
  0
ARC
  5
DE
330
AC
100
AcDbEntity
  8
AM_4
100
AcDbCircle
 10
-0.0000000000000002
 20
0.0000000000000002
 30
0.0
 40
2.4464
100
AcDbArc
 50
3.515271874444426
 51
116.4847281255556
  0
ARC
  5
DF
330
AC
100
AcDbEntity
  8
AM_4
100
AcDbCircle
 10
-0.0000000000000011
 20
0.0000000000000002
 30
0.0
 40
2.446399999999999
100
AcDbArc
 50
123.5152718744445
 51
236.4847281255556
  0
LINE
  5
E0
330
AC
100
AcDbEntity
  8
AM_4
100
AcDbLine
 10
-1.03676264443191
 20
-2.095725575545537
 30
0.0
 11
-1.296570265567242
 21
-1.945725575545536
 31
0.0
  0
LINE
  5
E1
330
AC
100
AcDbEntity
  8
AM_4
100
AcDbLine
 10
-1.117844160779111
 20
-2.236162881413616
 30
0.0
 11
-1.03676264443191
 21
-2.095725575545537
 31
0.0
  0
ARC
  5
E2
330
AC
100
AcDbEntity
  8
AM_4
100
AcDbCircle
 10
0.0000000000000003
 20
0.0
 30
0.0
 40
2.5
100
AcDbArc
 50
243.4398127675152
 51
356.5601872324847
  0
ARC
  5
E3
330
AC
100
AcDbEntity
  8
AM_4
100
AcDbCircle
 10
0.0000000000000004
 20
-0.0000000000000013
 30
0.0
 40
2.4464
100
AcDbArc
 50
243.5152718744444
 51
356.4847281255555
  0
ARC
  5
E4
330
AC
100
AcDbEntity
  8
AM_4
100
AcDbCircle
 10
0.0000000000000001
 20
0.0
 30
0.0
 40
1.71875
100
AcDbArc
 50
91.66702149761235
 51
88.33297850238765
  0
ARC
  5
E5
330
AC
100
AcDbEntity
  8
AM_4
100
AcDbCircle
 10
0.0000000000000001
 20
-0.0000000000000001
 30
0.0
 40
1.865079365079365
100
AcDbArc
 50
91.5361985621124
 51
88.46380143788762
  0
LINE
  5
E6
330
AC
100
AcDbEntity
  8
AM_4
100
AcDbLine
 10
0.0500000000000001
 20
1.864409031850266
 30
0.0
 11
0.0500000000000001
 21
1.718022573338313
 31
0.0
  0
LINE
  5
E7
330
AC
100
AcDbEntity
  8
AM_4
100
AcDbLine
 10
-0.0499999999999999
 20
1.864409031850266
 30
0.0
 11
-0.0499999999999999
 21
1.718022573338313
 31
0.0
  0
ENDBLK
  5
AF
330
AC
100
AcDbEntity
  8
0
100
AcDbBlockEnd
  0
BLOCK
  5
EA
330
E8
100
AcDbEntity
  8
0
100
AcDbBlockBegin
  2
4_129489I_0_in_129704_0
 70
     2
 10
0.0
 20
0.0
 30
0.0
  3
4_129489I_0_in_129704_0
  1

  0
ATTDEF
  5
EC
330
E8
100
AcDbEntity
  8
AM_6
100
AcDbText
 10
9.219000000000001
 20
4.651154547338582
 30
0.0
 40
0.5
  1
GTAH Normal Duty 4 Bolt Flange Bearings
100
AcDbAttributeDefinition
  3

  2
NN
 70
     8
280
     0
  0
ATTDEF
  5
ED
330
E8
100
AcDbEntity
  8
AM_6
100
AcDbText
 10
9.219000000000001
 20
4.151154547338582
 30
0.0
 40
0.5
  1
Grip Tight Adapter Ball Bearings
100
AcDbAttributeDefinition
  3

  2
NT
 70
     8
280
     0
  0
ATTDEF
  5
EE
330
E8
100
AcDbEntity
  8
AM_6
100
AcDbText
 10
9.219000000000001
 20
3.651154547338582
 30
0.0
 40
0.5
  1
129489I
100
AcDbAttributeDefinition
  3

  2
NB
 70
     8
280
     0
  0
ATTDEF
  5
EF
330
E8
100
AcDbEntity
  8
AM_6
100
AcDbText
 10
9.219000000000001
 20
3.151154547338582
 30
0.0
 40
0.5
  1
$PN.$LUBE.I
100
AcDbAttributeDefinition
  3

  2
NBSYN
 70
     8
280
     0
  0
ATTDEF
  5
F0
330
E8
100
AcDbEntity
  8
AM_6
100
AcDbText
 10
9.219000000000001
 20
2.651154547338582
 30
0.0
 40
0.5
  1
129489
100
AcDbAttributeDefinition
  3

  2
LINA
 70
     8
280
     0
  0
ATTDEF
  5
F1
330
E8
100
AcDbEntity
  8
AM_6
100
AcDbText
 10
9.219000000000001
 20
2.151154547338582
 30
0.0
 40
0.5
  1
218
100
AcDbAttributeDefinition
  3

  2
SERIES
 70
     8
280
     0
  0
ATTDEF
  5
F2
330
E8
100
AcDbEntity
  8
AM_6
100
AcDbText
 10
9.219000000000001
 20
1.651154547338582
 30
0.0
 40
0.5
  1
6.2992
100
AcDbAttributeDefinition
  3

  2
BOD
 70
     8
280
     0
  0
ATTDEF
  5
F3
330
E8
100
AcDbEntity
  8
AM_6
100
AcDbText
 10
9.219000000000001
 20
1.151154547338582
 30
0.0
 40
0.5
  1
129489
100
AcDbAttributeDefinition
  3

  2
PN
 70
     8
280
     0
  0
ATTDEF
  5
F4
330
E8
100
AcDbEntity
  8
AM_6
100
AcDbText
 10
9.219000000000001
 20
0.6511545473385825
 30
0.0
 40
0.5
  1
F4B-GTAH-18
100
AcDbAttributeDefinition
  3

  2
DESCRIPTION
 70
     8
280
     0
  0
ATTDEF
  5
F5
330
E8
100
AcDbEntity
  8
AM_6
100
AcDbText
 10
9.219000000000001
 20
0.1511545473385825
 30
0.0
 40
0.5
  1
With Lube
100
AcDbAttributeDefinition
  3

  2
LUBE
 70
     8
280
     0
  0
ATTDEF
  5
F6
330
E8
100
AcDbEntity
  8
AM_6
100
AcDbText
 10
9.219000000000001
 20
-0.3488454526614175
 30
0.0
 40
0.5
  1
36.1
100
AcDbAttributeDefinition
  3

  2
WEIGHT
 70
     8
280
     0
  0
ATTDEF
  5
F7
330
E8
100
AcDbEntity
  8
AM_6
100
AcDbText
 10
9.219000000000001
 20
-0.8488454526614175
 30
0.0
 40
0.5
  1
2-51/64
100
AcDbAttributeDefinition
  3

  2
A
 70
     8
280
     0
  0
ATTDEF
  5
F8
330
E8
100
AcDbEntity
  8
AM_6
100
AcDbText
 10
9.219000000000001
 20
-1.348845452661418
 30
0.0
 40
0.5
  1
2.7970
100
AcDbAttributeDefinition
  3

  2
A1
 70
     8
280
     0
  0
ATTDEF
  5
F9
330
E8
100
AcDbEntity
  8
AM_6
100
AcDbText
 10
9.219000000000001
 20
-1.848845452661418
 30
0.0
 40
0.5
  1
8-7/16
100
AcDbAttributeDefinition
  3

  2
B
 70
     8
280
     0
  0
ATTDEF
  5
FA
330
E8
100
AcDbEntity
  8
AM_6
100
AcDbText
 10
9.219000000000001
 20
-2.348845452661418
 30
0.0
 40
0.5
  1
8.438
100
AcDbAttributeDefinition
  3

  2
B1
 70
     8
280
     0
  0
ATTDEF
  5
FB
330
E8
100
AcDbEntity
  8
AM_6
100
AcDbText
 10
9.219000000000001
 20
-2.848845452661418
 30
0.0
 40
0.5
  1
3-37/64
100
AcDbAttributeDefinition
  3

  2
C
 70
     8
280
     0
  0
ATTDEF
  5
FC
330
E8
100
AcDbEntity
  8
AM_6
100
AcDbText
 10
9.219000000000001
 20
-3.348845452661418
 30
0.0
 40
0.5
  1
3.578
100
AcDbAttributeDefinition
  3

  2
C1
 70
     8
280
     0
  0
ATTDEF
  5
FD
330
E8
100
AcDbEntity
  8
AM_6
100
AcDbText
 10
9.219000000000001
 20
-3.848845452661418
 30
0.0
 40
0.5
  1
6-3/4
100
AcDbAttributeDefinition
  3

  2
D
 70
     8
280
     0
  0
ATTDEF
  5
FE
330
E8
100
AcDbEntity
  8
AM_6
100
AcDbText
 10
9.219000000000001
 20
-4.348845452661418
 30
0.0
 40
0.5
  1
6.750
100
AcDbAttributeDefinition
  3

  2
D1
 70
     8
280
     0
  0
ATTDEF
  5
FF
330
E8
100
AcDbEntity
  8
AM_6
100
AcDbText
 10
9.219000000000001
 20
-4.848845452661418
 30
0.0
 40
0.5
  1
3/4
100
AcDbAttributeDefinition
  3

  2
F
 70
     8
280
     0
  0
ATTDEF
  5
100
330
E8
100
AcDbEntity
  8
AM_6
100
AcDbText
 10
9.219000000000001
 20
-5.348845452661418
 30
0.0
 40
0.5
  1
0.750
100
AcDbAttributeDefinition
  3

  2
F1
 70
     8
280
     0
  0
ATTDEF
  5
101
330
E8
100
AcDbEntity
  8
AM_6
100
AcDbText
 10
9.219000000000001
 20
-5.848845452661418
 30
0.0
 40
0.5
  1
1
100
AcDbAttributeDefinition
  3

  2
H
 70
     8
280
     0
  0
ATTDEF
  5
102
330
E8
100
AcDbEntity
  8
AM_6
100
AcDbText
 10
9.219000000000001
 20
-6.348845452661418
 30
0.0
 40
0.5
  1
1.000
100
AcDbAttributeDefinition
  3

  2
H1
 70
     8
280
     0
  0
ATTDEF
  5
103
330
E8
100
AcDbEntity
  8
AM_6
100
AcDbText
 10
9.219000000000001
 20
-6.848845452661418
 30
0.0
 40
0.5
  1
3/4
100
AcDbAttributeDefinition
  3

  2
J
 70
     8
280
     0
  0
ATTDEF
  5
104
330
E8
100
AcDbEntity
  8
AM_6
100
AcDbText
 10
9.219000000000001
 20
-7.348845452661418
 30
0.0
 40
0.5
  1
0.750
100
AcDbAttributeDefinition
  3

  2
J1
 70
     8
280
     0
  0
ATTDEF
  5
105
330
E8
100
AcDbEntity
  8
AM_6
100
AcDbText
 10
9.219000000000001
 20
-7.848845452661418
 30
0.0
 40
0.5
  1
5
100
AcDbAttributeDefinition
  3

  2
L
 70
     8
280
     0
  0
ATTDEF
  5
106
330
E8
100
AcDbEntity
  8
AM_6
100
AcDbText
 10
9.219000000000001
 20
-8.348845452661418
 30
0.0
 40
0.5
  1
5.000
100
AcDbAttributeDefinition
  3

  2
L1
 70
     8
280
     0
  0
ATTDEF
  5
107
330
E8
100
AcDbEntity
  8
AM_6
100
AcDbText
 10
9.219000000000001
 20
-8.848845452661418
 30
0.0
 40
0.5
  1
4-5/8
100
AcDbAttributeDefinition
  3

  2
N
 70
     8
280
     0
  0
ATTDEF
  5
108
330
E8
100
AcDbEntity
  8
AM_6
100
AcDbText
 10
9.219000000000001
 20
-9.348845452661418
 30
0.0
 40
0.5
  1
4.625
100
AcDbAttributeDefinition
  3

  2
N1
 70
     8
280
     0
  0
ATTDEF
  5
109
330
E8
100
AcDbEntity
  8
AM_6
100
AcDbText
 10
9.219000000000001
 20
-9.848845452661418
 30
0.0
 40
0.5
  1
3-17/32
100
AcDbAttributeDefinition
  3

  2
Z
 70
     8
280
     0
  0
ATTDEF
  5
10A
330
E8
100
AcDbEntity
  8
AM_6
100
AcDbText
 10
9.219000000000001
 20
-10.34884545266142
 30
0.0
 40
0.5
  1
3.531
100
AcDbAttributeDefinition
  3

  2
Z1
 70
     8
280
     0
  0
ATTDEF
  5
10B
330
E8
100
AcDbEntity
  8
AM_6
100
AcDbText
 10
9.219000000000001
 20
-10.84884545266142
 30
0.0
 40
0.5
  1
Infotext
100
AcDbAttributeDefinition
  3

  2
INFO
 70
     8
280
     0
  0
ATTDEF
  5
10C
330
E8
100
AcDbEntity
  8
AM_6
100
AcDbText
 10
9.219000000000001
 20
-11.34884545266142
 30
0.0
 40
0.5
  1
baldor
100
AcDbAttributeDefinition
  3

  2
COMPANY
 70
     8
280
     0
  0
LINE
  5
10F
330
E8
100
AcDbEntity
  8
AM_7
100
AcDbLine
 10
-3.76875
 20
3.375
 30
0.0
 11
-2.98125
 21
3.375
 31
0.0
  0
LINE
  5
110
330
E8
100
AcDbEntity
  8
AM_7
100
AcDbLine
 10
-3.375
 20
2.98125
 30
0.0
 11
-3.375
 21
3.76875
 31
0.0
  0
LINE
  5
111
330
E8
100
AcDbEntity
  8
AM_7
100
AcDbLine
 10
-3.76875
 20
-3.375
 30
0.0
 11
-2.98125
 21
-3.375
 31
0.0
  0
LINE
  5
112
330
E8
100
AcDbEntity
  8
AM_7
100
AcDbLine
 10
-3.375
 20
-3.76875
 30
0.0
 11
-3.375
 21
-2.98125
 31
0.0
  0
LINE
  5
113
330
E8
100
AcDbEntity
  8
AM_7
100
AcDbLine
 10
2.98125
 20
-3.375
 30
0.0
 11
3.76875
 21
-3.375
 31
0.0
  0
LINE
  5
114
330
E8
100
AcDbEntity
  8
AM_7
100
AcDbLine
 10
3.375
 20
-3.76875
 30
0.0
 11
3.375
 21
-2.98125
 31
0.0
  0
LINE
  5
115
330
E8
100
AcDbEntity
  8
AM_7
100
AcDbLine
 10
2.98125
 20
3.375
 30
0.0
 11
3.76875
 21
3.375
 31
0.0
  0
LINE
  5
116
330
E8
100
AcDbEntity
  8
AM_7
100
AcDbLine
 10
3.375
 20
2.98125
 30
0.0
 11
3.375
 21
3.76875
 31
0.0
  0
LINE
  5
117
330
E8
100
AcDbEntity
  8
AM_7
100
AcDbLine
 10
-3.307079999999999
 20
0.0
 30
0.0
 11
3.307079999999999
 21
0.0
 31
0.0
  0
LINE
  5
118
330
E8
100
AcDbEntity
  8
AM_7
100
AcDbLine
 10
0.0
 20
-3.307079999999999
 30
0.0
 11
0.0
 21
3.307079999999999
 31
0.0
  0
LINE
  5
119
330
E8
100
AcDbEntity
  8
AM_7
100
AcDbLine
 10
0.0
 20
4.651154547338582
 30
0.0
 11
0.0
 21
4.075754755338584
 31
0.0
  0
LINE
  5
11A
330
E8
100
AcDbEntity
  8
AM_4
100
AcDbLine
 10
-0.2525223706000493
 20
-4.064394622799989
 30
0.0
 11
-0.2617050191000226
 21
-4.070221525499982
 31
0.0
  0
LINE
  5
11B
330
E8
100
AcDbEntity
  8
AM_4
100
AcDbLine
 10
-0.2617050191000226
 20
-4.070221525499982
 30
0.0
 11
-0.2739485216999935
 21
-4.073134975599992
 31
0.0
  0
LINE
  5
11C
330
E8
100
AcDbEntity
  8
AM_4
100
AcDbLine
 10
-0.3290443050000261
 20
-4.073134975599992
 30
0.0
 11
-0.3290443050000261
 21
-3.97116423
 31
0.0
  0
LINE
  5
11D
330
E8
100
AcDbEntity
  8
AM_4
100
AcDbLine
 10
-0.3290443050000261
 20
-3.97116423
 30
0.0
 11
-0.2739485216999935
 21
-3.97116423
 31
0.0
  0
LINE
  5
11E
330
E8
100
AcDbEntity
  8
AM_4
100
AcDbLine
 10
-0.2739485216999935
 20
-3.97116423
 30
0.0
 11
-0.2617050191000226
 21
-3.974077679999999
 31
0.0
  0
LINE
  5
11F
330
E8
100
AcDbEntity
  8
AM_4
100
AcDbLine
 10
-0.2617050191000226
 20
-3.974077679999999
 30
0.0
 11
-0.2525223706000493
 21
-3.979904579999999
 31
0.0
  0
LINE
  5
120
330
E8
100
AcDbEntity
  8
AM_4
100
AcDbLine
 10
-0.2525223706000493
 20
-3.979904579999999
 30
0.0
 11
-0.2464006193000068
 21
-3.98864493
 31
0.0
  0
LINE
  5
121
330
E8
100
AcDbEntity
  8
AM_4
100
AcDbLine
 10
-0.2464006193000068
 20
-3.98864493
 30
0.0
 11
-0.2433397436000182
 21
-4.00029873
 31
0.0
  0
LINE
  5
122
330
E8
100
AcDbEntity
  8
AM_4
100
AcDbLine
 10
-0.2433397436000182
 20
-4.00029873
 30
0.0
 11
-0.2433397436000182
 21
-4.044000475300003
 31
0.0
  0
LINE
  5
123
330
E8
100
AcDbEntity
  8
AM_4
100
AcDbLine
 10
-0.2433397436000182
 20
-4.044000475300003
 30
0.0
 11
-0.2464006193000068
 21
-4.055654275399996
 31
0.0
  0
LINE
  5
124
330
E8
100
AcDbEntity
  8
AM_4
100
AcDbLine
 10
-0.2464006193000068
 20
-4.055654275399996
 30
0.0
 11
-0.2525223706000493
 21
-4.064394622799989
 31
0.0
  0
LINE
  5
125
330
E8
100
AcDbEntity
  8
AM_4
100
AcDbLine
 10
-0.2739485216999935
 20
-4.073134975599992
 30
0.0
 11
-0.3290443050000261
 21
-4.073134975599992
 31
0.0
  0
LINE
  5
126
330
E8
100
AcDbEntity
  8
AM_4
100
AcDbLine
 10
-0.035200086200065
 20
-4.073134975599992
 30
0.0
 11
-0.035200086200065
 21
-3.97116423
 31
0.0
  0
LINE
  5
127
330
E8
100
AcDbEntity
  8
AM_4
100
AcDbLine
 10
-0.035200086200065
 20
-3.97116423
 30
0.0
 11
0.01989571
 21
-3.97116423
 31
0.0
  0
LINE
  5
128
330
E8
100
AcDbEntity
  8
AM_4
100
AcDbLine
 10
0.01989571
 20
-3.97116423
 30
0.0
 11
0.03213922
 21
-3.974077679999999
 31
0.0
  0
LINE
  5
129
330
E8
100
AcDbEntity
  8
AM_4
100
AcDbLine
 10
0.03213922
 20
-3.974077679999999
 30
0.0
 11
0.04132185
 21
-3.979904579999999
 31
0.0
  0
LINE
  5
12A
330
E8
100
AcDbEntity
  8
AM_4
100
AcDbLine
 10
0.04132185
 20
-3.979904579999999
 30
0.0
 11
0.04744361
 21
-3.98864493
 31
0.0
  0
LINE
  5
12B
330
E8
100
AcDbEntity
  8
AM_4
100
AcDbLine
 10
0.04744361
 20
-3.98864493
 30
0.0
 11
0.05050448
 21
-4.00029873
 31
0.0
  0
LINE
  5
12C
330
E8
100
AcDbEntity
  8
AM_4
100
AcDbLine
 10
0.05050448
 20
-4.00029873
 30
0.0
 11
0.05050448
 21
-4.044000475300003
 31
0.0
  0
LINE
  5
12D
330
E8
100
AcDbEntity
  8
AM_4
100
AcDbLine
 10
0.05050448
 20
-4.044000475300003
 30
0.0
 11
0.04744361
 21
-4.055654275399996
 31
0.0
  0
LINE
  5
12E
330
E8
100
AcDbEntity
  8
AM_4
100
AcDbLine
 10
0.04744361
 20
-4.055654275399996
 30
0.0
 11
0.04132185
 21
-4.064394622799989
 31
0.0
  0
LINE
  5
12F
330
E8
100
AcDbEntity
  8
AM_4
100
AcDbLine
 10
0.04132185
 20
-4.064394622799989
 30
0.0
 11
0.03213922
 21
-4.070221525499982
 31
0.0
  0
LINE
  5
130
330
E8
100
AcDbEntity
  8
AM_4
100
AcDbLine
 10
0.03213922
 20
-4.070221525499982
 30
0.0
 11
0.01989571
 21
-4.073134975599992
 31
0.0
  0
LINE
  5
131
330
E8
100
AcDbEntity
  8
AM_4
100
AcDbLine
 10
0.01989571
 20
-4.073134975599992
 30
0.0
 11
-0.035200086200065
 21
-4.073134975599992
 31
0.0
  0
LINE
  5
132
330
E8
100
AcDbEntity
  8
AM_4
100
AcDbLine
 10
-0.1821222090000572
 20
-4.00029873
 30
0.0
 11
-0.1790613334000591
 21
-3.98864493
 31
0.0
  0
LINE
  5
133
330
E8
100
AcDbEntity
  8
AM_4
100
AcDbLine
 10
-0.1821222090000572
 20
-4.044000475300003
 30
0.0
 11
-0.1821222090000572
 21
-4.00029873
 31
0.0
  0
LINE
  5
134
330
E8
100
AcDbEntity
  8
AM_4
100
AcDbLine
 10
-0.1790613334000591
 20
-4.055654275399996
 30
0.0
 11
-0.1821222090000572
 21
-4.044000475300003
 31
0.0
  0
LINE
  5
135
330
E8
100
AcDbEntity
  8
AM_4
100
AcDbLine
 10
-0.1729395605000277
 20
-4.064394622799989
 30
0.0
 11
-0.1790613334000591
 21
-4.055654275399996
 31
0.0
  0
LINE
  5
136
330
E8
100
AcDbEntity
  8
AM_4
100
AcDbLine
 10
-0.1637569336000434
 20
-4.070221525499982
 30
0.0
 11
-0.1729395605000277
 21
-4.064394622799989
 31
0.0
  0
LINE
  5
137
330
E8
100
AcDbEntity
  8
AM_4
100
AcDbLine
 10
-0.1515134310000146
 20
-4.073134975599992
 30
0.0
 11
-0.1637569336000434
 21
-4.070221525499982
 31
0.0
  0
LINE
  5
138
330
E8
100
AcDbEntity
  8
AM_4
100
AcDbLine
 10
-0.1270264042000257
 20
-4.073134975599992
 30
0.0
 11
-0.1515134310000146
 21
-4.073134975599992
 31
0.0
  0
LINE
  5
139
330
E8
100
AcDbEntity
  8
AM_4
100
AcDbLine
 10
-0.1147829015999969
 20
-4.070221525499982
 30
0.0
 11
-0.1270264042000257
 21
-4.073134975599992
 31
0.0
  0
LINE
  5
13A
330
E8
100
AcDbEntity
  8
AM_4
100
AcDbLine
 10
-0.1056002639000449
 20
-4.064394622799989
 30
0.0
 11
-0.1147829015999969
 21
-4.070221525499982
 31
0.0
  0
LINE
  5
13B
330
E8
100
AcDbEntity
  8
AM_4
100
AcDbLine
 10
-0.0994785126000024
 20
-4.055654275399996
 30
0.0
 11
-0.1056002639000449
 21
-4.064394622799989
 31
0.0
  0
LINE
  5
13C
330
E8
100
AcDbEntity
  8
AM_4
100
AcDbLine
 10
-0.0964176369000162
 20
-4.044000475300003
 30
0.0
 11
-0.0994785126000024
 21
-4.055654275399996
 31
0.0
  0
LINE
  5
13D
330
E8
100
AcDbEntity
  8
AM_4
100
AcDbLine
 10
-0.0964176369000162
 20
-4.00029873
 30
0.0
 11
-0.0964176369000162
 21
-4.044000475300003
 31
0.0
  0
LINE
  5
13E
330
E8
100
AcDbEntity
  8
AM_4
100
AcDbLine
 10
-0.0994785126000024
 20
-3.98864493
 30
0.0
 11
-0.0964176369000162
 21
-4.00029873
 31
0.0
  0
LINE
  5
13F
330
E8
100
AcDbEntity
  8
AM_4
100
AcDbLine
 10
-0.1056002639000449
 20
-3.979904579999999
 30
0.0
 11
-0.0994785126000024
 21
-3.98864493
 31
0.0
  0
LINE
  5
140
330
E8
100
AcDbEntity
  8
AM_4
100
AcDbLine
 10
-0.1147829015999969
 20
-3.974077679999999
 30
0.0
 11
-0.1056002639000449
 21
-3.979904579999999
 31
0.0
  0
LINE
  5
141
330
E8
100
AcDbEntity
  8
AM_4
100
AcDbLine
 10
-0.1270264042000257
 20
-3.97116423
 30
0.0
 11
-0.1147829015999969
 21
-3.974077679999999
 31
0.0
  0
LINE
  5
142
330
E8
100
AcDbEntity
  8
AM_4
100
AcDbLine
 10
-0.1515134310000146
 20
-3.97116423
 30
0.0
 11
-0.1270264042000257
 21
-3.97116423
 31
0.0
  0
LINE
  5
143
330
E8
100
AcDbEntity
  8
AM_4
100
AcDbLine
 10
-0.1637569336000434
 20
-3.974077679999999
 30
0.0
 11
-0.1515134310000146
 21
-3.97116423
 31
0.0
  0
LINE
  5
144
330
E8
100
AcDbEntity
  8
AM_4
100
AcDbLine
 10
-0.1729395605000277
 20
-3.979904579999999
 30
0.0
 11
-0.1637569336000434
 21
-3.974077679999999
 31
0.0
  0
LINE
  5
145
330
E8
100
AcDbEntity
  8
AM_4
100
AcDbLine
 10
-0.1790613334000591
 20
-3.98864493
 30
0.0
 11
-0.1729395605000277
 21
-3.979904579999999
 31
0.0
  0
LINE
  5
146
330
E8
100
AcDbEntity
  8
AM_4
100
AcDbLine
 10
-0.347409580399984
 20
-3.95368353
 30
0.0
 11
-0.2739485216999935
 21
-3.95368353
 31
0.0
  0
LINE
  5
147
330
E8
100
AcDbEntity
  8
AM_4
100
AcDbLine
 10
-0.258644143400034
 20
-4.087702220400012
 30
0.0
 11
-0.2739485216999935
 21
-4.090615670400006
 31
0.0
  0
LINE
  5
148
330
E8
100
AcDbEntity
  8
AM_4
100
AcDbLine
 10
-0.2464006193000068
 20
-4.081875320300008
 30
0.0
 11
-0.258644143400034
 21
-4.087702220400012
 31
0.0
  0
LINE
  5
149
330
E8
100
AcDbEntity
  8
AM_4
100
AcDbLine
 10
-0.234157116700034
 20
-4.070221525499982
 30
0.0
 11
-0.2464006193000068
 21
-4.081875320300008
 31
0.0
  0
LINE
  5
14A
330
E8
100
AcDbEntity
  8
AM_4
100
AcDbLine
 10
-0.2280353653999914
 20
-4.05856772539999
 30
0.0
 11
-0.234157116700034
 21
-4.070221525499982
 31
0.0
  0
LINE
  5
14B
330
E8
100
AcDbEntity
  8
AM_4
100
AcDbLine
 10
0.18212221
 20
-3.974077679999999
 30
0.0
 11
0.1698787
 21
-3.97116423
 31
0.0
  0
LINE
  5
14C
330
E8
100
AcDbEntity
  8
AM_4
100
AcDbLine
 10
-0.347409580399984
 20
-4.090615670400006
 30
0.0
 11
-0.347409580399984
 21
-3.95368353
 31
0.0
  0
LINE
  5
14D
330
E8
100
AcDbEntity
  8
AM_4
100
AcDbLine
 10
-0.2739485216999935
 20
-4.090615670400006
 30
0.0
 11
-0.347409580399984
 21
-4.090615670400006
 31
0.0
  0
LINE
  5
14E
330
E8
100
AcDbEntity
  8
AM_4
100
AcDbLine
 10
-0.2739485216999935
 20
-3.95368353
 30
0.0
 11
-0.258644143400034
 21
-3.95659698
 31
0.0
  0
LINE
  5
14F
330
E8
100
AcDbEntity
  8
AM_4
100
AcDbLine
 10
-0.258644143400034
 20
-3.95659698
 30
0.0
 11
-0.2464006193000068
 21
-3.96242388
 31
0.0
  0
LINE
  5
150
330
E8
100
AcDbEntity
  8
AM_4
100
AcDbLine
 10
-0.2464006193000068
 20
-3.96242388
 30
0.0
 11
-0.234157116700034
 21
-3.974077679999999
 31
0.0
  0
LINE
  5
151
330
E8
100
AcDbEntity
  8
AM_4
100
AcDbLine
 10
-0.234157116700034
 20
-3.974077679999999
 30
0.0
 11
-0.2280353653999914
 21
-3.98573148
 31
0.0
  0
LINE
  5
152
330
E8
100
AcDbEntity
  8
AM_4
100
AcDbLine
 10
-0.2280353653999914
 20
-3.98573148
 30
0.0
 11
-0.2249744897000611
 21
-4.00029873
 31
0.0
  0
LINE
  5
153
330
E8
100
AcDbEntity
  8
AM_4
100
AcDbLine
 10
-0.2249744897000611
 20
-4.00029873
 30
0.0
 11
-0.2249744897000611
 21
-4.044000475300003
 31
0.0
  0
LINE
  5
154
330
E8
100
AcDbEntity
  8
AM_4
100
AcDbLine
 10
-0.2249744897000611
 20
-4.044000475300003
 30
0.0
 11
-0.2280353653999914
 21
-4.05856772539999
 31
0.0
  0
LINE
  5
155
330
E8
100
AcDbEntity
  8
AM_4
100
AcDbLine
 10
-0.2004874629000166
 20
-4.044000475300003
 30
0.0
 11
-0.2004874629000166
 21
-4.00029873
 31
0.0
  0
LINE
  5
156
330
E8
100
AcDbEntity
  8
AM_4
100
AcDbLine
 10
-0.2004874629000166
 20
-4.00029873
 30
0.0
 11
-0.1974265873000162
 21
-3.98573148
 31
0.0
  0
LINE
  5
157
330
E8
100
AcDbEntity
  8
AM_4
100
AcDbLine
 10
-0.1974265873000162
 20
-3.98573148
 30
0.0
 11
-0.1913048360000302
 21
-3.974077679999999
 31
0.0
  0
LINE
  5
158
330
E8
100
AcDbEntity
  8
AM_4
100
AcDbLine
 10
-0.1913048360000302
 20
-3.974077679999999
 30
0.0
 11
-0.1790613334000591
 21
-3.96242388
 31
0.0
  0
LINE
  5
159
330
E8
100
AcDbEntity
  8
AM_4
100
AcDbLine
 10
-0.1790613334000591
 20
-3.96242388
 30
0.0
 11
-0.1668178092000414
 21
-3.95659698
 31
0.0
  0
LINE
  5
15A
330
E8
100
AcDbEntity
  8
AM_4
100
AcDbLine
 10
-0.1668178092000414
 20
-3.95659698
 30
0.0
 11
-0.1515134310000146
 21
-3.95368353
 31
0.0
  0
LINE
  5
15B
330
E8
100
AcDbEntity
  8
AM_4
100
AcDbLine
 10
-0.1515134310000146
 20
-3.95368353
 30
0.0
 11
-0.1270264042000257
 21
-3.95368353
 31
0.0
  0
LINE
  5
15C
330
E8
100
AcDbEntity
  8
AM_4
100
AcDbLine
 10
-0.1270264042000257
 20
-3.95368353
 30
0.0
 11
-0.1117220152000316
 21
-3.95659698
 31
0.0
  0
LINE
  5
15D
330
E8
100
AcDbEntity
  8
AM_4
100
AcDbLine
 10
-0.1117220152000316
 20
-3.95659698
 30
0.0
 11
-0.0994785126000024
 21
-3.96242388
 31
0.0
  0
LINE
  5
15E
330
E8
100
AcDbEntity
  8
AM_4
100
AcDbLine
 10
-0.0994785126000024
 20
-3.96242388
 30
0.0
 11
-0.0872349992000083
 21
-3.974077679999999
 31
0.0
  0
LINE
  5
15F
330
E8
100
AcDbEntity
  8
AM_4
100
AcDbLine
 10
-0.0872349992000083
 20
-3.974077679999999
 30
0.0
 11
-0.0811132479000217
 21
-3.98573148
 31
0.0
  0
LINE
  5
160
330
E8
100
AcDbEntity
  8
AM_4
100
AcDbLine
 10
-0.0811132479000217
 20
-3.98573148
 30
0.0
 11
-0.0780523722000355
 21
-4.00029873
 31
0.0
  0
LINE
  5
161
330
E8
100
AcDbEntity
  8
AM_4
100
AcDbLine
 10
-0.0780523722000355
 20
-4.00029873
 30
0.0
 11
-0.0780523722000355
 21
-4.044000475300003
 31
0.0
  0
LINE
  5
162
330
E8
100
AcDbEntity
  8
AM_4
100
AcDbLine
 10
-0.0780523722000355
 20
-4.044000475300003
 30
0.0
 11
-0.0811132479000217
 21
-4.05856772539999
 31
0.0
  0
LINE
  5
163
330
E8
100
AcDbEntity
  8
AM_4
100
AcDbLine
 10
-0.0811132479000217
 20
-4.05856772539999
 30
0.0
 11
-0.0872349992000083
 21
-4.070221525499982
 31
0.0
  0
LINE
  5
164
330
E8
100
AcDbEntity
  8
AM_4
100
AcDbLine
 10
-0.0872349992000083
 20
-4.070221525499982
 30
0.0
 11
-0.0994785126000024
 21
-4.081875320300008
 31
0.0
  0
LINE
  5
165
330
E8
100
AcDbEntity
  8
AM_4
100
AcDbLine
 10
-0.0994785126000024
 20
-4.081875320300008
 30
0.0
 11
-0.1117220152000316
 21
-4.087702220400012
 31
0.0
  0
LINE
  5
166
330
E8
100
AcDbEntity
  8
AM_4
100
AcDbLine
 10
-0.1117220152000316
 20
-4.087702220400012
 30
0.0
 11
-0.1270264042000257
 21
-4.090615670400006
 31
0.0
  0
LINE
  5
167
330
E8
100
AcDbEntity
  8
AM_4
100
AcDbLine
 10
-0.1270264042000257
 20
-4.090615670400006
 30
0.0
 11
-0.1515134310000146
 21
-4.090615670400006
 31
0.0
  0
LINE
  5
168
330
E8
100
AcDbEntity
  8
AM_4
100
AcDbLine
 10
-0.1515134310000146
 20
-4.090615670400006
 30
0.0
 11
-0.1668178092000414
 21
-4.087702220400012
 31
0.0
  0
LINE
  5
169
330
E8
100
AcDbEntity
  8
AM_4
100
AcDbLine
 10
-0.1668178092000414
 20
-4.087702220400012
 30
0.0
 11
-0.1790613334000591
 21
-4.081875320300008
 31
0.0
  0
LINE
  5
16A
330
E8
100
AcDbEntity
  8
AM_4
100
AcDbLine
 10
-0.1790613334000591
 20
-4.081875320300008
 30
0.0
 11
-0.19130483600003
 21
-4.070221525499982
 31
0.0
  0
LINE
  5
16B
330
E8
100
AcDbEntity
  8
AM_4
100
AcDbLine
 10
-0.19130483600003
 20
-4.070221525499982
 30
0.0
 11
-0.1974265873000162
 21
-4.05856772539999
 31
0.0
  0
LINE
  5
16C
330
E8
100
AcDbEntity
  8
AM_4
100
AcDbLine
 10
-0.1974265873000162
 20
-4.05856772539999
 30
0.0
 11
-0.2004874629000166
 21
-4.044000475300003
 31
0.0
  0
LINE
  5
16D
330
E8
100
AcDbEntity
  8
AM_4
100
AcDbLine
 10
0.01989571
 20
-4.090615670400006
 30
0.0
 11
-0.0535653508999878
 21
-4.090615670400006
 31
0.0
  0
LINE
  5
16E
330
E8
100
AcDbEntity
  8
AM_4
100
AcDbLine
 10
-0.0535653508999878
 20
-4.090615670400006
 30
0.0
 11
-0.0535653508999878
 21
-3.95368353
 31
0.0
  0
LINE
  5
16F
330
E8
100
AcDbEntity
  8
AM_4
100
AcDbLine
 10
-0.0535653508999878
 20
-3.95368353
 30
0.0
 11
0.01989571
 21
-3.95368353
 31
0.0
  0
LINE
  5
170
330
E8
100
AcDbEntity
  8
AM_4
100
AcDbLine
 10
0.01989571
 20
-3.95368353
 30
0.0
 11
0.0352001
 21
-3.95659698
 31
0.0
  0
LINE
  5
171
330
E8
100
AcDbEntity
  8
AM_4
100
AcDbLine
 10
0.0352001
 20
-3.95659698
 30
0.0
 11
0.04744361
 21
-3.96242388
 31
0.0
  0
LINE
  5
172
330
E8
100
AcDbEntity
  8
AM_4
100
AcDbLine
 10
0.04744361
 20
-3.96242388
 30
0.0
 11
0.05968711
 21
-3.974077679999999
 31
0.0
  0
LINE
  5
173
330
E8
100
AcDbEntity
  8
AM_4
100
AcDbLine
 10
0.05968711
 20
-3.974077679999999
 30
0.0
 11
0.06580887
 21
-3.98573148
 31
0.0
  0
LINE
  5
174
330
E8
100
AcDbEntity
  8
AM_4
100
AcDbLine
 10
0.06580887
 20
-3.98573148
 30
0.0
 11
0.06886975
 21
-4.00029873
 31
0.0
  0
LINE
  5
175
330
E8
100
AcDbEntity
  8
AM_4
100
AcDbLine
 10
0.06886975
 20
-4.00029873
 30
0.0
 11
0.06886975
 21
-4.044000475300003
 31
0.0
  0
LINE
  5
176
330
E8
100
AcDbEntity
  8
AM_4
100
AcDbLine
 10
0.06886975
 20
-4.044000475300003
 30
0.0
 11
0.06580887
 21
-4.05856772539999
 31
0.0
  0
LINE
  5
177
330
E8
100
AcDbEntity
  8
AM_4
100
AcDbLine
 10
0.06580887
 20
-4.05856772539999
 30
0.0
 11
0.05968711
 21
-4.070221525499982
 31
0.0
  0
LINE
  5
178
330
E8
100
AcDbEntity
  8
AM_4
100
AcDbLine
 10
0.05968711
 20
-4.070221525499982
 30
0.0
 11
0.04744361
 21
-4.081875320300008
 31
0.0
  0
LINE
  5
179
330
E8
100
AcDbEntity
  8
AM_4
100
AcDbLine
 10
0.04744361
 20
-4.081875320300008
 30
0.0
 11
0.0352001
 21
-4.087702220400012
 31
0.0
  0
LINE
  5
17A
330
E8
100
AcDbEntity
  8
AM_4
100
AcDbLine
 10
0.0352001
 20
-4.087702220400012
 30
0.0
 11
0.01989571
 21
-4.090615670400006
 31
0.0
  0
LINE
  5
17B
330
E8
100
AcDbEntity
  8
AM_4
100
AcDbLine
 10
0.09335677
 20
-4.044000475300003
 30
0.0
 11
0.09335677
 21
-4.00029873
 31
0.0
  0
LINE
  5
17C
330
E8
100
AcDbEntity
  8
AM_4
100
AcDbLine
 10
0.09335677
 20
-4.00029873
 30
0.0
 11
0.09641765
 21
-3.98573148
 31
0.0
  0
LINE
  5
17D
330
E8
100
AcDbEntity
  8
AM_4
100
AcDbLine
 10
0.09641765
 20
-3.98573148
 30
0.0
 11
0.1025393999999999
 21
-3.974077679999999
 31
0.0
  0
LINE
  5
17E
330
E8
100
AcDbEntity
  8
AM_4
100
AcDbLine
 10
0.1025393999999999
 20
-3.974077679999999
 30
0.0
 11
0.11478291
 21
-3.96242388
 31
0.0
  0
LINE
  5
17F
330
E8
100
AcDbEntity
  8
AM_4
100
AcDbLine
 10
0.11478291
 20
-3.96242388
 30
0.0
 11
0.12702642
 21
-3.95659698
 31
0.0
  0
LINE
  5
180
330
E8
100
AcDbEntity
  8
AM_4
100
AcDbLine
 10
0.12702642
 20
-3.95659698
 30
0.0
 11
0.14233081
 21
-3.95368353
 31
0.0
  0
LINE
  5
181
330
E8
100
AcDbEntity
  8
AM_4
100
AcDbLine
 10
0.14233081
 20
-3.95368353
 30
0.0
 11
0.1698787
 21
-3.95368353
 31
0.0
  0
LINE
  5
182
330
E8
100
AcDbEntity
  8
AM_4
100
AcDbLine
 10
0.1698787
 20
-3.95368353
 30
0.0
 11
0.18518309
 21
-3.95659698
 31
0.0
  0
LINE
  5
183
330
E8
100
AcDbEntity
  8
AM_4
100
AcDbLine
 10
0.18518309
 20
-3.95659698
 30
0.0
 11
0.19742659
 21
-3.96242388
 31
0.0
  0
LINE
  5
184
330
E8
100
AcDbEntity
  8
AM_4
100
AcDbLine
 10
0.19742659
 20
-3.96242388
 30
0.0
 11
0.20967012
 21
-3.974077679999999
 31
0.0
  0
LINE
  5
185
330
E8
100
AcDbEntity
  8
AM_4
100
AcDbLine
 10
0.20967012
 20
-3.974077679999999
 30
0.0
 11
0.21273099
 21
-3.98864493
 31
0.0
  0
LINE
  5
186
330
E8
100
AcDbEntity
  8
AM_4
100
AcDbLine
 10
0.21273099
 20
-3.98864493
 30
0.0
 11
0.19436572
 21
-3.98864493
 31
0.0
  0
LINE
  5
187
330
E8
100
AcDbEntity
  8
AM_4
100
AcDbLine
 10
0.19436572
 20
-3.98864493
 30
0.0
 11
0.19130484
 21
-3.979904579999999
 31
0.0
  0
LINE
  5
188
330
E8
100
AcDbEntity
  8
AM_4
100
AcDbLine
 10
0.19130484
 20
-3.979904579999999
 30
0.0
 11
0.18212221
 21
-3.974077679999999
 31
0.0
  0
LINE
  5
189
330
E8
100
AcDbEntity
  8
AM_4
100
AcDbLine
 10
0.1698787
 20
-3.97116423
 30
0.0
 11
0.14233081
 21
-3.97116423
 31
0.0
  0
LINE
  5
18A
330
E8
100
AcDbEntity
  8
AM_4
100
AcDbLine
 10
0.14233081
 20
-3.97116423
 30
0.0
 11
0.13008729
 21
-3.974077679999999
 31
0.0
  0
LINE
  5
18B
330
E8
100
AcDbEntity
  8
AM_4
100
AcDbLine
 10
0.13008729
 20
-3.974077679999999
 30
0.0
 11
0.12090467
 21
-3.979904579999999
 31
0.0
  0
LINE
  5
18C
330
E8
100
AcDbEntity
  8
AM_4
100
AcDbLine
 10
0.12090467
 20
-3.979904579999999
 30
0.0
 11
0.11478291
 21
-3.98864493
 31
0.0
  0
LINE
  5
18D
330
E8
100
AcDbEntity
  8
AM_4
100
AcDbLine
 10
0.11478291
 20
-3.98864493
 30
0.0
 11
0.11172203
 21
-4.00029873
 31
0.0
  0
LINE
  5
18E
330
E8
100
AcDbEntity
  8
AM_4
100
AcDbLine
 10
0.11172203
 20
-4.00029873
 30
0.0
 11
0.11172203
 21
-4.044000475300003
 31
0.0
  0
LINE
  5
18F
330
E8
100
AcDbEntity
  8
AM_4
100
AcDbLine
 10
0.11172203
 20
-4.044000475300003
 30
0.0
 11
0.11478291
 21
-4.055654275399996
 31
0.0
  0
LINE
  5
190
330
E8
100
AcDbEntity
  8
AM_4
100
AcDbLine
 10
0.11478291
 20
-4.055654275399996
 30
0.0
 11
0.12090467
 21
-4.064394622799989
 31
0.0
  0
LINE
  5
191
330
E8
100
AcDbEntity
  8
AM_4
100
AcDbLine
 10
0.12090467
 20
-4.064394622799989
 30
0.0
 11
0.13008729
 21
-4.070221525499982
 31
0.0
  0
LINE
  5
192
330
E8
100
AcDbEntity
  8
AM_4
100
AcDbLine
 10
0.13008729
 20
-4.070221525499982
 30
0.0
 11
0.14233081
 21
-4.073134975599992
 31
0.0
  0
LINE
  5
193
330
E8
100
AcDbEntity
  8
AM_4
100
AcDbLine
 10
0.14233081
 20
-4.073134975599992
 30
0.0
 11
0.1698787
 21
-4.073134975599992
 31
0.0
  0
LINE
  5
194
330
E8
100
AcDbEntity
  8
AM_4
100
AcDbLine
 10
0.1698787
 20
-4.073134975599992
 30
0.0
 11
0.18212221
 21
-4.070221525499982
 31
0.0
  0
LINE
  5
195
330
E8
100
AcDbEntity
  8
AM_4
100
AcDbLine
 10
0.18212221
 20
-4.070221525499982
 30
0.0
 11
0.19130484
 21
-4.064394622799989
 31
0.0
  0
LINE
  5
196
330
E8
100
AcDbEntity
  8
AM_4
100
AcDbLine
 10
0.19130484
 20
-4.064394622799989
 30
0.0
 11
0.19436572
 21
-4.055654275399996
 31
0.0
  0
LINE
  5
197
330
E8
100
AcDbEntity
  8
AM_4
100
AcDbLine
 10
0.19436572
 20
-4.055654275399996
 30
0.0
 11
0.19436572
 21
-4.032346675799993
 31
0.0
  0
LINE
  5
198
330
E8
100
AcDbEntity
  8
AM_4
100
AcDbLine
 10
0.19436572
 20
-4.032346675799993
 30
0.0
 11
0.16681783
 21
-4.032346675799993
 31
0.0
  0
LINE
  5
199
330
E8
100
AcDbEntity
  8
AM_4
100
AcDbLine
 10
0.16681783
 20
-4.032346675799993
 30
0.0
 11
0.16681783
 21
-4.01486598
 31
0.0
  0
LINE
  5
19A
330
E8
100
AcDbEntity
  8
AM_4
100
AcDbLine
 10
0.16681783
 20
-4.01486598
 30
0.0
 11
0.21273099
 21
-4.01486598
 31
0.0
  0
LINE
  5
19B
330
E8
100
AcDbEntity
  8
AM_4
100
AcDbLine
 10
0.21273099
 20
-4.01486598
 30
0.0
 11
0.21273099
 21
-4.05856772539999
 31
0.0
  0
LINE
  5
19C
330
E8
100
AcDbEntity
  8
AM_4
100
AcDbLine
 10
0.21273099
 20
-4.05856772539999
 30
0.0
 11
0.20967012
 21
-4.070221525499982
 31
0.0
  0
LINE
  5
19D
330
E8
100
AcDbEntity
  8
AM_4
100
AcDbLine
 10
0.20967012
 20
-4.070221525499982
 30
0.0
 11
0.19742659
 21
-4.081875320300008
 31
0.0
  0
LINE
  5
19E
330
E8
100
AcDbEntity
  8
AM_4
100
AcDbLine
 10
0.19742659
 20
-4.081875320300008
 30
0.0
 11
0.18518309
 21
-4.087702220400012
 31
0.0
  0
LINE
  5
19F
330
E8
100
AcDbEntity
  8
AM_4
100
AcDbLine
 10
0.18518309
 20
-4.087702220400012
 30
0.0
 11
0.1698787
 21
-4.090615670400006
 31
0.0
  0
LINE
  5
1A0
330
E8
100
AcDbEntity
  8
AM_4
100
AcDbLine
 10
0.1698787
 20
-4.090615670400006
 30
0.0
 11
0.14233081
 21
-4.090615670400006
 31
0.0
  0
LINE
  5
1A1
330
E8
100
AcDbEntity
  8
AM_4
100
AcDbLine
 10
0.14233081
 20
-4.090615670400006
 30
0.0
 11
0.12702642
 21
-4.087702220400012
 31
0.0
  0
LINE
  5
1A2
330
E8
100
AcDbEntity
  8
AM_4
100
AcDbLine
 10
0.12702642
 20
-4.087702220400012
 30
0.0
 11
0.11478291
 21
-4.081875320300008
 31
0.0
  0
LINE
  5
1A3
330
E8
100
AcDbEntity
  8
AM_4
100
AcDbLine
 10
0.11478291
 20
-4.081875320300008
 30
0.0
 11
0.1025394
 21
-4.070221525499982
 31
0.0
  0
LINE
  5
1A4
330
E8
100
AcDbEntity
  8
AM_4
100
AcDbLine
 10
0.1025394
 20
-4.070221525499982
 30
0.0
 11
0.09641765
 21
-4.05856772539999
 31
0.0
  0
LINE
  5
1A5
330
E8
100
AcDbEntity
  8
AM_4
100
AcDbLine
 10
0.09641765
 20
-4.05856772539999
 30
0.0
 11
0.09335677
 21
-4.044000475300003
 31
0.0
  0
LINE
  5
1A6
330
E8
100
AcDbEntity
  8
AM_4
100
AcDbLine
 10
0.34740959
 20
-4.090615670400006
 30
0.0
 11
0.237218
 21
-4.090615670400006
 31
0.0
  0
LINE
  5
1A7
330
E8
100
AcDbEntity
  8
AM_4
100
AcDbLine
 10
0.237218
 20
-4.090615670400006
 30
0.0
 11
0.237218
 21
-3.95368353
 31
0.0
  0
LINE
  5
1A8
330
E8
100
AcDbEntity
  8
AM_4
100
AcDbLine
 10
0.237218
 20
-3.95368353
 30
0.0
 11
0.34740959
 21
-3.95368353
 31
0.0
  0
LINE
  5
1A9
330
E8
100
AcDbEntity
  8
AM_4
100
AcDbLine
 10
0.34740959
 20
-3.95368353
 30
0.0
 11
0.34740959
 21
-3.97116423
 31
0.0
  0
LINE
  5
1AA
330
E8
100
AcDbEntity
  8
AM_4
100
AcDbLine
 10
0.34740959
 20
-3.97116423
 30
0.0
 11
0.25558328
 21
-3.97116423
 31
0.0
  0
LINE
  5
1AB
330
E8
100
AcDbEntity
  8
AM_4
100
AcDbLine
 10
0.25558328
 20
-3.97116423
 30
0.0
 11
0.25558328
 21
-4.00903908
 31
0.0
  0
LINE
  5
1AC
330
E8
100
AcDbEntity
  8
AM_4
100
AcDbLine
 10
0.25558328
 20
-4.00903908
 30
0.0
 11
0.33516609
 21
-4.00903908
 31
0.0
  0
LINE
  5
1AD
330
E8
100
AcDbEntity
  8
AM_4
100
AcDbLine
 10
0.33516609
 20
-4.00903908
 30
0.0
 11
0.33516609
 21
-4.026519776400016
 31
0.0
  0
LINE
  5
1AE
330
E8
100
AcDbEntity
  8
AM_4
100
AcDbLine
 10
0.33516609
 20
-4.026519776400016
 30
0.0
 11
0.25558328
 21
-4.026519776400016
 31
0.0
  0
LINE
  5
1AF
330
E8
100
AcDbEntity
  8
AM_4
100
AcDbLine
 10
0.25558328
 20
-4.026519776400016
 30
0.0
 11
0.25558328
 21
-4.073134975599992
 31
0.0
  0
LINE
  5
1B0
330
E8
100
AcDbEntity
  8
AM_4
100
AcDbLine
 10
0.25558328
 20
-4.073134975599992
 30
0.0
 11
0.34740959
 21
-4.073134975599992
 31
0.0
  0
LINE
  5
1B1
330
E8
100
AcDbEntity
  8
AM_4
100
AcDbLine
 10
0.34740959
 20
-4.073134975599992
 30
0.0
 11
0.34740959
 21
-4.090615670400006
 31
0.0
  0
LINE
  5
1B2
330
E8
100
AcDbEntity
  8
AM_4
100
AcDbLine
 10
-3.375
 20
4.219
 30
0.0
 11
3.375000000000001
 21
4.218999999999999
 31
0.0
  0
ARC
  5
1B3
330
E8
100
AcDbEntity
  8
AM_4
100
AcDbCircle
 10
-1.5386699706188
 20
3.375884287341039
 30
0.0
 40
0.2000000000000308
100
AcDbArc
 50
235.0000000000024
 51
259.5052273013931
  0
ARC
  5
1B4
330
E8
100
AcDbEntity
  8
AM_4
100
AcDbCircle
 10
-3.375884287341015
 20
1.53866997061881
 30
0.0
 40
0.2000000000000066
100
AcDbArc
 50
10.49477269860868
 51
34.99999999999947
  0
ARC
  5
1B5
330
E8
100
AcDbEntity
  8
AM_4
100
AcDbCircle
 10
-3.374999999999994
 20
3.375000000000011
 30
0.0
 40
0.8539999999999884
100
AcDbArc
 50
54.99999999999986
 51
81.22325678435924
  0
ARC
  5
1B6
330
E8
100
AcDbEntity
  8
AM_4
100
AcDbCircle
 10
-3.374999999999998
 20
3.375
 30
0.0
 40
0.8540000000000015
100
AcDbArc
 50
188.7767432156407
 51
214.9999999999999
  0
ARC
  5
1B7
330
E8
100
AcDbEntity
  8
AM_4
100
AcDbCircle
 10
-3.374999999999999
 20
3.374999999999999
 30
0.0
 40
0.8440000000000012
100
AcDbArc
 50
90.0
 51
179.9999991462263
  0
LINE
  5
1B8
330
E8
100
AcDbEntity
  8
AM_4
100
AcDbLine
 10
-3.21205387848321
 20
1.653385257889021
 30
0.0
 11
-4.0745558458228
 21
2.885165723356207
 31
0.0
  0
CIRCLE
  5
1B9
330
E8
100
AcDbEntity
  8
AM_4
100
AcDbCircle
 10
-3.375
 20
3.375
 30
0.0
 40
0.3749999999999999
  0
LINE
  5
1BA
330
E8
100
AcDbEntity
  8
AM_4
100
AcDbLine
 10
-2.885165723356206
 20
4.0745558458228
 30
0.0
 11
-1.65338525788902
 21
3.21205387848321
 31
0.0
  0
ARC
  5
1BB
330
E8
100
AcDbEntity
  8
AM_4
100
AcDbCircle
 10
-3.375884287341028
 20
-1.538669970618804
 30
0.0
 40
0.2000000000000192
100
AcDbArc
 50
325.0000000000016
 51
349.5052273013935
  0
ARC
  5
1BC
330
E8
100
AcDbEntity
  8
AM_4
100
AcDbCircle
 10
-1.538669970618808
 20
-3.37588428734102
 30
0.0
 40
0.2000000000000122
100
AcDbArc
 50
100.4947726986089
 51
124.999999999999
  0
ARC
  5
1BD
330
E8
100
AcDbEntity
  8
AM_4
100
AcDbCircle
 10
-3.375
 20
-3.374999999999999
 30
0.0
 40
0.8540000000000003
100
AcDbArc
 50
145.0000000000001
 51
171.2232567843591
  0
ARC
  5
1BE
330
E8
100
AcDbEntity
  8
AM_4
100
AcDbCircle
 10
-3.375000000000004
 20
-3.374999999999989
 30
0.0
 40
0.8540000000000101
100
AcDbArc
 50
278.7767432156405
 51
304.9999999999998
  0
LINE
  5
1BF
330
E8
100
AcDbEntity
  8
AM_4
100
AcDbLine
 10
-4.219
 20
-3.374999987423422
 30
0.0
 11
-4.219
 21
3.375
 31
0.0
  0
ARC
  5
1C0
330
E8
100
AcDbEntity
  8
AM_4
100
AcDbCircle
 10
-3.374999999999999
 20
-3.375
 30
0.0
 40
0.8440000000000012
100
AcDbArc
 50
179.9999991462263
 51
270.0
  0
LINE
  5
1C1
330
E8
100
AcDbEntity
  8
AM_4
100
AcDbLine
 10
-4.0745558458228
 20
-2.885165723356206
 30
0.0
 11
-3.21205387848321
 21
-1.65338525788902
 31
0.0
  0
LINE
  5
1C2
330
E8
100
AcDbEntity
  8
AM_4
100
AcDbLine
 10
-1.653385257889021
 20
-3.21205387848321
 30
0.0
 11
-2.885165723356208
 21
-4.074555845822799
 31
0.0
  0
CIRCLE
  5
1C3
330
E8
100
AcDbEntity
  8
AM_4
100
AcDbCircle
 10
-3.375
 20
-3.375
 30
0.0
 40
0.3749999999999999
  0
ARC
  5
1C4
330
E8
100
AcDbEntity
  8
AM_4
100
AcDbCircle
 10
1.538669970618818
 20
-3.375884287340995
 30
0.0
 40
0.1999999999999844
100
AcDbArc
 50
54.99999999999942
 51
79.50522730139564
  0
ARC
  5
1C5
330
E8
100
AcDbEntity
  8
AM_4
100
AcDbCircle
 10
3.375884287341018
 20
-1.538669970618808
 30
0.0
 40
0.2000000000000101
100
AcDbArc
 50
190.4947726986092
 51
214.9999999999993
  0
ARC
  5
1C6
330
E8
100
AcDbEntity
  8
AM_4
100
AcDbCircle
 10
3.374999999999998
 20
-3.374999999999991
 30
0.0
 40
0.8540000000000071
100
AcDbArc
 50
235.0000000000004
 51
261.22325678436
  0
ARC
  5
1C7
330
E8
100
AcDbEntity
  8
AM_4
100
AcDbCircle
 10
3.374999999999975
 20
-3.375000000000006
 30
0.0
 40
0.8540000000000223
100
AcDbArc
 50
8.77674321563965
 51
34.99999999999938
  0
LINE
  5
1C8
330
E8
100
AcDbEntity
  8
AM_4
100
AcDbLine
 10
3.375
 20
-4.219
 30
0.0
 11
-3.375
 21
-4.219
 31
0.0
  0
ARC
  5
1C9
330
E8
100
AcDbEntity
  8
AM_4
100
AcDbCircle
 10
3.375
 20
-3.375
 30
0.0
 40
0.8440000000000003
100
AcDbArc
 50
270.0
 51
0.0
  0
CIRCLE
  5
1CA
330
E8
100
AcDbEntity
  8
AM_4
100
AcDbCircle
 10
3.375
 20
-3.375
 30
0.0
 40
0.3749999999999999
  0
LINE
  5
1CB
330
E8
100
AcDbEntity
  8
AM_4
100
AcDbLine
 10
3.21205387848321
 20
-1.653385257889021
 30
0.0
 11
4.074555845822798
 21
-2.885165723356208
 31
0.0
  0
LINE
  5
1CC
330
E8
100
AcDbEntity
  8
AM_4
100
AcDbLine
 10
2.885165723356206
 20
-4.0745558458228
 30
0.0
 11
1.65338525788902
 21
-3.21205387848321
 31
0.0
  0
ARC
  5
1CD
330
E8
100
AcDbEntity
  8
AM_4
100
AcDbCircle
 10
3.375884287341034
 20
1.538669970618802
 30
0.0
 40
0.2000000000000262
100
AcDbArc
 50
145.000000000002
 51
169.5052273013933
  0
ARC
  5
1CE
330
E8
100
AcDbEntity
  8
AM_4
100
AcDbCircle
 10
1.538669970618807
 20
3.375884287341021
 30
0.0
 40
0.2000000000000131
100
AcDbArc
 50
280.4947726986089
 51
304.999999999999
  0
ARC
  5
1CF
330
E8
100
AcDbEntity
  8
AM_4
100
AcDbCircle
 10
3.375000000000012
 20
3.374999999999994
 30
0.0
 40
0.8539999999999878
100
AcDbArc
 50
324.9999999999999
 51
351.2232567843594
  0
ARC
  5
1D0
330
E8
100
AcDbEntity
  8
AM_4
100
AcDbCircle
 10
3.374999999999997
 20
3.375000000000005
 30
0.0
 40
0.8539999999999945
100
AcDbArc
 50
98.7767432156408
 51
125.0000000000001
  0
LINE
  5
1D1
330
E8
100
AcDbEntity
  8
AM_4
100
AcDbLine
 10
4.219
 20
3.375
 30
0.0
 11
4.219
 21
-3.375
 31
0.0
  0
ARC
  5
1D2
330
E8
100
AcDbEntity
  8
AM_4
100
AcDbCircle
 10
3.375000000000002
 20
3.375
 30
0.0
 40
0.8439999999999985
100
AcDbArc
 50
0.0
 51
90.0
  0
CIRCLE
  5
1D3
330
E8
100
AcDbEntity
  8
AM_4
100
AcDbCircle
 10
3.375
 20
3.375
 30
0.0
 40
0.3749999999999999
  0
LINE
  5
1D4
330
E8
100
AcDbEntity
  8
AM_4
100
AcDbLine
 10
1.653385257889021
 20
3.21205387848321
 30
0.0
 11
2.885165723356207
 21
4.0745558458228
 31
0.0
  0
LINE
  5
1D5
330
E8
100
AcDbEntity
  8
AM_4
100
AcDbLine
 10
4.0745558458228
 20
2.885165723356206
 30
0.0
 11
3.21205387848321
 21
1.65338525788902
 31
0.0
  0
LWPOLYLINE
  5
1D6
330
E8
100
AcDbEntity
  8
AM_4
100
AcDbPolyline
 90
        6
 70
     0
 43
0.0
 10
-1.575099134384595
 20
3.179229981445294
 10
-1.571731464970431
 20
3.178635871399999
 10
-1.531304119682729
 20
3.176019972767378
 10
-1.498530456052906
 20
3.179915549718011
 10
-1.466627728037857
 20
3.189310132421554
 10
-1.455722802391382
 20
3.193895916055778
  0
LWPOLYLINE
  5
1D7
330
E8
100
AcDbEntity
  8
AM_4
100
AcDbPolyline
 90
        6
 70
     0
 43
0.0
 10
1.575099134384596
 20
-3.179229981445294
 10
1.57173146497043
 20
-3.178635871399999
 10
1.531304119682726
 20
-3.176019972767378
 10
1.498530456052903
 20
-3.179915549718013
 10
1.466627728037853
 20
-3.189310132421557
 10
1.455722802391382
 20
-3.19389591605578
  0
LWPOLYLINE
  5
1D8
330
E8
100
AcDbEntity
  8
AM_4
100
AcDbPolyline
 90
        6
 70
     0
 43
0.0
 10
3.179229981445294
 20
1.575099134384596
 10
3.178635871399999
 20
1.571731464970433
 10
3.176019972767378
 20
1.531304119682728
 10
3.179915549718011
 20
1.498530456052905
 10
3.189310132421555
 20
1.466627728037855
 10
3.193895916055779
 20
1.455722802391382
  0
LWPOLYLINE
  5
1D9
330
E8
100
AcDbEntity
  8
AM_4
100
AcDbPolyline
 90
        6
 70
     0
 43
0.0
 10
-3.179229981445294
 20
-1.575099134384596
 10
-3.178635871399999
 20
-1.571731464970431
 10
-3.176019972767378
 20
-1.531304119682726
 10
-3.179915549718013
 20
-1.498530456052901
 10
-3.189310132421557
 20
-1.466627728037849
 10
-3.19389591605578
 20
-1.45572280239138
  0
LWPOLYLINE
  5
1DA
330
E8
100
AcDbEntity
  8
AM_4
100
AcDbPolyline
 90
        6
 70
     0
 43
0.0
 10
1.45572280578118
 20
3.193895914510767
 10
1.47403013770485
 20
3.186618093843979
 10
1.50660119464948
 20
3.178447842375141
 10
1.540297108402297
 20
3.175890906393954
 10
1.569083995439177
 20
3.178210345977393
 10
1.575099134384606
 20
3.179229981445295
  0
LWPOLYLINE
  5
1DB
330
E8
100
AcDbEntity
  8
AM_4
100
AcDbPolyline
 90
        6
 70
     0
 43
0.0
 10
-1.45572280578118
 20
-3.193895914510767
 10
-1.474030137704851
 20
-3.186618093843979
 10
-1.50660119464948
 20
-3.178447842375141
 10
-1.540297108402297
 20
-3.175890906393954
 10
-1.569083995439178
 20
-3.178210345977393
 10
-1.575099134384607
 20
-3.179229981445295
  0
LWPOLYLINE
  5
1DC
330
E8
100
AcDbEntity
  8
AM_4
100
AcDbPolyline
 90
        6
 70
     0
 43
0.0
 10
-3.193895914510767
 20
1.45572280578118
 10
-3.186618093843979
 20
1.474030137704851
 10
-3.178447842375141
 20
1.50660119464948
 10
-3.175890906393954
 20
1.540297108402297
 10
-3.178210345977393
 20
1.569083995439177
 10
-3.179229981445295
 20
1.575099134384607
  0
LWPOLYLINE
  5
1DD
330
E8
100
AcDbEntity
  8
AM_4
100
AcDbPolyline
 90
        6
 70
     0
 43
0.0
 10
3.193895916055778
 20
-1.455722802391383
 10
3.186618094970802
 20
-1.474030134405498
 10
3.178447843182949
 20
-1.506601189646495
 10
3.175890906337847
 20
-1.540297101506162
 10
3.17821034565014
 20
-1.569083993312221
 10
3.179229981445295
 20
-1.575099134384608
  0
ARC
  5
1DE
330
E8
100
AcDbEntity
  8
AM_4
100
AcDbCircle
 10
0.0000000000001145
 20
-0.0000000000004206
 30
0.0
 40
3.51000000000043
100
AcDbArc
 50
95.14885617337944
 51
114.5026822451498
  0
ARC
  5
1DF
330
E8
100
AcDbEntity
  8
AM_4
100
AcDbCircle
 10
-0.0000000000000515
 20
0.0000000000000386
 30
0.0
 40
3.548019244319193
100
AcDbArc
 50
116.3553864902368
 51
153.6446135097628
  0
ARC
  5
1E0
330
E8
100
AcDbEntity
  8
AM_4
100
AcDbCircle
 10
0.0000000000002087
 20
0.0000000000000002
 30
0.0
 40
3.51000000000019
100
AcDbArc
 50
155.4973176940404
 51
204.5026822451495
  0
ARC
  5
1E1
330
E8
100
AcDbEntity
  8
AM_4
100
AcDbCircle
 10
-0.0000000000000284
 20
-0.0000000000000409
 30
0.0
 40
3.548019244319207
100
AcDbArc
 50
206.3553864902368
 51
243.6446135097627
  0
ARC
  5
1E2
330
E8
100
AcDbEntity
  8
AM_4
100
AcDbCircle
 10
0.0000000000000009
 20
0.0000000000002585
 30
0.0
 40
3.510000000000236
100
AcDbArc
 50
245.4973176940407
 51
294.5026822451491
  0
ARC
  5
1E3
330
E8
100
AcDbEntity
  8
AM_4
100
AcDbCircle
 10
0.0000000000000444
 20
-0.0000000000000311
 30
0.0
 40
3.548019244319203
100
AcDbArc
 50
296.3553864902368
 51
333.6446135097628
  0
ARC
  5
1E4
330
E8
100
AcDbEntity
  8
AM_4
100
AcDbCircle
 10
-0.0000000000002944
 20
0.0000000000000002
 30
0.0
 40
3.510000000000268
100
AcDbArc
 50
335.4973177548511
 51
24.50268224514893
  0
ARC
  5
1E5
330
E8
100
AcDbEntity
  8
AM_4
100
AcDbCircle
 10
0.0000000000000342
 20
0.0000000000000457
 30
0.0
 40
3.5480192443192
100
AcDbArc
 50
26.3553864902368
 51
63.64461350976281
  0
ARC
  5
1E6
330
E8
100
AcDbEntity
  8
AM_4
100
AcDbCircle
 10
-0.0000000000000737
 20
-0.0000000000002762
 30
0.0
 40
3.510000000000282
100
AcDbArc
 50
65.49731769403975
 51
84.85114382662101
  0
LINE
  5
1E7
330
E8
100
AcDbEntity
  8
AM_4
100
AcDbLine
 10
0.15748032
 20
4.290354331338582
 30
0.0
 11
-0.15748032
 21
4.290354331338582
 31
0.0
  0
LINE
  5
1E8
330
E8
100
AcDbEntity
  8
AM_4
100
AcDbLine
 10
-0.1818426102881368
 20
4.296882187347061
 30
0.0
 11
-0.15748032
 21
4.290354331338582
 31
0.0
  0
LINE
  5
1E9
330
E8
100
AcDbEntity
  8
AM_4
100
AcDbLine
 10
0.15748032
 20
4.408464571338583
 30
0.0
 11
-0.15748032
 21
4.408464571338583
 31
0.0
  0
LINE
  5
1EA
330
E8
100
AcDbEntity
  8
AM_4
100
AcDbLine
 10
-0.15748032
 20
4.408464571338583
 30
0.0
 11
-0.1818426102881368
 21
4.401936715330105
 31
0.0
  0
LINE
  5
1EB
330
E8
100
AcDbEntity
  8
AM_4
100
AcDbLine
 10
0.1818426102881368
 20
4.401936715330105
 30
0.0
 11
0.15748032
 21
4.408464571338583
 31
0.0
  0
LINE
  5
1EC
330
E8
100
AcDbEntity
  8
AM_4
100
AcDbLine
 10
0.15748032
 20
4.290354331338582
 30
0.0
 11
0.1818426102881368
 21
4.296882187347061
 31
0.0
  0
LINE
  5
1ED
330
E8
100
AcDbEntity
  8
AM_4
100
AcDbLine
 10
0.0654127384443837
 20
4.625000011338583
 30
0.0
 11
-0.0654127384443837
 21
4.625000011338583
 31
0.0
  0
ARC
  5
1EE
330
E8
100
AcDbEntity
  8
AM_4
100
AcDbCircle
 10
-0.0654127384443847
 20
4.605314971338585
 30
0.0
 40
0.0196850399999979
100
AcDbArc
 50
90.0
 51
158.1985930228116
  0
ARC
  5
1EF
330
E8
100
AcDbEntity
  8
AM_4
100
AcDbCircle
 10
0.0654127384443847
 20
4.605314971338585
 30
0.0
 40
0.0196850399999978
100
AcDbArc
 50
21.80140697718842
 51
90.0
  0
LINE
  5
1F0
330
E8
100
AcDbEntity
  8
AM_4
100
AcDbLine
 10
-0.0836898395636914
 20
4.612625810857829
 30
0.0
 11
-0.1048775701420833
 21
4.559656477684745
 31
0.0
  0
LINE
  5
1F1
330
E8
100
AcDbEntity
  8
AM_4
100
AcDbLine
 10
0.1048775701420833
 20
4.559656477684745
 30
0.0
 11
0.0836898395636914
 21
4.612625810857829
 31
0.0
  0
LINE
  5
1F2
330
E8
100
AcDbEntity
  8
AM_4
100
AcDbLine
 10
0.0836898395636914
 20
4.612625810857829
 30
0.0
 11
-0.0836898395636914
 21
4.612625810857829
 31
0.0
  0
ARC
  5
1F3
330
E8
100
AcDbEntity
  8
AM_4
100
AcDbCircle
 10
-0.0866004690227748
 20
4.552345638165498
 30
0.0
 40
0.0196850400000005
100
AcDbArc
 50
158.1985930228064
 51
225.8429143191019
  0
ARC
  5
1F4
330
E8
100
AcDbEntity
  8
AM_4
100
AcDbCircle
 10
0.0866004690227748
 20
4.552345638165498
 30
0.0
 40
0.0196850400000002
100
AcDbArc
 50
314.1570856808981
 51
21.80140697719366
  0
LINE
  5
1F5
330
E8
100
AcDbEntity
  8
AM_4
100
AcDbLine
 10
0.1048775701420833
 20
4.559656477684745
 30
0.0
 11
-0.1048775701420833
 21
4.559656477684745
 31
0.0
  0
LINE
  5
1F6
330
E8
100
AcDbEntity
  8
AM_4
100
AcDbLine
 10
-0.11023622
 20
4.290354331338582
 30
0.0
 11
-0.11023622
 21
4.219
 31
0.0
  0
LINE
  5
1F7
330
E8
100
AcDbEntity
  8
AM_4
100
AcDbLine
 10
0.11023622
 20
4.219
 30
0.0
 11
0.11023622
 21
4.290354331338582
 31
0.0
  0
ARC
  5
1F8
330
E8
100
AcDbEntity
  8
AM_4
100
AcDbCircle
 10
-0.1498523720312521
 20
4.487204731338583
 30
0.0
 40
0.0711122120312515
100
AcDbArc
 50
303.8550321711162
 51
45.84291431910353
  0
ARC
  5
1F9
330
E8
100
AcDbEntity
  8
AM_4
100
AcDbCircle
 10
0.1498523720312521
 20
4.487204731338583
 30
0.0
 40
0.0711122120312517
100
AcDbArc
 50
134.1570856808965
 51
236.1449678288839
  0
LINE
  5
1FA
330
E8
100
AcDbEntity
  8
AM_4
100
AcDbLine
 10
0.100313617966638
 20
4.53822294912109
 30
0.0
 11
-0.100313617966638
 21
4.53822294912109
 31
0.0
  0
LINE
  5
1FB
330
E8
100
AcDbEntity
  8
AM_4
100
AcDbLine
 10
-0.1102362200000001
 20
4.428149611338583
 30
0.0
 11
-0.1102362200000001
 21
4.408464571338583
 31
0.0
  0
LINE
  5
1FC
330
E8
100
AcDbEntity
  8
AM_4
100
AcDbLine
 10
0.1102362200000001
 20
4.408464571338583
 30
0.0
 11
0.1102362200000001
 21
4.428149611338583
 31
0.0
  0
LINE
  5
1FD
330
E8
100
AcDbEntity
  8
AM_4
100
AcDbLine
 10
0.1102362200000001
 20
4.428149611338583
 30
0.0
 11
-0.1102362200000001
 21
4.428149611338583
 31
0.0
  0
LINE
  5
1FE
330
E8
100
AcDbEntity
  8
AM_4
100
AcDbLine
 10
0.0909213051440684
 20
4.401936715330105
 30
0.0
 11
0.0
 21
4.408464571338583
 31
0.0
  0
LINE
  5
1FF
330
E8
100
AcDbEntity
  8
AM_4
100
AcDbLine
 10
0.1818426102881368
 20
4.401936715330105
 30
0.0
 11
0.1363819577161026
 21
4.408464571338583
 31
0.0
  0
LINE
  5
200
330
E8
100
AcDbEntity
  8
AM_4
100
AcDbLine
 10
0.1363819577161026
 20
4.408464571338583
 30
0.0
 11
0.0909213051440684
 21
4.401936715330105
 31
0.0
  0
LINE
  5
201
330
E8
100
AcDbEntity
  8
AM_4
100
AcDbLine
 10
0.0909213051440684
 20
4.296882187347061
 30
0.0
 11
0.0909213051440684
 21
4.401936715330105
 31
0.0
  0
LINE
  5
202
330
E8
100
AcDbEntity
  8
AM_4
100
AcDbLine
 10
0.1363819577161026
 20
4.290354331338582
 30
0.0
 11
0.1818426102881368
 21
4.296882187347061
 31
0.0
  0
LINE
  5
203
330
E8
100
AcDbEntity
  8
AM_4
100
AcDbLine
 10
0.1818426102881368
 20
4.296882187347061
 30
0.0
 11
0.1818426102881368
 21
4.401936715330105
 31
0.0
  0
LWPOLYLINE
  5
204
330
E8
100
AcDbEntity
  8
AM_4
100
AcDbPolyline
 90
        3
 70
     0
 43
0.0
 10
-0.0909213051440684
 20
4.296882187347061
 10
-0.0689029552938092
 20
4.294216559717645
 10
0.0
 20
4.290354331338583
  0
LINE
  5
205
330
E8
100
AcDbEntity
  8
AM_4
100
AcDbLine
 10
0.0
 20
4.290354331338583
 30
0.0
 11
0.0909213051440684
 21
4.296882187347061
 31
0.0
  0
LINE
  5
206
330
E8
100
AcDbEntity
  8
AM_4
100
AcDbLine
 10
0.0909213051440684
 20
4.296882187347061
 30
0.0
 11
0.1363819577161026
 21
4.290354331338582
 31
0.0
  0
LWPOLYLINE
  5
207
330
E8
100
AcDbEntity
  8
AM_4
100
AcDbPolyline
 90
        3
 70
     0
 43
0.0
 10
0.0
 20
4.408464571338583
 10
-0.0689029552938092
 20
4.40460234295952
 10
-0.0909213051440684
 20
4.401936715330105
  0
LINE
  5
208
330
E8
100
AcDbEntity
  8
AM_4
100
AcDbLine
 10
-0.0909213051440684
 20
4.401936715330105
 30
0.0
 11
-0.1363819577161026
 21
4.408464571338583
 31
0.0
  0
LINE
  5
209
330
E8
100
AcDbEntity
  8
AM_4
100
AcDbLine
 10
-0.1363819577161026
 20
4.408464571338583
 30
0.0
 11
-0.1818426102881368
 21
4.401936715330105
 31
0.0
  0
LINE
  5
20A
330
E8
100
AcDbEntity
  8
AM_4
100
AcDbLine
 10
-0.1818426102881368
 20
4.296882187347061
 30
0.0
 11
-0.1818426102881368
 21
4.401936715330105
 31
0.0
  0
LINE
  5
20B
330
E8
100
AcDbEntity
  8
AM_4
100
AcDbLine
 10
-0.1818426102881368
 20
4.296882187347061
 30
0.0
 11
-0.1363819577161026
 21
4.290354331338583
 31
0.0
  0
LINE
  5
20C
330
E8
100
AcDbEntity
  8
AM_4
100
AcDbLine
 10
-0.1363819577161026
 20
4.290354331338583
 30
0.0
 11
-0.0909213051440684
 21
4.296882187347061
 31
0.0
  0
LINE
  5
20D
330
E8
100
AcDbEntity
  8
AM_4
100
AcDbLine
 10
-0.0909213051440684
 20
4.296882187347061
 30
0.0
 11
-0.0909213051440684
 21
4.401936715330105
 31
0.0
  0
ARC
  5
20E
330
E8
100
AcDbEntity
  8
AM_4
100
AcDbCircle
 10
0.0000000000024287
 20
-0.0000000000001091
 30
0.0
 40
3.508673147508139
100
AcDbArc
 50
95.15080854480075
 51
84.84919145527888
  0
ARC
  5
20F
330
E8
100
AcDbEntity
  8
AM_4
100
AcDbCircle
 10
0.0000000000002134
 20
0.0000000000000101
 30
0.0
 40
3.449132962026959
100
AcDbArc
 50
95.23957019637808
 51
84.7604298036284
  0
LINE
  5
210
330
E8
100
AcDbEntity
  8
AM_4
100
AcDbLine
 10
0.27562992
 20
3.398628342934831
 30
0.0
 11
0.3149760168110474
 21
3.434720992828226
 31
0.0
  0
LINE
  5
211
330
E8
100
AcDbEntity
  8
AM_4
100
AcDbLine
 10
0.315
 20
3.434766975772815
 30
0.0
 11
0.315
 21
4.219
 31
0.0
  0
CIRCLE
  5
212
330
E8
100
AcDbEntity
  8
AM_4
100
AcDbCircle
 10
0.0
 20
0.0
 30
0.0
 40
3.149599999999999
  0
ARC
  5
213
330
E8
100
AcDbEntity
  8
AM_4
100
AcDbCircle
 10
-0.0000000000000001
 20
0.0000000000000002
 30
0.0
 40
3.409786865215942
100
AcDbArc
 50
94.6365597711356
 51
85.36344022886438
  0
LINE
  5
214
330
E8
100
AcDbEntity
  8
AM_4
100
AcDbLine
 10
0.27562992
 20
3.398628342934831
 30
0.0
 11
0.27562992
 21
4.219
 31
0.0
  0
LINE
  5
215
330
E8
100
AcDbEntity
  8
AM_4
100
AcDbLine
 10
-0.315
 20
3.434766975752242
 30
0.0
 11
-0.315
 21
4.219
 31
0.0
  0
LINE
  5
216
330
E8
100
AcDbEntity
  8
AM_4
100
AcDbLine
 10
-0.314976016811008
 20
3.43472099282819
 30
0.0
 11
-0.27562992
 21
3.398628342934831
 31
0.0
  0
LINE
  5
217
330
E8
100
AcDbEntity
  8
AM_4
100
AcDbLine
 10
-0.2756299200000001
 20
3.398628342934831
 30
0.0
 11
-0.2756299200000001
 21
4.219
 31
0.0
  0
ENDBLK
  5
EB
330
E8
100
AcDbEntity
  8
0
100
AcDbBlockEnd
  0
ENDSEC
  0
SECTION
  2
ENTITIES
  0
INSERT
  5
6F
330
1F
100
AcDbEntity
  8
0
100
AcDbBlockReference
  2
1_129704_0
 10
0.0
 20
0.0
 30
0.0
  0
POINT
  5
219
330
1F
100
AcDbEntity
  8
ConnectionPoints
100
AcDbPoint
 10
0.0000000000000001
 20
0.0
 30
-1.0
  0
POINT
  5
21A
330
1F
100
AcDbEntity
  8
ConnectionPoints
100
AcDbPoint
 10
0.0000000000000001
 20
0.0
 30
-2.0
  0
POINT
  5
21B
330
1F
100
AcDbEntity
  8
ConnectionPoints
100
AcDbPoint
 10
0.0
 20
0.0
 30
-2.0
  0
ENDSEC
  0
SECTION
  2
OBJECTS
  0
DICTIONARY
  5
C
330
0
100
AcDbDictionary
281
     1
  3
ACAD_DETAILVIEWSTYLE
350
223
  3
ACAD_GROUP
350
D
  3
ACAD_LAYOUT
350
1A
  3
ACAD_MATERIAL
350
43
  3
ACAD_MLEADERSTYLE
350
6B
  3
ACAD_MLINESTYLE
350
17
  3
ACAD_PLOTSETTINGS
350
19
  3
ACAD_PLOTSTYLENAME
350
E
  3
ACAD_SCALELIST
350
47
  3
ACAD_SECTIONVIEWSTYLE
350
224
  3
ACAD_TABLESTYLE
350
69
  3
ACAD_VISUALSTYLE
350
2A
  3
ACDB_RECOMPOSE_DATA
350
220
  3
AcDbVariableDictionary
350
21C
  0
SUN
  5
6D
330
29
100
AcDbSun
 90
        1
290
     0
 63
     7
421
 16777215
 40
1.0
291
     1
 91
  2455826
 92
 54000000
292
     0
 70
     2
 71
   256
280
     1
  0
DICTIONARY
  5
223
102
{ACAD_REACTORS
330
C
102
}
330
C
100
AcDbDictionary
281
     1
  0
DICTIONARY
  5
D
102
{ACAD_REACTORS
330
C
102
}
330
C
100
AcDbDictionary
281
     1
  0
DICTIONARY
  5
1A
102
{ACAD_REACTORS
330
C
102
}
330
C
100
AcDbDictionary
281
     1
  3
Layout1
350
1E
  3
Layout2
350
26
  3
Model
350
22
  0
DICTIONARY
  5
43
102
{ACAD_REACTORS
330
C
102
}
330
C
100
AcDbDictionary
281
     1
  3
ByBlock
350
45
  3
ByLayer
350
44
  3
Global
350
46
  0
DICTIONARY
  5
6B
102
{ACAD_REACTORS
330
C
102
}
330
C
100
AcDbDictionary
281
     1
  3
Standard
350
6C
  0
DICTIONARY
  5
17
102
{ACAD_REACTORS
330
C
102
}
330
C
100
AcDbDictionary
281
     1
  3
Standard
350
18
  0
DICTIONARY
  5
19
102
{ACAD_REACTORS
330
C
102
}
330
C
100
AcDbDictionary
281
     1
  0
ACDBDICTIONARYWDFLT
  5
E
102
{ACAD_REACTORS
330
C
102
}
330
C
100
AcDbDictionary
281
     1
  3
Normal
350
F
100
AcDbDictionaryWithDefault
340
F
  0
DICTIONARY
  5
47
102
{ACAD_REACTORS
330
C
102
}
330
C
100
AcDbDictionary
281
     1
  3
A0
350
48
  3
A1
350
49
  3
A2
350
4A
  3
A3
350
4B
  3
A4
350
4C
  3
A5
350
4D
  3
A6
350
4E
  3
A7
350
4F
  3
A8
350
50
  3
A9
350
51
  3
B0
350
52
  3
B1
350
53
  3
B2
350
54
  3
B3
350
55
  3
B4
350
56
  3
B5
350
57
  3
B6
350
58
  3
B7
350
59
  3
B8
350
5A
  3
B9
350
5B
  3
C0
350
5C
  3
C1
350
5D
  3
C2
350
5E
  3
C3
350
5F
  3
C4
350
60
  3
C5
350
61
  3
C6
350
62
  3
C7
350
63
  3
C8
350
64
  3
C9
350
65
  3
D0
350
66
  3
D1
350
67
  3
D2
350
68
  0
DICTIONARY
  5
224
102
{ACAD_REACTORS
330
C
102
}
330
C
100
AcDbDictionary
281
     1
  0
DICTIONARY
  5
69
102
{ACAD_REACTORS
330
C
102
}
330
C
100
AcDbDictionary
281
     1
  3
Standard
350
6A
  0
DICTIONARY
  5
2A
102
{ACAD_REACTORS
330
C
102
}
330
C
100
AcDbDictionary
281
     1
  3
2dWireframe
350
2F
  3
Basic
350
32
  3
Brighten
350
36
  3
ColorChange
350
3A
  3
Conceptual
350
34
  3
Dim
350
35
  3
EdgeColorOff
350
3D
  3
Facepattern
350
39
  3
Flat
350
2B
  3
FlatWithEdges
350
2C
  3
Gouraud
350
2D
  3
GouraudWithEdges
350
2E
  3
Hidden
350
31
  3
JitterOff
350
3B
  3
Linepattern
350
38
  3
OverhangOff
350
3C
  3
Realistic
350
33
  3
Shaded
350
42
  3
Shaded with edges
350
41
  3
Shades of Gray
350
3E
  3
Sketchy
350
3F
  3
Thicken
350
37
  3
Wireframe
350
30
  3
X-Ray
350
40
  0
XRECORD
  5
220
102
{ACAD_REACTORS
330
C
102
}
330
C
100
AcDbXrecord
280
     1
 90
        1
330
6A
  0
DICTIONARY
  5
21C
102
{ACAD_REACTORS
330
C
102
}
330
C
100
AcDbDictionary
281
     1
  3
CANNOSCALE
350
21D
  3
CMLEADERSTYLE
350
222
  3
CTABLESTYLE
350
221
  0
LAYOUT
  5
1E
102
{ACAD_REACTORS
330
1A
102
}
330
1A
100
AcDbPlotSettings
  1

  2
none_device
  4

  6

 40
0.0
 41
0.0
 42
0.0
 43
0.0
 44
0.0
 45
0.0
 46
0.0
 47
0.0
 48
0.0
 49
0.0
140
0.0
141
0.0
142
1.0
143
1.0
 70
   688
 72
     0
 73
     0
 74
     5
  7

 75
    16
 76
     0
 77
     2
 78
   300
147
1.0
148
0.0
149
0.0
100
AcDbLayout
  1
Layout1
 70
     1
 71
     1
 10
0.0
 20
0.0
 11
12.0
 21
9.0
 12
0.0
 22
0.0
 32
0.0
 14
1.000000000000000E+20
 24
1.000000000000000E+20
 34
1.000000000000000E+20
 15
-1.000000000000000E+20
 25
-1.000000000000000E+20
 35
-1.000000000000000E+20
146
0.0
 13
0.0
 23
0.0
 33
0.0
 16
1.0
 26
0.0
 36
0.0
 17
0.0
 27
1.0
 37
0.0
 76
     0
330
1B
  0
LAYOUT
  5
26
102
{ACAD_REACTORS
330
1A
102
}
330
1A
100
AcDbPlotSettings
  1

  2
none_device
  4

  6

 40
0.0
 41
0.0
 42
0.0
 43
0.0
 44
0.0
 45
0.0
 46
0.0
 47
0.0
 48
0.0
 49
0.0
140
0.0
141
0.0
142
1.0
143
1.0
 70
   688
 72
     0
 73
     0
 74
     5
  7

 75
    16
 76
     0
 77
     2
 78
   300
147
1.0
148
0.0
149
0.0
100
AcDbLayout
  1
Layout2
 70
     1
 71
     2
 10
0.0
 20
0.0
 11
0.0
 21
0.0
 12
0.0
 22
0.0
 32
0.0
 14
0.0
 24
0.0
 34
0.0
 15
0.0
 25
0.0
 35
0.0
146
0.0
 13
0.0
 23
0.0
 33
0.0
 16
1.0
 26
0.0
 36
0.0
 17
0.0
 27
1.0
 37
0.0
 76
     0
330
23
  0
LAYOUT
  5
22
102
{ACAD_REACTORS
330
1A
102
}
330
1A
100
AcDbPlotSettings
  1

  2
none_device
  4
Letter_(8.50_x_11.00_Inches)
  6

 40
6.35
 41
6.35
 42
6.35000508
 43
6.35000508
 44
215.9
 45
279.4
 46
0.0
 47
0.0
 48
0.0
 49
0.0
140
0.0
141
0.0
142
1.0
143
1.0
 70
  1712
 72
     0
 73
     0
 74
     0
  7

 75
     0
 76
     0
 77
     2
 78
   300
147
1.0
148
0.0
149
0.0
100
AcDbLayout
  1
Model
 70
     1
 71
     0
 10
0.0
 20
0.0
 11
12.0
 21
9.0
 12
0.0
 22
0.0
 32
0.0
 14
1.000000000000000E+20
 24
1.000000000000000E+20
 34
1.000000000000000E+20
 15
-1.000000000000000E+20
 25
-1.000000000000000E+20
 35
-1.000000000000000E+20
146
0.0
 13
0.0
 23
0.0
 33
0.0
 16
1.0
 26
0.0
 36
0.0
 17
0.0
 27
1.0
 37
0.0
 76
     0
330
1F
331
29
  0
MATERIAL
  5
45
102
{ACAD_REACTORS
330
43
102
}
330
43
100
AcDbMaterial
  1
ByBlock
 72
     1
 94
      127
  0
MATERIAL
  5
44
102
{ACAD_REACTORS
330
43
102
}
330
43
100
AcDbMaterial
  1
ByLayer
 72
     1
 94
      127
  0
MATERIAL
  5
46
102
{ACAD_REACTORS
330
43
102
}
330
43
100
AcDbMaterial
  1
Global
 72
     1
 94
      127
  0
MLEADERSTYLE
  5
6C
102
{ACAD_REACTORS
330
6B
102
}
330
6B
100
AcDbMLeaderStyle
179
     2
170
     2
171
     1
172
     0
 90
        2
 40
0.0
 41
0.0
173
     1
 91
-1056964608
340
14
 92
       -2
290
     1
 42
0.09
291
     1
 43
0.36
  3
Standard
341
0
 44
0.18
300

342
11
174
     1
178
     6
175
     1
176
     0
 93
-1056964608
 45
0.18
292
     0
297
     0
 46
0.18
343
0
 94
-1056964608
 47
1.0
 49
1.0
140
1.0
293
     1
141
0.0
294
     1
177
     0
142
1.0
295
     0
296
     0
143
0.125
271
     0
272
     9
273
     9
298
     0
  0
MLINESTYLE
  5
18
102
{ACAD_REACTORS
330
17
102
}
330
17
100
AcDbMlineStyle
  2
Standard
 70
     0
  3

 62
   256
 51
90.0
 52
90.0
 71
     2
 49
0.5
 62
   256
  6
BYLAYER
 49
-0.5
 62
   256
  6
BYLAYER
  0
ACDBPLACEHOLDER
  5
F
102
{ACAD_REACTORS
330
E
102
}
330
E
  0
SCALE
  5
48
102
{ACAD_REACTORS
330
47
102
}
330
47
100
AcDbScale
 70
     0
300
1:1
140
1.0
141
1.0
290
     1
  0
SCALE
  5
49
102
{ACAD_REACTORS
330
47
102
}
330
47
100
AcDbScale
 70
     0
300
1:2
140
1.0
141
2.0
290
     0
  0
SCALE
  5
4A
102
{ACAD_REACTORS
330
47
102
}
330
47
100
AcDbScale
 70
     0
300
1:4
140
1.0
141
4.0
290
     0
  0
SCALE
  5
4B
102
{ACAD_REACTORS
330
47
102
}
330
47
100
AcDbScale
 70
     0
300
1:5
140
1.0
141
5.0
290
     0
  0
SCALE
  5
4C
102
{ACAD_REACTORS
330
47
102
}
330
47
100
AcDbScale
 70
     0
300
1:8
140
1.0
141
8.0
290
     0
  0
SCALE
  5
4D
102
{ACAD_REACTORS
330
47
102
}
330
47
100
AcDbScale
 70
     0
300
1:10
140
1.0
141
10.0
290
     0
  0
SCALE
  5
4E
102
{ACAD_REACTORS
330
47
102
}
330
47
100
AcDbScale
 70
     0
300
1:16
140
1.0
141
16.0
290
     0
  0
SCALE
  5
4F
102
{ACAD_REACTORS
330
47
102
}
330
47
100
AcDbScale
 70
     0
300
1:20
140
1.0
141
20.0
290
     0
  0
SCALE
  5
50
102
{ACAD_REACTORS
330
47
102
}
330
47
100
AcDbScale
 70
     0
300
1:30
140
1.0
141
30.0
290
     0
  0
SCALE
  5
51
102
{ACAD_REACTORS
330
47
102
}
330
47
100
AcDbScale
 70
     0
300
1:40
140
1.0
141
40.0
290
     0
  0
SCALE
  5
52
102
{ACAD_REACTORS
330
47
102
}
330
47
100
AcDbScale
 70
     0
300
1:50
140
1.0
141
50.0
290
     0
  0
SCALE
  5
53
102
{ACAD_REACTORS
330
47
102
}
330
47
100
AcDbScale
 70
     0
300
1:100
140
1.0
141
100.0
290
     0
  0
SCALE
  5
54
102
{ACAD_REACTORS
330
47
102
}
330
47
100
AcDbScale
 70
     0
300
2:1
140
2.0
141
1.0
290
     0
  0
SCALE
  5
55
102
{ACAD_REACTORS
330
47
102
}
330
47
100
AcDbScale
 70
     0
300
4:1
140
4.0
141
1.0
290
     0
  0
SCALE
  5
56
102
{ACAD_REACTORS
330
47
102
}
330
47
100
AcDbScale
 70
     0
300
8:1
140
8.0
141
1.0
290
     0
  0
SCALE
  5
57
102
{ACAD_REACTORS
330
47
102
}
330
47
100
AcDbScale
 70
     0
300
10:1
140
10.0
141
1.0
290
     0
  0
SCALE
  5
58
102
{ACAD_REACTORS
330
47
102
}
330
47
100
AcDbScale
 70
     0
300
100:1
140
100.0
141
1.0
290
     0
  0
SCALE
  5
59
102
{ACAD_REACTORS
330
47
102
}
330
47
100
AcDbScale
 70
     0
300
1/128" = 1'-0"
140
0.0078125
141
12.0
290
     0
  0
SCALE
  5
5A
102
{ACAD_REACTORS
330
47
102
}
330
47
100
AcDbScale
 70
     0
300
1/64" = 1'-0"
140
0.015625
141
12.0
290
     0
  0
SCALE
  5
5B
102
{ACAD_REACTORS
330
47
102
}
330
47
100
AcDbScale
 70
     0
300
1/32" = 1'-0"
140
0.03125
141
12.0
290
     0
  0
SCALE
  5
5C
102
{ACAD_REACTORS
330
47
102
}
330
47
100
AcDbScale
 70
     0
300
1/16" = 1'-0"
140
0.0625
141
12.0
290
     0
  0
SCALE
  5
5D
102
{ACAD_REACTORS
330
47
102
}
330
47
100
AcDbScale
 70
     0
300
3/32" = 1'-0"
140
0.09375
141
12.0
290
     0
  0
SCALE
  5
5E
102
{ACAD_REACTORS
330
47
102
}
330
47
100
AcDbScale
 70
     0
300
1/8" = 1'-0"
140
0.125
141
12.0
290
     0
  0
SCALE
  5
5F
102
{ACAD_REACTORS
330
47
102
}
330
47
100
AcDbScale
 70
     0
300
3/16" = 1'-0"
140
0.1875
141
12.0
290
     0
  0
SCALE
  5
60
102
{ACAD_REACTORS
330
47
102
}
330
47
100
AcDbScale
 70
     0
300
1/4" = 1'-0"
140
0.25
141
12.0
290
     0
  0
SCALE
  5
61
102
{ACAD_REACTORS
330
47
102
}
330
47
100
AcDbScale
 70
     0
300
3/8" = 1'-0"
140
0.375
141
12.0
290
     0
  0
SCALE
  5
62
102
{ACAD_REACTORS
330
47
102
}
330
47
100
AcDbScale
 70
     0
300
1/2" = 1'-0"
140
0.5
141
12.0
290
     0
  0
SCALE
  5
63
102
{ACAD_REACTORS
330
47
102
}
330
47
100
AcDbScale
 70
     0
300
3/4" = 1'-0"
140
0.75
141
12.0
290
     0
  0
SCALE
  5
64
102
{ACAD_REACTORS
330
47
102
}
330
47
100
AcDbScale
 70
     0
300
1" = 1'-0"
140
1.0
141
12.0
290
     0
  0
SCALE
  5
65
102
{ACAD_REACTORS
330
47
102
}
330
47
100
AcDbScale
 70
     0
300
1-1/2" = 1'-0"
140
1.5
141
12.0
290
     0
  0
SCALE
  5
66
102
{ACAD_REACTORS
330
47
102
}
330
47
100
AcDbScale
 70
     0
300
3" = 1'-0"
140
3.0
141
12.0
290
     0
  0
SCALE
  5
67
102
{ACAD_REACTORS
330
47
102
}
330
47
100
AcDbScale
 70
     0
300
6" = 1'-0"
140
6.0
141
12.0
290
     0
  0
SCALE
  5
68
102
{ACAD_REACTORS
330
47
102
}
330
47
100
AcDbScale
 70
     0
300
1'-0" = 1'-0"
140
12.0
141
12.0
290
     0
  0
TABLESTYLE
  5
6A
102
{ACAD_REACTORS
330
69
102
}
102
{ACAD_XDICTIONARY
360
21E
102
}
330
69
100
AcDbTableStyle
  3
Standard
 70
     0
 71
     0
 40
0.06
 41
0.06
280
     0
281
     0
  7
Standard
140
0.18
170
     2
 62
     0
 63
   257
283
     0
 90
        4
 91
        0
  1

274
    -2
284
     1
 64
     0
275
    -2
285
     1
 65
     0
276
    -2
286
     1
 66
     0
277
    -2
287
     1
 67
     0
278
    -2
288
     1
 68
     0
279
    -2
289
     1
 69
     0
  7
Standard
140
0.25
170
     5
 62
     0
 63
   257
283
     0
 90
        4
 91
        0
  1

274
    -2
284
     1
 64
     0
275
    -2
285
     1
 65
     0
276
    -2
286
     1
 66
     0
277
    -2
287
     1
 67
     0
278
    -2
288
     1
 68
     0
279
    -2
289
     1
 69
     0
  7
Standard
140
0.18
170
     5
 62
     0
 63
   257
283
     0
 90
        4
 91
        0
  1

274
    -2
284
     1
 64
     0
275
    -2
285
     1
 65
     0
276
    -2
286
     1
 66
     0
277
    -2
287
     1
 67
     0
278
    -2
288
     1
 68
     0
279
    -2
289
     1
 69
     0
  0
VISUALSTYLE
  5
2F
102
{ACAD_REACTORS
330
2A
102
}
330
2A
100
AcDbVisualStyle
  2
2dWireframe
 70
     4
177
     3
291
     0
 70
    58
 90
        0
176
     1
 90
        2
176
     1
 90
        0
176
     1
 90
        0
176
     1
 40
0.6
176
     1
 40
30.0
176
     1
 62
     7
420
 16777215
176
     1
 90
        1
176
     1
 90
        4
176
     1
 62
     7
176
     1
 62
   257
176
     1
 90
        1
176
     1
 90
        1
176
     1
 40
1.0
176
     1
 90
        0
176
     1
 62
   257
176
     1
 40
1.0
176
     1
 90
        1
176
     1
 90
        6
176
     1
 90
        2
176
     1
 62
     7
176
     1
 90
        5
176
     1
 90
        0
176
     1
 90
        0
176
     1
290
     0
176
     1
 90
        1
176
     1
 40
0.0
176
     1
 90
        0
176
     1
290
     1
176
     1
290
     1
176
     1
290
     0
176
     1
290
     0
176
     1
290
     0
176
     1
290
     0
176
     1
290
     0
176
     1
290
     0
176
     1
290
     0
176
     1
 90
       50
176
     1
 40
0.0
176
     1
 40
1.0
176
     1
 90
        0
176
     1
 62
    18
420
        0
176
     1
 90
       50
176
     1
 90
        3
176
     1
 62
     5
420
      255
176
     1
290
     0
176
     1
 90
       50
176
     1
 90
       50
176
     1
 90
       50
176
     1
290
     0
176
     1
 90
       50
176
     1
 62
   256
176
     0
 40
1.0
176
     0
 90
        2
176
     1
  1
strokes_ogs.tif
176
     1
290
     0
176
     1
 40
1.0
176
     1
 40
1.0
176
     1
  0
VISUALSTYLE
  5
32
102
{ACAD_REACTORS
330
2A
102
}
330
2A
100
AcDbVisualStyle
  2
Basic
 70
     7
177
     3
291
     1
 70
    58
 90
        1
176
     1
 90
        0
176
     1
 90
        1
176
     1
 90
        0
176
     1
 40
0.6
176
     1
 40
30.0
176
     1
 62
     7
420
 16777215
176
     1
 90
        0
176
     1
 90
        4
176
     1
 62
     7
176
     1
 62
   257
176
     1
 90
        1
176
     1
 90
        1
176
     1
 40
1.0
176
     1
 90
        8
176
     1
 62
     7
176
     1
 40
1.0
176
     1
 90
        1
176
     1
 90
        6
176
     1
 90
        2
176
     1
 62
     7
176
     1
 90
        5
176
     1
 90
        0
176
     1
 90
        0
176
     1
290
     0
176
     1
 90
        1
176
     1
 40
0.0
176
     1
 90
        0
176
     1
290
     0
176
     1
290
     1
176
     1
290
     1
176
     1
290
     0
176
     1
290
     0
176
     1
290
     0
176
     1
290
     0
176
     1
290
     0
176
     1
290
     0
176
     1
 90
       50
176
     1
 40
0.0
176
     1
 40
1.0
176
     1
 90
        0
176
     1
 62
    18
420
        0
176
     1
 90
       50
176
     1
 90
        3
176
     1
 62
     5
420
      255
176
     1
290
     0
176
     1
 90
       50
176
     1
 90
       50
176
     1
 90
       50
176
     1
290
     0
176
     1
 90
       50
176
     1
 62
   256
176
     0
 40
1.0
176
     0
 90
        2
176
     1
  1
strokes_ogs.tif
176
     1
290
     0
176
     1
 40
1.0
176
     1
 40
1.0
176
     1
  0
VISUALSTYLE
  5
36
102
{ACAD_REACTORS
330
2A
102
}
330
2A
100
AcDbVisualStyle
  2
Brighten
 70
    12
177
     3
291
     1
 70
    58
 90
        2
176
     1
 90
        2
176
     1
 90
        0
176
     1
 90
        0
176
     1
 40
0.6
176
     1
 40
30.0
176
     1
 62
     7
420
 16777215
176
     1
 90
        1
176
     1
 90
        4
176
     1
 62
     7
176
     1
 62
   257
176
     1
 90
        1
176
     1
 90
        1
176
     1
 40
1.0
176
     1
 90
        8
176
     1
 62
     7
176
     1
 40
1.0
176
     1
 90
        1
176
     1
 90
        6
176
     1
 90
        2
176
     1
 62
     7
176
     1
 90
        5
176
     1
 90
        0
176
     1
 90
        0
176
     1
290
     0
176
     1
 90
        1
176
     1
 40
50.0
176
     1
 90
        0
176
     1
290
     0
176
     1
290
     1
176
     1
290
     1
176
     1
290
     0
176
     1
290
     0
176
     1
290
     0
176
     1
290
     0
176
     1
290
     0
176
     1
290
     0
176
     1
 90
       50
176
     1
 40
0.0
176
     1
 40
1.0
176
     1
 90
        0
176
     1
 62
    18
420
        0
176
     1
 90
       50
176
     1
 90
        3
176
     1
 62
     5
420
      255
176
     1
290
     0
176
     1
 90
       50
176
     1
 90
       50
176
     1
 90
       50
176
     1
290
     0
176
     1
 90
       50
176
     1
 62
   256
176
     0
 40
1.0
176
     0
 90
        2
176
     1
  1
strokes_ogs.tif
176
     1
290
     0
176
     1
 40
1.0
176
     1
 40
1.0
176
     1
  0
VISUALSTYLE
  5
3A
102
{ACAD_REACTORS
330
2A
102
}
330
2A
100
AcDbVisualStyle
  2
ColorChange
 70
    16
177
     3
291
     1
 70
    58
 90
        2
176
     1
 90
        2
176
     1
 90
        3
176
     1
 90
        0
176
     1
 40
0.6
176
     1
 40
30.0
176
     1
 62
     8
420
  8421504
176
     1
 90
        1
176
     1
 90
        4
176
     1
 62
     7
176
     1
 62
   257
176
     1
 90
        1
176
     1
 90
        1
176
     1
 40
1.0
176
     1
 90
        8
176
     1
 62
     8
420
  8421504
176
     1
 40
1.0
176
     1
 90
        1
176
     1
 90
        6
176
     1
 90
        2
176
     1
 62
     7
176
     1
 90
        5
176
     1
 90
        0
176
     1
 90
        0
176
     1
290
     0
176
     1
 90
        1
176
     1
 40
0.0
176
     1
 90
        0
176
     1
290
     0
176
     1
290
     1
176
     1
290
     1
176
     1
290
     0
176
     1
290
     0
176
     1
290
     0
176
     1
290
     0
176
     1
290
     0
176
     1
290
     0
176
     1
 90
       50
176
     1
 40
0.0
176
     1
 40
1.0
176
     1
 90
        0
176
     1
 62
    18
420
        0
176
     1
 90
       50
176
     1
 90
        3
176
     1
 62
     5
420
      255
176
     1
290
     0
176
     1
 90
       50
176
     1
 90
       50
176
     1
 90
       50
176
     1
290
     0
176
     1
 90
       50
176
     1
 62
   256
176
     0
 40
1.0
176
     0
 90
        2
176
     1
  1
strokes_ogs.tif
176
     1
290
     0
176
     1
 40
1.0
176
     1
 40
1.0
176
     1
  0
VISUALSTYLE
  5
34
102
{ACAD_REACTORS
330
2A
102
}
330
2A
100
AcDbVisualStyle
  2
Conceptual
 70
     9
177
     3
291
     0
 70
    58
 90
        3
176
     1
 90
        2
176
     1
 90
        0
176
     1
 90
        0
176
     1
 40
0.6
176
     1
 40
30.0
176
     1
 62
     7
420
 16777215
176
     1
 90
        2
176
     1
 90
        2
176
     1
 62
     7
176
     1
 62
   257
176
     1
 90
        1
176
     1
 90
        1
176
     1
 40
179.0
176
     1
 90
        8
176
     1
 62
     7
176
     1
 40
1.0
176
     1
 90
        1
176
     1
 90
        6
176
     1
 90
        2
176
     1
 62
     7
176
     1
 90
        3
176
     1
 90
        0
176
     1
 90
        0
176
     1
290
     0
176
     1
 90
        1
176
     1
 40
0.0
176
     1
 90
        0
176
     1
290
     0
176
     1
290
     1
176
     1
290
     1
176
     1
290
     0
176
     1
290
     0
176
     1
290
     0
176
     1
290
     0
176
     1
290
     0
176
     1
290
     0
176
     1
 90
       50
176
     1
 40
0.0
176
     1
 40
1.0
176
     1
 90
        0
176
     1
 62
    18
420
        0
176
     1
 90
       50
176
     1
 90
        3
176
     1
 62
     5
420
      255
176
     1
290
     0
176
     1
 90
       50
176
     1
 90
       50
176
     1
 90
       50
176
     1
290
     0
176
     1
 90
       50
176
     1
 62
   256
176
     0
 40
1.0
176
     0
 90
        2
176
     1
  1
strokes_ogs.tif
176
     1
290
     0
176
     1
 40
1.0
176
     1
 40
1.0
176
     1
  0
VISUALSTYLE
  5
35
102
{ACAD_REACTORS
330
2A
102
}
330
2A
100
AcDbVisualStyle
  2
Dim
 70
    11
177
     3
291
     1
 70
    58
 90
        2
176
     1
 90
        2
176
     1
 90
        0
176
     1
 90
        0
176
     1
 40
0.6
176
     1
 40
30.0
176
     1
 62
     7
420
 16777215
176
     1
 90
        1
176
     1
 90
        4
176
     1
 62
     7
176
     1
 62
   257
176
     1
 90
        1
176
     1
 90
        1
176
     1
 40
1.0
176
     1
 90
        8
176
     1
 62
     7
176
     1
 40
1.0
176
     1
 90
        1
176
     1
 90
        6
176
     1
 90
        2
176
     1
 62
     7
176
     1
 90
        5
176
     1
 90
        0
176
     1
 90
        0
176
     1
290
     0
176
     1
 90
        1
176
     1
 40
-50.0
176
     1
 90
        0
176
     1
290
     0
176
     1
290
     1
176
     1
290
     1
176
     1
290
     0
176
     1
290
     0
176
     1
290
     0
176
     1
290
     0
176
     1
290
     0
176
     1
290
     0
176
     1
 90
       50
176
     1
 40
0.0
176
     1
 40
1.0
176
     1
 90
        0
176
     1
 62
    18
420
        0
176
     1
 90
       50
176
     1
 90
        3
176
     1
 62
     5
420
      255
176
     1
290
     0
176
     1
 90
       50
176
     1
 90
       50
176
     1
 90
       50
176
     1
290
     0
176
     1
 90
       50
176
     1
 62
   256
176
     0
 40
1.0
176
     0
 90
        2
176
     1
  1
strokes_ogs.tif
176
     1
290
     0
176
     1
 40
1.0
176
     1
 40
1.0
176
     1
  0
VISUALSTYLE
  5
3D
102
{ACAD_REACTORS
330
2A
102
}
330
2A
100
AcDbVisualStyle
  2
EdgeColorOff
 70
    22
177
     3
291
     1
 70
    58
 90
        2
176
     0
 90
        2
176
     0
 90
        0
176
     0
 90
        0
176
     0
 40
0.6
176
     0
 40
30.0
176
     0
 62
     7
420
 16777215
176
     0
 90
        1
176
     0
 90
        4
176
     0
 62
     7
176
     0
 62
   257
176
     0
 90
        1
176
     0
 90
        1
176
     0
 40
1.0
176
     0
 90
        8
176
     2
 62
     7
176
     0
 40
1.0
176
     0
 90
        1
176
     0
 90
        6
176
     0
 90
        2
176
     0
 62
     7
176
     0
 90
        5
176
     0
 90
        0
176
     0
 90
        0
176
     0
290
     0
176
     0
 90
        1
176
     0
 40
0.0
176
     0
 90
        0
176
     0
290
     0
176
     0
290
     1
176
     0
290
     1
176
     0
290
     0
176
     0
290
     0
176
     0
290
     0
176
     0
290
     0
176
     0
290
     0
176
     0
290
     0
176
     0
 90
       50
176
     0
 40
0.0
176
     0
 40
1.0
176
     0
 90
        0
176
     0
 62
    18
420
        0
176
     0
 90
       50
176
     0
 90
        3
176
     0
 62
     5
420
      255
176
     0
290
     0
176
     0
 90
       50
176
     0
 90
       50
176
     0
 90
       50
176
     0
290
     0
176
     0
 90
       50
176
     0
 62
   256
176
     0
 40
1.0
176
     0
 90
        2
176
     0
  1
strokes_ogs.tif
176
     0
290
     0
176
     0
 40
1.0
176
     0
 40
1.0
176
     0
  0
VISUALSTYLE
  5
39
102
{ACAD_REACTORS
330
2A
102
}
330
2A
100
AcDbVisualStyle
  2
Facepattern
 70
    15
177
     3
291
     1
 70
    58
 90
        2
176
     1
 90
        2
176
     1
 90
        0
176
     1
 90
        0
176
     1
 40
0.6
176
     1
 40
30.0
176
     1
 62
     7
420
 16777215
176
     1
 90
        1
176
     1
 90
        4
176
     1
 62
     7
176
     1
 62
   257
176
     1
 90
        1
176
     1
 90
        1
176
     1
 40
1.0
176
     1
 90
        8
176
     1
 62
     7
176
     1
 40
1.0
176
     1
 90
        1
176
     1
 90
        6
176
     1
 90
        2
176
     1
 62
     7
176
     1
 90
        5
176
     1
 90
        0
176
     1
 90
        0
176
     1
290
     0
176
     1
 90
        1
176
     1
 40
0.0
176
     1
 90
        0
176
     1
290
     0
176
     1
290
     1
176
     1
290
     1
176
     1
290
     0
176
     1
290
     0
176
     1
290
     0
176
     1
290
     0
176
     1
290
     0
176
     1
290
     0
176
     1
 90
       50
176
     1
 40
0.0
176
     1
 40
1.0
176
     1
 90
        0
176
     1
 62
    18
420
        0
176
     1
 90
       50
176
     1
 90
        3
176
     1
 62
     5
420
      255
176
     1
290
     0
176
     1
 90
       50
176
     1
 90
       50
176
     1
 90
       50
176
     1
290
     0
176
     1
 90
       50
176
     1
 62
   256
176
     0
 40
1.0
176
     0
 90
        2
176
     1
  1
strokes_ogs.tif
176
     1
290
     0
176
     1
 40
1.0
176
     1
 40
1.0
176
     1
  0
VISUALSTYLE
  5
2B
102
{ACAD_REACTORS
330
2A
102
}
330
2A
100
AcDbVisualStyle
  2
Flat
 70
     0
177
     3
291
     1
 70
    58
 90
        2
176
     1
 90
        1
176
     1
 90
        1
176
     1
 90
        2
176
     1
 40
0.6
176
     1
 40
30.0
176
     1
 62
     7
420
 16777215
176
     1
 90
        0
176
     1
 90
        0
176
     1
 62
     7
176
     1
 62
   257
176
     1
 90
        1
176
     1
 90
        1
176
     1
 40
1.0
176
     1
 90
        8
176
     1
 62
     7
176
     1
 40
1.0
176
     1
 90
        1
176
     1
 90
        6
176
     1
 90
        2
176
     1
 62
     7
176
     1
 90
        5
176
     1
 90
        0
176
     1
 90
        0
176
     1
290
     0
176
     1
 90
       13
176
     1
 40
0.0
176
     1
 90
        0
176
     1
290
     0
176
     1
290
     1
176
     1
290
     1
176
     1
290
     0
176
     1
290
     0
176
     1
290
     0
176
     1
290
     0
176
     1
290
     0
176
     1
290
     0
176
     1
 90
       50
176
     1
 40
0.0
176
     1
 40
1.0
176
     1
 90
        0
176
     1
 62
    18
420
        0
176
     1
 90
       50
176
     1
 90
        3
176
     1
 62
     5
420
      255
176
     1
290
     0
176
     1
 90
       50
176
     1
 90
       50
176
     1
 90
       50
176
     1
290
     0
176
     1
 90
       50
176
     1
 62
   256
176
     0
 40
1.0
176
     0
 90
        2
176
     1
  1
strokes_ogs.tif
176
     1
290
     0
176
     1
 40
1.0
176
     1
 40
1.0
176
     1
  0
VISUALSTYLE
  5
2C
102
{ACAD_REACTORS
330
2A
102
}
330
2A
100
AcDbVisualStyle
  2
FlatWithEdges
 70
     1
177
     3
291
     1
 70
    58
 90
        2
176
     1
 90
        1
176
     1
 90
        1
176
     1
 90
        2
176
     1
 40
0.6
176
     1
 40
30.0
176
     1
 62
     7
420
 16777215
176
     1
 90
        1
176
     1
 90
        0
176
     1
 62
     7
176
     1
 62
   257
176
     1
 90
        1
176
     1
 90
        1
176
     1
 40
1.0
176
     1
 90
        0
176
     1
 62
   257
176
     1
 40
1.0
176
     1
 90
        1
176
     1
 90
        6
176
     1
 90
        2
176
     1
 62
     7
176
     1
 90
        5
176
     1
 90
        0
176
     1
 90
        0
176
     1
290
     0
176
     1
 90
       13
176
     1
 40
0.0
176
     1
 90
        0
176
     1
290
     0
176
     1
290
     1
176
     1
290
     1
176
     1
290
     0
176
     1
290
     0
176
     1
290
     0
176
     1
290
     0
176
     1
290
     0
176
     1
290
     0
176
     1
 90
       50
176
     1
 40
0.0
176
     1
 40
1.0
176
     1
 90
        0
176
     1
 62
    18
420
        0
176
     1
 90
       50
176
     1
 90
        3
176
     1
 62
     5
420
      255
176
     1
290
     0
176
     1
 90
       50
176
     1
 90
       50
176
     1
 90
       50
176
     1
290
     0
176
     1
 90
       50
176
     1
 62
   256
176
     0
 40
1.0
176
     0
 90
        2
176
     1
  1
strokes_ogs.tif
176
     1
290
     0
176
     1
 40
1.0
176
     1
 40
1.0
176
     1
  0
VISUALSTYLE
  5
2D
102
{ACAD_REACTORS
330
2A
102
}
330
2A
100
AcDbVisualStyle
  2
Gouraud
 70
     2
177
     3
291
     1
 70
    58
 90
        2
176
     1
 90
        2
176
     1
 90
        1
176
     1
 90
        2
176
     1
 40
0.6
176
     1
 40
30.0
176
     1
 62
     7
420
 16777215
176
     1
 90
        0
176
     1
 90
        0
176
     1
 62
     7
176
     1
 62
   257
176
     1
 90
        1
176
     1
 90
        1
176
     1
 40
1.0
176
     1
 90
        0
176
     1
 62
     7
176
     1
 40
1.0
176
     1
 90
        1
176
     1
 90
        6
176
     1
 90
        2
176
     1
 62
     7
176
     1
 90
        5
176
     1
 90
        0
176
     1
 90
        0
176
     1
290
     0
176
     1
 90
       13
176
     1
 40
0.0
176
     1
 90
        0
176
     1
290
     0
176
     1
290
     1
176
     1
290
     1
176
     1
290
     0
176
     1
290
     0
176
     1
290
     0
176
     1
290
     0
176
     1
290
     0
176
     1
290
     0
176
     1
 90
       50
176
     1
 40
0.0
176
     1
 40
1.0
176
     1
 90
        0
176
     1
 62
    18
420
        0
176
     1
 90
       50
176
     1
 90
        3
176
     1
 62
     5
420
      255
176
     1
290
     0
176
     1
 90
       50
176
     1
 90
       50
176
     1
 90
       50
176
     1
290
     0
176
     1
 90
       50
176
     1
 62
   256
176
     0
 40
1.0
176
     0
 90
        2
176
     1
  1
strokes_ogs.tif
176
     1
290
     0
176
     1
 40
1.0
176
     1
 40
1.0
176
     1
  0
VISUALSTYLE
  5
2E
102
{ACAD_REACTORS
330
2A
102
}
330
2A
100
AcDbVisualStyle
  2
GouraudWithEdges
 70
     3
177
     3
291
     1
 70
    58
 90
        2
176
     1
 90
        2
176
     1
 90
        1
176
     1
 90
        2
176
     1
 40
0.6
176
     1
 40
30.0
176
     1
 62
     7
420
 16777215
176
     1
 90
        1
176
     1
 90
        0
176
     1
 62
     7
176
     1
 62
   257
176
     1
 90
        1
176
     1
 90
        1
176
     1
 40
1.0
176
     1
 90
        0
176
     1
 62
   257
176
     1
 40
1.0
176
     1
 90
        1
176
     1
 90
        6
176
     1
 90
        2
176
     1
 62
     7
176
     1
 90
        5
176
     1
 90
        0
176
     1
 90
        0
176
     1
290
     0
176
     1
 90
       13
176
     1
 40
0.0
176
     1
 90
        0
176
     1
290
     0
176
     1
290
     1
176
     1
290
     1
176
     1
290
     0
176
     1
290
     0
176
     1
290
     0
176
     1
290
     0
176
     1
290
     0
176
     1
290
     0
176
     1
 90
       50
176
     1
 40
0.0
176
     1
 40
1.0
176
     1
 90
        0
176
     1
 62
    18
420
        0
176
     1
 90
       50
176
     1
 90
        3
176
     1
 62
     5
420
      255
176
     1
290
     0
176
     1
 90
       50
176
     1
 90
       50
176
     1
 90
       50
176
     1
290
     0
176
     1
 90
       50
176
     1
 62
   256
176
     0
 40
1.0
176
     0
 90
        2
176
     1
  1
strokes_ogs.tif
176
     1
290
     0
176
     1
 40
1.0
176
     1
 40
1.0
176
     1
  0
VISUALSTYLE
  5
31
102
{ACAD_REACTORS
330
2A
102
}
330
2A
100
AcDbVisualStyle
  2
Hidden
 70
     6
177
     3
291
     0
 70
    58
 90
        1
176
     1
 90
        2
176
     1
 90
        2
176
     1
 90
        0
176
     1
 40
0.6
176
     1
 40
30.0
176
     1
 62
     7
420
 16777215
176
     1
 90
        2
176
     1
 90
        2
176
     1
 62
     7
176
     1
 62
   257
176
     1
 90
        2
176
     1
 90
        1
176
     1
 40
40.0
176
     1
 90
        0
176
     1
 62
   257
176
     1
 40
1.0
176
     1
 90
        1
176
     1
 90
        6
176
     1
 90
        2
176
     1
 62
     7
176
     1
 90
        3
176
     1
 90
        0
176
     1
 90
        0
176
     1
290
     0
176
     1
 90
        1
176
     1
 40
0.0
176
     1
 90
        0
176
     1
290
     0
176
     1
290
     1
176
     1
290
     1
176
     1
290
     0
176
     1
290
     0
176
     1
290
     0
176
     1
290
     0
176
     1
290
     0
176
     1
290
     0
176
     1
 90
       50
176
     1
 40
0.0
176
     1
 40
1.0
176
     1
 90
        0
176
     1
 62
    18
420
        0
176
     1
 90
       50
176
     1
 90
        3
176
     1
 62
     5
420
      255
176
     1
290
     0
176
     1
 90
       50
176
     1
 90
       50
176
     1
 90
       50
176
     1
290
     0
176
     1
 90
       50
176
     1
 62
   256
176
     0
 40
1.0
176
     0
 90
        2
176
     1
  1
strokes_ogs.tif
176
     1
290
     0
176
     1
 40
1.0
176
     1
 40
1.0
176
     1
  0
VISUALSTYLE
  5
3B
102
{ACAD_REACTORS
330
2A
102
}
330
2A
100
AcDbVisualStyle
  2
JitterOff
 70
    20
177
     3
291
     1
 70
    58
 90
        2
176
     0
 90
        2
176
     0
 90
        0
176
     0
 90
        0
176
     0
 40
0.6
176
     0
 40
30.0
176
     0
 62
     7
420
 16777215
176
     0
 90
        1
176
     0
 90
        4
176
     0
 62
     7
176
     0
 62
   257
176
     0
 90
        1
176
     0
 90
        1
176
     0
 40
1.0
176
     0
 90
       10
176
     2
 62
     7
176
     0
 40
1.0
176
     0
 90
        1
176
     0
 90
        6
176
     0
 90
        2
176
     0
 62
     7
176
     0
 90
        5
176
     0
 90
        0
176
     0
 90
        0
176
     0
290
     0
176
     0
 90
        1
176
     0
 40
0.0
176
     0
 90
        0
176
     0
290
     0
176
     0
290
     1
176
     0
290
     1
176
     0
290
     0
176
     0
290
     0
176
     0
290
     0
176
     0
290
     0
176
     0
290
     0
176
     0
290
     0
176
     0
 90
       50
176
     0
 40
0.0
176
     0
 40
1.0
176
     0
 90
        0
176
     0
 62
    18
420
        0
176
     0
 90
       50
176
     0
 90
        3
176
     0
 62
     5
420
      255
176
     0
290
     0
176
     0
 90
       50
176
     0
 90
       50
176
     0
 90
       50
176
     0
290
     0
176
     0
 90
       50
176
     0
 62
   256
176
     0
 40
1.0
176
     0
 90
        2
176
     0
  1
strokes_ogs.tif
176
     0
290
     0
176
     0
 40
1.0
176
     0
 40
1.0
176
     0
  0
VISUALSTYLE
  5
38
102
{ACAD_REACTORS
330
2A
102
}
330
2A
100
AcDbVisualStyle
  2
Linepattern
 70
    14
177
     3
291
     1
 70
    58
 90
        2
176
     1
 90
        2
176
     1
 90
        0
176
     1
 90
        0
176
     1
 40
0.6
176
     1
 40
30.0
176
     1
 62
     7
420
 16777215
176
     1
 90
        1
176
     1
 90
        4
176
     1
 62
     7
176
     1
 62
   257
176
     1
 90
        7
176
     1
 90
        7
176
     1
 40
1.0
176
     1
 90
        8
176
     1
 62
     7
176
     1
 40
1.0
176
     1
 90
        1
176
     1
 90
        6
176
     1
 90
        2
176
     1
 62
     7
176
     1
 90
        5
176
     1
 90
        0
176
     1
 90
        0
176
     1
290
     0
176
     1
 90
        1
176
     1
 40
0.0
176
     1
 90
        0
176
     1
290
     0
176
     1
290
     1
176
     1
290
     1
176
     1
290
     0
176
     1
290
     0
176
     1
290
     0
176
     1
290
     0
176
     1
290
     0
176
     1
290
     0
176
     1
 90
       50
176
     1
 40
0.0
176
     1
 40
1.0
176
     1
 90
        0
176
     1
 62
    18
420
        0
176
     1
 90
       50
176
     1
 90
        3
176
     1
 62
     5
420
      255
176
     1
290
     0
176
     1
 90
       50
176
     1
 90
       50
176
     1
 90
       50
176
     1
290
     0
176
     1
 90
       50
176
     1
 62
   256
176
     0
 40
1.0
176
     0
 90
        2
176
     1
  1
strokes_ogs.tif
176
     1
290
     0
176
     1
 40
1.0
176
     1
 40
1.0
176
     1
  0
VISUALSTYLE
  5
3C
102
{ACAD_REACTORS
330
2A
102
}
330
2A
100
AcDbVisualStyle
  2
OverhangOff
 70
    21
177
     3
291
     1
 70
    58
 90
        2
176
     0
 90
        2
176
     0
 90
        0
176
     0
 90
        0
176
     0
 40
0.6
176
     0
 40
30.0
176
     0
 62
     7
420
 16777215
176
     0
 90
        1
176
     0
 90
        4
176
     0
 62
     7
176
     0
 62
   257
176
     0
 90
        1
176
     0
 90
        1
176
     0
 40
1.0
176
     0
 90
        9
176
     2
 62
     7
176
     0
 40
1.0
176
     0
 90
        1
176
     0
 90
        6
176
     0
 90
        2
176
     0
 62
     7
176
     0
 90
        5
176
     0
 90
        0
176
     0
 90
        0
176
     0
290
     0
176
     0
 90
        1
176
     0
 40
0.0
176
     0
 90
        0
176
     0
290
     0
176
     0
290
     1
176
     0
290
     1
176
     0
290
     0
176
     0
290
     0
176
     0
290
     0
176
     0
290
     0
176
     0
290
     0
176
     0
290
     0
176
     0
 90
       50
176
     0
 40
0.0
176
     0
 40
1.0
176
     0
 90
        0
176
     0
 62
    18
420
        0
176
     0
 90
       50
176
     0
 90
        3
176
     0
 62
     5
420
      255
176
     0
290
     0
176
     0
 90
       50
176
     0
 90
       50
176
     0
 90
       50
176
     0
290
     0
176
     0
 90
       50
176
     0
 62
   256
176
     0
 40
1.0
176
     0
 90
        2
176
     0
  1
strokes_ogs.tif
176
     0
290
     0
176
     0
 40
1.0
176
     0
 40
1.0
176
     0
  0
VISUALSTYLE
  5
33
102
{ACAD_REACTORS
330
2A
102
}
330
2A
100
AcDbVisualStyle
  2
Realistic
 70
     8
177
     3
291
     0
 70
    58
 90
        2
176
     1
 90
        3
176
     1
 90
        0
176
     1
 90
        2
176
     1
 40
0.6
176
     1
 40
30.0
176
     1
 62
     7
420
 16777215
176
     1
 90
        0
176
     1
 90
        0
176
     1
 62
     7
176
     1
 62
   257
176
     1
 90
        1
176
     1
 90
        1
176
     1
 40
1.0
176
     1
 90
        8
176
     1
 62
   257
176
     1
 40
1.0
176
     1
 90
        1
176
     1
 90
        6
176
     1
 90
        2
176
     1
 62
     7
176
     1
 90
        3
176
     1
 90
        0
176
     1
 90
        0
176
     1
290
     0
176
     1
 90
       13
176
     1
 40
0.0
176
     1
 90
        0
176
     1
290
     0
176
     1
290
     1
176
     1
290
     1
176
     1
290
     0
176
     1
290
     0
176
     1
290
     0
176
     1
290
     0
176
     1
290
     0
176
     1
290
     0
176
     1
 90
       50
176
     1
 40
0.0
176
     1
 40
1.0
176
     1
 90
        0
176
     1
 62
    18
420
        0
176
     1
 90
       50
176
     1
 90
        3
176
     1
 62
     5
420
      255
176
     1
290
     0
176
     1
 90
       50
176
     1
 90
       50
176
     1
 90
       50
176
     1
290
     0
176
     1
 90
       50
176
     1
 62
   256
176
     0
 40
1.0
176
     0
 90
        2
176
     1
  1
strokes_ogs.tif
176
     1
290
     0
176
     1
 40
1.0
176
     1
 40
1.0
176
     1
  0
VISUALSTYLE
  5
42
102
{ACAD_REACTORS
330
2A
102
}
330
2A
100
AcDbVisualStyle
  2
Shaded
 70
    27
177
     3
291
     0
 70
    58
 90
        2
176
     1
 90
        2
176
     1
 90
        1
176
     1
 90
        2
176
     1
 40
0.6
176
     1
 40
30.0
176
     1
 62
     7
420
 16777215
176
     1
 90
        0
176
     1
 90
        4
176
     1
 62
     7
176
     1
 62
   257
176
     1
 90
        1
176
     1
 90
        1
176
     1
 40
1.0
176
     1
 90
        8
176
     1
 62
   257
176
     1
 40
1.0
176
     1
 90
        1
176
     1
 90
        6
176
     1
 90
        2
176
     1
 62
     8
420
  7895160
176
     1
 90
        3
176
     1
 90
        0
176
     1
 90
        0
176
     1
290
     0
176
     1
 90
        5
176
     1
 40
0.0
176
     1
 90
        0
176
     1
290
     0
176
     1
290
     1
176
     1
290
     1
176
     1
290
     0
176
     1
290
     0
176
     1
290
     0
176
     1
290
     0
176
     1
290
     0
176
     1
290
     0
176
     1
 90
       50
176
     1
 40
0.0
176
     1
 40
1.0
176
     1
 90
        0
176
     1
 62
    18
420
        0
176
     1
 90
       50
176
     1
 90
        3
176
     1
 62
     5
420
      255
176
     1
290
     0
176
     1
 90
       50
176
     1
 90
       50
176
     1
 90
       50
176
     1
290
     0
176
     1
 90
       50
176
     1
 62
   256
176
     0
 40
1.0
176
     0
 90
        2
176
     1
  1
strokes_ogs.tif
176
     1
290
     0
176
     1
 40
1.0
176
     1
 40
1.0
176
     1
  0
VISUALSTYLE
  5
41
102
{ACAD_REACTORS
330
2A
102
}
330
2A
100
AcDbVisualStyle
  2
Shaded with edges
 70
    26
177
     3
291
     0
 70
    58
 90
        2
176
     1
 90
        2
176
     1
 90
        1
176
     1
 90
        2
176
     1
 40
0.6
176
     1
 40
30.0
176
     1
 62
     7
420
 16777215
176
     1
 90
        1
176
     1
 90
       10
176
     1
 62
     7
176
     1
 62
   257
176
     1
 90
        2
176
     1
 90
        1
176
     1
 40
1.0
176
     1
 90
        8
176
     1
 62
   257
176
     1
 40
1.0
176
     1
 90
        1
176
     1
 90
        6
176
     1
 90
        2
176
     1
 62
     7
176
     1
 90
        3
176
     1
 90
        0
176
     1
 90
        0
176
     1
290
     0
176
     1
 90
        5
176
     1
 40
0.0
176
     1
 90
        0
176
     1
290
     0
176
     1
290
     1
176
     1
290
     1
176
     1
290
     0
176
     1
290
     0
176
     1
290
     0
176
     1
290
     0
176
     1
290
     0
176
     1
290
     0
176
     1
 90
       50
176
     1
 40
0.0
176
     1
 40
1.0
176
     1
 90
        0
176
     1
 62
    18
420
        0
176
     1
 90
       50
176
     1
 90
        3
176
     1
 62
     5
420
      255
176
     1
290
     0
176
     1
 90
       50
176
     1
 90
       50
176
     1
 90
       50
176
     1
290
     0
176
     1
 90
       50
176
     1
 62
   256
176
     0
 40
1.0
176
     0
 90
        2
176
     1
  1
strokes_ogs.tif
176
     1
290
     0
176
     1
 40
1.0
176
     1
 40
1.0
176
     1
  0
VISUALSTYLE
  5
3E
102
{ACAD_REACTORS
330
2A
102
}
330
2A
100
AcDbVisualStyle
  2
Shades of Gray
 70
    23
177
     3
291
     0
 70
    58
 90
        2
176
     1
 90
        2
176
     1
 90
        3
176
     1
 90
        0
176
     1
 40
0.6
176
     1
 40
30.0
176
     1
 62
     7
420
 16777215
176
     1
 90
        2
176
     1
 90
        2
176
     1
 62
     7
176
     1
 62
     7
176
     1
 90
        1
176
     1
 90
        1
176
     1
 40
40.0
176
     1
 90
        8
176
     1
 62
     7
176
     1
 40
1.0
176
     1
 90
        1
176
     1
 90
        6
176
     1
 90
        2
176
     1
 62
     7
176
     1
 90
        3
176
     1
 90
        0
176
     1
 90
        0
176
     1
290
     0
176
     1
 90
        1
176
     1
 40
0.0
176
     1
 90
        0
176
     1
290
     0
176
     1
290
     1
176
     1
290
     1
176
     1
290
     0
176
     1
290
     0
176
     1
290
     0
176
     1
290
     0
176
     1
290
     0
176
     1
290
     0
176
     1
 90
       50
176
     1
 40
0.0
176
     1
 40
1.0
176
     1
 90
        0
176
     1
 62
    18
420
        0
176
     1
 90
       50
176
     1
 90
        3
176
     1
 62
     5
420
      255
176
     1
290
     0
176
     1
 90
       50
176
     1
 90
       50
176
     1
 90
       50
176
     1
290
     0
176
     1
 90
       50
176
     1
 62
   256
176
     0
 40
1.0
176
     0
 90
        2
176
     1
  1
strokes_ogs.tif
176
     1
290
     0
176
     1
 40
1.0
176
     1
 40
1.0
176
     1
  0
VISUALSTYLE
  5
3F
102
{ACAD_REACTORS
330
2A
102
}
330
2A
100
AcDbVisualStyle
  2
Sketchy
 70
    24
177
     3
291
     0
 70
    58
 90
        1
176
     1
 90
        2
176
     1
 90
        2
176
     1
 90
        0
176
     1
 40
0.6
176
     1
 40
30.0
176
     1
 62
     7
420
 16777215
176
     1
 90
        2
176
     1
 90
        2
176
     1
 62
     7
176
     1
 62
     7
176
     1
 90
        1
176
     1
 90
        1
176
     1
 40
40.0
176
     1
 90
       11
176
     1
 62
     7
176
     1
 40
1.0
176
     1
 90
        1
176
     1
 90
        6
176
     1
 90
        2
176
     1
 62
     7
176
     1
 90
        6
176
     1
 90
        0
176
     1
 90
        0
176
     1
290
     0
176
     1
 90
        1
176
     1
 40
0.0
176
     1
 90
        0
176
     1
290
     0
176
     1
290
     1
176
     1
290
     1
176
     1
290
     0
176
     1
290
     0
176
     1
290
     0
176
     1
290
     0
176
     1
290
     0
176
     1
290
     0
176
     1
 90
       50
176
     1
 40
0.0
176
     1
 40
1.0
176
     1
 90
        0
176
     1
 62
    18
420
        0
176
     1
 90
       50
176
     1
 90
        3
176
     1
 62
     5
420
      255
176
     1
290
     0
176
     1
 90
       50
176
     1
 90
       50
176
     1
 90
       50
176
     1
290
     0
176
     1
 90
       50
176
     1
 62
   256
176
     0
 40
1.0
176
     0
 90
        2
176
     1
  1
strokes_ogs.tif
176
     1
290
     0
176
     1
 40
1.0
176
     1
 40
1.0
176
     1
  0
VISUALSTYLE
  5
37
102
{ACAD_REACTORS
330
2A
102
}
330
2A
100
AcDbVisualStyle
  2
Thicken
 70
    13
177
     3
291
     1
 70
    58
 90
        2
176
     1
 90
        2
176
     1
 90
        0
176
     1
 90
        0
176
     1
 40
0.6
176
     1
 40
30.0
176
     1
 62
     7
420
 16777215
176
     1
 90
        1
176
     1
 90
        4
176
     1
 62
     7
176
     1
 62
   257
176
     1
 90
        1
176
     1
 90
        1
176
     1
 40
1.0
176
     1
 90
       12
176
     1
 62
     7
176
     1
 40
1.0
176
     1
 90
        1
176
     1
 90
        6
176
     1
 90
        2
176
     1
 62
     7
176
     1
 90
        5
176
     1
 90
        0
176
     1
 90
        0
176
     1
290
     0
176
     1
 90
        1
176
     1
 40
0.0
176
     1
 90
        0
176
     1
290
     0
176
     1
290
     1
176
     1
290
     1
176
     1
290
     0
176
     1
290
     0
176
     1
290
     0
176
     1
290
     0
176
     1
290
     0
176
     1
290
     0
176
     1
 90
       50
176
     1
 40
0.0
176
     1
 40
1.0
176
     1
 90
        0
176
     1
 62
    18
420
        0
176
     1
 90
       50
176
     1
 90
        3
176
     1
 62
     5
420
      255
176
     1
290
     0
176
     1
 90
       50
176
     1
 90
       50
176
     1
 90
       50
176
     1
290
     0
176
     1
 90
       50
176
     1
 62
   256
176
     0
 40
1.0
176
     0
 90
        2
176
     1
  1
strokes_ogs.tif
176
     1
290
     0
176
     1
 40
1.0
176
     1
 40
1.0
176
     1
  0
VISUALSTYLE
  5
30
102
{ACAD_REACTORS
330
2A
102
}
330
2A
100
AcDbVisualStyle
  2
Wireframe
 70
     5
177
     3
291
     0
 70
    58
 90
        0
176
     1
 90
        2
176
     1
 90
        0
176
     1
 90
        0
176
     1
 40
0.6
176
     1
 40
30.0
176
     1
 62
     7
420
 16777215
176
     1
 90
        1
176
     1
 90
        4
176
     1
 62
     7
176
     1
 62
   257
176
     1
 90
        1
176
     1
 90
        1
176
     1
 40
1.0
176
     1
 90
        0
176
     1
 62
   257
176
     1
 40
1.0
176
     1
 90
        1
176
     1
 90
        6
176
     1
 90
        2
176
     1
 62
     7
176
     1
 90
        3
176
     1
 90
        0
176
     1
 90
        0
176
     1
290
     0
176
     1
 90
        1
176
     1
 40
0.0
176
     1
 90
        0
176
     1
290
     0
176
     1
290
     1
176
     1
290
     1
176
     1
290
     0
176
     1
290
     0
176
     1
290
     0
176
     1
290
     0
176
     1
290
     0
176
     1
290
     0
176
     1
 90
       50
176
     1
 40
0.0
176
     1
 40
1.0
176
     1
 90
        0
176
     1
 62
    18
420
        0
176
     1
 90
       50
176
     1
 90
        3
176
     1
 62
     5
420
      255
176
     1
290
     0
176
     1
 90
       50
176
     1
 90
       50
176
     1
 90
       50
176
     1
290
     0
176
     1
 90
       50
176
     1
 62
   256
176
     0
 40
1.0
176
     0
 90
        2
176
     1
  1
strokes_ogs.tif
176
     1
290
     0
176
     1
 40
1.0
176
     1
 40
1.0
176
     1
  0
VISUALSTYLE
  5
40
102
{ACAD_REACTORS
330
2A
102
}
330
2A
100
AcDbVisualStyle
  2
X-Ray
 70
    25
177
     3
291
     0
 70
    58
 90
        2
176
     1
 90
        2
176
     1
 90
        1
176
     1
 90
        1
176
     1
 40
0.5
176
     1
 40
30.0
176
     1
 62
     7
420
 16777215
176
     1
 90
        1
176
     1
 90
        0
176
     1
 62
     7
176
     1
 62
   257
176
     1
 90
        1
176
     1
 90
        1
176
     1
 40
1.0
176
     1
 90
        8
176
     1
 62
     7
176
     1
 40
1.0
176
     1
 90
        1
176
     1
 90
        6
176
     1
 90
        2
176
     1
 62
     7
176
     1
 90
        3
176
     1
 90
        0
176
     1
 90
        0
176
     1
290
     0
176
     1
 90
       13
176
     1
 40
0.0
176
     1
 90
        0
176
     1
290
     0
176
     1
290
     1
176
     1
290
     1
176
     1
290
     0
176
     1
290
     0
176
     1
290
     0
176
     1
290
     0
176
     1
290
     0
176
     1
290
     0
176
     1
 90
       50
176
     1
 40
0.0
176
     1
 40
1.0
176
     1
 90
        0
176
     1
 62
    18
420
        0
176
     1
 90
       50
176
     1
 90
        3
176
     1
 62
     5
420
      255
176
     1
290
     0
176
     1
 90
       50
176
     1
 90
       50
176
     1
 90
       50
176
     1
290
     0
176
     1
 90
       50
176
     1
 62
   256
176
     0
 40
1.0
176
     0
 90
        2
176
     1
  1
strokes_ogs.tif
176
     1
290
     0
176
     1
 40
1.0
176
     1
 40
1.0
176
     1
  0
DICTIONARYVAR
  5
21D
102
{ACAD_REACTORS
330
21C
102
}
330
21C
100
DictionaryVariables
280
     0
  1
1:1
  0
DICTIONARYVAR
  5
222
102
{ACAD_REACTORS
330
21C
102
}
330
21C
100
DictionaryVariables
280
     0
  1
Standard
  0
DICTIONARYVAR
  5
221
102
{ACAD_REACTORS
330
21C
102
}
330
21C
100
DictionaryVariables
280
     0
  1
Standard
  0
DICTIONARY
  5
21E
330
6A
100
AcDbDictionary
280
     1
281
     1
  3
ACAD_ROUNDTRIP_2008_TABLESTYLE_CELLSTYLEMAP
360
21F
  0
CELLSTYLEMAP
  5
21F
102
{ACAD_REACTORS
330
21E
102
}
330
21E
100
AcDbCellStyleMap
 90
        3
300
CELLSTYLE
  1
TABLEFORMAT_BEGIN
 90
        5
170
     1
 91
        0
 92
    32768
 62
   257
 93
        1
300
CONTENTFORMAT
  1
CONTENTFORMAT_BEGIN
 90
        0
 91
        0
 92
        4
 93
        0
300

 40
0.0
140
1.0
 94
        5
 62
     0
340
11
144
0.25
309
CONTENTFORMAT_END
171
     1
301
MARGIN
  1
CELLMARGIN_BEGIN
 40
0.06
 40
0.06
 40
0.06
 40
0.06
 40
0.06
 40
0.06
309
CELLMARGIN_END
 94
        6
 95
        1
302
GRIDFORMAT
  1
GRIDFORMAT_BEGIN
 90
        0
 91
        1
 62
     0
 92
       -2
340
14
 93
        0
 40
0.045
309
GRIDFORMAT_END
 95
        2
302
GRIDFORMAT
  1
GRIDFORMAT_BEGIN
 90
        0
 91
        1
 62
     0
 92
       -2
340
14
 93
        0
 40
0.045
309
GRIDFORMAT_END
 95
        4
302
GRIDFORMAT
  1
GRIDFORMAT_BEGIN
 90
        0
 91
        1
 62
     0
 92
       -2
340
14
 93
        0
 40
0.045
309
GRIDFORMAT_END
 95
        8
302
GRIDFORMAT
  1
GRIDFORMAT_BEGIN
 90
        0
 91
        1
 62
     0
 92
       -2
340
14
 93
        0
 40
0.045
309
GRIDFORMAT_END
 95
       16
302
GRIDFORMAT
  1
GRIDFORMAT_BEGIN
 90
        0
 91
        1
 62
     0
 92
       -2
340
14
 93
        0
 40
0.045
309
GRIDFORMAT_END
 95
       32
302
GRIDFORMAT
  1
GRIDFORMAT_BEGIN
 90
        0
 91
        1
 62
     0
 92
       -2
340
14
 93
        0
 40
0.045
309
GRIDFORMAT_END
309
TABLEFORMAT_END
  1
CELLSTYLE_BEGIN
 90
        1
 91
        1
300
_TITLE
309
CELLSTYLE_END
300
CELLSTYLE
  1
TABLEFORMAT_BEGIN
 90
        5
170
     1
 91
        0
 92
        0
 62
   257
 93
        1
300
CONTENTFORMAT
  1
CONTENTFORMAT_BEGIN
 90
        0
 91
        0
 92
        4
 93
        0
300

 40
0.0
140
1.0
 94
        5
 62
     0
340
11
144
0.18
309
CONTENTFORMAT_END
171
     1
301
MARGIN
  1
CELLMARGIN_BEGIN
 40
0.06
 40
0.06
 40
0.06
 40
0.06
 40
0.06
 40
0.06
309
CELLMARGIN_END
 94
        6
 95
        1
302
GRIDFORMAT
  1
GRIDFORMAT_BEGIN
 90
        0
 91
        1
 62
     0
 92
       -2
340
14
 93
        0
 40
0.045
309
GRIDFORMAT_END
 95
        2
302
GRIDFORMAT
  1
GRIDFORMAT_BEGIN
 90
        0
 91
        1
 62
     0
 92
       -2
340
14
 93
        0
 40
0.045
309
GRIDFORMAT_END
 95
        4
302
GRIDFORMAT
  1
GRIDFORMAT_BEGIN
 90
        0
 91
        1
 62
     0
 92
       -2
340
14
 93
        0
 40
0.045
309
GRIDFORMAT_END
 95
        8
302
GRIDFORMAT
  1
GRIDFORMAT_BEGIN
 90
        0
 91
        1
 62
     0
 92
       -2
340
14
 93
        0
 40
0.045
309
GRIDFORMAT_END
 95
       16
302
GRIDFORMAT
  1
GRIDFORMAT_BEGIN
 90
        0
 91
        1
 62
     0
 92
       -2
340
14
 93
        0
 40
0.045
309
GRIDFORMAT_END
 95
       32
302
GRIDFORMAT
  1
GRIDFORMAT_BEGIN
 90
        0
 91
        1
 62
     0
 92
       -2
340
14
 93
        0
 40
0.045
309
GRIDFORMAT_END
309
TABLEFORMAT_END
  1
CELLSTYLE_BEGIN
 90
        2
 91
        1
300
_HEADER
309
CELLSTYLE_END
300
CELLSTYLE
  1
TABLEFORMAT_BEGIN
 90
        5
170
     1
 91
        0
 92
        0
 62
   257
 93
        1
300
CONTENTFORMAT
  1
CONTENTFORMAT_BEGIN
 90
        0
 91
        0
 92
        4
 93
        0
300

 40
0.0
140
1.0
 94
        2
 62
     0
340
11
144
0.18
309
CONTENTFORMAT_END
171
     1
301
MARGIN
  1
CELLMARGIN_BEGIN
 40
0.06
 40
0.06
 40
0.06
 40
0.06
 40
0.06
 40
0.06
309
CELLMARGIN_END
 94
        6
 95
        1
302
GRIDFORMAT
  1
GRIDFORMAT_BEGIN
 90
        0
 91
        1
 62
     0
 92
       -2
340
14
 93
        0
 40
0.045
309
GRIDFORMAT_END
 95
        2
302
GRIDFORMAT
  1
GRIDFORMAT_BEGIN
 90
        0
 91
        1
 62
     0
 92
       -2
340
14
 93
        0
 40
0.045
309
GRIDFORMAT_END
 95
        4
302
GRIDFORMAT
  1
GRIDFORMAT_BEGIN
 90
        0
 91
        1
 62
     0
 92
       -2
340
14
 93
        0
 40
0.045
309
GRIDFORMAT_END
 95
        8
302
GRIDFORMAT
  1
GRIDFORMAT_BEGIN
 90
        0
 91
        1
 62
     0
 92
       -2
340
14
 93
        0
 40
0.045
309
GRIDFORMAT_END
 95
       16
302
GRIDFORMAT
  1
GRIDFORMAT_BEGIN
 90
        0
 91
        1
 62
     0
 92
       -2
340
14
 93
        0
 40
0.045
309
GRIDFORMAT_END
 95
       32
302
GRIDFORMAT
  1
GRIDFORMAT_BEGIN
 90
        0
 91
        1
 62
     0
 92
       -2
340
14
 93
        0
 40
0.045
309
GRIDFORMAT_END
309
TABLEFORMAT_END
  1
CELLSTYLE_BEGIN
 90
        3
 91
        2
300
_DATA
309
CELLSTYLE_END
  0
ENDSEC
  0
EOF