0
SECTION
  2
HEADER
  9
$ACADVER
  1
AC1027
  9
$ACADMAINTVER
 70
     8
  9
$DWGCODEPAGE
  3
ANSI_1252
  9
$REQUIREDVERSIONS
160
                 0
  9
$COMMENTS
  1
File was created by Cadenas
  9
$CUSTOMPROPERTYTAG
  1
NN
  9
$CUSTOMPROPERTY
  1
Grip Tight Medium Duty Air-handling Four-Bolt Flange
  9
$CUSTOMPROPERTYTAG
  1
NT
  9
$CUSTOMPROPERTY
  1
GTMAH Air Handling  Medium Duty 4 Bolt Flange Bearings
  9
$CUSTOMPROPERTYTAG
  1
NB
  9
$CUSTOMPROPERTY
  1
129698
  9
$CUSTOMPROPERTYTAG
  1
NBSYN
  9
$CUSTOMPROPERTY
  1
$PN.$LUBE.
  9
$CUSTOMPROPERTYTAG
  1
LINA
  9
$CUSTOMPROPERTY
  1
129698
  9
$CUSTOMPROPERTYTAG
  1
SERIES
  9
$CUSTOMPROPERTY
  1
207
  9
$CUSTOMPROPERTYTAG
  1
SS
  9
$CUSTOMPROPERTY
  1
1-3/16
  9
$CUSTOMPROPERTYTAG
  1
PN
  9
$CUSTOMPROPERTY
  1
129698
  9
$CUSTOMPROPERTYTAG
  1
DESCRIPTION
  9
$CUSTOMPROPERTY
  1
F4B-GTMAH-103
  9
$CUSTOMPROPERTYTAG
  1
A
  9
$CUSTOMPROPERTY
  1
1-5/8
  9
$CUSTOMPROPERTYTAG
  1
B
  9
$CUSTOMPROPERTY
  1
4-3/4
  9
$CUSTOMPROPERTYTAG
  1
C
  9
$CUSTOMPROPERTY
  1
1-49/64
  9
$CUSTOMPROPERTYTAG
  1
D
  9
$CUSTOMPROPERTY
  1
3-5/8
  9
$CUSTOMPROPERTYTAG
  1
F
  9
$CUSTOMPROPERTY
  1
1/2
  9
$CUSTOMPROPERTYTAG
  1
H
  9
$CUSTOMPROPERTY
  1
9/16
  9
$CUSTOMPROPERTYTAG
  1
J
  9
$CUSTOMPROPERTY
  1
17/32
  9
$CUSTOMPROPERTYTAG
  1
L
  9
$CUSTOMPROPERTY
  1
2-19/64
  9
$CUSTOMPROPERTYTAG
  1
N
  9
$CUSTOMPROPERTY
  1
2-7/16
  9
$CUSTOMPROPERTYTAG
  1
Z
  9
$CUSTOMPROPERTY
  1
1-3/4
  9
$CUSTOMPROPERTYTAG
  1
COMPANY
  9
$CUSTOMPROPERTY
  1
baldor
  9
$INSBASE
 10
0.0
 20
0.0
 30
0.0
  9
$EXTMIN
 10
1.000000000000000E+20
 20
1.000000000000000E+20
 30
1.000000000000000E+20
  9
$EXTMAX
 10
-1.000000000000000E+20
 20
-1.000000000000000E+20
 30
-1.000000000000000E+20
  9
$LIMMIN
 10
0.0
 20
0.0
  9
$LIMMAX
 10
12.0
 20
9.0
  9
$ORTHOMODE
 70
     0
  9
$REGENMODE
 70
     1
  9
$FILLMODE
 70
     1
  9
$QTEXTMODE
 70
     0
  9
$MIRRTEXT
 70
     1
  9
$LTSCALE
 40
1.0
  9
$ATTMODE
 70
     1
  9
$TEXTSIZE
 40
0.2
  9
$TRACEWID
 40
0.05
  9
$TEXTSTYLE
  7
Standard
  9
$CLAYER
  8
0
  9
$CELTYPE
  6
ByLayer
  9
$CECOLOR
 62
   256
  9
$CELTSCALE
 40
1.0
  9
$DISPSILH
 70
     0
  9
$DIMSCALE
 40
1.0
  9
$DIMASZ
 40
0.18
  9
$DIMEXO
 40
0.0625
  9
$DIMDLI
 40
0.38
  9
$DIMRND
 40
0.0
  9
$DIMDLE
 40
0.0
  9
$DIMEXE
 40
0.18
  9
$DIMTP
 40
0.0
  9
$DIMTM
 40
0.0
  9
$DIMTXT
 40
0.18
  9
$DIMCEN
 40
0.09
  9
$DIMTSZ
 40
0.0
  9
$DIMTOL
 70
     0
  9
$DIMLIM
 70
     0
  9
$DIMTIH
 70
     1
  9
$DIMTOH
 70
     1
  9
$DIMSE1
 70
     0
  9
$DIMSE2
 70
     0
  9
$DIMTAD
 70
     0
  9
$DIMZIN
 70
     0
  9
$DIMBLK
  1

  9
$DIMASO
 70
     1
  9
$DIMSHO
 70
     1
  9
$DIMPOST
  1

  9
$DIMAPOST
  1

  9
$DIMALT
 70
     0
  9
$DIMALTD
 70
     2
  9
$DIMALTF
 40
25.4
  9
$DIMLFAC
 40
1.0
  9
$DIMTOFL
 70
     0
  9
$DIMTVP
 40
0.0
  9
$DIMTIX
 70
     0
  9
$DIMSOXD
 70
     0
  9
$DIMSAH
 70
     0
  9
$DIMBLK1
  1

  9
$DIMBLK2
  1

  9
$DIMSTYLE
  2
Standard
  9
$DIMCLRD
 70
     0
  9
$DIMCLRE
 70
     0
  9
$DIMCLRT
 70
     0
  9
$DIMTFAC
 40
1.0
  9
$DIMGAP
 40
0.09
  9
$DIMJUST
 70
     0
  9
$DIMSD1
 70
     0
  9
$DIMSD2
 70
     0
  9
$DIMTOLJ
 70
     1
  9
$DIMTZIN
 70
     0
  9
$DIMALTZ
 70
     0
  9
$DIMALTTZ
 70
     0
  9
$DIMUPT
 70
     0
  9
$DIMDEC
 70
     4
  9
$DIMTDEC
 70
     4
  9
$DIMALTU
 70
     2
  9
$DIMALTTD
 70
     2
  9
$DIMTXSTY
  7
Standard
  9
$DIMAUNIT
 70
     0
  9
$DIMADEC
 70
     0
  9
$DIMALTRND
 40
0.0
  9
$DIMAZIN
 70
     0
  9
$DIMDSEP
 70
    46
  9
$DIMATFIT
 70
     3
  9
$DIMFRAC
 70
     0
  9
$DIMLDRBLK
  1

  9
$DIMLUNIT
 70
     2
  9
$DIMLWD
 70
    -2
  9
$DIMLWE
 70
    -2
  9
$DIMTMOVE
 70
     0
  9
$DIMFXL
 40
1.0
  9
$DIMFXLON
 70
     0
  9
$DIMJOGANG
 40
0.7853981633974483
  9
$DIMTFILL
 70
     0
  9
$DIMTFILLCLR
 70
     0
  9
$DIMARCSYM
 70
     0
  9
$DIMLTYPE
  6

  9
$DIMLTEX1
  6

  9
$DIMLTEX2
  6

  9
$DIMTXTDIRECTION
 70
     0
  9
$LUNITS
 70
     2
  9
$LUPREC
 70
     4
  9
$SKETCHINC
 40
0.1
  9
$FILLETRAD
 40
0.5
  9
$AUNITS
 70
     0
  9
$AUPREC
 70
     0
  9
$MENU
  1
.
  9
$ELEVATION
 40
0.0
  9
$PELEVATION
 40
0.0
  9
$THICKNESS
 40
0.0
  9
$LIMCHECK
 70
     0
  9
$CHAMFERA
 40
0.0
  9
$CHAMFERB
 40
0.0
  9
$CHAMFERC
 40
0.0
  9
$CHAMFERD
 40
0.0
  9
$SKPOLY
 70
     0
  9
$TDCREATE
 40
2458168.964091389
  9
$TDUCREATE
 40
2458168.922424722
  9
$TDUPDATE
 40
2458168.964091574
  9
$TDUUPDATE
 40
2458168.922424907
  9
$TDINDWG
 40
0.0000000116
  9
$TDUSRTIMER
 40
0.0000000116
  9
$USRTIMER
 70
     1
  9
$ANGBASE
 50
0.0
  9
$ANGDIR
 70
     0
  9
$PDMODE
 70
     0
  9
$PDSIZE
 40
0.0
  9
$PLINEWID
 40
0.0
  9
$SPLFRAME
 70
     0
  9
$SPLINETYPE
 70
     6
  9
$SPLINESEGS
 70
     8
  9
$HANDSEED
  5
1CA
  9
$SURFTAB1
 70
     6
  9
$SURFTAB2
 70
     6
  9
$SURFTYPE
 70
     6
  9
$SURFU
 70
     6
  9
$SURFV
 70
     6
  9
$UCSBASE
  2

  9
$UCSNAME
  2

  9
$UCSORG
 10
0.0
 20
0.0
 30
0.0
  9
$UCSXDIR
 10
1.0
 20
0.0
 30
0.0
  9
$UCSYDIR
 10
0.0
 20
1.0
 30
0.0
  9
$UCSORTHOREF
  2

  9
$UCSORTHOVIEW
 70
     0
  9
$UCSORGTOP
 10
0.0
 20
0.0
 30
0.0
  9
$UCSORGBOTTOM
 10
0.0
 20
0.0
 30
0.0
  9
$UCSORGLEFT
 10
0.0
 20
0.0
 30
0.0
  9
$UCSORGRIGHT
 10
0.0
 20
0.0
 30
0.0
  9
$UCSORGFRONT
 10
0.0
 20
0.0
 30
0.0
  9
$UCSORGBACK
 10
0.0
 20
0.0
 30
0.0
  9
$PUCSBASE
  2

  9
$PUCSNAME
  2

  9
$PUCSORG
 10
0.0
 20
0.0
 30
0.0
  9
$PUCSXDIR
 10
1.0
 20
0.0
 30
0.0
  9
$PUCSYDIR
 10
0.0
 20
1.0
 30
0.0
  9
$PUCSORTHOREF
  2

  9
$PUCSORTHOVIEW
 70
     0
  9
$PUCSORGTOP
 10
0.0
 20
0.0
 30
0.0
  9
$PUCSORGBOTTOM
 10
0.0
 20
0.0
 30
0.0
  9
$PUCSORGLEFT
 10
0.0
 20
0.0
 30
0.0
  9
$PUCSORGRIGHT
 10
0.0
 20
0.0
 30
0.0
  9
$PUCSORGFRONT
 10
0.0
 20
0.0
 30
0.0
  9
$PUCSORGBACK
 10
0.0
 20
0.0
 30
0.0
  9
$USERI1
 70
     0
  9
$USERI2
 70
     0
  9
$USERI3
 70
     0
  9
$USERI4
 70
     0
  9
$USERI5
 70
     0
  9
$USERR1
 40
0.0
  9
$USERR2
 40
0.0
  9
$USERR3
 40
0.0
  9
$USERR4
 40
0.0
  9
$USERR5
 40
0.0
  9
$WORLDVIEW
 70
     1
  9
$SHADEDGE
 70
     3
  9
$SHADEDIF
 70
    70
  9
$TILEMODE
 70
     1
  9
$MAXACTVP
 70
    64
  9
$PINSBASE
 10
0.0
 20
0.0
 30
0.0
  9
$PLIMCHECK
 70
     0
  9
$PEXTMIN
 10
1.000000000000000E+20
 20
1.000000000000000E+20
 30
1.000000000000000E+20
  9
$PEXTMAX
 10
-1.000000000000000E+20
 20
-1.000000000000000E+20
 30
-1.000000000000000E+20
  9
$PLIMMIN
 10
0.0
 20
0.0
  9
$PLIMMAX
 10
12.0
 20
9.0
  9
$UNITMODE
 70
     0
  9
$VISRETAIN
 70
     1
  9
$PLINEGEN
 70
     0
  9
$PSLTSCALE
 70
     1
  9
$TREEDEPTH
 70
  3020
  9
$CMLSTYLE
  2
Standard
  9
$CMLJUST
 70
     0
  9
$CMLSCALE
 40
1.0
  9
$PROXYGRAPHICS
 70
     1
  9
$MEASUREMENT
 70
     0
  9
$CELWEIGHT
370
    -1
  9
$ENDCAPS
280
     0
  9
$JOINSTYLE
280
     0
  9
$LWDISPLAY
290
     0
  9
$INSUNITS
 70
     1
  9
$HYPERLINKBASE
  1

  9
$STYLESHEET
  1

  9
$XEDIT
290
     1
  9
$CEPSNTYPE
380
     0
  9
$PSTYLEMODE
290
     1
  9
$FINGERPRINTGUID
  2
{8AFBF74D-E84E-403E-B5A0-04934A5AC92D}
  9
$VERSIONGUID
  2
{FAEB1C32-E019-11D5-929B-00C0DF256EC4}
  9
$EXTNAMES
290
     1
  9
$PSVPSCALE
 40
0.0
  9
$OLESTARTUP
290
     0
  9
$SORTENTS
280
   127
  9
$INDEXCTL
280
     0
  9
$HIDETEXT
280
     1
  9
$XCLIPFRAME
280
     2
  9
$HALOGAP
280
     0
  9
$OBSCOLOR
 70
   257
  9
$OBSLTYPE
280
     0
  9
$INTERSECTIONDISPLAY
280
     0
  9
$INTERSECTIONCOLOR
 70
   257
  9
$DIMASSOC
280
     2
  9
$PROJECTNAME
  1

  9
$CAMERADISPLAY
290
     0
  9
$LENSLENGTH
 40
50.0
  9
$CAMERAHEIGHT
 40
0.0
  9
$STEPSPERSEC
 40
2.0
  9
$STEPSIZE
 40
6.0
  9
$3DDWFPREC
 40
2.0
  9
$PSOLWIDTH
 40
0.25
  9
$PSOLHEIGHT
 40
4.0
  9
$LOFTANG1
 40
1.570796326794897
  9
$LOFTANG2
 40
1.570796326794897
  9
$LOFTMAG1
 40
0.0
  9
$LOFTMAG2
 40
0.0
  9
$LOFTPARAM
 70
     7
  9
$LOFTNORMALS
280
     1
  9
$LATITUDE
 40
37.795
  9
$LONGITUDE
 40
-122.394
  9
$NORTHDIRECTION
 40
0.0
  9
$TIMEZONE
 70
 -8000
  9
$LIGHTGLYPHDISPLAY
280
     1
  9
$TILEMODELIGHTSYNCH
280
     1
  9
$CMATERIAL
347
44
  9
$SOLIDHIST
280
     0
  9
$SHOWHIST
280
     1
  9
$DWFFRAME
280
     2
  9
$DGNFRAME
280
     2
  9
$REALWORLDSCALE
290
     1
  9
$INTERFERECOLOR
 62
   256
  9
$CSHADOW
280
     0
  9
$SHADOWPLANELOCATION
 40
0.0
  0
ENDSEC
  0
SECTION
  2
CLASSES
  0
CLASS
  1
ACDBDICTIONARYWDFLT
  2
AcDbDictionaryWithDefault
  3
ObjectDBX Classes
 90
        0
 91
        4
280
     0
281
     0
  0
CLASS
  1
VISUALSTYLE
  2
AcDbVisualStyle
  3
ObjectDBX Classes
 90
     4095
 91
        4
280
     0
281
     0
  0
CLASS
  1
MATERIAL
  2
AcDbMaterial
  3
ObjectDBX Classes
 90
     1153
 91
        4
280
     0
281
     0
  0
CLASS
  1
SCALE
  2
AcDbScale
  3
ObjectDBX Classes
 90
     1153
 91
        4
280
     0
281
     0
  0
CLASS
  1
TABLESTYLE
  2
AcDbTableStyle
  3
ObjectDBX Classes
 90
     4095
 91
        4
280
     0
281
     0
  0
CLASS
  1
MLEADERSTYLE
  2
AcDbMLeaderStyle
  3
ACDB_MLEADERSTYLE_CLASS
 90
     4095
 91
        4
280
     0
281
     0
  0
CLASS
  1
SUN
  2
AcDbSun
  3
SCENEOE
 90
     1153
 91
        4
280
     0
281
     0
  0
CLASS
  1
DICTIONARYVAR
  2
AcDbDictionaryVar
  3
ObjectDBX Classes
 90
        0
 91
        4
280
     0
281
     0
  0
CLASS
  1
CELLSTYLEMAP
  2
AcDbCellStyleMap
  3
ObjectDBX Classes
 90
     1152
 91
        4
280
     0
281
     0
  0
ENDSEC
  0
SECTION
  2
TABLES
  0
TABLE
  2
VPORT
  5
8
330
0
100
AcDbSymbolTable
 70
     1
  0
VPORT
  5
29
330
8
100
AcDbSymbolTableRecord
100
AcDbViewportTableRecord
  2
*Active
 70
     0
 10
0.0
 20
0.0
 11
1.0
 21
1.0
 12
0.3258499999999991
 22
0.0427332736692918
 13
0.0
 23
0.0
 14
0.5
 24
0.5
 15
0.5
 25
0.5
 16
0.0
 26
0.0
 36
1.0
 17
0.0
 27
0.0
 37
0.0
 40
4.932175878285356
 41
0.3946258300660284
 42
50.0
 43
0.0
 44
0.0
 50
0.0
 51
0.0
 71
     0
 72
   100
 73
     1
 74
     3
 75
     0
 76
     0
 77
     0
 78
     0
281
     0
 65
     1
110
0.0
120
0.0
130
0.0
111
1.0
121
0.0
131
0.0
112
0.0
122
1.0
132
0.0
 79
     0
146
0.0
348
2F
 60
     3
 61
     5
292
     1
282
     1
141
0.0
142
0.0
 63
   250
361
6D
  0
ENDTAB
  0
TABLE
  2
LTYPE
  5
5
330
0
100
AcDbSymbolTable
 70
     3
  0
LTYPE
  5
14
330
5
100
AcDbSymbolTableRecord
100
AcDbLinetypeTableRecord
  2
ByBlock
 70
     0
  3

 72
    65
 73
     0
 40
0.0
  0
LTYPE
  5
15
330
5
100
AcDbSymbolTableRecord
100
AcDbLinetypeTableRecord
  2
ByLayer
 70
     0
  3

 72
    65
 73
     0
 40
0.0
  0
LTYPE
  5
16
330
5
100
AcDbSymbolTableRecord
100
AcDbLinetypeTableRecord
  2
Continuous
 70
     0
  3
Solid line
 72
    65
 73
     0
 40
0.0
  0
LTYPE
  5
9D
330
5
100
AcDbSymbolTableRecord
100
AcDbLinetypeTableRecord
  2
Dashed
 70
     0
  3

 72
    65
 73
     2
 40
2.0
 49
1.0
 74
     0
 49
-1.0
 74
     0
  0
LTYPE
  5
10E
330
5
100
AcDbSymbolTableRecord
100
AcDbLinetypeTableRecord
  2
Center
 70
     0
  3

 72
    65
 73
     4
 40
1.5
 49
0.45
 74
     0
 49
-0.5
 74
     0
 49
0.05
 74
     0
 49
-0.5
 74
     0
  0
ENDTAB
  0
TABLE
  2
LAYER
  5
2
330
0
100
AcDbSymbolTable
 70
     7
  0
LAYER
  5
10
330
2
100
AcDbSymbolTableRecord
100
AcDbLayerTableRecord
  2
0
 70
     0
 62
     7
  6
Continuous
370
    -3
390
F
347
46
348
0
  0
LAYER
  5
72
330
2
100
AcDbSymbolTableRecord
100
AcDbLayerTableRecord
  2
AM_6
 70
     0
 62
    -2
  6
Continuous
370
    35
390
F
347
46
348
0
  0
LAYER
  5
9E
330
2
100
AcDbSymbolTableRecord
100
AcDbLayerTableRecord
  2
AM_9
 70
     0
 62
     6
  6
Dashed
370
    25
390
F
347
46
348
0
  0
LAYER
  5
CE
330
2
100
AcDbSymbolTableRecord
100
AcDbLayerTableRecord
  2
AM_4
 70
     0
 62
     7
  6
Continuous
370
    50
390
F
347
46
348
0
  0
LAYER
  5
10F
330
2
100
AcDbSymbolTableRecord
100
AcDbLayerTableRecord
  2
AM_7
 70
     0
 62
     7
  6
Center
370
    25
390
F
347
46
348
0
  0
LAYER
  5
122
330
2
100
AcDbSymbolTableRecord
100
AcDbLayerTableRecord
  2
AM_5
 70
     0
 62
     3
  6
Continuous
370
    25
390
F
347
46
348
0
  0
LAYER
  5
1BD
330
2
100
AcDbSymbolTableRecord
100
AcDbLayerTableRecord
  2
ConnectionPoints
 70
     0
 62
     7
  6
Continuous
370
    50
390
F
347
46
348
0
  0
ENDTAB
  0
TABLE
  2
STYLE
  5
3
330
0
100
AcDbSymbolTable
 70
     1
  0
STYLE
  5
11
330
3
100
AcDbSymbolTableRecord
100
AcDbTextStyleTableRecord
  2
Standard
 70
     0
 40
0.0
 41
1.0
 50
0.0
 71
     0
 42
0.2
  3
txt
  4

  0
ENDTAB
  0
TABLE
  2
VIEW
  5
6
330
0
100
AcDbSymbolTable
 70
     0
  0
ENDTAB
  0
TABLE
  2
UCS
  5
7
330
0
100
AcDbSymbolTable
 70
     0
  0
ENDTAB
  0
TABLE
  2
APPID
  5
9
330
0
100
AcDbSymbolTable
 70
     1
  0
APPID
  5
12
330
9
100
AcDbSymbolTableRecord
100
AcDbRegAppTableRecord
  2
ACAD
 70
     0
  0
ENDTAB
  0
TABLE
  2
DIMSTYLE
  5
A
330
0
100
AcDbSymbolTable
 70
     1
100
AcDbDimStyleTable
  0
DIMSTYLE
105
27
330
A
100
AcDbSymbolTableRecord
100
AcDbDimStyleTableRecord
  2
Standard
 70
     0
178
     0
340
11
  0
ENDTAB
  0
TABLE
  2
BLOCK_RECORD
  5
1
330
0
100
AcDbSymbolTable
 70
     5
  0
BLOCK_RECORD
  5
1F
330
1
100
AcDbSymbolTableRecord
100
AcDbBlockTableRecord
  2
*Model_Space
340
22
 70
     0
280
     1
281
     0
  0
BLOCK_RECORD
  5
1B
330
1
100
AcDbSymbolTableRecord
100
AcDbBlockTableRecord
  2
*Paper_Space
340
1E
 70
     0
280
     1
281
     0
  0
BLOCK_RECORD
  5
23
330
1
100
AcDbSymbolTableRecord
100
AcDbBlockTableRecord
  2
*Paper_Space0
340
26
 70
     0
280
     1
281
     0
  0
BLOCK_RECORD
  5
6E
330
1
100
AcDbSymbolTableRecord
100
AcDbBlockTableRecord
  2
1_129698_2
340
0
102
{BLKREFS
331
6F
102
}
 70
     0
280
     1
281
     0
  0
BLOCK_RECORD
  5
87
330
1
100
AcDbSymbolTableRecord
100
AcDbBlockTableRecord
  2
2_129520I_0_in_129698_2
340
0
102
{BLKREFS
331
88
102
}
 70
     0
280
     1
281
     0
  0
BLOCK_RECORD
  5
D1
330
1
100
AcDbSymbolTableRecord
100
AcDbBlockTableRecord
  2
3_129926_0_in_129698_2
340
0
102
{BLKREFS
331
D2
102
}
 70
     0
280
     1
281
     0
  0
BLOCK_RECORD
  5
124
330
1
100
AcDbSymbolTableRecord
100
AcDbBlockTableRecord
  2
4_129478I_0_in_129698_2
340
0
102
{BLKREFS
331
125
102
}
 70
     0
280
     1
281
     0
  0
ENDTAB
  0
ENDSEC
  0
SECTION
  2
BLOCKS
  0
BLOCK
  5
20
330
1F
100
AcDbEntity
  8
0
100
AcDbBlockBegin
  2
*Model_Space
 70
     0
 10
0.0
 20
0.0
 30
0.0
  3
*Model_Space
  1

  0
ENDBLK
  5
21
330
1F
100
AcDbEntity
  8
0
100
AcDbBlockEnd
  0
BLOCK
  5
1C
330
1B
100
AcDbEntity
 67
     1
  8
0
100
AcDbBlockBegin
  2
*Paper_Space
 70
     0
 10
0.0
 20
0.0
 30
0.0
  3
*Paper_Space
  1

  0
ENDBLK
  5
1D
330
1B
100
AcDbEntity
 67
     1
  8
0
100
AcDbBlockEnd
  0
BLOCK
  5
24
330
23
100
AcDbEntity
  8
0
100
AcDbBlockBegin
  2
*Paper_Space0
 70
     0
 10
0.0
 20
0.0
 30
0.0
  3
*Paper_Space0
  1

  0
ENDBLK
  5
25
330
23
100
AcDbEntity
  8
0
100
AcDbBlockEnd
  0
BLOCK
  5
70
330
6E
100
AcDbEntity
  8
0
100
AcDbBlockBegin
  2
1_129698_2
 70
     2
 10
0.0
 20
0.0
 30
0.0
  3
1_129698_2
  1

  0
ATTDEF
  5
73
330
6E
100
AcDbEntity
  8
AM_6
100
AcDbText
 10
6.279949999999999
 20
2.460466547338584
 30
0.0
 40
0.5
  1
Grip Tight Medium Duty Air-handling Four-Bolt Flange
100
AcDbAttributeDefinition
  3

  2
NN
 70
     8
280
     0
  0
ATTDEF
  5
74
330
6E
100
AcDbEntity
  8
AM_6
100
AcDbText
 10
6.279949999999999
 20
1.960466547338584
 30
0.0
 40
0.5
  1
GTMAH Air Handling  Medium Duty 4 Bolt Flange Bearings
100
AcDbAttributeDefinition
  3

  2
NT
 70
     8
280
     0
  0
ATTDEF
  5
75
330
6E
100
AcDbEntity
  8
AM_6
100
AcDbText
 10
6.279949999999999
 20
1.460466547338584
 30
0.0
 40
0.5
  1
129698
100
AcDbAttributeDefinition
  3

  2
NB
 70
     8
280
     0
  0
ATTDEF
  5
76
330
6E
100
AcDbEntity
  8
AM_6
100
AcDbText
 10
6.279949999999999
 20
0.9604665473385836
 30
0.0
 40
0.5
  1
$PN.$LUBE.
100
AcDbAttributeDefinition
  3

  2
NBSYN
 70
     8
280
     0
  0
ATTDEF
  5
77
330
6E
100
AcDbEntity
  8
AM_6
100
AcDbText
 10
6.279949999999999
 20
0.4604665473385836
 30
0.0
 40
0.5
  1
129698
100
AcDbAttributeDefinition
  3

  2
LINA
 70
     8
280
     0
  0
ATTDEF
  5
78
330
6E
100
AcDbEntity
  8
AM_6
100
AcDbText
 10
6.279949999999999
 20
-0.0395334526614164
 30
0.0
 40
0.5
  1
207
100
AcDbAttributeDefinition
  3

  2
SERIES
 70
     8
280
     0
  0
ATTDEF
  5
79
330
6E
100
AcDbEntity
  8
AM_6
100
AcDbText
 10
6.279949999999999
 20
-0.5395334526614164
 30
0.0
 40
0.5
  1
1-3/16
100
AcDbAttributeDefinition
  3

  2
SS
 70
     8
280
     0
  0
ATTDEF
  5
7A
330
6E
100
AcDbEntity
  8
AM_6
100
AcDbText
 10
6.279949999999999
 20
-1.039533452661416
 30
0.0
 40
0.5
  1
129698
100
AcDbAttributeDefinition
  3

  2
PN
 70
     8
280
     0
  0
ATTDEF
  5
7B
330
6E
100
AcDbEntity
  8
AM_6
100
AcDbText
 10
6.279949999999999
 20
-1.539533452661416
 30
0.0
 40
0.5
  1
F4B-GTMAH-103
100
AcDbAttributeDefinition
  3

  2
DESCRIPTION
 70
     8
280
     0
  0
ATTDEF
  5
7C
330
6E
100
AcDbEntity
  8
AM_6
100
AcDbText
 10
6.279949999999999
 20
-2.039533452661416
 30
0.0
 40
0.5
  1
1-5/8
100
AcDbAttributeDefinition
  3

  2
A
 70
     8
280
     0
  0
ATTDEF
  5
7D
330
6E
100
AcDbEntity
  8
AM_6
100
AcDbText
 10
6.279949999999999
 20
-2.539533452661416
 30
0.0
 40
0.5
  1
4-3/4
100
AcDbAttributeDefinition
  3

  2
B
 70
     8
280
     0
  0
ATTDEF
  5
7E
330
6E
100
AcDbEntity
  8
AM_6
100
AcDbText
 10
6.279949999999999
 20
-3.039533452661416
 30
0.0
 40
0.5
  1
1-49/64
100
AcDbAttributeDefinition
  3

  2
C
 70
     8
280
     0
  0
ATTDEF
  5
7F
330
6E
100
AcDbEntity
  8
AM_6
100
AcDbText
 10
6.279949999999999
 20
-3.539533452661416
 30
0.0
 40
0.5
  1
3-5/8
100
AcDbAttributeDefinition
  3

  2
D
 70
     8
280
     0
  0
ATTDEF
  5
80
330
6E
100
AcDbEntity
  8
AM_6
100
AcDbText
 10
6.279949999999999
 20
-4.039533452661416
 30
0.0
 40
0.5
  1
1/2
100
AcDbAttributeDefinition
  3

  2
F
 70
     8
280
     0
  0
ATTDEF
  5
81
330
6E
100
AcDbEntity
  8
AM_6
100
AcDbText
 10
6.279949999999999
 20
-4.539533452661416
 30
0.0
 40
0.5
  1
9/16
100
AcDbAttributeDefinition
  3

  2
H
 70
     8
280
     0
  0
ATTDEF
  5
82
330
6E
100
AcDbEntity
  8
AM_6
100
AcDbText
 10
6.279949999999999
 20
-5.039533452661416
 30
0.0
 40
0.5
  1
17/32
100
AcDbAttributeDefinition
  3

  2
J
 70
     8
280
     0
  0
ATTDEF
  5
83
330
6E
100
AcDbEntity
  8
AM_6
100
AcDbText
 10
6.279949999999999
 20
-5.539533452661416
 30
0.0
 40
0.5
  1
2-19/64
100
AcDbAttributeDefinition
  3

  2
L
 70
     8
280
     0
  0
ATTDEF
  5
84
330
6E
100
AcDbEntity
  8
AM_6
100
AcDbText
 10
6.279949999999999
 20
-6.039533452661416
 30
0.0
 40
0.5
  1
2-7/16
100
AcDbAttributeDefinition
  3

  2
N
 70
     8
280
     0
  0
ATTDEF
  5
85
330
6E
100
AcDbEntity
  8
AM_6
100
AcDbText
 10
6.279949999999999
 20
-6.539533452661416
 30
0.0
 40
0.5
  1
1-3/4
100
AcDbAttributeDefinition
  3

  2
Z
 70
     8
280
     0
  0
ATTDEF
  5
86
330
6E
100
AcDbEntity
  8
AM_6
100
AcDbText
 10
6.279949999999999
 20
-7.039533452661416
 30
0.0
 40
0.5
  1
baldor
100
AcDbAttributeDefinition
  3

  2
COMPANY
 70
     8
280
     0
  0
INSERT
  5
88
330
6E
100
AcDbEntity
  8
0
100
AcDbBlockReference
  2
2_129520I_0_in_129698_2
 10
0.0
 20
0.0
 30
0.0
  0
INSERT
  5
D2
330
6E
100
AcDbEntity
  8
0
100
AcDbBlockReference
  2
3_129926_0_in_129698_2
 10
0.0
 20
0.0
 30
0.0
  0
INSERT
  5
125
330
6E
100
AcDbEntity
  8
0
100
AcDbBlockReference
  2
4_129478I_0_in_129698_2
 10
0.0
 20
0.0
 30
0.0
  0
ENDBLK
  5
71
330
6E
100
AcDbEntity
  8
0
100
AcDbBlockEnd
  0
BLOCK
  5
89
330
87
100
AcDbEntity
  8
0
100
AcDbBlockBegin
  2
2_129520I_0_in_129698_2
 70
     2
 10
0.0
 20
0.0
 30
0.0
  3
2_129520I_0_in_129698_2
  1

  0
ATTDEF
  5
8B
330
87
100
AcDbEntity
  8
AM_6
100
AcDbText
 10
6.0015
 20
1.417280758096089
 30
0.0
 40
0.5
  1
INS-GT B
100
AcDbAttributeDefinition
  3

  2
NN
 70
     8
280
     0
  0
ATTDEF
  5
8C
330
87
100
AcDbEntity
  8
AM_6
100
AcDbText
 10
6.0015
 20
0.9172807580960889
 30
0.0
 40
0.5
  1
GT Normal Duty Bearing Inserts
100
AcDbAttributeDefinition
  3

  2
NT
 70
     8
280
     0
  0
ATTDEF
  5
8D
330
87
100
AcDbEntity
  8
AM_6
100
AcDbText
 10
6.0015
 20
0.4172807580960889
 30
0.0
 40
0.5
  1
129520I
100
AcDbAttributeDefinition
  3

  2
NB
 70
     8
280
     0
  0
ATTDEF
  5
8E
330
87
100
AcDbEntity
  8
AM_6
100
AcDbText
 10
6.0015
 20
-0.0827192419039111
 30
0.0
 40
0.5
  1
$PN.I
100
AcDbAttributeDefinition
  3

  2
NBSYN
 70
     8
280
     0
  0
ATTDEF
  5
8F
330
87
100
AcDbEntity
  8
AM_6
100
AcDbText
 10
6.0015
 20
-0.5827192419039111
 30
0.0
 40
0.5
  1
129520
100
AcDbAttributeDefinition
  3

  2
LINA
 70
     8
280
     0
  0
ATTDEF
  5
90
330
87
100
AcDbEntity
  8
AM_6
100
AcDbText
 10
6.0015
 20
-1.082719241903911
 30
0.0
 40
0.5
  1
207
100
AcDbAttributeDefinition
  3

  2
SERIES
 70
     8
280
     0
  0
ATTDEF
  5
91
330
87
100
AcDbEntity
  8
AM_6
100
AcDbText
 10
6.0015
 20
-1.582719241903911
 30
0.0
 40
0.5
  1
129520
100
AcDbAttributeDefinition
  3

  2
PN
 70
     8
280
     0
  0
ATTDEF
  5
92
330
87
100
AcDbEntity
  8
AM_6
100
AcDbText
 10
6.0015
 20
-2.082719241903911
 30
0.0
 40
0.5
  1
INS-GT-07
100
AcDbAttributeDefinition
  3

  2
DESCRIPTION
 70
     8
280
     0
  0
ATTDEF
  5
93
330
87
100
AcDbEntity
  8
AM_6
100
AcDbText
 10
6.0015
 20
-2.582719241903911
 30
0.0
 40
0.5
  1
1.62
100
AcDbAttributeDefinition
  3

  2
A
 70
     8
280
     0
  0
ATTDEF
  5
94
330
87
100
AcDbEntity
  8
AM_6
100
AcDbText
 10
6.0015
 20
-3.082719241903911
 30
0.0
 40
0.5
  1
0.75
100
AcDbAttributeDefinition
  3

  2
C
 70
     8
280
     0
  0
ATTDEF
  5
95
330
87
100
AcDbEntity
  8
AM_6
100
AcDbText
 10
6.0015
 20
-3.582719241903911
 30
0.0
 40
0.5
  1
2.8346
100
AcDbAttributeDefinition
  3

  2
D
 70
     8
280
     0
  0
ATTDEF
  5
96
330
87
100
AcDbEntity
  8
AM_6
100
AcDbText
 10
6.0015
 20
-4.082719241903911
 30
0.0
 40
0.5
  1
0.20
100
AcDbAttributeDefinition
  3

  2
J
 70
     8
280
     0
  0
ATTDEF
  5
97
330
87
100
AcDbEntity
  8
AM_6
100
AcDbText
 10
6.0015
 20
-4.582719241903911
 30
0.0
 40
0.5
  1
2.38
100
AcDbAttributeDefinition
  3

  2
L
 70
     8
280
     0
  0
ATTDEF
  5
98
330
87
100
AcDbEntity
  8
AM_6
100
AcDbText
 10
6.0015
 20
-5.082719241903911
 30
0.0
 40
0.5
  1
#10 - 32 x 1/4
100
AcDbAttributeDefinition
  3

  2
N
 70
     8
280
     0
  0
ATTDEF
  5
99
330
87
100
AcDbEntity
  8
AM_6
100
AcDbText
 10
6.0015
 20
-5.582719241903911
 30
0.0
 40
0.5
  1
0.54000
100
AcDbAttributeDefinition
  3

  2
W
 70
     8
280
     0
  0
ATTDEF
  5
9A
330
87
100
AcDbEntity
  8
AM_6
100
AcDbText
 10
6.0015
 20
-6.082719241903911
 30
0.0
 40
0.5
  1
1.14
100
AcDbAttributeDefinition
  3

  2
X
 70
     8
280
     0
  0
ATTDEF
  5
9B
330
87
100
AcDbEntity
  8
AM_6
100
AcDbText
 10
6.0015
 20
-6.582719241903911
 30
0.0
 40
0.5
  1
1.08
100
AcDbAttributeDefinition
  3

  2
Y
 70
     8
280
     0
  0
ATTDEF
  5
9C
330
87
100
AcDbEntity
  8
AM_6
100
AcDbText
 10
6.0015
 20
-7.082719241903911
 30
0.0
 40
0.5
  1
baldor
100
AcDbAttributeDefinition
  3

  2
COMPANY
 70
     8
280
     0
  0
LINE
  5
9F
330
87
100
AcDbEntity
  8
AM_9
100
AcDbLine
 10
-0.3394992760985522
 20
-0.8877777097777777
 30
0.0
 11
0.0880007239014476
 21
-0.8877777097777777
 31
0.0
  0
LINE
  5
A0
330
87
100
AcDbEntity
  8
AM_9
100
AcDbLine
 10
0.0880007239014476
 20
0.8877777097777777
 30
0.0
 11
-0.3394992760985522
 21
0.8877777097777777
 31
0.0
  0
LINE
  5
A1
330
87
100
AcDbEntity
  8
AM_9
100
AcDbLine
 10
0.0880007239014476
 20
0.8877777097777777
 30
0.0
 11
0.0880007239014476
 21
-0.8877777097777777
 31
0.0
  0
LINE
  5
A2
330
87
100
AcDbEntity
  8
AM_9
100
AcDbLine
 10
0.0880007239014476
 20
-0.8877777097777777
 30
0.0
 11
1.0015
 21
-0.9196778074292936
 31
0.0
  0
LINE
  5
A3
330
87
100
AcDbEntity
  8
AM_9
100
AcDbLine
 10
1.0015
 20
0.9196778074292936
 30
0.0
 11
0.0880007239014476
 21
0.8877777097777777
 31
0.0
  0
LINE
  5
A4
330
87
100
AcDbEntity
  8
AM_9
100
AcDbLine
 10
-0.1969992760985524
 20
-0.9727777437777777
 30
0.0
 11
-0.0544992760985525
 21
-0.9727777437777777
 31
0.0
  0
LINE
  5
A5
330
87
100
AcDbEntity
  8
AM_9
100
AcDbLine
 10
-0.0544992760985525
 20
0.9727777437777777
 30
0.0
 11
-0.1969992760985524
 21
0.9727777437777777
 31
0.0
  0
LINE
  5
A6
330
87
100
AcDbEntity
  8
AM_9
100
AcDbLine
 10
-0.1969992760985524
 20
1.057777777777778
 30
0.0
 11
-0.1969992760985524
 21
-1.057777777777778
 31
0.0
  0
LINE
  5
A7
330
87
100
AcDbEntity
  8
AM_9
100
AcDbLine
 10
-0.3094992760985522
 20
-1.057777777777778
 30
0.0
 11
-0.1969992760985524
 21
-1.057777777777778
 31
0.0
  0
LINE
  5
A8
330
87
100
AcDbEntity
  8
AM_9
100
AcDbLine
 10
-0.1969992760985524
 20
1.057777777777778
 30
0.0
 11
-0.3094992760985522
 21
1.057777777777778
 31
0.0
  0
LINE
  5
A9
330
87
100
AcDbEntity
  8
AM_9
100
AcDbLine
 10
-0.3394992760985522
 20
1.027777777777778
 30
0.0
 11
-0.3394992760985522
 21
-1.027777777777778
 31
0.0
  0
LINE
  5
AA
330
87
100
AcDbEntity
  8
AM_9
100
AcDbLine
 10
-0.3094992760985522
 20
1.057777777777778
 30
0.0
 11
-0.3094992760985522
 21
-1.057777777777778
 31
0.0
  0
LINE
  5
AB
330
87
100
AcDbEntity
  8
AM_9
100
AcDbLine
 10
-0.3394992760985522
 20
-1.027777777777778
 30
0.0
 11
-0.3094992760985522
 21
-1.057777777777778
 31
0.0
  0
LINE
  5
AC
330
87
100
AcDbEntity
  8
AM_9
100
AcDbLine
 10
-0.3094992760985522
 20
1.057777777777778
 30
0.0
 11
-0.3394992760985522
 21
1.027777777777778
 31
0.0
  0
LINE
  5
AD
330
87
100
AcDbEntity
  8
AM_9
100
AcDbLine
 10
1.0015
 20
1.027777777777778
 30
0.0
 11
1.0015
 21
-1.027777777777778
 31
0.0
  0
LINE
  5
AE
330
87
100
AcDbEntity
  8
AM_9
100
AcDbLine
 10
1.0015
 20
1.027777777777778
 30
0.0
 11
0.9714999999999997
 21
1.057777777777778
 31
0.0
  0
LINE
  5
AF
330
87
100
AcDbEntity
  8
AM_9
100
AcDbLine
 10
0.9714999999999997
 20
-1.057777777777778
 30
0.0
 11
1.0015
 21
-1.027777777777778
 31
0.0
  0
LINE
  5
B0
330
87
100
AcDbEntity
  8
AM_9
100
AcDbLine
 10
-0.0544992760985525
 20
1.057777777777778
 30
0.0
 11
-0.0544992760985525
 21
-1.057777777777778
 31
0.0
  0
LINE
  5
B1
330
87
100
AcDbEntity
  8
AM_9
100
AcDbLine
 10
0.0000000000000001
 20
-1.057777777777778
 30
0.0
 11
0.1404999999999996
 21
-1.057777777777778
 31
0.0
  0
LINE
  5
B2
330
87
100
AcDbEntity
  8
AM_9
100
AcDbLine
 10
-0.0544992760985525
 20
-1.057777777777778
 30
0.0
 11
-0.0079375000000003
 21
-1.057777777777778
 31
0.0
  0
LINE
  5
B3
330
87
100
AcDbEntity
  8
AM_9
100
AcDbLine
 10
-0.0079375000000003
 20
1.057777777777778
 30
0.0
 11
-0.0544992760985525
 21
1.057777777777778
 31
0.0
  0
LINE
  5
B4
330
87
100
AcDbEntity
  8
AM_9
100
AcDbLine
 10
0.1404999999999996
 20
1.057777777777778
 30
0.0
 11
0.0000000000000001
 21
1.057777777777778
 31
0.0
  0
LINE
  5
B5
330
87
100
AcDbEntity
  8
AM_9
100
AcDbLine
 10
0.9714999999999997
 20
1.057777777777778
 30
0.0
 11
0.9714999999999997
 21
-1.057777777777778
 31
0.0
  0
LINE
  5
B6
330
87
100
AcDbEntity
  8
AM_9
100
AcDbLine
 10
0.8904999999999995
 20
-1.057777777777778
 30
0.0
 11
0.9714999999999997
 21
-1.057777777777778
 31
0.0
  0
LINE
  5
B7
330
87
100
AcDbEntity
  8
AM_9
100
AcDbLine
 10
0.9714999999999997
 20
1.057777777777778
 30
0.0
 11
0.8904999999999995
 21
1.057777777777778
 31
0.0
  0
LINE
  5
B8
330
87
100
AcDbEntity
  8
AM_9
100
AcDbLine
 10
0.2754999999999996
 20
-1.3423
 30
0.0
 11
0.3554999999999995
 21
-1.3423
 31
0.0
  0
LINE
  5
B9
330
87
100
AcDbEntity
  8
AM_9
100
AcDbLine
 10
0.3554999999999995
 20
1.3423
 30
0.0
 11
0.2754999999999996
 21
1.3423
 31
0.0
  0
LINE
  5
BA
330
87
100
AcDbEntity
  8
AM_9
100
AcDbLine
 10
0.1404999999999998
 20
1.322072697916912
 30
0.0
 11
0.1404999999999998
 21
-1.32207269791627
 31
0.0
  0
ARC
  5
BB
330
87
100
AcDbEntity
  8
AM_9
100
AcDbCircle
 10
0.1704999999999993
 20
-1.322072697916912
 30
0.0
 40
0.0299999999999996
100
AcDbArc
 50
179.9999991462263
 51
248.5875329531169
  0
ARC
  5
BC
330
87
100
AcDbEntity
  8
AM_9
100
AcDbCircle
 10
0.1704999999999993
 20
1.322072697916912
 30
0.0
 40
0.0299999999999995
100
AcDbArc
 50
111.4124670468832
 51
180.0
  0
LINE
  5
BD
330
87
100
AcDbEntity
  8
AM_9
100
AcDbLine
 10
0.8904999999999995
 20
1.322072697916912
 30
0.0
 11
0.8904999999999995
 21
-1.32207269791627
 31
0.0
  0
ARC
  5
BE
330
87
100
AcDbEntity
  8
AM_9
100
AcDbCircle
 10
0.860499999999999
 20
-1.322072697916911
 30
0.0
 40
0.0300000000000006
100
AcDbArc
 50
291.4124582878269
 51
0.0
  0
ARC
  5
BF
330
87
100
AcDbEntity
  8
AM_9
100
AcDbCircle
 10
0.860499999999999
 20
1.322072697916911
 30
0.0
 40
0.0300000000000005
100
AcDbArc
 50
0.0
 51
68.58754171217313
  0
LINE
  5
C0
330
87
100
AcDbEntity
  8
AM_9
100
AcDbLine
 10
0.159547619047619
 20
1.350001989914274
 30
0.0
 11
0.159547619047619
 21
-1.350001989914274
 31
0.0
  0
ARC
  5
C1
330
87
100
AcDbEntity
  8
AM_9
100
AcDbCircle
 10
0.5155000000000106
 20
-0.4422999999999446
 30
0.0
 40
0.9750000000000565
100
AcDbArc
 50
248.5875329531165
 51
255.178178846678
  0
ARC
  5
C2
330
87
100
AcDbEntity
  8
AM_9
100
AcDbCircle
 10
0.5155000000000106
 20
0.4422999999999447
 30
0.0
 40
0.9750000000000564
100
AcDbArc
 50
104.821821153322
 51
111.4124670468834
  0
LINE
  5
C3
330
87
100
AcDbEntity
  8
AM_9
100
AcDbLine
 10
0.266081393847343
 20
1.384857880930857
 30
0.0
 11
0.266081393847343
 21
-1.384857880930857
 31
0.0
  0
LINE
  5
C4
330
87
100
AcDbEntity
  8
AM_9
100
AcDbLine
 10
0.2754999999999996
 20
1.377607436087194
 30
0.0
 11
0.2754999999999996
 21
-1.377607436086625
 31
0.0
  0
ARC
  5
C5
330
87
100
AcDbEntity
  8
AM_9
100
AcDbCircle
 10
0.2679999999999996
 20
-1.377607436087194
 30
0.0
 40
0.0075000000000001
100
AcDbArc
 50
255.1781670725738
 51
0.0
  0
ARC
  5
C6
330
87
100
AcDbEntity
  8
AM_9
100
AcDbCircle
 10
0.2679999999999996
 20
1.377607436087194
 30
0.0
 40
0.0075
100
AcDbArc
 50
0.0
 51
104.8218329274261
  0
LINE
  5
C7
330
87
100
AcDbEntity
  8
AM_9
100
AcDbLine
 10
0.3554999999999998
 20
1.397705672999711
 30
0.0
 11
0.3554999999999998
 21
-1.397705672999035
 31
0.0
  0
ARC
  5
C8
330
87
100
AcDbEntity
  8
AM_9
100
AcDbCircle
 10
0.3629999999999986
 20
-1.397705672999711
 30
0.0
 40
0.0074999999999988
100
AcDbArc
 50
179.9999991462263
 51
260.9311755030691
  0
ARC
  5
C9
330
87
100
AcDbEntity
  8
AM_9
100
AcDbCircle
 10
0.3629999999999986
 20
1.397705672999711
 30
0.0
 40
0.0074999999999988
100
AcDbArc
 50
99.06882449693089
 51
179.9999991462263
  0
LINE
  5
CA
330
87
100
AcDbEntity
  8
AM_9
100
AcDbLine
 10
0.3618178441722515
 20
1.405111920875586
 30
0.0
 11
0.3618178441722515
 21
-1.405111920875586
 31
0.0
  0
LINE
  5
CB
330
87
100
AcDbEntity
  8
AM_9
100
AcDbLine
 10
0.8714523766827067
 20
1.350001991588612
 30
0.0
 11
0.8714523766827067
 21
-1.350001991588612
 31
0.0
  0
ARC
  5
CC
330
87
100
AcDbEntity
  8
AM_9
100
AcDbCircle
 10
0.5154999999999995
 20
-0.4422999999999933
 30
0.0
 40
0.9750000000000069
100
AcDbArc
 50
260.9310625422615
 51
291.4124667773744
  0
ARC
  5
CD
330
87
100
AcDbEntity
  8
AM_9
100
AcDbCircle
 10
0.5155000000000012
 20
0.4423000000000085
 30
0.0
 40
0.9749999999999921
100
AcDbArc
 50
68.58753322262534
 51
99.06893745773871
  0
LINE
  5
CF
330
87
100
AcDbEntity
  8
AM_4
100
AcDbLine
 10
-0.0079375000000003
 20
-1.057777777777778
 30
0.0
 11
0.0000000000000001
 21
-1.057777777777778
 31
0.0
  0
LINE
  5
D0
330
87
100
AcDbEntity
  8
AM_4
100
AcDbLine
 10
0.0000000000000001
 20
1.057777777777778
 30
0.0
 11
-0.0079375000000003
 21
1.057777777777778
 31
0.0
  0
ENDBLK
  5
8A
330
87
100
AcDbEntity
  8
0
100
AcDbBlockEnd
  0
BLOCK
  5
D3
330
D1
100
AcDbEntity
  8
0
100
AcDbBlockBegin
  2
3_129926_0_in_129698_2
 70
     2
 10
0.0
 20
0.0
 30
0.0
  3
3_129926_0_in_129698_2
  1

  0
ATTDEF
  5
D5
330
D1
100
AcDbEntity
  8
AM_6
100
AcDbText
 10
6.077999999999999
 20
1.1484375
 30
0.0
 40
0.5
  1
Grip Tight Normal Duty Adapter and Nut Inch Bore
100
AcDbAttributeDefinition
  3

  2
NN
 70
     8
280
     0
  0
ATTDEF
  5
D6
330
D1
100
AcDbEntity
  8
AM_6
100
AcDbText
 10
6.077999999999999
 20
0.6484375
 30
0.0
 40
0.5
  1
GT and GTM Adapter & Lock Nut Assemblies
100
AcDbAttributeDefinition
  3

  2
NT
 70
     8
280
     0
  0
ATTDEF
  5
D7
330
D1
100
AcDbEntity
  8
AM_6
100
AcDbText
 10
6.077999999999999
 20
0.1484375
 30
0.0
 40
0.5
  1
129926
100
AcDbAttributeDefinition
  3

  2
NB
 70
     8
280
     0
  0
ATTDEF
  5
D8
330
D1
100
AcDbEntity
  8
AM_6
100
AcDbText
 10
6.077999999999999
 20
-0.3515625
 30
0.0
 40
0.5
  1
$PN.
100
AcDbAttributeDefinition
  3

  2
NBSYN
 70
     8
280
     0
  0
ATTDEF
  5
D9
330
D1
100
AcDbEntity
  8
AM_6
100
AcDbText
 10
6.077999999999999
 20
-0.8515625
 30
0.0
 40
0.5
  1
129926
100
AcDbAttributeDefinition
  3

  2
LINA
 70
     8
280
     0
  0
ATTDEF
  5
DA
330
D1
100
AcDbEntity
  8
AM_6
100
AcDbText
 10
6.077999999999999
 20
-1.3515625
 30
0.0
 40
0.5
  1
207
100
AcDbAttributeDefinition
  3

  2
SERIES
 70
     8
280
     0
  0
ATTDEF
  5
DB
330
D1
100
AcDbEntity
  8
AM_6
100
AcDbText
 10
6.077999999999999
 20
-1.8515625
 30
0.0
 40
0.5
  1
1-3/16
100
AcDbAttributeDefinition
  3

  2
SS
 70
     8
280
     0
  0
ATTDEF
  5
DC
330
D1
100
AcDbEntity
  8
AM_6
100
AcDbText
 10
6.077999999999999
 20
-2.3515625
 30
0.0
 40
0.5
  1
129926
100
AcDbAttributeDefinition
  3

  2
PN
 70
     8
280
     0
  0
ATTDEF
  5
DD
330
D1
100
AcDbEntity
  8
AM_6
100
AcDbText
 10
6.077999999999999
 20
-2.8515625
 30
0.0
 40
0.5
  1
AN-GTM-07-103
100
AcDbAttributeDefinition
  3

  2
DESCRIPTION
 70
     8
280
     0
  0
ATTDEF
  5
DE
330
D1
100
AcDbEntity
  8
AM_6
100
AcDbText
 10
6.077999999999999
 20
-3.3515625
 30
0.0
 40
0.5
  1
1-5/8
100
AcDbAttributeDefinition
  3

  2
A
 70
     8
280
     0
  0
ATTDEF
  5
DF
330
D1
100
AcDbEntity
  8
AM_6
100
AcDbText
 10
6.077999999999999
 20
-3.8515625
 30
0.0
 40
0.5
  1
0.7480
100
AcDbAttributeDefinition
  3

  2
C
 70
     8
280
     0
  0
ATTDEF
  5
E0
330
D1
100
AcDbEntity
  8
AM_6
100
AcDbText
 10
6.077999999999999
 20
-4.3515625
 30
0.0
 40
0.5
  1
2.8346
100
AcDbAttributeDefinition
  3

  2
D
 70
     8
280
     0
  0
ATTDEF
  5
E1
330
D1
100
AcDbEntity
  8
AM_6
100
AcDbText
 10
6.077999999999999
 20
-4.8515625
 30
0.0
 40
0.5
  1
0.202
100
AcDbAttributeDefinition
  3

  2
J
 70
     8
280
     0
  0
ATTDEF
  5
E2
330
D1
100
AcDbEntity
  8
AM_6
100
AcDbText
 10
6.077999999999999
 20
-5.3515625
 30
0.0
 40
0.5
  1
2-19/64
100
AcDbAttributeDefinition
  3

  2
L
 70
     8
280
     0
  0
ATTDEF
  5
E3
330
D1
100
AcDbEntity
  8
AM_6
100
AcDbText
 10
6.077999999999999
 20
-5.8515625
 30
0.0
 40
0.5
  1
10 - 32 x 1/4
100
AcDbAttributeDefinition
  3

  2
N
 70
     8
280
     0
  0
ATTDEF
  5
E4
330
D1
100
AcDbEntity
  8
AM_6
100
AcDbText
 10
6.077999999999999
 20
-6.3515625
 30
0.0
 40
0.5
  1
9/16
100
AcDbAttributeDefinition
  3

  2
W
 70
     8
280
     0
  0
ATTDEF
  5
E5
330
D1
100
AcDbEntity
  8
AM_6
100
AcDbText
 10
6.077999999999999
 20
-6.8515625
 30
0.0
 40
0.5
  1
1-3/64
100
AcDbAttributeDefinition
  3

  2
X
 70
     8
280
     0
  0
ATTDEF
  5
E6
330
D1
100
AcDbEntity
  8
AM_6
100
AcDbText
 10
6.077999999999999
 20
-7.3515625
 30
0.0
 40
0.5
  1
1-1/16
100
AcDbAttributeDefinition
  3

  2
Y
 70
     8
280
     0
  0
ATTDEF
  5
E7
330
D1
100
AcDbEntity
  8
AM_6
100
AcDbText
 10
6.077999999999999
 20
-7.8515625
 30
0.0
 40
0.5
  1
baldor
100
AcDbAttributeDefinition
  3

  2
COMPANY
 70
     8
280
     0
  0
LWPOLYLINE
  5
E8
330
D1
100
AcDbEntity
  8
AM_9
100
AcDbPolyline
 90
        6
 70
     0
 43
0.0
 10
-0.5014550000000005
 20
0.0494406735935924
 10
-0.5066620472328263
 20
0.0276490989623733
 10
-0.5089623053822204
 20
0.0043007204488114
 10
-0.508054222102198
 20
-0.0176995504781212
 10
-0.5041167134058975
 20
-0.0398391566671438
 10
-0.5014550000000005
 20
-0.0494406735935925
  0
LWPOLYLINE
  5
E9
330
D1
100
AcDbEntity
  8
AM_9
100
AcDbPolyline
 90
       15
 70
     0
 43
0.0
 10
-0.3317073599041393
 20
0.0295809166175001
 10
-0.3367264758042473
 20
0.0410532064343758
 10
-0.3447202129677057
 20
0.0536543328362847
 10
-0.3546408660299721
 20
0.0648026138139567
 10
-0.3666389378183207
 20
0.0745034579168657
 10
-0.3800437213293603
 20
0.082152876857327
 10
-0.3950646029984067
 20
0.0877153816000789
 10
-0.4107934908490621
 20
0.090768306853826
 10
-0.4272253644505796
 20
0.0911898535765808
 10
-0.4435000961370974
 20
0.0888926205192373
 10
-0.4563143757433119
 20
0.0850239603487829
 10
-0.4684763717556957
 20
0.0794414917073965
 10
-0.4799776384129493
 20
0.0720386433505323
 10
-0.4902966924823377
 20
0.0630654283959347
 10
-0.5014550000000005
 20
0.0494406735935924
  0
LWPOLYLINE
  5
EA
330
D1
100
AcDbEntity
  8
AM_9
100
AcDbPolyline
 90
       15
 70
     0
 43
0.0
 10
-0.5014550000000005
 20
-0.0494406735935925
 10
-0.4921811989149768
 20
-0.0610992276423012
 10
-0.4811700687263392
 20
-0.0711358319336741
 10
-0.4680738517392326
 20
-0.0796511143016762
 10
-0.4537727940884499
 20
-0.0859492878839269
 10
-0.4380984945272584
 20
-0.0899587605402313
 10
-0.4219769790972431
 20
-0.0913595088217311
 10
-0.4055204887843545
 20
-0.0900338043115061
 10
-0.3895166138425004
 20
-0.0859916447934983
 10
-0.374422086343507
 20
-0.0792828850791451
 10
-0.3606938754799486
 20
-0.0701076453411919
 10
-0.3490006734187431
 20
-0.0589044185326829
 10
-0.3394255645228089
 20
-0.0458472119474867
 10
-0.3325535531240862
 20
-0.0318267939745767
 10
-0.3302993158071054
 20
-0.0252859667893095
  0
CIRCLE
  5
EB
330
D1
100
AcDbEntity
  8
AM_9
100
AcDbCircle
 10
-0.4215834916603171
 20
0.0
 30
0.0
 40
0.0724499999999999
  0
LINE
  5
EC
330
D1
100
AcDbEntity
  8
AM_9
100
AcDbLine
 10
-0.0378575000000003
 20
-0.101
 30
0.0
 11
-0.0378575000000003
 21
0.101
 31
0.0
  0
LINE
  5
ED
330
D1
100
AcDbEntity
  8
AM_9
100
AcDbLine
 10
-0.5014550000000005
 20
0.0494406735935924
 30
0.0
 11
-0.5014550000000004
 21
0.101
 31
0.0
  0
LINE
  5
EE
330
D1
100
AcDbEntity
  8
AM_9
100
AcDbLine
 10
-0.5014550000000004
 20
-0.101
 30
0.0
 11
-0.5014550000000005
 21
-0.0494406735935925
 31
0.0
  0
LINE
  5
EF
330
D1
100
AcDbEntity
  8
AM_9
100
AcDbLine
 10
-0.0079375000000005
 20
0.87777081126623
 30
0.0
 11
-0.5313750000000003
 21
0.87777081126623
 31
0.0
  0
LINE
  5
F0
330
D1
100
AcDbEntity
  8
AM_9
100
AcDbLine
 10
-0.0079375000000004
 20
0.9142073641030667
 30
0.0
 11
-0.0378575000000004
 21
0.9402223468533891
 31
0.0
  0
LINE
  5
F1
330
D1
100
AcDbEntity
  8
AM_9
100
AcDbLine
 10
-0.0378575000000004
 20
0.9402223468533891
 30
0.0
 11
-0.5014550000000004
 21
0.9402223468533891
 31
0.0
  0
LINE
  5
F2
330
D1
100
AcDbEntity
  8
AM_9
100
AcDbLine
 10
-0.5014550000000004
 20
0.9402223468533891
 30
0.0
 11
-0.5313750000000004
 21
0.9142073641030669
 31
0.0
  0
LINE
  5
F3
330
D1
100
AcDbEntity
  8
AM_9
100
AcDbLine
 10
-0.0079375000000005
 20
-0.8777708112662306
 30
0.0
 11
-0.5313750000000003
 21
-0.8777708112662306
 31
0.0
  0
LINE
  5
F4
330
D1
100
AcDbEntity
  8
AM_9
100
AcDbLine
 10
-0.5313750000000004
 20
-0.9142073641030672
 30
0.0
 11
-0.5014550000000003
 21
-0.9402223468533897
 31
0.0
  0
LINE
  5
F5
330
D1
100
AcDbEntity
  8
AM_9
100
AcDbLine
 10
-0.5014550000000003
 20
-0.9402223468533897
 30
0.0
 11
-0.0378575000000004
 21
-0.9402223468533895
 31
0.0
  0
LINE
  5
F6
330
D1
100
AcDbEntity
  8
AM_9
100
AcDbLine
 10
-0.0378575000000004
 20
-0.9402223468533895
 30
0.0
 11
-0.0079375000000005
 21
-0.9142073641030672
 31
0.0
  0
LINE
  5
F7
330
D1
100
AcDbEntity
  8
AM_9
100
AcDbLine
 10
-0.0079375000000004
 20
0.9787708112662303
 30
0.0
 11
-0.5313750000000003
 21
0.9787708112662303
 31
0.0
  0
LINE
  5
F8
330
D1
100
AcDbEntity
  8
AM_9
100
AcDbLine
 10
-0.0079375000000004
 20
-0.9787708112662304
 30
0.0
 11
-0.5313750000000003
 21
-0.9787708112662304
 31
0.0
  0
LINE
  5
F9
330
D1
100
AcDbEntity
  8
AM_9
100
AcDbLine
 10
-0.2696562500000004
 20
0.8567708333333333
 30
0.0
 11
-0.5313750000000004
 21
0.8567708333333333
 31
0.0
  0
LINE
  5
FA
330
D1
100
AcDbEntity
  8
AM_9
100
AcDbLine
 10
1.078
 20
0.5916409912269432
 30
0.0
 11
-0.5470000000000004
 21
0.5916409912269434
 31
0.0
  0
LINE
  5
FB
330
D1
100
AcDbEntity
  8
AM_9
100
AcDbLine
 10
-0.5470000000000004
 20
-0.59375
 30
0.0
 11
1.078
 21
-0.59375
 31
0.0
  0
LINE
  5
FC
330
D1
100
AcDbEntity
  8
AM_9
100
AcDbLine
 10
-0.2696562500000004
 20
0.8553106224353201
 30
0.0
 11
0.1229218750000004
 21
0.85531062243532
 31
0.0
  0
LINE
  5
FD
330
D1
100
AcDbEntity
  8
AM_9
100
AcDbLine
 10
-0.2696562500000004
 20
-0.8567708333333334
 30
0.0
 11
0.1229218750000005
 21
-0.8567708333333334
 31
0.0
  0
LINE
  5
FE
330
D1
100
AcDbEntity
  8
AM_9
100
AcDbLine
 10
0.1229218750000004
 20
0.85531062243532
 30
0.0
 11
1.078
 21
0.8887174864181436
 31
0.0
  0
LINE
  5
FF
330
D1
100
AcDbEntity
  8
AM_9
100
AcDbLine
 10
0.1229218750000004
 20
0.85531062243532
 30
0.0
 11
0.1229218750000005
 21
-0.8567708333333333
 31
0.0
  0
LINE
  5
100
330
D1
100
AcDbEntity
  8
AM_9
100
AcDbLine
 10
1.078
 20
0.8887174864181436
 30
0.0
 11
1.078
 21
-0.8901228963830687
 31
0.0
  0
LINE
  5
101
330
D1
100
AcDbEntity
  8
AM_9
100
AcDbLine
 10
0.1229218750000005
 20
-0.8567708333333333
 30
0.0
 11
1.078
 21
-0.8901228963830687
 31
0.0
  0
LINE
  5
102
330
D1
100
AcDbEntity
  8
AM_9
100
AcDbLine
 10
-0.1387968750000005
 20
-0.9388020833333331
 30
0.0
 11
-0.0079375000000003
 21
-0.9388020833333331
 31
0.0
  0
LINE
  5
103
330
D1
100
AcDbEntity
  8
AM_9
100
AcDbLine
 10
-0.0079375000000003
 20
0.9388020833333331
 30
0.0
 11
-0.1387968750000005
 21
0.9388020833333331
 31
0.0
  0
LINE
  5
104
330
D1
100
AcDbEntity
  8
AM_9
100
AcDbLine
 10
-0.1387968750000005
 20
1.020833333333333
 30
0.0
 11
-0.1387968750000005
 21
-1.020833333333333
 31
0.0
  0
LINE
  5
105
330
D1
100
AcDbEntity
  8
AM_9
100
AcDbLine
 10
-0.2696562500000004
 20
1.020833333333333
 30
0.0
 11
-0.2696562500000004
 21
-1.020833333333333
 31
0.0
  0
LINE
  5
106
330
D1
100
AcDbEntity
  8
AM_9
100
AcDbLine
 10
-0.2696562500000004
 20
-1.020833333333333
 30
0.0
 11
-0.1387968750000005
 21
-1.020833333333333
 31
0.0
  0
LINE
  5
107
330
D1
100
AcDbEntity
  8
AM_9
100
AcDbLine
 10
-0.1387968750000005
 20
1.020833333333333
 30
0.0
 11
-0.2696562500000004
 21
1.020833333333333
 31
0.0
  0
LINE
  5
108
330
D1
100
AcDbEntity
  8
AM_9
100
AcDbLine
 10
-0.5014550000000004
 20
1.041222346853389
 30
0.0
 11
-0.0378575000000003
 21
1.041222346853389
 31
0.0
  0
LINE
  5
109
330
D1
100
AcDbEntity
  8
AM_9
100
AcDbLine
 10
-0.0378575000000003
 20
-1.041222346853389
 30
0.0
 11
-0.5014550000000003
 21
-1.041222346853389
 31
0.0
  0
LINE
  5
10A
330
D1
100
AcDbEntity
  8
AM_9
100
AcDbLine
 10
-0.0378575000000003
 20
1.041222346853389
 30
0.0
 11
-0.0079375000000003
 21
1.015207364103067
 31
0.0
  0
LINE
  5
10B
330
D1
100
AcDbEntity
  8
AM_9
100
AcDbLine
 10
-0.5313750000000004
 20
1.015207364103067
 30
0.0
 11
-0.5014550000000004
 21
1.041222346853389
 31
0.0
  0
LINE
  5
10C
330
D1
100
AcDbEntity
  8
AM_9
100
AcDbLine
 10
-0.0079375000000003
 20
-1.015207364103067
 30
0.0
 11
-0.0378575000000003
 21
-1.041222346853389
 31
0.0
  0
LINE
  5
10D
330
D1
100
AcDbEntity
  8
AM_9
100
AcDbLine
 10
-0.5014550000000003
 20
-1.041222346853389
 30
0.0
 11
-0.5313750000000004
 21
-1.015207364103067
 31
0.0
  0
LINE
  5
110
330
D1
100
AcDbEntity
  8
AM_7
100
AcDbLine
 10
-0.4215834916603171
 20
-0.0997500000000001
 30
0.0
 11
-0.4215834916603171
 21
0.0997500000000001
 31
0.0
  0
LINE
  5
111
330
D1
100
AcDbEntity
  8
AM_4
100
AcDbLine
 10
-0.5470000000000004
 20
0.8553106224353197
 30
0.0
 11
-0.5313750000000004
 21
0.8553106224353195
 31
0.0
  0
LINE
  5
112
330
D1
100
AcDbEntity
  8
AM_4
100
AcDbLine
 10
-0.5470000000000004
 20
0.8553106224353197
 30
0.0
 11
-0.5470000000000004
 21
-0.8567708333333331
 31
0.0
  0
LINE
  5
113
330
D1
100
AcDbEntity
  8
AM_4
100
AcDbLine
 10
-0.5470000000000004
 20
-0.8567708333333331
 30
0.0
 11
-0.5313750000000004
 21
-0.8567708333333331
 31
0.0
  0
LINE
  5
114
330
D1
100
AcDbEntity
  8
AM_4
100
AcDbLine
 10
-0.0378575000000003
 20
1.1484375
 30
0.0
 11
-0.5014550000000004
 21
1.1484375
 31
0.0
  0
LINE
  5
115
330
D1
100
AcDbEntity
  8
AM_4
100
AcDbLine
 10
-0.5014550000000004
 20
-1.1484375
 30
0.0
 11
-0.0378575000000003
 21
-1.1484375
 31
0.0
  0
LINE
  5
116
330
D1
100
AcDbEntity
  8
AM_4
100
AcDbLine
 10
-0.0079375000000003
 20
1.1185175
 30
0.0
 11
-0.0378575000000003
 21
1.1484375
 31
0.0
  0
LINE
  5
117
330
D1
100
AcDbEntity
  8
AM_4
100
AcDbLine
 10
-0.0079375000000003
 20
1.1185175
 30
0.0
 11
-0.0079375000000003
 21
-1.1185175
 31
0.0
  0
LINE
  5
118
330
D1
100
AcDbEntity
  8
AM_4
100
AcDbLine
 10
-0.0378575000000003
 20
1.1484375
 30
0.0
 11
-0.0378575000000003
 21
0.101
 31
0.0
  0
LINE
  5
119
330
D1
100
AcDbEntity
  8
AM_4
100
AcDbLine
 10
-0.0079375000000003
 20
0.101
 30
0.0
 11
-0.5313750000000004
 21
0.101
 31
0.0
  0
LINE
  5
11A
330
D1
100
AcDbEntity
  8
AM_4
100
AcDbLine
 10
-0.5014550000000004
 20
1.1484375
 30
0.0
 11
-0.5313750000000004
 21
1.1185175
 31
0.0
  0
LINE
  5
11B
330
D1
100
AcDbEntity
  8
AM_4
100
AcDbLine
 10
-0.5014550000000004
 20
1.1484375
 30
0.0
 11
-0.5014550000000003
 21
0.101
 31
0.0
  0
LINE
  5
11C
330
D1
100
AcDbEntity
  8
AM_4
100
AcDbLine
 10
-0.0378575000000003
 20
-0.101
 30
0.0
 11
-0.0378575000000003
 21
-1.1484375
 31
0.0
  0
LINE
  5
11D
330
D1
100
AcDbEntity
  8
AM_4
100
AcDbLine
 10
-0.0378575000000003
 20
-1.1484375
 30
0.0
 11
-0.0079375000000003
 21
-1.1185175
 31
0.0
  0
LINE
  5
11E
330
D1
100
AcDbEntity
  8
AM_4
100
AcDbLine
 10
-0.5014550000000003
 20
-0.101
 30
0.0
 11
-0.5014550000000004
 21
-1.1484375
 31
0.0
  0
LINE
  5
11F
330
D1
100
AcDbEntity
  8
AM_4
100
AcDbLine
 10
-0.5313750000000004
 20
-0.101
 30
0.0
 11
-0.0079375000000003
 21
-0.101
 31
0.0
  0
LINE
  5
120
330
D1
100
AcDbEntity
  8
AM_4
100
AcDbLine
 10
-0.5313750000000004
 20
1.1185175
 30
0.0
 11
-0.5313750000000004
 21
-1.1185175
 31
0.0
  0
LINE
  5
121
330
D1
100
AcDbEntity
  8
AM_4
100
AcDbLine
 10
-0.5313750000000004
 20
-1.1185175
 30
0.0
 11
-0.5014550000000004
 21
-1.1484375
 31
0.0
  0
ARC
  5
123
330
D1
100
AcDbEntity
  8
AM_5
100
AcDbCircle
 10
-0.4215834916603172
 20
0.0
 30
0.0
 40
0.095
100
AcDbArc
 50
74.99999999999994
 51
15.00000000000002
  0
ENDBLK
  5
D4
330
D1
100
AcDbEntity
  8
0
100
AcDbBlockEnd
  0
BLOCK
  5
126
330
124
100
AcDbEntity
  8
0
100
AcDbBlockBegin
  2
4_129478I_0_in_129698_2
 70
     2
 10
0.0
 20
0.0
 30
0.0
  3
4_129478I_0_in_129698_2
  1

  0
ATTDEF
  5
128
330
124
100
AcDbEntity
  8
AM_6
100
AcDbText
 10
6.279949999999999
 20
2.460466547338584
 30
0.0
 40
0.5
  1
GTAH Normal Duty 4 Bolt Flange Bearings
100
AcDbAttributeDefinition
  3

  2
NN
 70
     8
280
     0
  0
ATTDEF
  5
129
330
124
100
AcDbEntity
  8
AM_6
100
AcDbText
 10
6.279949999999999
 20
1.960466547338584
 30
0.0
 40
0.5
  1
Grip Tight Adapter Ball Bearings
100
AcDbAttributeDefinition
  3

  2
NT
 70
     8
280
     0
  0
ATTDEF
  5
12A
330
124
100
AcDbEntity
  8
AM_6
100
AcDbText
 10
6.279949999999999
 20
1.460466547338584
 30
0.0
 40
0.5
  1
129478I
100
AcDbAttributeDefinition
  3

  2
NB
 70
     8
280
     0
  0
ATTDEF
  5
12B
330
124
100
AcDbEntity
  8
AM_6
100
AcDbText
 10
6.279949999999999
 20
0.9604665473385836
 30
0.0
 40
0.5
  1
$PN.$LUBE.I
100
AcDbAttributeDefinition
  3

  2
NBSYN
 70
     8
280
     0
  0
ATTDEF
  5
12C
330
124
100
AcDbEntity
  8
AM_6
100
AcDbText
 10
6.279949999999999
 20
0.4604665473385836
 30
0.0
 40
0.5
  1
129478
100
AcDbAttributeDefinition
  3

  2
LINA
 70
     8
280
     0
  0
ATTDEF
  5
12D
330
124
100
AcDbEntity
  8
AM_6
100
AcDbText
 10
6.279949999999999
 20
-0.0395334526614164
 30
0.0
 40
0.5
  1
207
100
AcDbAttributeDefinition
  3

  2
SERIES
 70
     8
280
     0
  0
ATTDEF
  5
12E
330
124
100
AcDbEntity
  8
AM_6
100
AcDbText
 10
6.279949999999999
 20
-0.5395334526614164
 30
0.0
 40
0.5
  1
2.8346
100
AcDbAttributeDefinition
  3

  2
BOD
 70
     8
280
     0
  0
ATTDEF
  5
12F
330
124
100
AcDbEntity
  8
AM_6
100
AcDbText
 10
6.279949999999999
 20
-1.039533452661416
 30
0.0
 40
0.5
  1
129478
100
AcDbAttributeDefinition
  3

  2
PN
 70
     8
280
     0
  0
ATTDEF
  5
130
330
124
100
AcDbEntity
  8
AM_6
100
AcDbText
 10
6.279949999999999
 20
-1.539533452661416
 30
0.0
 40
0.5
  1
F4B-GTAH-07
100
AcDbAttributeDefinition
  3

  2
DESCRIPTION
 70
     8
280
     0
  0
ATTDEF
  5
131
330
124
100
AcDbEntity
  8
AM_6
100
AcDbText
 10
6.279949999999999
 20
-2.039533452661416
 30
0.0
 40
0.5
  1
With Lube
100
AcDbAttributeDefinition
  3

  2
LUBE
 70
     8
280
     0
  0
ATTDEF
  5
132
330
124
100
AcDbEntity
  8
AM_6
100
AcDbText
 10
6.279949999999999
 20
-2.539533452661416
 30
0.0
 40
0.5
  1
4.4
100
AcDbAttributeDefinition
  3

  2
WEIGHT
 70
     8
280
     0
  0
ATTDEF
  5
133
330
124
100
AcDbEntity
  8
AM_6
100
AcDbText
 10
6.279949999999999
 20
-3.039533452661416
 30
0.0
 40
0.5
  1
1-5/8
100
AcDbAttributeDefinition
  3

  2
A
 70
     8
280
     0
  0
ATTDEF
  5
134
330
124
100
AcDbEntity
  8
AM_6
100
AcDbText
 10
6.279949999999999
 20
-3.539533452661416
 30
0.0
 40
0.5
  1
1.6250
100
AcDbAttributeDefinition
  3

  2
A1
 70
     8
280
     0
  0
ATTDEF
  5
135
330
124
100
AcDbEntity
  8
AM_6
100
AcDbText
 10
6.279949999999999
 20
-4.039533452661416
 30
0.0
 40
0.5
  1
4-3/4
100
AcDbAttributeDefinition
  3

  2
B
 70
     8
280
     0
  0
ATTDEF
  5
136
330
124
100
AcDbEntity
  8
AM_6
100
AcDbText
 10
6.279949999999999
 20
-4.539533452661416
 30
0.0
 40
0.5
  1
4.750
100
AcDbAttributeDefinition
  3

  2
B1
 70
     8
280
     0
  0
ATTDEF
  5
137
330
124
100
AcDbEntity
  8
AM_6
100
AcDbText
 10
6.279949999999999
 20
-5.039533452661416
 30
0.0
 40
0.5
  1
1-49/64
100
AcDbAttributeDefinition
  3

  2
C
 70
     8
280
     0
  0
ATTDEF
  5
138
330
124
100
AcDbEntity
  8
AM_6
100
AcDbText
 10
6.279949999999999
 20
-5.539533452661416
 30
0.0
 40
0.5
  1
1.766
100
AcDbAttributeDefinition
  3

  2
C1
 70
     8
280
     0
  0
ATTDEF
  5
139
330
124
100
AcDbEntity
  8
AM_6
100
AcDbText
 10
6.279949999999999
 20
-6.039533452661416
 30
0.0
 40
0.5
  1
3-5/8
100
AcDbAttributeDefinition
  3

  2
D
 70
     8
280
     0
  0
ATTDEF
  5
13A
330
124
100
AcDbEntity
  8
AM_6
100
AcDbText
 10
6.279949999999999
 20
-6.539533452661416
 30
0.0
 40
0.5
  1
3.625
100
AcDbAttributeDefinition
  3

  2
D1
 70
     8
280
     0
  0
ATTDEF
  5
13B
330
124
100
AcDbEntity
  8
AM_6
100
AcDbText
 10
6.279949999999999
 20
-7.039533452661416
 30
0.0
 40
0.5
  1
1/2
100
AcDbAttributeDefinition
  3

  2
F
 70
     8
280
     0
  0
ATTDEF
  5
13C
330
124
100
AcDbEntity
  8
AM_6
100
AcDbText
 10
6.279949999999999
 20
-7.539533452661416
 30
0.0
 40
0.5
  1
0.500
100
AcDbAttributeDefinition
  3

  2
F1
 70
     8
280
     0
  0
ATTDEF
  5
13D
330
124
100
AcDbEntity
  8
AM_6
100
AcDbText
 10
6.279949999999999
 20
-8.039533452661416
 30
0.0
 40
0.5
  1
9/16
100
AcDbAttributeDefinition
  3

  2
H
 70
     8
280
     0
  0
ATTDEF
  5
13E
330
124
100
AcDbEntity
  8
AM_6
100
AcDbText
 10
6.279949999999999
 20
-8.539533452661416
 30
0.0
 40
0.5
  1
0.563
100
AcDbAttributeDefinition
  3

  2
H1
 70
     8
280
     0
  0
ATTDEF
  5
13F
330
124
100
AcDbEntity
  8
AM_6
100
AcDbText
 10
6.279949999999999
 20
-9.039533452661416
 30
0.0
 40
0.5
  1
17/32
100
AcDbAttributeDefinition
  3

  2
J
 70
     8
280
     0
  0
ATTDEF
  5
140
330
124
100
AcDbEntity
  8
AM_6
100
AcDbText
 10
6.279949999999999
 20
-9.539533452661416
 30
0.0
 40
0.5
  1
0.531
100
AcDbAttributeDefinition
  3

  2
J1
 70
     8
280
     0
  0
ATTDEF
  5
141
330
124
100
AcDbEntity
  8
AM_6
100
AcDbText
 10
6.279949999999999
 20
-10.03953345266142
 30
0.0
 40
0.5
  1
2-19/64
100
AcDbAttributeDefinition
  3

  2
L
 70
     8
280
     0
  0
ATTDEF
  5
142
330
124
100
AcDbEntity
  8
AM_6
100
AcDbText
 10
6.279949999999999
 20
-10.53953345266142
 30
0.0
 40
0.5
  1
2.297
100
AcDbAttributeDefinition
  3

  2
L1
 70
     8
280
     0
  0
ATTDEF
  5
143
330
124
100
AcDbEntity
  8
AM_6
100
AcDbText
 10
6.279949999999999
 20
-11.03953345266142
 30
0.0
 40
0.5
  1
2-7/16
100
AcDbAttributeDefinition
  3

  2
N
 70
     8
280
     0
  0
ATTDEF
  5
144
330
124
100
AcDbEntity
  8
AM_6
100
AcDbText
 10
6.279949999999999
 20
-11.53953345266142
 30
0.0
 40
0.5
  1
2.438
100
AcDbAttributeDefinition
  3

  2
N1
 70
     8
280
     0
  0
ATTDEF
  5
145
330
124
100
AcDbEntity
  8
AM_6
100
AcDbText
 10
6.279949999999999
 20
-12.03953345266142
 30
0.0
 40
0.5
  1
1-3/4
100
AcDbAttributeDefinition
  3

  2
Z
 70
     8
280
     0
  0
ATTDEF
  5
146
330
124
100
AcDbEntity
  8
AM_6
100
AcDbText
 10
6.279949999999999
 20
-12.53953345266142
 30
0.0
 40
0.5
  1
1.750
100
AcDbAttributeDefinition
  3

  2
Z1
 70
     8
280
     0
  0
ATTDEF
  5
147
330
124
100
AcDbEntity
  8
AM_6
100
AcDbText
 10
6.279949999999999
 20
-13.03953345266142
 30
0.0
 40
0.5
  1
Infotext
100
AcDbAttributeDefinition
  3

  2
INFO
 70
     8
280
     0
  0
ATTDEF
  5
148
330
124
100
AcDbEntity
  8
AM_6
100
AcDbText
 10
6.279949999999999
 20
-13.53953345266142
 30
0.0
 40
0.5
  1
baldor
100
AcDbAttributeDefinition
  3

  2
COMPANY
 70
     8
280
     0
  0
LINE
  5
149
330
124
100
AcDbEntity
  8
AM_9
100
AcDbLine
 10
0.726375
 20
-2.14173148
 30
0.0
 11
0.74606004
 21
-2.14173148
 31
0.0
  0
LINE
  5
14A
330
124
100
AcDbEntity
  8
AM_9
100
AcDbLine
 10
0.726375
 20
-2.15629873
 30
0.0
 11
0.74606004
 21
-2.15629873
 31
0.0
  0
LINE
  5
14B
330
124
100
AcDbEntity
  8
AM_9
100
AcDbLine
 10
0.726375
 20
-2.200000475300004
 30
0.0
 11
0.74606004
 21
-2.200000475300004
 31
0.0
  0
LINE
  5
14C
330
124
100
AcDbEntity
  8
AM_9
100
AcDbLine
 10
0.726375
 20
-2.243702220400012
 30
0.0
 11
0.74606004
 21
-2.243702220400012
 31
0.0
  0
LINE
  5
14D
330
124
100
AcDbEntity
  8
AM_9
100
AcDbLine
 10
0.726375
 20
-2.11259698
 30
0.0
 11
0.74606004
 21
-2.11259698
 31
0.0
  0
LINE
  5
14E
330
124
100
AcDbEntity
  8
AM_9
100
AcDbLine
 10
0.726375
 20
-2.13590458
 30
0.0
 11
0.74606004
 21
-2.13590458
 31
0.0
  0
LINE
  5
14F
330
124
100
AcDbEntity
  8
AM_9
100
AcDbLine
 10
0.726375
 20
-2.188346675799993
 30
0.0
 11
0.74606004
 21
-2.188346675799993
 31
0.0
  0
LINE
  5
150
330
124
100
AcDbEntity
  8
AM_9
100
AcDbLine
 10
0.726375
 20
-2.220394622799989
 30
0.0
 11
0.74606004
 21
-2.220394622799989
 31
0.0
  0
LINE
  5
151
330
124
100
AcDbEntity
  8
AM_9
100
AcDbLine
 10
0.726375
 20
-2.211654275399996
 30
0.0
 11
0.74606004
 21
-2.211654275399996
 31
0.0
  0
LINE
  5
152
330
124
100
AcDbEntity
  8
AM_9
100
AcDbLine
 10
0.726375
 20
-2.237875320300008
 30
0.0
 11
0.74606004
 21
-2.237875320300008
 31
0.0
  0
LINE
  5
153
330
124
100
AcDbEntity
  8
AM_9
100
AcDbLine
 10
0.726375
 20
-2.11842388
 30
0.0
 11
0.74606004
 21
-2.11842388
 31
0.0
  0
LINE
  5
154
330
124
100
AcDbEntity
  8
AM_9
100
AcDbLine
 10
0.726375
 20
-2.13007768
 30
0.0
 11
0.74606004
 21
-2.13007768
 31
0.0
  0
LINE
  5
155
330
124
100
AcDbEntity
  8
AM_9
100
AcDbLine
 10
0.726375
 20
-2.226221525499982
 30
0.0
 11
0.74606004
 21
-2.226221525499982
 31
0.0
  0
LINE
  5
156
330
124
100
AcDbEntity
  8
AM_9
100
AcDbLine
 10
0.726375
 20
-2.17086598
 30
0.0
 11
0.74606004
 21
-2.17086598
 31
0.0
  0
LINE
  5
157
330
124
100
AcDbEntity
  8
AM_9
100
AcDbLine
 10
0.726375
 20
-2.21456772539999
 30
0.0
 11
0.74606004
 21
-2.21456772539999
 31
0.0
  0
LINE
  5
158
330
124
100
AcDbEntity
  8
AM_9
100
AcDbLine
 10
0.726375
 20
-2.14464493
 30
0.0
 11
0.74606004
 21
-2.14464493
 31
0.0
  0
LINE
  5
159
330
124
100
AcDbEntity
  8
AM_9
100
AcDbLine
 10
0.6559999999999999
 20
2.08366928
 30
0.0
 11
0.726375
 21
2.08366928
 31
0.0
  0
LINE
  5
15A
330
124
100
AcDbEntity
  8
AM_9
100
AcDbLine
 10
0.726375
 20
-2.182519776400016
 30
0.0
 11
0.74606004
 21
-2.182519776400016
 31
0.0
  0
LINE
  5
15B
330
124
100
AcDbEntity
  8
AM_9
100
AcDbLine
 10
0.726375
 20
-2.16503908
 30
0.0
 11
0.74606004
 21
-2.16503908
 31
0.0
  0
LINE
  5
15C
330
124
100
AcDbEntity
  8
AM_9
100
AcDbLine
 10
0.726375
 20
-2.12716423
 30
0.0
 11
0.74606004
 21
-2.12716423
 31
0.0
  0
LINE
  5
15D
330
124
100
AcDbEntity
  8
AM_9
100
AcDbLine
 10
0.726375
 20
-2.229134975599993
 30
0.0
 11
0.74606004
 21
-2.229134975599993
 31
0.0
  0
LINE
  5
15E
330
124
100
AcDbEntity
  8
AM_9
100
AcDbLine
 10
0.726375
 20
-2.10968353
 30
0.0
 11
0.74606004
 21
-2.10968353
 31
0.0
  0
LINE
  5
15F
330
124
100
AcDbEntity
  8
AM_9
100
AcDbLine
 10
0.74606004
 20
-2.246615670400006
 30
0.0
 11
0.74606004
 21
-2.10968353
 31
0.0
  0
LINE
  5
160
330
124
100
AcDbEntity
  8
AM_9
100
AcDbLine
 10
0.726375
 20
-2.246615670400006
 30
0.0
 11
0.74606004
 21
-2.246615670400006
 31
0.0
  0
LINE
  5
161
330
124
100
AcDbEntity
  8
AM_9
100
AcDbLine
 10
0.726375
 20
1.858494013980136
 30
0.0
 11
0.656
 21
1.858494013980136
 31
0.0
  0
LINE
  5
162
330
124
100
AcDbEntity
  8
AM_9
100
AcDbLine
 10
0.656
 20
-1.885
 30
0.0
 11
0.726375
 21
-1.885
 31
0.0
  0
LINE
  5
163
330
124
100
AcDbEntity
  8
AM_9
100
AcDbLine
 10
0.7263750000000001
 20
-2.375
 30
0.0
 11
0.726375
 21
-1.757965929869503
 31
0.0
  0
LINE
  5
164
330
124
100
AcDbEntity
  8
AM_9
100
AcDbLine
 10
0.656
 20
-1.778329409682562
 30
0.0
 11
0.726375
 21
-1.778329409682562
 31
0.0
  0
LINE
  5
165
330
124
100
AcDbEntity
  8
AM_9
100
AcDbLine
 10
0.6547817908888318
 20
-1.765126540750909
 30
0.0
 11
0.726375
 21
-1.765126540750909
 31
0.0
  0
LINE
  5
166
330
124
100
AcDbEntity
  8
AM_9
100
AcDbLine
 10
0.726375
 20
-1.757965929869503
 30
0.0
 11
0.6414857322600588
 21
-1.757965929869503
 31
0.0
  0
LINE
  5
167
330
124
100
AcDbEntity
  8
AM_9
100
AcDbLine
 10
0.656
 20
1.778329409682562
 30
0.0
 11
0.726375
 21
1.778329409682562
 31
0.0
  0
LINE
  5
168
330
124
100
AcDbEntity
  8
AM_9
100
AcDbLine
 10
0.6548613400952514
 20
1.76512654319658
 30
0.0
 11
0.726375
 21
1.76512654319658
 31
0.0
  0
LINE
  5
169
330
124
100
AcDbEntity
  8
AM_9
100
AcDbLine
 10
0.6414371232800378
 20
1.757965929869503
 30
0.0
 11
0.726375
 21
1.757965929869503
 31
0.0
  0
LINE
  5
16A
330
124
100
AcDbEntity
  8
AM_9
100
AcDbLine
 10
0.726375
 20
1.757965929869503
 30
0.0
 11
0.7263750000000001
 21
2.375
 31
0.0
  0
LINE
  5
16B
330
124
100
AcDbEntity
  8
AM_9
100
AcDbLine
 10
0.0
 20
-1.417299999999999
 30
0.0
 11
1.219
 21
-1.417299999999999
 31
0.0
  0
LINE
  5
16C
330
124
100
AcDbEntity
  8
AM_9
100
AcDbLine
 10
1.219
 20
1.417299999999999
 30
0.0
 11
0.0
 21
1.417299999999999
 31
0.0
  0
LINE
  5
16D
330
124
100
AcDbEntity
  8
AM_9
100
AcDbLine
 10
0.6560000000000001
 20
-2.281464545355449
 30
0.0
 11
0.7263750000000001
 21
-2.281464545355449
 31
0.0
  0
LINE
  5
16E
330
124
100
AcDbEntity
  8
AM_9
100
AcDbLine
 10
0.6560000000000001
 20
2.281464545355448
 30
0.0
 11
0.7263750000000001
 21
2.281464545355448
 31
0.0
  0
LINE
  5
16F
330
124
100
AcDbEntity
  8
AM_9
100
AcDbLine
 10
0.6560000000000001
 20
-2.0625
 30
0.0
 11
1.219
 21
-2.0625
 31
0.0
  0
LINE
  5
170
330
124
100
AcDbEntity
  8
AM_9
100
AcDbLine
 10
1.219
 20
-1.5625
 30
0.0
 11
0.6560000000000001
 21
-1.5625
 31
0.0
  0
LINE
  5
171
330
124
100
AcDbEntity
  8
AM_9
100
AcDbLine
 10
0.6560000000000001
 20
1.5625
 30
0.0
 11
1.219
 21
1.5625
 31
0.0
  0
LINE
  5
172
330
124
100
AcDbEntity
  8
AM_9
100
AcDbLine
 10
1.219
 20
2.0625
 30
0.0
 11
0.6560000000000001
 21
2.0625
 31
0.0
  0
LINE
  5
173
330
124
100
AcDbEntity
  8
AM_7
100
AcDbLine
 10
-0.6282500000000004
 20
0.0
 30
0.0
 11
1.27995
 21
0.0
 31
0.0
  0
LINE
  5
174
330
124
100
AcDbEntity
  8
AM_7
100
AcDbLine
 10
0.2755905511811025
 20
2.460466547338584
 30
0.0
 11
0.2755905511811025
 21
1.966202755338582
 31
0.0
  0
LINE
  5
175
330
124
100
AcDbEntity
  8
AM_7
100
AcDbLine
 10
1.24715
 20
1.8125
 30
0.0
 11
0.6278499999999999
 21
1.8125
 31
0.0
  0
LINE
  5
176
330
124
100
AcDbEntity
  8
AM_7
100
AcDbLine
 10
1.24715
 20
-1.8125
 30
0.0
 11
0.6278499999999999
 21
-1.8125
 31
0.0
  0
LINE
  5
177
330
124
100
AcDbEntity
  8
AM_4
100
AcDbLine
 10
0.3410032896254862
 20
2.438000011338584
 30
0.0
 11
0.2101778136355278
 21
2.438000011338584
 31
0.0
  0
ARC
  5
178
330
124
100
AcDbEntity
  8
AM_4
100
AcDbCircle
 10
0.2101778127367205
 20
2.418314971338583
 30
0.0
 40
0.019685040000001
100
AcDbArc
 50
90.0
 51
158.1985930228101
  0
ARC
  5
179
330
124
100
AcDbEntity
  8
AM_4
100
AcDbCircle
 10
0.3410032896254845
 20
2.418314971338583
 30
0.0
 40
0.0196850400000014
100
AcDbArc
 50
21.80140697718985
 51
90.0
  0
LINE
  5
17A
330
124
100
AcDbEntity
  8
AM_4
100
AcDbLine
 10
0.3592803907447943
 20
2.425625810857829
 30
0.0
 11
0.1919007116174106
 21
2.425625810857829
 31
0.0
  0
LINE
  5
17B
330
124
100
AcDbEntity
  8
AM_4
100
AcDbLine
 10
0.1919007116174106
 20
2.425625810857829
 30
0.0
 11
0.1707129810390182
 21
2.372656477684742
 31
0.0
  0
LINE
  5
17C
330
124
100
AcDbEntity
  8
AM_4
100
AcDbLine
 10
0.3804681213231867
 20
2.372656477684742
 30
0.0
 11
0.3592803907447943
 21
2.425625810857829
 31
0.0
  0
LINE
  5
17D
330
124
100
AcDbEntity
  8
AM_4
100
AcDbLine
 10
0.3804681213231867
 20
2.372656477684742
 30
0.0
 11
0.1707129810390182
 21
2.372656477684742
 31
0.0
  0
ARC
  5
17E
330
124
100
AcDbEntity
  8
AM_4
100
AcDbCircle
 10
0.1889900821583263
 20
2.365345638165496
 30
0.0
 40
0.0196850399999996
100
AcDbArc
 50
158.1985930228095
 51
225.8428924855152
  0
ARC
  5
17F
330
124
100
AcDbEntity
  8
AM_4
100
AcDbCircle
 10
0.3621910202038798
 20
2.365345638165496
 30
0.0
 40
0.0196850399999986
100
AcDbArc
 50
314.1571075144822
 51
21.80140697719188
  0
LINE
  5
180
330
124
100
AcDbEntity
  8
AM_4
100
AcDbLine
 10
0.1653543311811025
 20
2.103354331338583
 30
0.0
 11
0.1653543311811025
 21
2.08366928
 31
0.0
  0
LINE
  5
181
330
124
100
AcDbEntity
  8
AM_4
100
AcDbLine
 10
0.3858267711811025
 20
2.08366928
 30
0.0
 11
0.3858267711811025
 21
2.103354331338583
 31
0.0
  0
LINE
  5
182
330
124
100
AcDbEntity
  8
AM_4
100
AcDbLine
 10
0.1653543311811024
 20
2.241149611338583
 30
0.0
 11
0.1653543311811024
 21
2.221464571338581
 31
0.0
  0
LINE
  5
183
330
124
100
AcDbEntity
  8
AM_4
100
AcDbLine
 10
0.3858267711811026
 20
2.221464571338581
 30
0.0
 11
0.3858267711811026
 21
2.241149611338583
 31
0.0
  0
LINE
  5
184
330
124
100
AcDbEntity
  8
AM_4
100
AcDbLine
 10
0.3858267711811026
 20
2.241149611338583
 30
0.0
 11
0.1653543311811025
 21
2.241149611338583
 31
0.0
  0
LINE
  5
185
330
124
100
AcDbEntity
  8
AM_4
100
AcDbLine
 10
0.3759041745294447
 20
2.351222954346732
 30
0.0
 11
0.17527692783276
 21
2.351222954346732
 31
0.0
  0
ARC
  5
186
330
124
100
AcDbEntity
  8
AM_4
100
AcDbCircle
 10
0.1257381791498507
 20
2.300204731338583
 30
0.0
 40
0.0711122120312514
100
AcDbArc
 50
303.8550321711159
 51
45.84292036300233
  0
ARC
  5
187
330
124
100
AcDbEntity
  8
AM_4
100
AcDbCircle
 10
0.4254429232123542
 20
2.300204731338583
 30
0.0
 40
0.0711122120312513
100
AcDbArc
 50
134.1570796369976
 51
236.1449678288841
  0
LINE
  5
188
330
124
100
AcDbEntity
  8
AM_4
100
AcDbLine
 10
0.4330708711811025
 20
2.221464571338581
 30
0.0
 11
0.1181102311811025
 21
2.221464571338581
 31
0.0
  0
LINE
  5
189
330
124
100
AcDbEntity
  8
AM_4
100
AcDbLine
 10
0.4330708711811025
 20
2.221464571338581
 30
0.0
 11
0.4330708711811025
 21
2.103354331338581
 31
0.0
  0
LINE
  5
18A
330
124
100
AcDbEntity
  8
AM_4
100
AcDbLine
 10
0.4330708711811025
 20
2.103354331338581
 30
0.0
 11
0.1181102311811025
 21
2.103354331338581
 31
0.0
  0
LINE
  5
18B
330
124
100
AcDbEntity
  8
AM_4
100
AcDbLine
 10
0.1181102311811025
 20
2.103354331338581
 30
0.0
 11
0.1181102311811025
 21
2.221464571338581
 31
0.0
  0
LWPOLYLINE
  5
18C
330
124
100
AcDbEntity
  8
AM_4
100
AcDbPolyline
 90
        3
 70
     0
 43
0.0
 10
0.4330708711811025
 20
2.214936715330103
 10
0.39387780966207
 20
2.219726330599317
 10
0.3543307111811025
 20
2.221464571338581
  0
LWPOLYLINE
  5
18D
330
124
100
AcDbEntity
  8
AM_4
100
AcDbPolyline
 90
        3
 70
     0
 43
0.0
 10
0.3543307111811024
 20
2.103354331338581
 10
0.3937007911811025
 20
2.105077350181596
 10
0.4330708711811025
 20
2.109882187347061
  0
LWPOLYLINE
  5
18E
330
124
100
AcDbEntity
  8
AM_4
100
AcDbPolyline
 90
        3
 70
     0
 43
0.0
 10
0.3543307111811025
 20
2.221464571338581
 10
0.3149606311811025
 20
2.219741552495568
 10
0.2755905511811025
 20
2.214936715330103
  0
LWPOLYLINE
  5
18F
330
124
100
AcDbEntity
  8
AM_4
100
AcDbPolyline
 90
        3
 70
     0
 43
0.0
 10
0.2755905511811025
 20
2.214936715330103
 10
0.2363974896620699
 20
2.219726330599317
 10
0.1968503911811025
 20
2.221464571338581
  0
LWPOLYLINE
  5
190
330
124
100
AcDbEntity
  8
AM_4
100
AcDbPolyline
 90
        3
 70
     0
 43
0.0
 10
0.1968503911811025
 20
2.221464571338581
 10
0.1574803111811025
 20
2.219741552495568
 10
0.1181102311811025
 20
2.214936715330103
  0
LWPOLYLINE
  5
191
330
124
100
AcDbEntity
  8
AM_4
100
AcDbPolyline
 90
        3
 70
     0
 43
0.0
 10
0.1181102311811025
 20
2.109882187347061
 10
0.157303292700135
 20
2.105092572077847
 10
0.1968503911811025
 20
2.103354331338583
  0
LINE
  5
192
330
124
100
AcDbEntity
  8
AM_4
100
AcDbLine
 10
0.2755905511811025
 20
2.109882187347061
 30
0.0
 11
0.2755905511811025
 21
2.214936715330103
 31
0.0
  0
LWPOLYLINE
  5
193
330
124
100
AcDbEntity
  8
AM_4
100
AcDbPolyline
 90
        3
 70
     0
 43
0.0
 10
0.2755905511811025
 20
2.109882187347061
 10
0.3147836127001351
 20
2.105092572077847
 10
0.3543307111811024
 20
2.103354331338581
  0
LWPOLYLINE
  5
194
330
124
100
AcDbEntity
  8
AM_4
100
AcDbPolyline
 90
        3
 70
     0
 43
0.0
 10
0.1968503911811025
 20
2.103354331338583
 10
0.2362204711811025
 20
2.105077350181596
 10
0.2755905511811025
 20
2.109882187347061
  0
LINE
  5
195
330
124
100
AcDbEntity
  8
AM_4
100
AcDbLine
 10
0.0
 20
2.08366928
 30
0.0
 11
0.6559999999999999
 21
2.08366928
 31
0.0
  0
LINE
  5
196
330
124
100
AcDbEntity
  8
AM_4
100
AcDbLine
 10
0.0
 20
-1.824072730894158
 30
0.0
 11
0.0
 21
2.08366928
 31
0.0
  0
LINE
  5
197
330
124
100
AcDbEntity
  8
AM_4
100
AcDbLine
 10
0.0393700805866599
 20
1.836650088397417
 30
0.0
 11
0.0393700805866599
 21
2.08366928
 31
0.0
  0
LINE
  5
198
330
124
100
AcDbEntity
  8
AM_4
100
AcDbLine
 10
0.656
 20
1.858494013980136
 30
0.0
 11
0.6268544131707291
 21
1.858494013980136
 31
0.0
  0
LINE
  5
199
330
124
100
AcDbEntity
  8
AM_4
100
AcDbLine
 10
0.6268544131707464
 20
-1.885
 30
0.0
 11
0.656
 21
-1.885
 31
0.0
  0
LINE
  5
19A
330
124
100
AcDbEntity
  8
AM_4
100
AcDbLine
 10
0.6268544131707484
 20
-1.765126540750909
 30
0.0
 11
0.6547817908888318
 21
-1.765126540750909
 31
0.0
  0
LWPOLYLINE
  5
19B
330
124
100
AcDbEntity
  8
AM_4
100
AcDbPolyline
 90
        5
 70
     0
 43
0.0
 10
0.6415732818969352
 20
-1.757965936424288
 10
0.6374615255923107
 20
-1.758321092866173
 10
0.632954530861289
 20
-1.75952259881274
 10
0.6289416656772235
 20
-1.761642650661658
 10
0.6268544131707661
 20
-1.765126540750909
  0
LINE
  5
19C
330
124
100
AcDbEntity
  8
AM_4
100
AcDbLine
 10
0.6268544131707657
 20
1.76512654319658
 30
0.0
 11
0.6548613400952514
 21
1.76512654319658
 31
0.0
  0
LWPOLYLINE
  5
19D
330
124
100
AcDbEntity
  8
AM_4
100
AcDbPolyline
 90
        5
 70
     0
 43
0.0
 10
0.6415594456951849
 20
1.757965951032084
 10
0.6475691287101503
 20
1.75885493516139
 10
0.6517172521524902
 20
1.761006090180831
 10
0.6547413622001101
 20
1.764610764190716
 10
0.6559999999999999
 20
1.770021585512479
  0
LWPOLYLINE
  5
19E
330
124
100
AcDbEntity
  8
AM_4
100
AcDbPolyline
 90
        9
 70
     0
 43
0.0
 10
0.0
 20
1.803127692314791
 10
0.0000004584762089
 20
1.803290848793201
 10
0.0007525514116965
 20
1.809694578017675
 10
0.0030269894334737
 20
1.816081654647398
 10
0.0063021559345719
 20
1.821383603666282
 10
0.0109688128121331
 20
1.826391401077432
 10
0.020672747798862
 20
1.832639407406864
 10
0.0308096595022332
 20
1.835831432189466
 10
0.0379960840235434
 20
1.836605520050519
  0
ARC
  5
19F
330
124
100
AcDbEntity
  8
AM_4
100
AcDbCircle
 10
0.0393700800000005
 20
-1.824072730894157
 30
0.0
 40
0.0393700800000005
100
AcDbArc
 50
180.0
 51
267.9999999999996
  0
LINE
  5
1A0
330
124
100
AcDbEntity
  8
AM_4
100
AcDbLine
 10
0.0379960840235434
 20
1.836605520050519
 30
0.0
 11
0.618003915977137
 21
1.857148224198498
 31
0.0
  0
LINE
  5
1A1
330
124
100
AcDbEntity
  8
AM_4
100
AcDbLine
 10
0.0379960840235434
 20
1.836605520050519
 30
0.0
 11
0.037996084022863
 21
-1.863418827705165
 31
0.0
  0
LINE
  5
1A2
330
124
100
AcDbEntity
  8
AM_4
100
AcDbLine
 10
0.037996084022863
 20
-1.863418827705165
 30
0.0
 11
0.618003915977137
 21
-1.883673147508249
 31
0.0
  0
LINE
  5
1A3
330
124
100
AcDbEntity
  8
AM_4
100
AcDbLine
 10
0.618003915977137
 20
1.857148224198498
 30
0.0
 11
0.618003915977137
 21
-1.883673147508249
 31
0.0
  0
LWPOLYLINE
  5
1A4
330
124
100
AcDbEntity
  8
AM_4
100
AcDbPolyline
 90
        6
 70
     0
 43
0.0
 10
0.6559999999999999
 20
-1.770021585512469
 10
0.6558959466134886
 20
-1.768366670049557
 10
0.6543877766897471
 20
-1.763980689302781
 10
0.6513810511903217
 20
-1.760754655022624
 10
0.6451131917707544
 20
-1.758254599250956
 10
0.6415732818969352
 20
-1.757965936424288
  0
LWPOLYLINE
  5
1A5
330
124
100
AcDbEntity
  8
AM_4
100
AcDbPolyline
 90
        8
 70
     0
 43
0.0
 10
0.626854413170767
 20
-0.6614781138758373
 10
0.627814131760089
 20
-0.6686726051100171
 10
0.630271818111401
 20
-0.6760479380897572
 10
0.6389274635669628
 20
-0.6951927915597786
 10
0.6475691373989102
 20
-0.7151127548906454
 10
0.6517172575072339
 20
-0.726979848196776
 10
0.6547413644798961
 20
-0.7390999214073732
 10
0.656
 20
-0.7516825133273314
  0
LWPOLYLINE
  5
1A6
330
124
100
AcDbEntity
  8
AM_4
100
AcDbPolyline
 90
        9
 70
     0
 43
0.0
 10
0.656
 20
0.7516825133273097
 10
0.6558959466134887
 20
0.7482573056817525
 10
0.6543877766897472
 20
0.73730038380464
 10
0.651381051190322
 20
0.7258960389983359
 10
0.6451131917707549
 20
0.7090489483376456
 10
0.637461525592311
 20
0.6920550922089659
 10
0.6329545308612894
 20
0.6823328689709889
 10
0.6289416656772241
 20
0.672452259530715
 10
0.6268544131707549
 20
0.6614781138758365
  0
LWPOLYLINE
  5
1A7
330
124
100
AcDbEntity
  8
AM_4
100
AcDbPolyline
 90
        5
 70
     0
 43
0.0
 10
0.6268544131707671
 20
1.76512654319658
 10
0.6278141293778294
 20
1.762703709361801
 10
0.6302718132913374
 20
1.760763443657095
 10
0.6389274557361393
 20
1.758115333544354
 10
0.6415594456951849
 20
1.757965951032084
  0
LINE
  5
1A8
330
124
100
AcDbEntity
  8
AM_4
100
AcDbLine
 10
0.6268544131707657
 20
1.76512654319658
 30
0.0
 11
0.6268544131707291
 21
1.858494013980136
 31
0.0
  0
LINE
  5
1A9
330
124
100
AcDbEntity
  8
AM_4
100
AcDbLine
 10
0.6268544131707291
 20
1.858494013980136
 30
0.0
 11
0.618003915977137
 21
1.857148224198498
 31
0.0
  0
ARC
  5
1AA
330
124
100
AcDbEntity
  8
AM_4
100
AcDbCircle
 10
0.6166299200000023
 20
-1.923019244319243
 30
0.0
 40
0.0393700799999864
100
AcDbArc
 50
74.94761236589005
 51
88.00000000000293
  0
LINE
  5
1AB
330
124
100
AcDbEntity
  8
AM_4
100
AcDbLine
 10
0.6268544131707464
 20
-1.884999999999994
 30
0.0
 11
0.6268544131707484
 21
-1.765126540750909
 31
0.0
  0
LINE
  5
1AC
330
124
100
AcDbEntity
  8
AM_4
100
AcDbLine
 10
0.6268544131707549
 20
0.6614781138758365
 30
0.0
 11
0.7263750000000001
 21
0.6614781138758365
 31
0.0
  0
LINE
  5
1AD
330
124
100
AcDbEntity
  8
AM_4
100
AcDbLine
 10
0.626854413170767
 20
-0.6614781138758373
 30
0.0
 11
0.6268544131707549
 21
0.6614781138758365
 31
0.0
  0
LINE
  5
1AE
330
124
100
AcDbEntity
  8
AM_4
100
AcDbLine
 10
0.626854413170767
 20
-0.6614781138758373
 30
0.0
 11
0.7263750000000001
 21
-0.6614781138758373
 31
0.0
  0
LINE
  5
1AF
330
124
100
AcDbEntity
  8
AM_4
100
AcDbLine
 10
0.6560000000000001
 20
0.7655760490558711
 30
0.0
 11
0.7263750000000001
 21
0.7655760490558711
 31
0.0
  0
LINE
  5
1B0
330
124
100
AcDbEntity
  8
AM_4
100
AcDbLine
 10
0.6560000000000001
 20
-0.7655760490558717
 30
0.0
 11
0.7263750000000001
 21
-0.7655760490558717
 31
0.0
  0
LINE
  5
1B1
330
124
100
AcDbEntity
  8
AM_4
100
AcDbLine
 10
0.6560000000000001
 20
-1.484127490189026
 30
0.0
 11
0.7263750000000001
 21
-1.484127490189026
 31
0.0
  0
LINE
  5
1B2
330
124
100
AcDbEntity
  8
AM_4
100
AcDbLine
 10
0.656
 20
-0.7516825133273314
 30
0.0
 11
0.6559999999999999
 21
-2.375
 31
0.0
  0
LINE
  5
1B3
330
124
100
AcDbEntity
  8
AM_4
100
AcDbLine
 10
0.6559999999999999
 20
-2.375
 30
0.0
 11
1.219
 21
-2.375
 31
0.0
  0
LINE
  5
1B4
330
124
100
AcDbEntity
  8
AM_4
100
AcDbLine
 10
0.7263750000000001
 20
-1.705963621236689
 30
0.0
 11
0.7263750000000001
 21
1.705963621236689
 31
0.0
  0
LINE
  5
1B5
330
124
100
AcDbEntity
  8
AM_4
100
AcDbLine
 10
0.7263750000000001
 20
-1.705963621236689
 30
0.0
 11
0.6559999999999999
 21
-1.705963621236689
 31
0.0
  0
LINE
  5
1B6
330
124
100
AcDbEntity
  8
AM_4
100
AcDbLine
 10
0.6559999999999999
 20
-1.8125
 30
0.0
 11
1.219
 21
-1.8125
 31
0.0
  0
LINE
  5
1B7
330
124
100
AcDbEntity
  8
AM_4
100
AcDbLine
 10
1.219
 20
-2.375
 30
0.0
 11
1.219
 21
2.375
 31
0.0
  0
LINE
  5
1B8
330
124
100
AcDbEntity
  8
AM_4
100
AcDbLine
 10
0.6559999999999999
 20
2.375
 30
0.0
 11
1.219
 21
2.375
 31
0.0
  0
LINE
  5
1B9
330
124
100
AcDbEntity
  8
AM_4
100
AcDbLine
 10
0.6559999999999999
 20
1.8125
 30
0.0
 11
1.219
 21
1.8125
 31
0.0
  0
LINE
  5
1BA
330
124
100
AcDbEntity
  8
AM_4
100
AcDbLine
 10
0.6559999999999999
 20
2.375
 30
0.0
 11
0.656
 21
0.7516825133273097
 31
0.0
  0
LINE
  5
1BB
330
124
100
AcDbEntity
  8
AM_4
100
AcDbLine
 10
0.6560000000000001
 20
1.484127490189026
 30
0.0
 11
0.7263750000000001
 21
1.484127490189026
 31
0.0
  0
LINE
  5
1BC
330
124
100
AcDbEntity
  8
AM_4
100
AcDbLine
 10
0.6559999999999999
 20
1.705963621236689
 30
0.0
 11
0.7263750000000001
 21
1.705963621236689
 31
0.0
  0
ENDBLK
  5
127
330
124
100
AcDbEntity
  8
0
100
AcDbBlockEnd
  0
ENDSEC
  0
SECTION
  2
ENTITIES
  0
INSERT
  5
6F
330
1F
100
AcDbEntity
  8
0
100
AcDbBlockReference
  2
1_129698_2
 10
0.0
 20
0.0
 30
0.0
  0
POINT
  5
1BE
330
1F
100
AcDbEntity
  8
ConnectionPoints
100
AcDbPoint
 10
0.5154999999999996
 20
0.0
 30
0.0
  0
POINT
  5
1BF
330
1F
100
AcDbEntity
  8
ConnectionPoints
100
AcDbPoint
 10
1.078
 20
0.0
 30
0.0
  0
POINT
  5
1C0
330
1F
100
AcDbEntity
  8
ConnectionPoints
100
AcDbPoint
 10
1.078
 20
0.0
 30
-0.0000000000000001
  0
ENDSEC
  0
SECTION
  2
OBJECTS
  0
DICTIONARY
  5
C
330
0
100
AcDbDictionary
281
     1
  3
ACAD_DETAILVIEWSTYLE
350
1C8
  3
ACAD_GROUP
350
D
  3
ACAD_LAYOUT
350
1A
  3
ACAD_MATERIAL
350
43
  3
ACAD_MLEADERSTYLE
350
6B
  3
ACAD_MLINESTYLE
350
17
  3
ACAD_PLOTSETTINGS
350
19
  3
ACAD_PLOTSTYLENAME
350
E
  3
ACAD_SCALELIST
350
47
  3
ACAD_SECTIONVIEWSTYLE
350
1C9
  3
ACAD_TABLESTYLE
350
69
  3
ACAD_VISUALSTYLE
350
2A
  3
ACDB_RECOMPOSE_DATA
350
1C5
  3
AcDbVariableDictionary
350
1C1
  0
SUN
  5
6D
330
29
100
AcDbSun
 90
        1
290
     0
 63
     7
421
 16777215
 40
1.0
291
     1
 91
  2455826
 92
 54000000
292
     0
 70
     2
 71
   256
280
     1
  0
DICTIONARY
  5
1C8
102
{ACAD_REACTORS
330
C
102
}
330
C
100
AcDbDictionary
281
     1
  0
DICTIONARY
  5
D
102
{ACAD_REACTORS
330
C
102
}
330
C
100
AcDbDictionary
281
     1
  0
DICTIONARY
  5
1A
102
{ACAD_REACTORS
330
C
102
}
330
C
100
AcDbDictionary
281
     1
  3
Layout1
350
1E
  3
Layout2
350
26
  3
Model
350
22
  0
DICTIONARY
  5
43
102
{ACAD_REACTORS
330
C
102
}
330
C
100
AcDbDictionary
281
     1
  3
ByBlock
350
45
  3
ByLayer
350
44
  3
Global
350
46
  0
DICTIONARY
  5
6B
102
{ACAD_REACTORS
330
C
102
}
330
C
100
AcDbDictionary
281
     1
  3
Standard
350
6C
  0
DICTIONARY
  5
17
102
{ACAD_REACTORS
330
C
102
}
330
C
100
AcDbDictionary
281
     1
  3
Standard
350
18
  0
DICTIONARY
  5
19
102
{ACAD_REACTORS
330
C
102
}
330
C
100
AcDbDictionary
281
     1
  0
ACDBDICTIONARYWDFLT
  5
E
102
{ACAD_REACTORS
330
C
102
}
330
C
100
AcDbDictionary
281
     1
  3
Normal
350
F
100
AcDbDictionaryWithDefault
340
F
  0
DICTIONARY
  5
47
102
{ACAD_REACTORS
330
C
102
}
330
C
100
AcDbDictionary
281
     1
  3
A0
350
48
  3
A1
350
49
  3
A2
350
4A
  3
A3
350
4B
  3
A4
350
4C
  3
A5
350
4D
  3
A6
350
4E
  3
A7
350
4F
  3
A8
350
50
  3
A9
350
51
  3
B0
350
52
  3
B1
350
53
  3
B2
350
54
  3
B3
350
55
  3
B4
350
56
  3
B5
350
57
  3
B6
350
58
  3
B7
350
59
  3
B8
350
5A
  3
B9
350
5B
  3
C0
350
5C
  3
C1
350
5D
  3
C2
350
5E
  3
C3
350
5F
  3
C4
350
60
  3
C5
350
61
  3
C6
350
62
  3
C7
350
63
  3
C8
350
64
  3
C9
350
65
  3
D0
350
66
  3
D1
350
67
  3
D2
350
68
  0
DICTIONARY
  5
1C9
102
{ACAD_REACTORS
330
C
102
}
330
C
100
AcDbDictionary
281
     1
  0
DICTIONARY
  5
69
102
{ACAD_REACTORS
330
C
102
}
330
C
100
AcDbDictionary
281
     1
  3
Standard
350
6A
  0
DICTIONARY
  5
2A
102
{ACAD_REACTORS
330
C
102
}
330
C
100
AcDbDictionary
281
     1
  3
2dWireframe
350
2F
  3
Basic
350
32
  3
Brighten
350
36
  3
ColorChange
350
3A
  3
Conceptual
350
34
  3
Dim
350
35
  3
EdgeColorOff
350
3D
  3
Facepattern
350
39
  3
Flat
350
2B
  3
FlatWithEdges
350
2C
  3
Gouraud
350
2D
  3
GouraudWithEdges
350
2E
  3
Hidden
350
31
  3
JitterOff
350
3B
  3
Linepattern
350
38
  3
OverhangOff
350
3C
  3
Realistic
350
33
  3
Shaded
350
42
  3
Shaded with edges
350
41
  3
Shades of Gray
350
3E
  3
Sketchy
350
3F
  3
Thicken
350
37
  3
Wireframe
350
30
  3
X-Ray
350
40
  0
XRECORD
  5
1C5
102
{ACAD_REACTORS
330
C
102
}
330
C
100
AcDbXrecord
280
     1
 90
        1
330
6A
  0
DICTIONARY
  5
1C1
102
{ACAD_REACTORS
330
C
102
}
330
C
100
AcDbDictionary
281
     1
  3
CANNOSCALE
350
1C2
  3
CMLEADERSTYLE
350
1C7
  3
CTABLESTYLE
350
1C6
  0
LAYOUT
  5
1E
102
{ACAD_REACTORS
330
1A
102
}
330
1A
100
AcDbPlotSettings
  1

  2
none_device
  4

  6

 40
0.0
 41
0.0
 42
0.0
 43
0.0
 44
0.0
 45
0.0
 46
0.0
 47
0.0
 48
0.0
 49
0.0
140
0.0
141
0.0
142
1.0
143
1.0
 70
   688
 72
     0
 73
     0
 74
     5
  7

 75
    16
 76
     0
 77
     2
 78
   300
147
1.0
148
0.0
149
0.0
100
AcDbLayout
  1
Layout1
 70
     1
 71
     1
 10
0.0
 20
0.0
 11
12.0
 21
9.0
 12
0.0
 22
0.0
 32
0.0
 14
1.000000000000000E+20
 24
1.000000000000000E+20
 34
1.000000000000000E+20
 15
-1.000000000000000E+20
 25
-1.000000000000000E+20
 35
-1.000000000000000E+20
146
0.0
 13
0.0
 23
0.0
 33
0.0
 16
1.0
 26
0.0
 36
0.0
 17
0.0
 27
1.0
 37
0.0
 76
     0
330
1B
  0
LAYOUT
  5
26
102
{ACAD_REACTORS
330
1A
102
}
330
1A
100
AcDbPlotSettings
  1

  2
none_device
  4

  6

 40
0.0
 41
0.0
 42
0.0
 43
0.0
 44
0.0
 45
0.0
 46
0.0
 47
0.0
 48
0.0
 49
0.0
140
0.0
141
0.0
142
1.0
143
1.0
 70
   688
 72
     0
 73
     0
 74
     5
  7

 75
    16
 76
     0
 77
     2
 78
   300
147
1.0
148
0.0
149
0.0
100
AcDbLayout
  1
Layout2
 70
     1
 71
     2
 10
0.0
 20
0.0
 11
0.0
 21
0.0
 12
0.0
 22
0.0
 32
0.0
 14
0.0
 24
0.0
 34
0.0
 15
0.0
 25
0.0
 35
0.0
146
0.0
 13
0.0
 23
0.0
 33
0.0
 16
1.0
 26
0.0
 36
0.0
 17
0.0
 27
1.0
 37
0.0
 76
     0
330
23
  0
LAYOUT
  5
22
102
{ACAD_REACTORS
330
1A
102
}
330
1A
100
AcDbPlotSettings
  1

  2
none_device
  4
Letter_(8.50_x_11.00_Inches)
  6

 40
6.35
 41
6.35
 42
6.35000508
 43
6.35000508
 44
215.9
 45
279.4
 46
0.0
 47
0.0
 48
0.0
 49
0.0
140
0.0
141
0.0
142
1.0
143
1.0
 70
  1712
 72
     0
 73
     0
 74
     0
  7

 75
     0
 76
     0
 77
     2
 78
   300
147
1.0
148
0.0
149
0.0
100
AcDbLayout
  1
Model
 70
     1
 71
     0
 10
0.0
 20
0.0
 11
12.0
 21
9.0
 12
0.0
 22
0.0
 32
0.0
 14
1.000000000000000E+20
 24
1.000000000000000E+20
 34
1.000000000000000E+20
 15
-1.000000000000000E+20
 25
-1.000000000000000E+20
 35
-1.000000000000000E+20
146
0.0
 13
0.0
 23
0.0
 33
0.0
 16
1.0
 26
0.0
 36
0.0
 17
0.0
 27
1.0
 37
0.0
 76
     0
330
1F
331
29
  0
MATERIAL
  5
45
102
{ACAD_REACTORS
330
43
102
}
330
43
100
AcDbMaterial
  1
ByBlock
 72
     1
 94
      127
  0
MATERIAL
  5
44
102
{ACAD_REACTORS
330
43
102
}
330
43
100
AcDbMaterial
  1
ByLayer
 72
     1
 94
      127
  0
MATERIAL
  5
46
102
{ACAD_REACTORS
330
43
102
}
330
43
100
AcDbMaterial
  1
Global
 72
     1
 94
      127
  0
MLEADERSTYLE
  5
6C
102
{ACAD_REACTORS
330
6B
102
}
330
6B
100
AcDbMLeaderStyle
179
     2
170
     2
171
     1
172
     0
 90
        2
 40
0.0
 41
0.0
173
     1
 91
-1056964608
340
14
 92
       -2
290
     1
 42
0.09
291
     1
 43
0.36
  3
Standard
341
0
 44
0.18
300

342
11
174
     1
178
     6
175
     1
176
     0
 93
-1056964608
 45
0.18
292
     0
297
     0
 46
0.18
343
0
 94
-1056964608
 47
1.0
 49
1.0
140
1.0
293
     1
141
0.0
294
     1
177
     0
142
1.0
295
     0
296
     0
143
0.125
271
     0
272
     9
273
     9
298
     0
  0
MLINESTYLE
  5
18
102
{ACAD_REACTORS
330
17
102
}
330
17
100
AcDbMlineStyle
  2
Standard
 70
     0
  3

 62
   256
 51
90.0
 52
90.0
 71
     2
 49
0.5
 62
   256
  6
BYLAYER
 49
-0.5
 62
   256
  6
BYLAYER
  0
ACDBPLACEHOLDER
  5
F
102
{ACAD_REACTORS
330
E
102
}
330
E
  0
SCALE
  5
48
102
{ACAD_REACTORS
330
47
102
}
330
47
100
AcDbScale
 70
     0
300
1:1
140
1.0
141
1.0
290
     1
  0
SCALE
  5
49
102
{ACAD_REACTORS
330
47
102
}
330
47
100
AcDbScale
 70
     0
300
1:2
140
1.0
141
2.0
290
     0
  0
SCALE
  5
4A
102
{ACAD_REACTORS
330
47
102
}
330
47
100
AcDbScale
 70
     0
300
1:4
140
1.0
141
4.0
290
     0
  0
SCALE
  5
4B
102
{ACAD_REACTORS
330
47
102
}
330
47
100
AcDbScale
 70
     0
300
1:5
140
1.0
141
5.0
290
     0
  0
SCALE
  5
4C
102
{ACAD_REACTORS
330
47
102
}
330
47
100
AcDbScale
 70
     0
300
1:8
140
1.0
141
8.0
290
     0
  0
SCALE
  5
4D
102
{ACAD_REACTORS
330
47
102
}
330
47
100
AcDbScale
 70
     0
300
1:10
140
1.0
141
10.0
290
     0
  0
SCALE
  5
4E
102
{ACAD_REACTORS
330
47
102
}
330
47
100
AcDbScale
 70
     0
300
1:16
140
1.0
141
16.0
290
     0
  0
SCALE
  5
4F
102
{ACAD_REACTORS
330
47
102
}
330
47
100
AcDbScale
 70
     0
300
1:20
140
1.0
141
20.0
290
     0
  0
SCALE
  5
50
102
{ACAD_REACTORS
330
47
102
}
330
47
100
AcDbScale
 70
     0
300
1:30
140
1.0
141
30.0
290
     0
  0
SCALE
  5
51
102
{ACAD_REACTORS
330
47
102
}
330
47
100
AcDbScale
 70
     0
300
1:40
140
1.0
141
40.0
290
     0
  0
SCALE
  5
52
102
{ACAD_REACTORS
330
47
102
}
330
47
100
AcDbScale
 70
     0
300
1:50
140
1.0
141
50.0
290
     0
  0
SCALE
  5
53
102
{ACAD_REACTORS
330
47
102
}
330
47
100
AcDbScale
 70
     0
300
1:100
140
1.0
141
100.0
290
     0
  0
SCALE
  5
54
102
{ACAD_REACTORS
330
47
102
}
330
47
100
AcDbScale
 70
     0
300
2:1
140
2.0
141
1.0
290
     0
  0
SCALE
  5
55
102
{ACAD_REACTORS
330
47
102
}
330
47
100
AcDbScale
 70
     0
300
4:1
140
4.0
141
1.0
290
     0
  0
SCALE
  5
56
102
{ACAD_REACTORS
330
47
102
}
330
47
100
AcDbScale
 70
     0
300
8:1
140
8.0
141
1.0
290
     0
  0
SCALE
  5
57
102
{ACAD_REACTORS
330
47
102
}
330
47
100
AcDbScale
 70
     0
300
10:1
140
10.0
141
1.0
290
     0
  0
SCALE
  5
58
102
{ACAD_REACTORS
330
47
102
}
330
47
100
AcDbScale
 70
     0
300
100:1
140
100.0
141
1.0
290
     0
  0
SCALE
  5
59
102
{ACAD_REACTORS
330
47
102
}
330
47
100
AcDbScale
 70
     0
300
1/128" = 1'-0"
140
0.0078125
141
12.0
290
     0
  0
SCALE
  5
5A
102
{ACAD_REACTORS
330
47
102
}
330
47
100
AcDbScale
 70
     0
300
1/64" = 1'-0"
140
0.015625
141
12.0
290
     0
  0
SCALE
  5
5B
102
{ACAD_REACTORS
330
47
102
}
330
47
100
AcDbScale
 70
     0
300
1/32" = 1'-0"
140
0.03125
141
12.0
290
     0
  0
SCALE
  5
5C
102
{ACAD_REACTORS
330
47
102
}
330
47
100
AcDbScale
 70
     0
300
1/16" = 1'-0"
140
0.0625
141
12.0
290
     0
  0
SCALE
  5
5D
102
{ACAD_REACTORS
330
47
102
}
330
47
100
AcDbScale
 70
     0
300
3/32" = 1'-0"
140
0.09375
141
12.0
290
     0
  0
SCALE
  5
5E
102
{ACAD_REACTORS
330
47
102
}
330
47
100
AcDbScale
 70
     0
300
1/8" = 1'-0"
140
0.125
141
12.0
290
     0
  0
SCALE
  5
5F
102
{ACAD_REACTORS
330
47
102
}
330
47
100
AcDbScale
 70
     0
300
3/16" = 1'-0"
140
0.1875
141
12.0
290
     0
  0
SCALE
  5
60
102
{ACAD_REACTORS
330
47
102
}
330
47
100
AcDbScale
 70
     0
300
1/4" = 1'-0"
140
0.25
141
12.0
290
     0
  0
SCALE
  5
61
102
{ACAD_REACTORS
330
47
102
}
330
47
100
AcDbScale
 70
     0
300
3/8" = 1'-0"
140
0.375
141
12.0
290
     0
  0
SCALE
  5
62
102
{ACAD_REACTORS
330
47
102
}
330
47
100
AcDbScale
 70
     0
300
1/2" = 1'-0"
140
0.5
141
12.0
290
     0
  0
SCALE
  5
63
102
{ACAD_REACTORS
330
47
102
}
330
47
100
AcDbScale
 70
     0
300
3/4" = 1'-0"
140
0.75
141
12.0
290
     0
  0
SCALE
  5
64
102
{ACAD_REACTORS
330
47
102
}
330
47
100
AcDbScale
 70
     0
300
1" = 1'-0"
140
1.0
141
12.0
290
     0
  0
SCALE
  5
65
102
{ACAD_REACTORS
330
47
102
}
330
47
100
AcDbScale
 70
     0
300
1-1/2" = 1'-0"
140
1.5
141
12.0
290
     0
  0
SCALE
  5
66
102
{ACAD_REACTORS
330
47
102
}
330
47
100
AcDbScale
 70
     0
300
3" = 1'-0"
140
3.0
141
12.0
290
     0
  0
SCALE
  5
67
102
{ACAD_REACTORS
330
47
102
}
330
47
100
AcDbScale
 70
     0
300
6" = 1'-0"
140
6.0
141
12.0
290
     0
  0
SCALE
  5
68
102
{ACAD_REACTORS
330
47
102
}
330
47
100
AcDbScale
 70
     0
300
1'-0" = 1'-0"
140
12.0
141
12.0
290
     0
  0
TABLESTYLE
  5
6A
102
{ACAD_REACTORS
330
69
102
}
102
{ACAD_XDICTIONARY
360
1C3
102
}
330
69
100
AcDbTableStyle
  3
Standard
 70
     0
 71
     0
 40
0.06
 41
0.06
280
     0
281
     0
  7
Standard
140
0.18
170
     2
 62
     0
 63
   257
283
     0
 90
        4
 91
        0
  1

274
    -2
284
     1
 64
     0
275
    -2
285
     1
 65
     0
276
    -2
286
     1
 66
     0
277
    -2
287
     1
 67
     0
278
    -2
288
     1
 68
     0
279
    -2
289
     1
 69
     0
  7
Standard
140
0.25
170
     5
 62
     0
 63
   257
283
     0
 90
        4
 91
        0
  1

274
    -2
284
     1
 64
     0
275
    -2
285
     1
 65
     0
276
    -2
286
     1
 66
     0
277
    -2
287
     1
 67
     0
278
    -2
288
     1
 68
     0
279
    -2
289
     1
 69
     0
  7
Standard
140
0.18
170
     5
 62
     0
 63
   257
283
     0
 90
        4
 91
        0
  1

274
    -2
284
     1
 64
     0
275
    -2
285
     1
 65
     0
276
    -2
286
     1
 66
     0
277
    -2
287
     1
 67
     0
278
    -2
288
     1
 68
     0
279
    -2
289
     1
 69
     0
  0
VISUALSTYLE
  5
2F
102
{ACAD_REACTORS
330
2A
102
}
330
2A
100
AcDbVisualStyle
  2
2dWireframe
 70
     4
177
     3
291
     0
 70
    58
 90
        0
176
     1
 90
        2
176
     1
 90
        0
176
     1
 90
        0
176
     1
 40
0.6
176
     1
 40
30.0
176
     1
 62
     7
420
 16777215
176
     1
 90
        1
176
     1
 90
        4
176
     1
 62
     7
176
     1
 62
   257
176
     1
 90
        1
176
     1
 90
        1
176
     1
 40
1.0
176
     1
 90
        0
176
     1
 62
   257
176
     1
 40
1.0
176
     1
 90
        1
176
     1
 90
        6
176
     1
 90
        2
176
     1
 62
     7
176
     1
 90
        5
176
     1
 90
        0
176
     1
 90
        0
176
     1
290
     0
176
     1
 90
        1
176
     1
 40
0.0
176
     1
 90
        0
176
     1
290
     1
176
     1
290
     1
176
     1
290
     0
176
     1
290
     0
176
     1
290
     0
176
     1
290
     0
176
     1
290
     0
176
     1
290
     0
176
     1
290
     0
176
     1
 90
       50
176
     1
 40
0.0
176
     1
 40
1.0
176
     1
 90
        0
176
     1
 62
    18
420
        0
176
     1
 90
       50
176
     1
 90
        3
176
     1
 62
     5
420
      255
176
     1
290
     0
176
     1
 90
       50
176
     1
 90
       50
176
     1
 90
       50
176
     1
290
     0
176
     1
 90
       50
176
     1
 62
   256
176
     0
 40
1.0
176
     0
 90
        2
176
     1
  1
strokes_ogs.tif
176
     1
290
     0
176
     1
 40
1.0
176
     1
 40
1.0
176
     1
  0
VISUALSTYLE
  5
32
102
{ACAD_REACTORS
330
2A
102
}
330
2A
100
AcDbVisualStyle
  2
Basic
 70
     7
177
     3
291
     1
 70
    58
 90
        1
176
     1
 90
        0
176
     1
 90
        1
176
     1
 90
        0
176
     1
 40
0.6
176
     1
 40
30.0
176
     1
 62
     7
420
 16777215
176
     1
 90
        0
176
     1
 90
        4
176
     1
 62
     7
176
     1
 62
   257
176
     1
 90
        1
176
     1
 90
        1
176
     1
 40
1.0
176
     1
 90
        8
176
     1
 62
     7
176
     1
 40
1.0
176
     1
 90
        1
176
     1
 90
        6
176
     1
 90
        2
176
     1
 62
     7
176
     1
 90
        5
176
     1
 90
        0
176
     1
 90
        0
176
     1
290
     0
176
     1
 90
        1
176
     1
 40
0.0
176
     1
 90
        0
176
     1
290
     0
176
     1
290
     1
176
     1
290
     1
176
     1
290
     0
176
     1
290
     0
176
     1
290
     0
176
     1
290
     0
176
     1
290
     0
176
     1
290
     0
176
     1
 90
       50
176
     1
 40
0.0
176
     1
 40
1.0
176
     1
 90
        0
176
     1
 62
    18
420
        0
176
     1
 90
       50
176
     1
 90
        3
176
     1
 62
     5
420
      255
176
     1
290
     0
176
     1
 90
       50
176
     1
 90
       50
176
     1
 90
       50
176
     1
290
     0
176
     1
 90
       50
176
     1
 62
   256
176
     0
 40
1.0
176
     0
 90
        2
176
     1
  1
strokes_ogs.tif
176
     1
290
     0
176
     1
 40
1.0
176
     1
 40
1.0
176
     1
  0
VISUALSTYLE
  5
36
102
{ACAD_REACTORS
330
2A
102
}
330
2A
100
AcDbVisualStyle
  2
Brighten
 70
    12
177
     3
291
     1
 70
    58
 90
        2
176
     1
 90
        2
176
     1
 90
        0
176
     1
 90
        0
176
     1
 40
0.6
176
     1
 40
30.0
176
     1
 62
     7
420
 16777215
176
     1
 90
        1
176
     1
 90
        4
176
     1
 62
     7
176
     1
 62
   257
176
     1
 90
        1
176
     1
 90
        1
176
     1
 40
1.0
176
     1
 90
        8
176
     1
 62
     7
176
     1
 40
1.0
176
     1
 90
        1
176
     1
 90
        6
176
     1
 90
        2
176
     1
 62
     7
176
     1
 90
        5
176
     1
 90
        0
176
     1
 90
        0
176
     1
290
     0
176
     1
 90
        1
176
     1
 40
50.0
176
     1
 90
        0
176
     1
290
     0
176
     1
290
     1
176
     1
290
     1
176
     1
290
     0
176
     1
290
     0
176
     1
290
     0
176
     1
290
     0
176
     1
290
     0
176
     1
290
     0
176
     1
 90
       50
176
     1
 40
0.0
176
     1
 40
1.0
176
     1
 90
        0
176
     1
 62
    18
420
        0
176
     1
 90
       50
176
     1
 90
        3
176
     1
 62
     5
420
      255
176
     1
290
     0
176
     1
 90
       50
176
     1
 90
       50
176
     1
 90
       50
176
     1
290
     0
176
     1
 90
       50
176
     1
 62
   256
176
     0
 40
1.0
176
     0
 90
        2
176
     1
  1
strokes_ogs.tif
176
     1
290
     0
176
     1
 40
1.0
176
     1
 40
1.0
176
     1
  0
VISUALSTYLE
  5
3A
102
{ACAD_REACTORS
330
2A
102
}
330
2A
100
AcDbVisualStyle
  2
ColorChange
 70
    16
177
     3
291
     1
 70
    58
 90
        2
176
     1
 90
        2
176
     1
 90
        3
176
     1
 90
        0
176
     1
 40
0.6
176
     1
 40
30.0
176
     1
 62
     8
420
  8421504
176
     1
 90
        1
176
     1
 90
        4
176
     1
 62
     7
176
     1
 62
   257
176
     1
 90
        1
176
     1
 90
        1
176
     1
 40
1.0
176
     1
 90
        8
176
     1
 62
     8
420
  8421504
176
     1
 40
1.0
176
     1
 90
        1
176
     1
 90
        6
176
     1
 90
        2
176
     1
 62
     7
176
     1
 90
        5
176
     1
 90
        0
176
     1
 90
        0
176
     1
290
     0
176
     1
 90
        1
176
     1
 40
0.0
176
     1
 90
        0
176
     1
290
     0
176
     1
290
     1
176
     1
290
     1
176
     1
290
     0
176
     1
290
     0
176
     1
290
     0
176
     1
290
     0
176
     1
290
     0
176
     1
290
     0
176
     1
 90
       50
176
     1
 40
0.0
176
     1
 40
1.0
176
     1
 90
        0
176
     1
 62
    18
420
        0
176
     1
 90
       50
176
     1
 90
        3
176
     1
 62
     5
420
      255
176
     1
290
     0
176
     1
 90
       50
176
     1
 90
       50
176
     1
 90
       50
176
     1
290
     0
176
     1
 90
       50
176
     1
 62
   256
176
     0
 40
1.0
176
     0
 90
        2
176
     1
  1
strokes_ogs.tif
176
     1
290
     0
176
     1
 40
1.0
176
     1
 40
1.0
176
     1
  0
VISUALSTYLE
  5
34
102
{ACAD_REACTORS
330
2A
102
}
330
2A
100
AcDbVisualStyle
  2
Conceptual
 70
     9
177
     3
291
     0
 70
    58
 90
        3
176
     1
 90
        2
176
     1
 90
        0
176
     1
 90
        0
176
     1
 40
0.6
176
     1
 40
30.0
176
     1
 62
     7
420
 16777215
176
     1
 90
        2
176
     1
 90
        2
176
     1
 62
     7
176
     1
 62
   257
176
     1
 90
        1
176
     1
 90
        1
176
     1
 40
179.0
176
     1
 90
        8
176
     1
 62
     7
176
     1
 40
1.0
176
     1
 90
        1
176
     1
 90
        6
176
     1
 90
        2
176
     1
 62
     7
176
     1
 90
        3
176
     1
 90
        0
176
     1
 90
        0
176
     1
290
     0
176
     1
 90
        1
176
     1
 40
0.0
176
     1
 90
        0
176
     1
290
     0
176
     1
290
     1
176
     1
290
     1
176
     1
290
     0
176
     1
290
     0
176
     1
290
     0
176
     1
290
     0
176
     1
290
     0
176
     1
290
     0
176
     1
 90
       50
176
     1
 40
0.0
176
     1
 40
1.0
176
     1
 90
        0
176
     1
 62
    18
420
        0
176
     1
 90
       50
176
     1
 90
        3
176
     1
 62
     5
420
      255
176
     1
290
     0
176
     1
 90
       50
176
     1
 90
       50
176
     1
 90
       50
176
     1
290
     0
176
     1
 90
       50
176
     1
 62
   256
176
     0
 40
1.0
176
     0
 90
        2
176
     1
  1
strokes_ogs.tif
176
     1
290
     0
176
     1
 40
1.0
176
     1
 40
1.0
176
     1
  0
VISUALSTYLE
  5
35
102
{ACAD_REACTORS
330
2A
102
}
330
2A
100
AcDbVisualStyle
  2
Dim
 70
    11
177
     3
291
     1
 70
    58
 90
        2
176
     1
 90
        2
176
     1
 90
        0
176
     1
 90
        0
176
     1
 40
0.6
176
     1
 40
30.0
176
     1
 62
     7
420
 16777215
176
     1
 90
        1
176
     1
 90
        4
176
     1
 62
     7
176
     1
 62
   257
176
     1
 90
        1
176
     1
 90
        1
176
     1
 40
1.0
176
     1
 90
        8
176
     1
 62
     7
176
     1
 40
1.0
176
     1
 90
        1
176
     1
 90
        6
176
     1
 90
        2
176
     1
 62
     7
176
     1
 90
        5
176
     1
 90
        0
176
     1
 90
        0
176
     1
290
     0
176
     1
 90
        1
176
     1
 40
-50.0
176
     1
 90
        0
176
     1
290
     0
176
     1
290
     1
176
     1
290
     1
176
     1
290
     0
176
     1
290
     0
176
     1
290
     0
176
     1
290
     0
176
     1
290
     0
176
     1
290
     0
176
     1
 90
       50
176
     1
 40
0.0
176
     1
 40
1.0
176
     1
 90
        0
176
     1
 62
    18
420
        0
176
     1
 90
       50
176
     1
 90
        3
176
     1
 62
     5
420
      255
176
     1
290
     0
176
     1
 90
       50
176
     1
 90
       50
176
     1
 90
       50
176
     1
290
     0
176
     1
 90
       50
176
     1
 62
   256
176
     0
 40
1.0
176
     0
 90
        2
176
     1
  1
strokes_ogs.tif
176
     1
290
     0
176
     1
 40
1.0
176
     1
 40
1.0
176
     1
  0
VISUALSTYLE
  5
3D
102
{ACAD_REACTORS
330
2A
102
}
330
2A
100
AcDbVisualStyle
  2
EdgeColorOff
 70
    22
177
     3
291
     1
 70
    58
 90
        2
176
     0
 90
        2
176
     0
 90
        0
176
     0
 90
        0
176
     0
 40
0.6
176
     0
 40
30.0
176
     0
 62
     7
420
 16777215
176
     0
 90
        1
176
     0
 90
        4
176
     0
 62
     7
176
     0
 62
   257
176
     0
 90
        1
176
     0
 90
        1
176
     0
 40
1.0
176
     0
 90
        8
176
     2
 62
     7
176
     0
 40
1.0
176
     0
 90
        1
176
     0
 90
        6
176
     0
 90
        2
176
     0
 62
     7
176
     0
 90
        5
176
     0
 90
        0
176
     0
 90
        0
176
     0
290
     0
176
     0
 90
        1
176
     0
 40
0.0
176
     0
 90
        0
176
     0
290
     0
176
     0
290
     1
176
     0
290
     1
176
     0
290
     0
176
     0
290
     0
176
     0
290
     0
176
     0
290
     0
176
     0
290
     0
176
     0
290
     0
176
     0
 90
       50
176
     0
 40
0.0
176
     0
 40
1.0
176
     0
 90
        0
176
     0
 62
    18
420
        0
176
     0
 90
       50
176
     0
 90
        3
176
     0
 62
     5
420
      255
176
     0
290
     0
176
     0
 90
       50
176
     0
 90
       50
176
     0
 90
       50
176
     0
290
     0
176
     0
 90
       50
176
     0
 62
   256
176
     0
 40
1.0
176
     0
 90
        2
176
     0
  1
strokes_ogs.tif
176
     0
290
     0
176
     0
 40
1.0
176
     0
 40
1.0
176
     0
  0
VISUALSTYLE
  5
39
102
{ACAD_REACTORS
330
2A
102
}
330
2A
100
AcDbVisualStyle
  2
Facepattern
 70
    15
177
     3
291
     1
 70
    58
 90
        2
176
     1
 90
        2
176
     1
 90
        0
176
     1
 90
        0
176
     1
 40
0.6
176
     1
 40
30.0
176
     1
 62
     7
420
 16777215
176
     1
 90
        1
176
     1
 90
        4
176
     1
 62
     7
176
     1
 62
   257
176
     1
 90
        1
176
     1
 90
        1
176
     1
 40
1.0
176
     1
 90
        8
176
     1
 62
     7
176
     1
 40
1.0
176
     1
 90
        1
176
     1
 90
        6
176
     1
 90
        2
176
     1
 62
     7
176
     1
 90
        5
176
     1
 90
        0
176
     1
 90
        0
176
     1
290
     0
176
     1
 90
        1
176
     1
 40
0.0
176
     1
 90
        0
176
     1
290
     0
176
     1
290
     1
176
     1
290
     1
176
     1
290
     0
176
     1
290
     0
176
     1
290
     0
176
     1
290
     0
176
     1
290
     0
176
     1
290
     0
176
     1
 90
       50
176
     1
 40
0.0
176
     1
 40
1.0
176
     1
 90
        0
176
     1
 62
    18
420
        0
176
     1
 90
       50
176
     1
 90
        3
176
     1
 62
     5
420
      255
176
     1
290
     0
176
     1
 90
       50
176
     1
 90
       50
176
     1
 90
       50
176
     1
290
     0
176
     1
 90
       50
176
     1
 62
   256
176
     0
 40
1.0
176
     0
 90
        2
176
     1
  1
strokes_ogs.tif
176
     1
290
     0
176
     1
 40
1.0
176
     1
 40
1.0
176
     1
  0
VISUALSTYLE
  5
2B
102
{ACAD_REACTORS
330
2A
102
}
330
2A
100
AcDbVisualStyle
  2
Flat
 70
     0
177
     3
291
     1
 70
    58
 90
        2
176
     1
 90
        1
176
     1
 90
        1
176
     1
 90
        2
176
     1
 40
0.6
176
     1
 40
30.0
176
     1
 62
     7
420
 16777215
176
     1
 90
        0
176
     1
 90
        0
176
     1
 62
     7
176
     1
 62
   257
176
     1
 90
        1
176
     1
 90
        1
176
     1
 40
1.0
176
     1
 90
        8
176
     1
 62
     7
176
     1
 40
1.0
176
     1
 90
        1
176
     1
 90
        6
176
     1
 90
        2
176
     1
 62
     7
176
     1
 90
        5
176
     1
 90
        0
176
     1
 90
        0
176
     1
290
     0
176
     1
 90
       13
176
     1
 40
0.0
176
     1
 90
        0
176
     1
290
     0
176
     1
290
     1
176
     1
290
     1
176
     1
290
     0
176
     1
290
     0
176
     1
290
     0
176
     1
290
     0
176
     1
290
     0
176
     1
290
     0
176
     1
 90
       50
176
     1
 40
0.0
176
     1
 40
1.0
176
     1
 90
        0
176
     1
 62
    18
420
        0
176
     1
 90
       50
176
     1
 90
        3
176
     1
 62
     5
420
      255
176
     1
290
     0
176
     1
 90
       50
176
     1
 90
       50
176
     1
 90
       50
176
     1
290
     0
176
     1
 90
       50
176
     1
 62
   256
176
     0
 40
1.0
176
     0
 90
        2
176
     1
  1
strokes_ogs.tif
176
     1
290
     0
176
     1
 40
1.0
176
     1
 40
1.0
176
     1
  0
VISUALSTYLE
  5
2C
102
{ACAD_REACTORS
330
2A
102
}
330
2A
100
AcDbVisualStyle
  2
FlatWithEdges
 70
     1
177
     3
291
     1
 70
    58
 90
        2
176
     1
 90
        1
176
     1
 90
        1
176
     1
 90
        2
176
     1
 40
0.6
176
     1
 40
30.0
176
     1
 62
     7
420
 16777215
176
     1
 90
        1
176
     1
 90
        0
176
     1
 62
     7
176
     1
 62
   257
176
     1
 90
        1
176
     1
 90
        1
176
     1
 40
1.0
176
     1
 90
        0
176
     1
 62
   257
176
     1
 40
1.0
176
     1
 90
        1
176
     1
 90
        6
176
     1
 90
        2
176
     1
 62
     7
176
     1
 90
        5
176
     1
 90
        0
176
     1
 90
        0
176
     1
290
     0
176
     1
 90
       13
176
     1
 40
0.0
176
     1
 90
        0
176
     1
290
     0
176
     1
290
     1
176
     1
290
     1
176
     1
290
     0
176
     1
290
     0
176
     1
290
     0
176
     1
290
     0
176
     1
290
     0
176
     1
290
     0
176
     1
 90
       50
176
     1
 40
0.0
176
     1
 40
1.0
176
     1
 90
        0
176
     1
 62
    18
420
        0
176
     1
 90
       50
176
     1
 90
        3
176
     1
 62
     5
420
      255
176
     1
290
     0
176
     1
 90
       50
176
     1
 90
       50
176
     1
 90
       50
176
     1
290
     0
176
     1
 90
       50
176
     1
 62
   256
176
     0
 40
1.0
176
     0
 90
        2
176
     1
  1
strokes_ogs.tif
176
     1
290
     0
176
     1
 40
1.0
176
     1
 40
1.0
176
     1
  0
VISUALSTYLE
  5
2D
102
{ACAD_REACTORS
330
2A
102
}
330
2A
100
AcDbVisualStyle
  2
Gouraud
 70
     2
177
     3
291
     1
 70
    58
 90
        2
176
     1
 90
        2
176
     1
 90
        1
176
     1
 90
        2
176
     1
 40
0.6
176
     1
 40
30.0
176
     1
 62
     7
420
 16777215
176
     1
 90
        0
176
     1
 90
        0
176
     1
 62
     7
176
     1
 62
   257
176
     1
 90
        1
176
     1
 90
        1
176
     1
 40
1.0
176
     1
 90
        0
176
     1
 62
     7
176
     1
 40
1.0
176
     1
 90
        1
176
     1
 90
        6
176
     1
 90
        2
176
     1
 62
     7
176
     1
 90
        5
176
     1
 90
        0
176
     1
 90
        0
176
     1
290
     0
176
     1
 90
       13
176
     1
 40
0.0
176
     1
 90
        0
176
     1
290
     0
176
     1
290
     1
176
     1
290
     1
176
     1
290
     0
176
     1
290
     0
176
     1
290
     0
176
     1
290
     0
176
     1
290
     0
176
     1
290
     0
176
     1
 90
       50
176
     1
 40
0.0
176
     1
 40
1.0
176
     1
 90
        0
176
     1
 62
    18
420
        0
176
     1
 90
       50
176
     1
 90
        3
176
     1
 62
     5
420
      255
176
     1
290
     0
176
     1
 90
       50
176
     1
 90
       50
176
     1
 90
       50
176
     1
290
     0
176
     1
 90
       50
176
     1
 62
   256
176
     0
 40
1.0
176
     0
 90
        2
176
     1
  1
strokes_ogs.tif
176
     1
290
     0
176
     1
 40
1.0
176
     1
 40
1.0
176
     1
  0
VISUALSTYLE
  5
2E
102
{ACAD_REACTORS
330
2A
102
}
330
2A
100
AcDbVisualStyle
  2
GouraudWithEdges
 70
     3
177
     3
291
     1
 70
    58
 90
        2
176
     1
 90
        2
176
     1
 90
        1
176
     1
 90
        2
176
     1
 40
0.6
176
     1
 40
30.0
176
     1
 62
     7
420
 16777215
176
     1
 90
        1
176
     1
 90
        0
176
     1
 62
     7
176
     1
 62
   257
176
     1
 90
        1
176
     1
 90
        1
176
     1
 40
1.0
176
     1
 90
        0
176
     1
 62
   257
176
     1
 40
1.0
176
     1
 90
        1
176
     1
 90
        6
176
     1
 90
        2
176
     1
 62
     7
176
     1
 90
        5
176
     1
 90
        0
176
     1
 90
        0
176
     1
290
     0
176
     1
 90
       13
176
     1
 40
0.0
176
     1
 90
        0
176
     1
290
     0
176
     1
290
     1
176
     1
290
     1
176
     1
290
     0
176
     1
290
     0
176
     1
290
     0
176
     1
290
     0
176
     1
290
     0
176
     1
290
     0
176
     1
 90
       50
176
     1
 40
0.0
176
     1
 40
1.0
176
     1
 90
        0
176
     1
 62
    18
420
        0
176
     1
 90
       50
176
     1
 90
        3
176
     1
 62
     5
420
      255
176
     1
290
     0
176
     1
 90
       50
176
     1
 90
       50
176
     1
 90
       50
176
     1
290
     0
176
     1
 90
       50
176
     1
 62
   256
176
     0
 40
1.0
176
     0
 90
        2
176
     1
  1
strokes_ogs.tif
176
     1
290
     0
176
     1
 40
1.0
176
     1
 40
1.0
176
     1
  0
VISUALSTYLE
  5
31
102
{ACAD_REACTORS
330
2A
102
}
330
2A
100
AcDbVisualStyle
  2
Hidden
 70
     6
177
     3
291
     0
 70
    58
 90
        1
176
     1
 90
        2
176
     1
 90
        2
176
     1
 90
        0
176
     1
 40
0.6
176
     1
 40
30.0
176
     1
 62
     7
420
 16777215
176
     1
 90
        2
176
     1
 90
        2
176
     1
 62
     7
176
     1
 62
   257
176
     1
 90
        2
176
     1
 90
        1
176
     1
 40
40.0
176
     1
 90
        0
176
     1
 62
   257
176
     1
 40
1.0
176
     1
 90
        1
176
     1
 90
        6
176
     1
 90
        2
176
     1
 62
     7
176
     1
 90
        3
176
     1
 90
        0
176
     1
 90
        0
176
     1
290
     0
176
     1
 90
        1
176
     1
 40
0.0
176
     1
 90
        0
176
     1
290
     0
176
     1
290
     1
176
     1
290
     1
176
     1
290
     0
176
     1
290
     0
176
     1
290
     0
176
     1
290
     0
176
     1
290
     0
176
     1
290
     0
176
     1
 90
       50
176
     1
 40
0.0
176
     1
 40
1.0
176
     1
 90
        0
176
     1
 62
    18
420
        0
176
     1
 90
       50
176
     1
 90
        3
176
     1
 62
     5
420
      255
176
     1
290
     0
176
     1
 90
       50
176
     1
 90
       50
176
     1
 90
       50
176
     1
290
     0
176
     1
 90
       50
176
     1
 62
   256
176
     0
 40
1.0
176
     0
 90
        2
176
     1
  1
strokes_ogs.tif
176
     1
290
     0
176
     1
 40
1.0
176
     1
 40
1.0
176
     1
  0
VISUALSTYLE
  5
3B
102
{ACAD_REACTORS
330
2A
102
}
330
2A
100
AcDbVisualStyle
  2
JitterOff
 70
    20
177
     3
291
     1
 70
    58
 90
        2
176
     0
 90
        2
176
     0
 90
        0
176
     0
 90
        0
176
     0
 40
0.6
176
     0
 40
30.0
176
     0
 62
     7
420
 16777215
176
     0
 90
        1
176
     0
 90
        4
176
     0
 62
     7
176
     0
 62
   257
176
     0
 90
        1
176
     0
 90
        1
176
     0
 40
1.0
176
     0
 90
       10
176
     2
 62
     7
176
     0
 40
1.0
176
     0
 90
        1
176
     0
 90
        6
176
     0
 90
        2
176
     0
 62
     7
176
     0
 90
        5
176
     0
 90
        0
176
     0
 90
        0
176
     0
290
     0
176
     0
 90
        1
176
     0
 40
0.0
176
     0
 90
        0
176
     0
290
     0
176
     0
290
     1
176
     0
290
     1
176
     0
290
     0
176
     0
290
     0
176
     0
290
     0
176
     0
290
     0
176
     0
290
     0
176
     0
290
     0
176
     0
 90
       50
176
     0
 40
0.0
176
     0
 40
1.0
176
     0
 90
        0
176
     0
 62
    18
420
        0
176
     0
 90
       50
176
     0
 90
        3
176
     0
 62
     5
420
      255
176
     0
290
     0
176
     0
 90
       50
176
     0
 90
       50
176
     0
 90
       50
176
     0
290
     0
176
     0
 90
       50
176
     0
 62
   256
176
     0
 40
1.0
176
     0
 90
        2
176
     0
  1
strokes_ogs.tif
176
     0
290
     0
176
     0
 40
1.0
176
     0
 40
1.0
176
     0
  0
VISUALSTYLE
  5
38
102
{ACAD_REACTORS
330
2A
102
}
330
2A
100
AcDbVisualStyle
  2
Linepattern
 70
    14
177
     3
291
     1
 70
    58
 90
        2
176
     1
 90
        2
176
     1
 90
        0
176
     1
 90
        0
176
     1
 40
0.6
176
     1
 40
30.0
176
     1
 62
     7
420
 16777215
176
     1
 90
        1
176
     1
 90
        4
176
     1
 62
     7
176
     1
 62
   257
176
     1
 90
        7
176
     1
 90
        7
176
     1
 40
1.0
176
     1
 90
        8
176
     1
 62
     7
176
     1
 40
1.0
176
     1
 90
        1
176
     1
 90
        6
176
     1
 90
        2
176
     1
 62
     7
176
     1
 90
        5
176
     1
 90
        0
176
     1
 90
        0
176
     1
290
     0
176
     1
 90
        1
176
     1
 40
0.0
176
     1
 90
        0
176
     1
290
     0
176
     1
290
     1
176
     1
290
     1
176
     1
290
     0
176
     1
290
     0
176
     1
290
     0
176
     1
290
     0
176
     1
290
     0
176
     1
290
     0
176
     1
 90
       50
176
     1
 40
0.0
176
     1
 40
1.0
176
     1
 90
        0
176
     1
 62
    18
420
        0
176
     1
 90
       50
176
     1
 90
        3
176
     1
 62
     5
420
      255
176
     1
290
     0
176
     1
 90
       50
176
     1
 90
       50
176
     1
 90
       50
176
     1
290
     0
176
     1
 90
       50
176
     1
 62
   256
176
     0
 40
1.0
176
     0
 90
        2
176
     1
  1
strokes_ogs.tif
176
     1
290
     0
176
     1
 40
1.0
176
     1
 40
1.0
176
     1
  0
VISUALSTYLE
  5
3C
102
{ACAD_REACTORS
330
2A
102
}
330
2A
100
AcDbVisualStyle
  2
OverhangOff
 70
    21
177
     3
291
     1
 70
    58
 90
        2
176
     0
 90
        2
176
     0
 90
        0
176
     0
 90
        0
176
     0
 40
0.6
176
     0
 40
30.0
176
     0
 62
     7
420
 16777215
176
     0
 90
        1
176
     0
 90
        4
176
     0
 62
     7
176
     0
 62
   257
176
     0
 90
        1
176
     0
 90
        1
176
     0
 40
1.0
176
     0
 90
        9
176
     2
 62
     7
176
     0
 40
1.0
176
     0
 90
        1
176
     0
 90
        6
176
     0
 90
        2
176
     0
 62
     7
176
     0
 90
        5
176
     0
 90
        0
176
     0
 90
        0
176
     0
290
     0
176
     0
 90
        1
176
     0
 40
0.0
176
     0
 90
        0
176
     0
290
     0
176
     0
290
     1
176
     0
290
     1
176
     0
290
     0
176
     0
290
     0
176
     0
290
     0
176
     0
290
     0
176
     0
290
     0
176
     0
290
     0
176
     0
 90
       50
176
     0
 40
0.0
176
     0
 40
1.0
176
     0
 90
        0
176
     0
 62
    18
420
        0
176
     0
 90
       50
176
     0
 90
        3
176
     0
 62
     5
420
      255
176
     0
290
     0
176
     0
 90
       50
176
     0
 90
       50
176
     0
 90
       50
176
     0
290
     0
176
     0
 90
       50
176
     0
 62
   256
176
     0
 40
1.0
176
     0
 90
        2
176
     0
  1
strokes_ogs.tif
176
     0
290
     0
176
     0
 40
1.0
176
     0
 40
1.0
176
     0
  0
VISUALSTYLE
  5
33
102
{ACAD_REACTORS
330
2A
102
}
330
2A
100
AcDbVisualStyle
  2
Realistic
 70
     8
177
     3
291
     0
 70
    58
 90
        2
176
     1
 90
        3
176
     1
 90
        0
176
     1
 90
        2
176
     1
 40
0.6
176
     1
 40
30.0
176
     1
 62
     7
420
 16777215
176
     1
 90
        0
176
     1
 90
        0
176
     1
 62
     7
176
     1
 62
   257
176
     1
 90
        1
176
     1
 90
        1
176
     1
 40
1.0
176
     1
 90
        8
176
     1
 62
   257
176
     1
 40
1.0
176
     1
 90
        1
176
     1
 90
        6
176
     1
 90
        2
176
     1
 62
     7
176
     1
 90
        3
176
     1
 90
        0
176
     1
 90
        0
176
     1
290
     0
176
     1
 90
       13
176
     1
 40
0.0
176
     1
 90
        0
176
     1
290
     0
176
     1
290
     1
176
     1
290
     1
176
     1
290
     0
176
     1
290
     0
176
     1
290
     0
176
     1
290
     0
176
     1
290
     0
176
     1
290
     0
176
     1
 90
       50
176
     1
 40
0.0
176
     1
 40
1.0
176
     1
 90
        0
176
     1
 62
    18
420
        0
176
     1
 90
       50
176
     1
 90
        3
176
     1
 62
     5
420
      255
176
     1
290
     0
176
     1
 90
       50
176
     1
 90
       50
176
     1
 90
       50
176
     1
290
     0
176
     1
 90
       50
176
     1
 62
   256
176
     0
 40
1.0
176
     0
 90
        2
176
     1
  1
strokes_ogs.tif
176
     1
290
     0
176
     1
 40
1.0
176
     1
 40
1.0
176
     1
  0
VISUALSTYLE
  5
42
102
{ACAD_REACTORS
330
2A
102
}
330
2A
100
AcDbVisualStyle
  2
Shaded
 70
    27
177
     3
291
     0
 70
    58
 90
        2
176
     1
 90
        2
176
     1
 90
        1
176
     1
 90
        2
176
     1
 40
0.6
176
     1
 40
30.0
176
     1
 62
     7
420
 16777215
176
     1
 90
        0
176
     1
 90
        4
176
     1
 62
     7
176
     1
 62
   257
176
     1
 90
        1
176
     1
 90
        1
176
     1
 40
1.0
176
     1
 90
        8
176
     1
 62
   257
176
     1
 40
1.0
176
     1
 90
        1
176
     1
 90
        6
176
     1
 90
        2
176
     1
 62
     8
420
  7895160
176
     1
 90
        3
176
     1
 90
        0
176
     1
 90
        0
176
     1
290
     0
176
     1
 90
        5
176
     1
 40
0.0
176
     1
 90
        0
176
     1
290
     0
176
     1
290
     1
176
     1
290
     1
176
     1
290
     0
176
     1
290
     0
176
     1
290
     0
176
     1
290
     0
176
     1
290
     0
176
     1
290
     0
176
     1
 90
       50
176
     1
 40
0.0
176
     1
 40
1.0
176
     1
 90
        0
176
     1
 62
    18
420
        0
176
     1
 90
       50
176
     1
 90
        3
176
     1
 62
     5
420
      255
176
     1
290
     0
176
     1
 90
       50
176
     1
 90
       50
176
     1
 90
       50
176
     1
290
     0
176
     1
 90
       50
176
     1
 62
   256
176
     0
 40
1.0
176
     0
 90
        2
176
     1
  1
strokes_ogs.tif
176
     1
290
     0
176
     1
 40
1.0
176
     1
 40
1.0
176
     1
  0
VISUALSTYLE
  5
41
102
{ACAD_REACTORS
330
2A
102
}
330
2A
100
AcDbVisualStyle
  2
Shaded with edges
 70
    26
177
     3
291
     0
 70
    58
 90
        2
176
     1
 90
        2
176
     1
 90
        1
176
     1
 90
        2
176
     1
 40
0.6
176
     1
 40
30.0
176
     1
 62
     7
420
 16777215
176
     1
 90
        1
176
     1
 90
       10
176
     1
 62
     7
176
     1
 62
   257
176
     1
 90
        2
176
     1
 90
        1
176
     1
 40
1.0
176
     1
 90
        8
176
     1
 62
   257
176
     1
 40
1.0
176
     1
 90
        1
176
     1
 90
        6
176
     1
 90
        2
176
     1
 62
     7
176
     1
 90
        3
176
     1
 90
        0
176
     1
 90
        0
176
     1
290
     0
176
     1
 90
        5
176
     1
 40
0.0
176
     1
 90
        0
176
     1
290
     0
176
     1
290
     1
176
     1
290
     1
176
     1
290
     0
176
     1
290
     0
176
     1
290
     0
176
     1
290
     0
176
     1
290
     0
176
     1
290
     0
176
     1
 90
       50
176
     1
 40
0.0
176
     1
 40
1.0
176
     1
 90
        0
176
     1
 62
    18
420
        0
176
     1
 90
       50
176
     1
 90
        3
176
     1
 62
     5
420
      255
176
     1
290
     0
176
     1
 90
       50
176
     1
 90
       50
176
     1
 90
       50
176
     1
290
     0
176
     1
 90
       50
176
     1
 62
   256
176
     0
 40
1.0
176
     0
 90
        2
176
     1
  1
strokes_ogs.tif
176
     1
290
     0
176
     1
 40
1.0
176
     1
 40
1.0
176
     1
  0
VISUALSTYLE
  5
3E
102
{ACAD_REACTORS
330
2A
102
}
330
2A
100
AcDbVisualStyle
  2
Shades of Gray
 70
    23
177
     3
291
     0
 70
    58
 90
        2
176
     1
 90
        2
176
     1
 90
        3
176
     1
 90
        0
176
     1
 40
0.6
176
     1
 40
30.0
176
     1
 62
     7
420
 16777215
176
     1
 90
        2
176
     1
 90
        2
176
     1
 62
     7
176
     1
 62
     7
176
     1
 90
        1
176
     1
 90
        1
176
     1
 40
40.0
176
     1
 90
        8
176
     1
 62
     7
176
     1
 40
1.0
176
     1
 90
        1
176
     1
 90
        6
176
     1
 90
        2
176
     1
 62
     7
176
     1
 90
        3
176
     1
 90
        0
176
     1
 90
        0
176
     1
290
     0
176
     1
 90
        1
176
     1
 40
0.0
176
     1
 90
        0
176
     1
290
     0
176
     1
290
     1
176
     1
290
     1
176
     1
290
     0
176
     1
290
     0
176
     1
290
     0
176
     1
290
     0
176
     1
290
     0
176
     1
290
     0
176
     1
 90
       50
176
     1
 40
0.0
176
     1
 40
1.0
176
     1
 90
        0
176
     1
 62
    18
420
        0
176
     1
 90
       50
176
     1
 90
        3
176
     1
 62
     5
420
      255
176
     1
290
     0
176
     1
 90
       50
176
     1
 90
       50
176
     1
 90
       50
176
     1
290
     0
176
     1
 90
       50
176
     1
 62
   256
176
     0
 40
1.0
176
     0
 90
        2
176
     1
  1
strokes_ogs.tif
176
     1
290
     0
176
     1
 40
1.0
176
     1
 40
1.0
176
     1
  0
VISUALSTYLE
  5
3F
102
{ACAD_REACTORS
330
2A
102
}
330
2A
100
AcDbVisualStyle
  2
Sketchy
 70
    24
177
     3
291
     0
 70
    58
 90
        1
176
     1
 90
        2
176
     1
 90
        2
176
     1
 90
        0
176
     1
 40
0.6
176
     1
 40
30.0
176
     1
 62
     7
420
 16777215
176
     1
 90
        2
176
     1
 90
        2
176
     1
 62
     7
176
     1
 62
     7
176
     1
 90
        1
176
     1
 90
        1
176
     1
 40
40.0
176
     1
 90
       11
176
     1
 62
     7
176
     1
 40
1.0
176
     1
 90
        1
176
     1
 90
        6
176
     1
 90
        2
176
     1
 62
     7
176
     1
 90
        6
176
     1
 90
        0
176
     1
 90
        0
176
     1
290
     0
176
     1
 90
        1
176
     1
 40
0.0
176
     1
 90
        0
176
     1
290
     0
176
     1
290
     1
176
     1
290
     1
176
     1
290
     0
176
     1
290
     0
176
     1
290
     0
176
     1
290
     0
176
     1
290
     0
176
     1
290
     0
176
     1
 90
       50
176
     1
 40
0.0
176
     1
 40
1.0
176
     1
 90
        0
176
     1
 62
    18
420
        0
176
     1
 90
       50
176
     1
 90
        3
176
     1
 62
     5
420
      255
176
     1
290
     0
176
     1
 90
       50
176
     1
 90
       50
176
     1
 90
       50
176
     1
290
     0
176
     1
 90
       50
176
     1
 62
   256
176
     0
 40
1.0
176
     0
 90
        2
176
     1
  1
strokes_ogs.tif
176
     1
290
     0
176
     1
 40
1.0
176
     1
 40
1.0
176
     1
  0
VISUALSTYLE
  5
37
102
{ACAD_REACTORS
330
2A
102
}
330
2A
100
AcDbVisualStyle
  2
Thicken
 70
    13
177
     3
291
     1
 70
    58
 90
        2
176
     1
 90
        2
176
     1
 90
        0
176
     1
 90
        0
176
     1
 40
0.6
176
     1
 40
30.0
176
     1
 62
     7
420
 16777215
176
     1
 90
        1
176
     1
 90
        4
176
     1
 62
     7
176
     1
 62
   257
176
     1
 90
        1
176
     1
 90
        1
176
     1
 40
1.0
176
     1
 90
       12
176
     1
 62
     7
176
     1
 40
1.0
176
     1
 90
        1
176
     1
 90
        6
176
     1
 90
        2
176
     1
 62
     7
176
     1
 90
        5
176
     1
 90
        0
176
     1
 90
        0
176
     1
290
     0
176
     1
 90
        1
176
     1
 40
0.0
176
     1
 90
        0
176
     1
290
     0
176
     1
290
     1
176
     1
290
     1
176
     1
290
     0
176
     1
290
     0
176
     1
290
     0
176
     1
290
     0
176
     1
290
     0
176
     1
290
     0
176
     1
 90
       50
176
     1
 40
0.0
176
     1
 40
1.0
176
     1
 90
        0
176
     1
 62
    18
420
        0
176
     1
 90
       50
176
     1
 90
        3
176
     1
 62
     5
420
      255
176
     1
290
     0
176
     1
 90
       50
176
     1
 90
       50
176
     1
 90
       50
176
     1
290
     0
176
     1
 90
       50
176
     1
 62
   256
176
     0
 40
1.0
176
     0
 90
        2
176
     1
  1
strokes_ogs.tif
176
     1
290
     0
176
     1
 40
1.0
176
     1
 40
1.0
176
     1
  0
VISUALSTYLE
  5
30
102
{ACAD_REACTORS
330
2A
102
}
330
2A
100
AcDbVisualStyle
  2
Wireframe
 70
     5
177
     3
291
     0
 70
    58
 90
        0
176
     1
 90
        2
176
     1
 90
        0
176
     1
 90
        0
176
     1
 40
0.6
176
     1
 40
30.0
176
     1
 62
     7
420
 16777215
176
     1
 90
        1
176
     1
 90
        4
176
     1
 62
     7
176
     1
 62
   257
176
     1
 90
        1
176
     1
 90
        1
176
     1
 40
1.0
176
     1
 90
        0
176
     1
 62
   257
176
     1
 40
1.0
176
     1
 90
        1
176
     1
 90
        6
176
     1
 90
        2
176
     1
 62
     7
176
     1
 90
        3
176
     1
 90
        0
176
     1
 90
        0
176
     1
290
     0
176
     1
 90
        1
176
     1
 40
0.0
176
     1
 90
        0
176
     1
290
     0
176
     1
290
     1
176
     1
290
     1
176
     1
290
     0
176
     1
290
     0
176
     1
290
     0
176
     1
290
     0
176
     1
290
     0
176
     1
290
     0
176
     1
 90
       50
176
     1
 40
0.0
176
     1
 40
1.0
176
     1
 90
        0
176
     1
 62
    18
420
        0
176
     1
 90
       50
176
     1
 90
        3
176
     1
 62
     5
420
      255
176
     1
290
     0
176
     1
 90
       50
176
     1
 90
       50
176
     1
 90
       50
176
     1
290
     0
176
     1
 90
       50
176
     1
 62
   256
176
     0
 40
1.0
176
     0
 90
        2
176
     1
  1
strokes_ogs.tif
176
     1
290
     0
176
     1
 40
1.0
176
     1
 40
1.0
176
     1
  0
VISUALSTYLE
  5
40
102
{ACAD_REACTORS
330
2A
102
}
330
2A
100
AcDbVisualStyle
  2
X-Ray
 70
    25
177
     3
291
     0
 70
    58
 90
        2
176
     1
 90
        2
176
     1
 90
        1
176
     1
 90
        1
176
     1
 40
0.5
176
     1
 40
30.0
176
     1
 62
     7
420
 16777215
176
     1
 90
        1
176
     1
 90
        0
176
     1
 62
     7
176
     1
 62
   257
176
     1
 90
        1
176
     1
 90
        1
176
     1
 40
1.0
176
     1
 90
        8
176
     1
 62
     7
176
     1
 40
1.0
176
     1
 90
        1
176
     1
 90
        6
176
     1
 90
        2
176
     1
 62
     7
176
     1
 90
        3
176
     1
 90
        0
176
     1
 90
        0
176
     1
290
     0
176
     1
 90
       13
176
     1
 40
0.0
176
     1
 90
        0
176
     1
290
     0
176
     1
290
     1
176
     1
290
     1
176
     1
290
     0
176
     1
290
     0
176
     1
290
     0
176
     1
290
     0
176
     1
290
     0
176
     1
290
     0
176
     1
 90
       50
176
     1
 40
0.0
176
     1
 40
1.0
176
     1
 90
        0
176
     1
 62
    18
420
        0
176
     1
 90
       50
176
     1
 90
        3
176
     1
 62
     5
420
      255
176
     1
290
     0
176
     1
 90
       50
176
     1
 90
       50
176
     1
 90
       50
176
     1
290
     0
176
     1
 90
       50
176
     1
 62
   256
176
     0
 40
1.0
176
     0
 90
        2
176
     1
  1
strokes_ogs.tif
176
     1
290
     0
176
     1
 40
1.0
176
     1
 40
1.0
176
     1
  0
DICTIONARYVAR
  5
1C2
102
{ACAD_REACTORS
330
1C1
102
}
330
1C1
100
DictionaryVariables
280
     0
  1
1:1
  0
DICTIONARYVAR
  5
1C7
102
{ACAD_REACTORS
330
1C1
102
}
330
1C1
100
DictionaryVariables
280
     0
  1
Standard
  0
DICTIONARYVAR
  5
1C6
102
{ACAD_REACTORS
330
1C1
102
}
330
1C1
100
DictionaryVariables
280
     0
  1
Standard
  0
DICTIONARY
  5
1C3
330
6A
100
AcDbDictionary
280
     1
281
     1
  3
ACAD_ROUNDTRIP_2008_TABLESTYLE_CELLSTYLEMAP
360
1C4
  0
CELLSTYLEMAP
  5
1C4
102
{ACAD_REACTORS
330
1C3
102
}
330
1C3
100
AcDbCellStyleMap
 90
        3
300
CELLSTYLE
  1
TABLEFORMAT_BEGIN
 90
        5
170
     1
 91
        0
 92
    32768
 62
   257
 93
        1
300
CONTENTFORMAT
  1
CONTENTFORMAT_BEGIN
 90
        0
 91
        0
 92
        4
 93
        0
300

 40
0.0
140
1.0
 94
        5
 62
     0
340
11
144
0.25
309
CONTENTFORMAT_END
171
     1
301
MARGIN
  1
CELLMARGIN_BEGIN
 40
0.06
 40
0.06
 40
0.06
 40
0.06
 40
0.06
 40
0.06
309
CELLMARGIN_END
 94
        6
 95
        1
302
GRIDFORMAT
  1
GRIDFORMAT_BEGIN
 90
        0
 91
        1
 62
     0
 92
       -2
340
14
 93
        0
 40
0.045
309
GRIDFORMAT_END
 95
        2
302
GRIDFORMAT
  1
GRIDFORMAT_BEGIN
 90
        0
 91
        1
 62
     0
 92
       -2
340
14
 93
        0
 40
0.045
309
GRIDFORMAT_END
 95
        4
302
GRIDFORMAT
  1
GRIDFORMAT_BEGIN
 90
        0
 91
        1
 62
     0
 92
       -2
340
14
 93
        0
 40
0.045
309
GRIDFORMAT_END
 95
        8
302
GRIDFORMAT
  1
GRIDFORMAT_BEGIN
 90
        0
 91
        1
 62
     0
 92
       -2
340
14
 93
        0
 40
0.045
309
GRIDFORMAT_END
 95
       16
302
GRIDFORMAT
  1
GRIDFORMAT_BEGIN
 90
        0
 91
        1
 62
     0
 92
       -2
340
14
 93
        0
 40
0.045
309
GRIDFORMAT_END
 95
       32
302
GRIDFORMAT
  1
GRIDFORMAT_BEGIN
 90
        0
 91
        1
 62
     0
 92
       -2
340
14
 93
        0
 40
0.045
309
GRIDFORMAT_END
309
TABLEFORMAT_END
  1
CELLSTYLE_BEGIN
 90
        1
 91
        1
300
_TITLE
309
CELLSTYLE_END
300
CELLSTYLE
  1
TABLEFORMAT_BEGIN
 90
        5
170
     1
 91
        0
 92
        0
 62
   257
 93
        1
300
CONTENTFORMAT
  1
CONTENTFORMAT_BEGIN
 90
        0
 91
        0
 92
        4
 93
        0
300

 40
0.0
140
1.0
 94
        5
 62
     0
340
11
144
0.18
309
CONTENTFORMAT_END
171
     1
301
MARGIN
  1
CELLMARGIN_BEGIN
 40
0.06
 40
0.06
 40
0.06
 40
0.06
 40
0.06
 40
0.06
309
CELLMARGIN_END
 94
        6
 95
        1
302
GRIDFORMAT
  1
GRIDFORMAT_BEGIN
 90
        0
 91
        1
 62
     0
 92
       -2
340
14
 93
        0
 40
0.045
309
GRIDFORMAT_END
 95
        2
302
GRIDFORMAT
  1
GRIDFORMAT_BEGIN
 90
        0
 91
        1
 62
     0
 92
       -2
340
14
 93
        0
 40
0.045
309
GRIDFORMAT_END
 95
        4
302
GRIDFORMAT
  1
GRIDFORMAT_BEGIN
 90
        0
 91
        1
 62
     0
 92
       -2
340
14
 93
        0
 40
0.045
309
GRIDFORMAT_END
 95
        8
302
GRIDFORMAT
  1
GRIDFORMAT_BEGIN
 90
        0
 91
        1
 62
     0
 92
       -2
340
14
 93
        0
 40
0.045
309
GRIDFORMAT_END
 95
       16
302
GRIDFORMAT
  1
GRIDFORMAT_BEGIN
 90
        0
 91
        1
 62
     0
 92
       -2
340
14
 93
        0
 40
0.045
309
GRIDFORMAT_END
 95
       32
302
GRIDFORMAT
  1
GRIDFORMAT_BEGIN
 90
        0
 91
        1
 62
     0
 92
       -2
340
14
 93
        0
 40
0.045
309
GRIDFORMAT_END
309
TABLEFORMAT_END
  1
CELLSTYLE_BEGIN
 90
        2
 91
        1
300
_HEADER
309
CELLSTYLE_END
300
CELLSTYLE
  1
TABLEFORMAT_BEGIN
 90
        5
170
     1
 91
        0
 92
        0
 62
   257
 93
        1
300
CONTENTFORMAT
  1
CONTENTFORMAT_BEGIN
 90
        0
 91
        0
 92
        4
 93
        0
300

 40
0.0
140
1.0
 94
        2
 62
     0
340
11
144
0.18
309
CONTENTFORMAT_END
171
     1
301
MARGIN
  1
CELLMARGIN_BEGIN
 40
0.06
 40
0.06
 40
0.06
 40
0.06
 40
0.06
 40
0.06
309
CELLMARGIN_END
 94
        6
 95
        1
302
GRIDFORMAT
  1
GRIDFORMAT_BEGIN
 90
        0
 91
        1
 62
     0
 92
       -2
340
14
 93
        0
 40
0.045
309
GRIDFORMAT_END
 95
        2
302
GRIDFORMAT
  1
GRIDFORMAT_BEGIN
 90
        0
 91
        1
 62
     0
 92
       -2
340
14
 93
        0
 40
0.045
309
GRIDFORMAT_END
 95
        4
302
GRIDFORMAT
  1
GRIDFORMAT_BEGIN
 90
        0
 91
        1
 62
     0
 92
       -2
340
14
 93
        0
 40
0.045
309
GRIDFORMAT_END
 95
        8
302
GRIDFORMAT
  1
GRIDFORMAT_BEGIN
 90
        0
 91
        1
 62
     0
 92
       -2
340
14
 93
        0
 40
0.045
309
GRIDFORMAT_END
 95
       16
302
GRIDFORMAT
  1
GRIDFORMAT_BEGIN
 90
        0
 91
        1
 62
     0
 92
       -2
340
14
 93
        0
 40
0.045
309
GRIDFORMAT_END
 95
       32
302
GRIDFORMAT
  1
GRIDFORMAT_BEGIN
 90
        0
 91
        1
 62
     0
 92
       -2
340
14
 93
        0
 40
0.045
309
GRIDFORMAT_END
309
TABLEFORMAT_END
  1
CELLSTYLE_BEGIN
 90
        3
 91
        2
300
_DATA
309
CELLSTYLE_END
  0
ENDSEC
  0
EOF