0
SECTION
  2
HEADER
  9
$ACADVER
  1
AC1027
  9
$ACADMAINTVER
 70
     8
  9
$DWGCODEPAGE
  3
ANSI_1252
  9
$REQUIREDVERSIONS
160
                 0
  9
$COMMENTS
  1
File was created by Cadenas
  9
$CUSTOMPROPERTYTAG
  1
NN
  9
$CUSTOMPROPERTY
  1
Grip Tight Medium Duty Four-Bolt Flange Inch Bore
  9
$CUSTOMPROPERTYTAG
  1
NT
  9
$CUSTOMPROPERTY
  1
GTM Medium Duty 4 Bolt Flange Bearings
  9
$CUSTOMPROPERTYTAG
  1
NB
  9
$CUSTOMPROPERTY
  1
129694
  9
$CUSTOMPROPERTYTAG
  1
NBSYN
  9
$CUSTOMPROPERTY
  1
$PN.$LUBE.
  9
$CUSTOMPROPERTYTAG
  1
LINA
  9
$CUSTOMPROPERTY
  1
129694
  9
$CUSTOMPROPERTYTAG
  1
SERIES
  9
$CUSTOMPROPERTY
  1
216
  9
$CUSTOMPROPERTYTAG
  1
SS
  9
$CUSTOMPROPERTY
  1
3
  9
$CUSTOMPROPERTYTAG
  1
PN
  9
$CUSTOMPROPERTY
  1
129694
  9
$CUSTOMPROPERTYTAG
  1
DESCRIPTION
  9
$CUSTOMPROPERTY
  1
F4B-GTM-300
  9
$CUSTOMPROPERTYTAG
  1
A
  9
$CUSTOMPROPERTY
  1
2-49/64
  9
$CUSTOMPROPERTYTAG
  1
B
  9
$CUSTOMPROPERTY
  1
7-3/4
  9
$CUSTOMPROPERTYTAG
  1
C
  9
$CUSTOMPROPERTY
  1
3-29/64
  9
$CUSTOMPROPERTYTAG
  1
D
  9
$CUSTOMPROPERTY
  1
6
  9
$CUSTOMPROPERTYTAG
  1
F
  9
$CUSTOMPROPERTY
  1
3/4
  9
$CUSTOMPROPERTYTAG
  1
H
  9
$CUSTOMPROPERTY
  1
7/8
  9
$CUSTOMPROPERTYTAG
  1
J
  9
$CUSTOMPROPERTY
  1
57/64
  9
$CUSTOMPROPERTYTAG
  1
L
  9
$CUSTOMPROPERTY
  1
4-1/2
  9
$CUSTOMPROPERTYTAG
  1
N
  9
$CUSTOMPROPERTY
  1
4-9/32
  9
$CUSTOMPROPERTYTAG
  1
Z
  9
$CUSTOMPROPERTY
  1
3-25/64
  9
$CUSTOMPROPERTYTAG
  1
COMPANY
  9
$CUSTOMPROPERTY
  1
baldor
  9
$INSBASE
 10
0.0
 20
0.0
 30
0.0
  9
$EXTMIN
 10
1.000000000000000E+20
 20
1.000000000000000E+20
 30
1.000000000000000E+20
  9
$EXTMAX
 10
-1.000000000000000E+20
 20
-1.000000000000000E+20
 30
-1.000000000000000E+20
  9
$LIMMIN
 10
0.0
 20
0.0
  9
$LIMMAX
 10
12.0
 20
9.0
  9
$ORTHOMODE
 70
     0
  9
$REGENMODE
 70
     1
  9
$FILLMODE
 70
     1
  9
$QTEXTMODE
 70
     0
  9
$MIRRTEXT
 70
     1
  9
$LTSCALE
 40
1.0
  9
$ATTMODE
 70
     1
  9
$TEXTSIZE
 40
0.2
  9
$TRACEWID
 40
0.05
  9
$TEXTSTYLE
  7
Standard
  9
$CLAYER
  8
0
  9
$CELTYPE
  6
ByLayer
  9
$CECOLOR
 62
   256
  9
$CELTSCALE
 40
1.0
  9
$DISPSILH
 70
     0
  9
$DIMSCALE
 40
1.0
  9
$DIMASZ
 40
0.18
  9
$DIMEXO
 40
0.0625
  9
$DIMDLI
 40
0.38
  9
$DIMRND
 40
0.0
  9
$DIMDLE
 40
0.0
  9
$DIMEXE
 40
0.18
  9
$DIMTP
 40
0.0
  9
$DIMTM
 40
0.0
  9
$DIMTXT
 40
0.18
  9
$DIMCEN
 40
0.09
  9
$DIMTSZ
 40
0.0
  9
$DIMTOL
 70
     0
  9
$DIMLIM
 70
     0
  9
$DIMTIH
 70
     1
  9
$DIMTOH
 70
     1
  9
$DIMSE1
 70
     0
  9
$DIMSE2
 70
     0
  9
$DIMTAD
 70
     0
  9
$DIMZIN
 70
     0
  9
$DIMBLK
  1

  9
$DIMASO
 70
     1
  9
$DIMSHO
 70
     1
  9
$DIMPOST
  1

  9
$DIMAPOST
  1

  9
$DIMALT
 70
     0
  9
$DIMALTD
 70
     2
  9
$DIMALTF
 40
25.4
  9
$DIMLFAC
 40
1.0
  9
$DIMTOFL
 70
     0
  9
$DIMTVP
 40
0.0
  9
$DIMTIX
 70
     0
  9
$DIMSOXD
 70
     0
  9
$DIMSAH
 70
     0
  9
$DIMBLK1
  1

  9
$DIMBLK2
  1

  9
$DIMSTYLE
  2
Standard
  9
$DIMCLRD
 70
     0
  9
$DIMCLRE
 70
     0
  9
$DIMCLRT
 70
     0
  9
$DIMTFAC
 40
1.0
  9
$DIMGAP
 40
0.09
  9
$DIMJUST
 70
     0
  9
$DIMSD1
 70
     0
  9
$DIMSD2
 70
     0
  9
$DIMTOLJ
 70
     1
  9
$DIMTZIN
 70
     0
  9
$DIMALTZ
 70
     0
  9
$DIMALTTZ
 70
     0
  9
$DIMUPT
 70
     0
  9
$DIMDEC
 70
     4
  9
$DIMTDEC
 70
     4
  9
$DIMALTU
 70
     2
  9
$DIMALTTD
 70
     2
  9
$DIMTXSTY
  7
Standard
  9
$DIMAUNIT
 70
     0
  9
$DIMADEC
 70
     0
  9
$DIMALTRND
 40
0.0
  9
$DIMAZIN
 70
     0
  9
$DIMDSEP
 70
    46
  9
$DIMATFIT
 70
     3
  9
$DIMFRAC
 70
     0
  9
$DIMLDRBLK
  1

  9
$DIMLUNIT
 70
     2
  9
$DIMLWD
 70
    -2
  9
$DIMLWE
 70
    -2
  9
$DIMTMOVE
 70
     0
  9
$DIMFXL
 40
1.0
  9
$DIMFXLON
 70
     0
  9
$DIMJOGANG
 40
0.7853981633974483
  9
$DIMTFILL
 70
     0
  9
$DIMTFILLCLR
 70
     0
  9
$DIMARCSYM
 70
     0
  9
$DIMLTYPE
  6

  9
$DIMLTEX1
  6

  9
$DIMLTEX2
  6

  9
$DIMTXTDIRECTION
 70
     0
  9
$LUNITS
 70
     2
  9
$LUPREC
 70
     4
  9
$SKETCHINC
 40
0.1
  9
$FILLETRAD
 40
0.5
  9
$AUNITS
 70
     0
  9
$AUPREC
 70
     0
  9
$MENU
  1
.
  9
$ELEVATION
 40
0.0
  9
$PELEVATION
 40
0.0
  9
$THICKNESS
 40
0.0
  9
$LIMCHECK
 70
     0
  9
$CHAMFERA
 40
0.0
  9
$CHAMFERB
 40
0.0
  9
$CHAMFERC
 40
0.0
  9
$CHAMFERD
 40
0.0
  9
$SKPOLY
 70
     0
  9
$TDCREATE
 40
2458168.993278518
  9
$TDUCREATE
 40
2458168.951611852
  9
$TDUPDATE
 40
2458168.993278704
  9
$TDUUPDATE
 40
2458168.951612037
  9
$TDINDWG
 40
0.0000000116
  9
$TDUSRTIMER
 40
0.0000000116
  9
$USRTIMER
 70
     1
  9
$ANGBASE
 50
0.0
  9
$ANGDIR
 70
     0
  9
$PDMODE
 70
     0
  9
$PDSIZE
 40
0.0
  9
$PLINEWID
 40
0.0
  9
$SPLFRAME
 70
     0
  9
$SPLINETYPE
 70
     6
  9
$SPLINESEGS
 70
     8
  9
$HANDSEED
  5
1F7
  9
$SURFTAB1
 70
     6
  9
$SURFTAB2
 70
     6
  9
$SURFTYPE
 70
     6
  9
$SURFU
 70
     6
  9
$SURFV
 70
     6
  9
$UCSBASE
  2

  9
$UCSNAME
  2

  9
$UCSORG
 10
0.0
 20
0.0
 30
0.0
  9
$UCSXDIR
 10
1.0
 20
0.0
 30
0.0
  9
$UCSYDIR
 10
0.0
 20
1.0
 30
0.0
  9
$UCSORTHOREF
  2

  9
$UCSORTHOVIEW
 70
     0
  9
$UCSORGTOP
 10
0.0
 20
0.0
 30
0.0
  9
$UCSORGBOTTOM
 10
0.0
 20
0.0
 30
0.0
  9
$UCSORGLEFT
 10
0.0
 20
0.0
 30
0.0
  9
$UCSORGRIGHT
 10
0.0
 20
0.0
 30
0.0
  9
$UCSORGFRONT
 10
0.0
 20
0.0
 30
0.0
  9
$UCSORGBACK
 10
0.0
 20
0.0
 30
0.0
  9
$PUCSBASE
  2

  9
$PUCSNAME
  2

  9
$PUCSORG
 10
0.0
 20
0.0
 30
0.0
  9
$PUCSXDIR
 10
1.0
 20
0.0
 30
0.0
  9
$PUCSYDIR
 10
0.0
 20
1.0
 30
0.0
  9
$PUCSORTHOREF
  2

  9
$PUCSORTHOVIEW
 70
     0
  9
$PUCSORGTOP
 10
0.0
 20
0.0
 30
0.0
  9
$PUCSORGBOTTOM
 10
0.0
 20
0.0
 30
0.0
  9
$PUCSORGLEFT
 10
0.0
 20
0.0
 30
0.0
  9
$PUCSORGRIGHT
 10
0.0
 20
0.0
 30
0.0
  9
$PUCSORGFRONT
 10
0.0
 20
0.0
 30
0.0
  9
$PUCSORGBACK
 10
0.0
 20
0.0
 30
0.0
  9
$USERI1
 70
     0
  9
$USERI2
 70
     0
  9
$USERI3
 70
     0
  9
$USERI4
 70
     0
  9
$USERI5
 70
     0
  9
$USERR1
 40
0.0
  9
$USERR2
 40
0.0
  9
$USERR3
 40
0.0
  9
$USERR4
 40
0.0
  9
$USERR5
 40
0.0
  9
$WORLDVIEW
 70
     1
  9
$SHADEDGE
 70
     3
  9
$SHADEDIF
 70
    70
  9
$TILEMODE
 70
     1
  9
$MAXACTVP
 70
    64
  9
$PINSBASE
 10
0.0
 20
0.0
 30
0.0
  9
$PLIMCHECK
 70
     0
  9
$PEXTMIN
 10
1.000000000000000E+20
 20
1.000000000000000E+20
 30
1.000000000000000E+20
  9
$PEXTMAX
 10
-1.000000000000000E+20
 20
-1.000000000000000E+20
 30
-1.000000000000000E+20
  9
$PLIMMIN
 10
0.0
 20
0.0
  9
$PLIMMAX
 10
12.0
 20
9.0
  9
$UNITMODE
 70
     0
  9
$VISRETAIN
 70
     1
  9
$PLINEGEN
 70
     0
  9
$PSLTSCALE
 70
     1
  9
$TREEDEPTH
 70
  3020
  9
$CMLSTYLE
  2
Standard
  9
$CMLJUST
 70
     0
  9
$CMLSCALE
 40
1.0
  9
$PROXYGRAPHICS
 70
     1
  9
$MEASUREMENT
 70
     0
  9
$CELWEIGHT
370
    -1
  9
$ENDCAPS
280
     0
  9
$JOINSTYLE
280
     0
  9
$LWDISPLAY
290
     0
  9
$INSUNITS
 70
     1
  9
$HYPERLINKBASE
  1

  9
$STYLESHEET
  1

  9
$XEDIT
290
     1
  9
$CEPSNTYPE
380
     0
  9
$PSTYLEMODE
290
     1
  9
$FINGERPRINTGUID
  2
{785B27AC-22E5-4303-B601-B75BE1E80986}
  9
$VERSIONGUID
  2
{FAEB1C32-E019-11D5-929B-00C0DF256EC4}
  9
$EXTNAMES
290
     1
  9
$PSVPSCALE
 40
0.0
  9
$OLESTARTUP
290
     0
  9
$SORTENTS
280
   127
  9
$INDEXCTL
280
     0
  9
$HIDETEXT
280
     1
  9
$XCLIPFRAME
280
     2
  9
$HALOGAP
280
     0
  9
$OBSCOLOR
 70
   257
  9
$OBSLTYPE
280
     0
  9
$INTERSECTIONDISPLAY
280
     0
  9
$INTERSECTIONCOLOR
 70
   257
  9
$DIMASSOC
280
     2
  9
$PROJECTNAME
  1

  9
$CAMERADISPLAY
290
     0
  9
$LENSLENGTH
 40
50.0
  9
$CAMERAHEIGHT
 40
0.0
  9
$STEPSPERSEC
 40
2.0
  9
$STEPSIZE
 40
6.0
  9
$3DDWFPREC
 40
2.0
  9
$PSOLWIDTH
 40
0.25
  9
$PSOLHEIGHT
 40
4.0
  9
$LOFTANG1
 40
1.570796326794897
  9
$LOFTANG2
 40
1.570796326794897
  9
$LOFTMAG1
 40
0.0
  9
$LOFTMAG2
 40
0.0
  9
$LOFTPARAM
 70
     7
  9
$LOFTNORMALS
280
     1
  9
$LATITUDE
 40
37.795
  9
$LONGITUDE
 40
-122.394
  9
$NORTHDIRECTION
 40
0.0
  9
$TIMEZONE
 70
 -8000
  9
$LIGHTGLYPHDISPLAY
280
     1
  9
$TILEMODELIGHTSYNCH
280
     1
  9
$CMATERIAL
347
44
  9
$SOLIDHIST
280
     0
  9
$SHOWHIST
280
     1
  9
$DWFFRAME
280
     2
  9
$DGNFRAME
280
     2
  9
$REALWORLDSCALE
290
     1
  9
$INTERFERECOLOR
 62
   256
  9
$CSHADOW
280
     0
  9
$SHADOWPLANELOCATION
 40
0.0
  0
ENDSEC
  0
SECTION
  2
CLASSES
  0
CLASS
  1
ACDBDICTIONARYWDFLT
  2
AcDbDictionaryWithDefault
  3
ObjectDBX Classes
 90
        0
 91
        4
280
     0
281
     0
  0
CLASS
  1
VISUALSTYLE
  2
AcDbVisualStyle
  3
ObjectDBX Classes
 90
     4095
 91
        4
280
     0
281
     0
  0
CLASS
  1
MATERIAL
  2
AcDbMaterial
  3
ObjectDBX Classes
 90
     1153
 91
        4
280
     0
281
     0
  0
CLASS
  1
SCALE
  2
AcDbScale
  3
ObjectDBX Classes
 90
     1153
 91
        4
280
     0
281
     0
  0
CLASS
  1
TABLESTYLE
  2
AcDbTableStyle
  3
ObjectDBX Classes
 90
     4095
 91
        4
280
     0
281
     0
  0
CLASS
  1
MLEADERSTYLE
  2
AcDbMLeaderStyle
  3
ACDB_MLEADERSTYLE_CLASS
 90
     4095
 91
        4
280
     0
281
     0
  0
CLASS
  1
SUN
  2
AcDbSun
  3
SCENEOE
 90
     1153
 91
        4
280
     0
281
     0
  0
CLASS
  1
DICTIONARYVAR
  2
AcDbDictionaryVar
  3
ObjectDBX Classes
 90
        0
 91
        4
280
     0
281
     0
  0
CLASS
  1
CELLSTYLEMAP
  2
AcDbCellStyleMap
  3
ObjectDBX Classes
 90
     1152
 91
        4
280
     0
281
     0
  0
ENDSEC
  0
SECTION
  2
TABLES
  0
TABLE
  2
VPORT
  5
8
330
0
100
AcDbSymbolTable
 70
     1
  0
VPORT
  5
29
330
8
100
AcDbSymbolTableRecord
100
AcDbViewportTableRecord
  2
*Active
 70
     0
 10
0.0
 20
0.0
 11
1.0
 21
1.0
 12
0.0
 22
0.7670468750000001
 13
0.0
 23
0.0
 14
0.5
 24
0.5
 15
0.5
 25
0.5
 16
0.0
 26
0.0
 36
1.0
 17
0.0
 27
0.0
 37
0.0
 40
3.790224375
 41
2.085628505832191
 42
50.0
 43
0.0
 44
0.0
 50
0.0
 51
0.0
 71
     0
 72
   100
 73
     1
 74
     3
 75
     0
 76
     0
 77
     0
 78
     0
281
     0
 65
     1
110
0.0
120
0.0
130
0.0
111
1.0
121
0.0
131
0.0
112
0.0
122
1.0
132
0.0
 79
     0
146
0.0
348
2F
 60
     3
 61
     5
292
     1
282
     1
141
0.0
142
0.0
 63
   250
361
6D
  0
ENDTAB
  0
TABLE
  2
LTYPE
  5
5
330
0
100
AcDbSymbolTable
 70
     3
  0
LTYPE
  5
14
330
5
100
AcDbSymbolTableRecord
100
AcDbLinetypeTableRecord
  2
ByBlock
 70
     0
  3

 72
    65
 73
     0
 40
0.0
  0
LTYPE
  5
15
330
5
100
AcDbSymbolTableRecord
100
AcDbLinetypeTableRecord
  2
ByLayer
 70
     0
  3

 72
    65
 73
     0
 40
0.0
  0
LTYPE
  5
16
330
5
100
AcDbSymbolTableRecord
100
AcDbLinetypeTableRecord
  2
Continuous
 70
     0
  3
Solid line
 72
    65
 73
     0
 40
0.0
  0
LTYPE
  5
9D
330
5
100
AcDbSymbolTableRecord
100
AcDbLinetypeTableRecord
  2
Dashed
 70
     0
  3

 72
    65
 73
     2
 40
2.0
 49
1.0
 74
     0
 49
-1.0
 74
     0
  0
LTYPE
  5
10E
330
5
100
AcDbSymbolTableRecord
100
AcDbLinetypeTableRecord
  2
Center
 70
     0
  3

 72
    65
 73
     4
 40
1.5
 49
0.45
 74
     0
 49
-0.5
 74
     0
 49
0.05
 74
     0
 49
-0.5
 74
     0
  0
ENDTAB
  0
TABLE
  2
LAYER
  5
2
330
0
100
AcDbSymbolTable
 70
     7
  0
LAYER
  5
10
330
2
100
AcDbSymbolTableRecord
100
AcDbLayerTableRecord
  2
0
 70
     0
 62
     7
  6
Continuous
370
    -3
390
F
347
46
348
0
  0
LAYER
  5
72
330
2
100
AcDbSymbolTableRecord
100
AcDbLayerTableRecord
  2
AM_6
 70
     0
 62
    -2
  6
Continuous
370
    35
390
F
347
46
348
0
  0
LAYER
  5
9E
330
2
100
AcDbSymbolTableRecord
100
AcDbLayerTableRecord
  2
AM_9
 70
     0
 62
     6
  6
Dashed
370
    25
390
F
347
46
348
0
  0
LAYER
  5
10B
330
2
100
AcDbSymbolTableRecord
100
AcDbLayerTableRecord
  2
AM_5
 70
     0
 62
     3
  6
Continuous
370
    25
390
F
347
46
348
0
  0
LAYER
  5
10F
330
2
100
AcDbSymbolTableRecord
100
AcDbLayerTableRecord
  2
AM_7
 70
     0
 62
     7
  6
Center
370
    25
390
F
347
46
348
0
  0
LAYER
  5
111
330
2
100
AcDbSymbolTableRecord
100
AcDbLayerTableRecord
  2
AM_4
 70
     0
 62
     7
  6
Continuous
370
    50
390
F
347
46
348
0
  0
LAYER
  5
1EA
330
2
100
AcDbSymbolTableRecord
100
AcDbLayerTableRecord
  2
ConnectionPoints
 70
     0
 62
     7
  6
Continuous
370
    50
390
F
347
46
348
0
  0
ENDTAB
  0
TABLE
  2
STYLE
  5
3
330
0
100
AcDbSymbolTable
 70
     1
  0
STYLE
  5
11
330
3
100
AcDbSymbolTableRecord
100
AcDbTextStyleTableRecord
  2
Standard
 70
     0
 40
0.0
 41
1.0
 50
0.0
 71
     0
 42
0.2
  3
txt
  4

  0
ENDTAB
  0
TABLE
  2
VIEW
  5
6
330
0
100
AcDbSymbolTable
 70
     0
  0
ENDTAB
  0
TABLE
  2
UCS
  5
7
330
0
100
AcDbSymbolTable
 70
     0
  0
ENDTAB
  0
TABLE
  2
APPID
  5
9
330
0
100
AcDbSymbolTable
 70
     1
  0
APPID
  5
12
330
9
100
AcDbSymbolTableRecord
100
AcDbRegAppTableRecord
  2
ACAD
 70
     0
  0
ENDTAB
  0
TABLE
  2
DIMSTYLE
  5
A
330
0
100
AcDbSymbolTable
 70
     1
100
AcDbDimStyleTable
  0
DIMSTYLE
105
27
330
A
100
AcDbSymbolTableRecord
100
AcDbDimStyleTableRecord
  2
Standard
 70
     0
178
     0
340
11
  0
ENDTAB
  0
TABLE
  2
BLOCK_RECORD
  5
1
330
0
100
AcDbSymbolTable
 70
     5
  0
BLOCK_RECORD
  5
1F
330
1
100
AcDbSymbolTableRecord
100
AcDbBlockTableRecord
  2
*Model_Space
340
22
 70
     0
280
     1
281
     0
  0
BLOCK_RECORD
  5
1B
330
1
100
AcDbSymbolTableRecord
100
AcDbBlockTableRecord
  2
*Paper_Space
340
1E
 70
     0
280
     1
281
     0
  0
BLOCK_RECORD
  5
23
330
1
100
AcDbSymbolTableRecord
100
AcDbBlockTableRecord
  2
*Paper_Space0
340
26
 70
     0
280
     1
281
     0
  0
BLOCK_RECORD
  5
6E
330
1
100
AcDbSymbolTableRecord
100
AcDbBlockTableRecord
  2
1_129694_4
340
0
102
{BLKREFS
331
6F
102
}
 70
     0
280
     1
281
     0
  0
BLOCK_RECORD
  5
87
330
1
100
AcDbSymbolTableRecord
100
AcDbBlockTableRecord
  2
2_129528I_0_in_129694_4
340
0
102
{BLKREFS
331
88
102
}
 70
     0
280
     1
281
     0
  0
BLOCK_RECORD
  5
D0
330
1
100
AcDbSymbolTableRecord
100
AcDbBlockTableRecord
  2
3_129939_0_in_129694_4
340
0
102
{BLKREFS
331
D1
102
}
 70
     0
280
     1
281
     0
  0
BLOCK_RECORD
  5
12C
330
1
100
AcDbSymbolTableRecord
100
AcDbBlockTableRecord
  2
4_129486I_0_in_129694_4
340
0
102
{BLKREFS
331
12D
102
}
 70
     0
280
     1
281
     0
  0
ENDTAB
  0
ENDSEC
  0
SECTION
  2
BLOCKS
  0
BLOCK
  5
20
330
1F
100
AcDbEntity
  8
0
100
AcDbBlockBegin
  2
*Model_Space
 70
     0
 10
0.0
 20
0.0
 30
0.0
  3
*Model_Space
  1

  0
ENDBLK
  5
21
330
1F
100
AcDbEntity
  8
0
100
AcDbBlockEnd
  0
BLOCK
  5
1C
330
1B
100
AcDbEntity
 67
     1
  8
0
100
AcDbBlockBegin
  2
*Paper_Space
 70
     0
 10
0.0
 20
0.0
 30
0.0
  3
*Paper_Space
  1

  0
ENDBLK
  5
1D
330
1B
100
AcDbEntity
 67
     1
  8
0
100
AcDbBlockEnd
  0
BLOCK
  5
24
330
23
100
AcDbEntity
  8
0
100
AcDbBlockBegin
  2
*Paper_Space0
 70
     0
 10
0.0
 20
0.0
 30
0.0
  3
*Paper_Space0
  1

  0
ENDBLK
  5
25
330
23
100
AcDbEntity
  8
0
100
AcDbBlockEnd
  0
BLOCK
  5
70
330
6E
100
AcDbEntity
  8
0
100
AcDbBlockBegin
  2
1_129694_4
 70
     2
 10
0.0
 20
0.0
 30
0.0
  3
1_129694_4
  1

  0
ATTDEF
  5
73
330
6E
100
AcDbEntity
  8
AM_6
100
AcDbText
 10
8.875
 20
2.625
 30
0.0
 40
0.5
  1
Grip Tight Medium Duty Four-Bolt Flange Inch Bore
100
AcDbAttributeDefinition
  3

  2
NN
 70
     8
280
     0
  0
ATTDEF
  5
74
330
6E
100
AcDbEntity
  8
AM_6
100
AcDbText
 10
8.875
 20
2.125
 30
0.0
 40
0.5
  1
GTM Medium Duty 4 Bolt Flange Bearings
100
AcDbAttributeDefinition
  3

  2
NT
 70
     8
280
     0
  0
ATTDEF
  5
75
330
6E
100
AcDbEntity
  8
AM_6
100
AcDbText
 10
8.875
 20
1.625
 30
0.0
 40
0.5
  1
129694
100
AcDbAttributeDefinition
  3

  2
NB
 70
     8
280
     0
  0
ATTDEF
  5
76
330
6E
100
AcDbEntity
  8
AM_6
100
AcDbText
 10
8.875
 20
1.125
 30
0.0
 40
0.5
  1
$PN.$LUBE.
100
AcDbAttributeDefinition
  3

  2
NBSYN
 70
     8
280
     0
  0
ATTDEF
  5
77
330
6E
100
AcDbEntity
  8
AM_6
100
AcDbText
 10
8.875
 20
0.625
 30
0.0
 40
0.5
  1
129694
100
AcDbAttributeDefinition
  3

  2
LINA
 70
     8
280
     0
  0
ATTDEF
  5
78
330
6E
100
AcDbEntity
  8
AM_6
100
AcDbText
 10
8.875
 20
0.125
 30
0.0
 40
0.5
  1
216
100
AcDbAttributeDefinition
  3

  2
SERIES
 70
     8
280
     0
  0
ATTDEF
  5
79
330
6E
100
AcDbEntity
  8
AM_6
100
AcDbText
 10
8.875
 20
-0.375
 30
0.0
 40
0.5
  1
3
100
AcDbAttributeDefinition
  3

  2
SS
 70
     8
280
     0
  0
ATTDEF
  5
7A
330
6E
100
AcDbEntity
  8
AM_6
100
AcDbText
 10
8.875
 20
-0.875
 30
0.0
 40
0.5
  1
129694
100
AcDbAttributeDefinition
  3

  2
PN
 70
     8
280
     0
  0
ATTDEF
  5
7B
330
6E
100
AcDbEntity
  8
AM_6
100
AcDbText
 10
8.875
 20
-1.375
 30
0.0
 40
0.5
  1
F4B-GTM-300
100
AcDbAttributeDefinition
  3

  2
DESCRIPTION
 70
     8
280
     0
  0
ATTDEF
  5
7C
330
6E
100
AcDbEntity
  8
AM_6
100
AcDbText
 10
8.875
 20
-1.875
 30
0.0
 40
0.5
  1
2-49/64
100
AcDbAttributeDefinition
  3

  2
A
 70
     8
280
     0
  0
ATTDEF
  5
7D
330
6E
100
AcDbEntity
  8
AM_6
100
AcDbText
 10
8.875
 20
-2.375
 30
0.0
 40
0.5
  1
7-3/4
100
AcDbAttributeDefinition
  3

  2
B
 70
     8
280
     0
  0
ATTDEF
  5
7E
330
6E
100
AcDbEntity
  8
AM_6
100
AcDbText
 10
8.875
 20
-2.875
 30
0.0
 40
0.5
  1
3-29/64
100
AcDbAttributeDefinition
  3

  2
C
 70
     8
280
     0
  0
ATTDEF
  5
7F
330
6E
100
AcDbEntity
  8
AM_6
100
AcDbText
 10
8.875
 20
-3.375
 30
0.0
 40
0.5
  1
6
100
AcDbAttributeDefinition
  3

  2
D
 70
     8
280
     0
  0
ATTDEF
  5
80
330
6E
100
AcDbEntity
  8
AM_6
100
AcDbText
 10
8.875
 20
-3.875
 30
0.0
 40
0.5
  1
3/4
100
AcDbAttributeDefinition
  3

  2
F
 70
     8
280
     0
  0
ATTDEF
  5
81
330
6E
100
AcDbEntity
  8
AM_6
100
AcDbText
 10
8.875
 20
-4.375
 30
0.0
 40
0.5
  1
7/8
100
AcDbAttributeDefinition
  3

  2
H
 70
     8
280
     0
  0
ATTDEF
  5
82
330
6E
100
AcDbEntity
  8
AM_6
100
AcDbText
 10
8.875
 20
-4.875
 30
0.0
 40
0.5
  1
57/64
100
AcDbAttributeDefinition
  3

  2
J
 70
     8
280
     0
  0
ATTDEF
  5
83
330
6E
100
AcDbEntity
  8
AM_6
100
AcDbText
 10
8.875
 20
-5.375
 30
0.0
 40
0.5
  1
4-1/2
100
AcDbAttributeDefinition
  3

  2
L
 70
     8
280
     0
  0
ATTDEF
  5
84
330
6E
100
AcDbEntity
  8
AM_6
100
AcDbText
 10
8.875
 20
-5.875
 30
0.0
 40
0.5
  1
4-9/32
100
AcDbAttributeDefinition
  3

  2
N
 70
     8
280
     0
  0
ATTDEF
  5
85
330
6E
100
AcDbEntity
  8
AM_6
100
AcDbText
 10
8.875
 20
-6.375
 30
0.0
 40
0.5
  1
3-25/64
100
AcDbAttributeDefinition
  3

  2
Z
 70
     8
280
     0
  0
ATTDEF
  5
86
330
6E
100
AcDbEntity
  8
AM_6
100
AcDbText
 10
8.875
 20
-6.875
 30
0.0
 40
0.5
  1
baldor
100
AcDbAttributeDefinition
  3

  2
COMPANY
 70
     8
280
     0
  0
INSERT
  5
88
330
6E
100
AcDbEntity
  8
0
100
AcDbBlockReference
  2
2_129528I_0_in_129694_4
 10
0.0
 20
0.0
 30
0.0
  0
INSERT
  5
D1
330
6E
100
AcDbEntity
  8
0
100
AcDbBlockReference
  2
3_129939_0_in_129694_4
 10
0.0
 20
0.0
 30
0.0
  0
INSERT
  5
12D
330
6E
100
AcDbEntity
  8
0
100
AcDbBlockReference
  2
4_129486I_0_in_129694_4
 10
0.0
 20
0.0
 30
0.0
  0
ENDBLK
  5
71
330
6E
100
AcDbEntity
  8
0
100
AcDbBlockEnd
  0
BLOCK
  5
89
330
87
100
AcDbEntity
  8
0
100
AcDbBlockBegin
  2
2_129528I_0_in_129694_4
 70
     2
 10
0.0
 20
0.0
 30
0.0
  3
2_129528I_0_in_129694_4
  1

  0
ATTDEF
  5
8B
330
87
100
AcDbEntity
  8
AM_6
100
AcDbText
 10
7.755307535997417
 20
1.707750000000001
 30
0.0
 40
0.5
  1
INS-GT B
100
AcDbAttributeDefinition
  3

  2
NN
 70
     8
280
     0
  0
ATTDEF
  5
8C
330
87
100
AcDbEntity
  8
AM_6
100
AcDbText
 10
7.755307535997417
 20
1.207750000000001
 30
0.0
 40
0.5
  1
GT Normal Duty Bearing Inserts
100
AcDbAttributeDefinition
  3

  2
NT
 70
     8
280
     0
  0
ATTDEF
  5
8D
330
87
100
AcDbEntity
  8
AM_6
100
AcDbText
 10
7.755307535997417
 20
0.707750000000001
 30
0.0
 40
0.5
  1
129528I
100
AcDbAttributeDefinition
  3

  2
NB
 70
     8
280
     0
  0
ATTDEF
  5
8E
330
87
100
AcDbEntity
  8
AM_6
100
AcDbText
 10
7.755307535997417
 20
0.207750000000001
 30
0.0
 40
0.5
  1
$PN.I
100
AcDbAttributeDefinition
  3

  2
NBSYN
 70
     8
280
     0
  0
ATTDEF
  5
8F
330
87
100
AcDbEntity
  8
AM_6
100
AcDbText
 10
7.755307535997417
 20
-0.292249999999999
 30
0.0
 40
0.5
  1
129528
100
AcDbAttributeDefinition
  3

  2
LINA
 70
     8
280
     0
  0
ATTDEF
  5
90
330
87
100
AcDbEntity
  8
AM_6
100
AcDbText
 10
7.755307535997417
 20
-0.792249999999999
 30
0.0
 40
0.5
  1
216
100
AcDbAttributeDefinition
  3

  2
SERIES
 70
     8
280
     0
  0
ATTDEF
  5
91
330
87
100
AcDbEntity
  8
AM_6
100
AcDbText
 10
7.755307535997417
 20
-1.292249999999999
 30
0.0
 40
0.5
  1
129528
100
AcDbAttributeDefinition
  3

  2
PN
 70
     8
280
     0
  0
ATTDEF
  5
92
330
87
100
AcDbEntity
  8
AM_6
100
AcDbText
 10
7.755307535997417
 20
-1.792249999999999
 30
0.0
 40
0.5
  1
INS-GT-16
100
AcDbAttributeDefinition
  3

  2
DESCRIPTION
 70
     8
280
     0
  0
ATTDEF
  5
93
330
87
100
AcDbEntity
  8
AM_6
100
AcDbText
 10
7.755307535997417
 20
-2.292249999999999
 30
0.0
 40
0.5
  1
2.70
100
AcDbAttributeDefinition
  3

  2
A
 70
     8
280
     0
  0
ATTDEF
  5
94
330
87
100
AcDbEntity
  8
AM_6
100
AcDbText
 10
7.755307535997417
 20
-2.792249999999999
 30
0.0
 40
0.5
  1
1.18
100
AcDbAttributeDefinition
  3

  2
C
 70
     8
280
     0
  0
ATTDEF
  5
95
330
87
100
AcDbEntity
  8
AM_6
100
AcDbText
 10
7.755307535997417
 20
-3.292249999999999
 30
0.0
 40
0.5
  1
5.5118
100
AcDbAttributeDefinition
  3

  2
D
 70
     8
280
     0
  0
ATTDEF
  5
96
330
87
100
AcDbEntity
  8
AM_6
100
AcDbText
 10
7.755307535997417
 20
-3.792249999999999
 30
0.0
 40
0.5
  1
0.29
100
AcDbAttributeDefinition
  3

  2
J
 70
     8
280
     0
  0
ATTDEF
  5
97
330
87
100
AcDbEntity
  8
AM_6
100
AcDbText
 10
7.755307535997417
 20
-4.292249999999999
 30
0.0
 40
0.5
  1
4.69
100
AcDbAttributeDefinition
  3

  2
L
 70
     8
280
     0
  0
ATTDEF
  5
98
330
87
100
AcDbEntity
  8
AM_6
100
AcDbText
 10
7.755307535997417
 20
-4.792249999999999
 30
0.0
 40
0.5
  1
#10 - 32 x 1/4
100
AcDbAttributeDefinition
  3

  2
N
 70
     8
280
     0
  0
ATTDEF
  5
99
330
87
100
AcDbEntity
  8
AM_6
100
AcDbText
 10
7.755307535997417
 20
-5.292249999999999
 30
0.0
 40
0.5
  1
0.89000
100
AcDbAttributeDefinition
  3

  2
W
 70
     8
280
     0
  0
ATTDEF
  5
9A
330
87
100
AcDbEntity
  8
AM_6
100
AcDbText
 10
7.755307535997417
 20
-5.792249999999999
 30
0.0
 40
0.5
  1
1.78
100
AcDbAttributeDefinition
  3

  2
X
 70
     8
280
     0
  0
ATTDEF
  5
9B
330
87
100
AcDbEntity
  8
AM_6
100
AcDbText
 10
7.755307535997417
 20
-6.292249999999999
 30
0.0
 40
0.5
  1
1.81
100
AcDbAttributeDefinition
  3

  2
Y
 70
     8
280
     0
  0
ATTDEF
  5
9C
330
87
100
AcDbEntity
  8
AM_6
100
AcDbText
 10
7.755307535997417
 20
-6.792249999999999
 30
0.0
 40
0.5
  1
baldor
100
AcDbAttributeDefinition
  3

  2
COMPANY
 70
     8
280
     0
  0
LINE
  5
9F
330
87
100
AcDbEntity
  8
AM_9
100
AcDbLine
 10
1.749444310444445
 20
-0.4282488696977386
 30
0.0
 11
1.749444310444445
 21
0.2392511303022567
 31
0.0
  0
LINE
  5
A0
330
87
100
AcDbEntity
  8
AM_9
100
AcDbLine
 10
-1.749444310444445
 20
0.2392511303022567
 30
0.0
 11
-1.749444310444445
 21
-0.4282488696977386
 31
0.0
  0
LINE
  5
A1
330
87
100
AcDbEntity
  8
AM_9
100
AcDbLine
 10
-1.749444310444445
 20
0.2392511303022567
 30
0.0
 11
1.749444310444445
 21
0.2392511303022567
 31
0.0
  0
LINE
  5
A2
330
87
100
AcDbEntity
  8
AM_9
100
AcDbLine
 10
1.749444310444445
 20
0.2392511303022567
 30
0.0
 11
1.800725420972052
 21
1.707750000000001
 31
0.0
  0
LINE
  5
A3
330
87
100
AcDbEntity
  8
AM_9
100
AcDbLine
 10
-1.800725420972052
 20
1.707750000000001
 30
0.0
 11
-1.749444310444445
 21
0.2392511303022567
 31
0.0
  0
LINE
  5
A4
330
87
100
AcDbEntity
  8
AM_9
100
AcDbLine
 10
1.916944377444444
 20
-0.2057488696977387
 30
0.0
 11
1.916944377444444
 21
0.0167511303022615
 31
0.0
  0
LINE
  5
A5
330
87
100
AcDbEntity
  8
AM_9
100
AcDbLine
 10
-1.916944377444444
 20
0.0167511303022615
 30
0.0
 11
-1.916944377444444
 21
-0.2057488696977387
 31
0.0
  0
LINE
  5
A6
330
87
100
AcDbEntity
  8
AM_9
100
AcDbLine
 10
2.084444444444444
 20
0.0167511303022612
 30
0.0
 11
2.084444444444444
 21
0.3167500000000006
 31
0.0
  0
LINE
  5
A7
330
87
100
AcDbEntity
  8
AM_9
100
AcDbLine
 10
-2.084444444444444
 20
0.3167500000000006
 30
0.0
 11
-2.084444444444444
 21
0.0167511303022612
 31
0.0
  0
LINE
  5
A8
330
87
100
AcDbEntity
  8
AM_9
100
AcDbLine
 10
-2.084444444444444
 20
0.0167511303022612
 30
0.0
 11
2.084444444444444
 21
0.0167511303022612
 31
0.0
  0
LINE
  5
A9
330
87
100
AcDbEntity
  8
AM_9
100
AcDbLine
 10
2.084444444444445
 20
-0.3810488696977388
 30
0.0
 11
2.084444444444445
 21
-0.2057488696977387
 31
0.0
  0
LINE
  5
AA
330
87
100
AcDbEntity
  8
AM_9
100
AcDbLine
 10
-2.084444444444445
 20
-0.2057488696977387
 30
0.0
 11
-2.084444444444445
 21
-0.3810488696977388
 31
0.0
  0
LINE
  5
AB
330
87
100
AcDbEntity
  8
AM_9
100
AcDbLine
 10
-2.084444444444445
 20
-0.2057488696977387
 30
0.0
 11
2.084444444444445
 21
-0.2057488696977387
 31
0.0
  0
LINE
  5
AC
330
87
100
AcDbEntity
  8
AM_9
100
AcDbLine
 10
-2.037244444444445
 20
1.707750000000001
 30
0.0
 11
-2.084444444444445
 21
1.660550000000001
 31
0.0
  0
LINE
  5
AD
330
87
100
AcDbEntity
  8
AM_9
100
AcDbLine
 10
2.084444444444445
 20
1.660550000000001
 30
0.0
 11
2.037244444444445
 21
1.707750000000001
 31
0.0
  0
LINE
  5
AE
330
87
100
AcDbEntity
  8
AM_9
100
AcDbLine
 10
-2.037244444444445
 20
1.707750000000001
 30
0.0
 11
2.037244444444445
 21
1.707750000000001
 31
0.0
  0
LINE
  5
AF
330
87
100
AcDbEntity
  8
AM_9
100
AcDbLine
 10
2.037244444444445
 20
-0.4282488696977386
 30
0.0
 11
2.084444444444445
 21
-0.3810488696977388
 31
0.0
  0
LINE
  5
B0
330
87
100
AcDbEntity
  8
AM_9
100
AcDbLine
 10
-2.084444444444445
 20
-0.3810488696977388
 30
0.0
 11
-2.037244444444445
 21
-0.4282488696977386
 31
0.0
  0
LINE
  5
B1
330
87
100
AcDbEntity
  8
AM_9
100
AcDbLine
 10
-2.037244444444445
 20
-0.4282488696977386
 30
0.0
 11
2.037244444444445
 21
-0.4282488696977386
 31
0.0
  0
LINE
  5
B2
330
87
100
AcDbEntity
  8
AM_9
100
AcDbLine
 10
-2.084444444444445
 20
-0.3810488696977388
 30
0.0
 11
2.084444444444445
 21
-0.3810488696977388
 31
0.0
  0
LINE
  5
B3
330
87
100
AcDbEntity
  8
AM_9
100
AcDbLine
 10
2.084444444444445
 20
1.496750000000001
 30
0.0
 11
2.084444444444445
 21
1.660550000000001
 31
0.0
  0
LINE
  5
B4
330
87
100
AcDbEntity
  8
AM_9
100
AcDbLine
 10
-2.084444444444445
 20
1.660550000000001
 30
0.0
 11
-2.084444444444445
 21
1.496750000000001
 31
0.0
  0
LINE
  5
B5
330
87
100
AcDbEntity
  8
AM_9
100
AcDbLine
 10
-2.084444444444445
 20
1.660550000000001
 30
0.0
 11
2.084444444444445
 21
1.660550000000001
 31
0.0
  0
LINE
  5
B6
330
87
100
AcDbEntity
  8
AM_9
100
AcDbLine
 10
2.6379
 20
0.5587500000000007
 30
0.0
 11
2.6379
 21
0.6747500000000006
 31
0.0
  0
LINE
  5
B7
330
87
100
AcDbEntity
  8
AM_9
100
AcDbLine
 10
-2.6379
 20
0.6747500000000006
 30
0.0
 11
-2.6379
 21
0.5587500000000007
 31
0.0
  0
LINE
  5
B8
330
87
100
AcDbEntity
  8
AM_9
100
AcDbLine
 10
0.102263991574811
 20
0.3167500000000005
 30
0.0
 11
2.606075711389274
 21
0.3167500000000004
 31
0.0
  0
LINE
  5
B9
330
87
100
AcDbEntity
  8
AM_9
100
AcDbLine
 10
-0.0979923935882523
 20
0.3167500000000005
 30
0.0
 11
0.0979923935882523
 21
0.3167500000000005
 31
0.0
  0
LINE
  5
BA
330
87
100
AcDbEntity
  8
AM_9
100
AcDbLine
 10
-2.606075711389274
 20
0.3167500000000004
 30
0.0
 11
-0.102263991574811
 21
0.3167500000000005
 31
0.0
  0
ARC
  5
BB
330
87
100
AcDbEntity
  8
AM_9
100
AcDbCircle
 10
2.606075711389273
 20
0.3639500000000034
 30
0.0
 40
0.0472000000000031
100
AcDbArc
 50
270.0
 51
338.5875329531142
  0
ARC
  5
BC
330
87
100
AcDbEntity
  8
AM_9
100
AcDbCircle
 10
-2.606075711389273
 20
0.3639500000000034
 30
0.0
 40
0.0472000000000029
100
AcDbArc
 50
201.4124670468857
 51
270.0
  0
LINE
  5
BD
330
87
100
AcDbEntity
  8
AM_9
100
AcDbLine
 10
-2.606075711389274
 20
1.496750000000001
 30
0.0
 11
2.606075711389274
 21
1.496750000000001
 31
0.0
  0
ARC
  5
BE
330
87
100
AcDbEntity
  8
AM_9
100
AcDbCircle
 10
2.606075711389276
 20
1.449550000000001
 30
0.0
 40
0.047199999999999
100
AcDbArc
 50
21.41245929638414
 51
90.0
  0
ARC
  5
BF
330
87
100
AcDbEntity
  8
AM_9
100
AcDbCircle
 10
-2.606075711389276
 20
1.449550000000001
 30
0.0
 40
0.0471999999999995
100
AcDbArc
 50
90.0
 51
158.5875407036159
  0
LINE
  5
C0
330
87
100
AcDbEntity
  8
AM_9
100
AcDbLine
 10
0.0842192026565852
 20
0.3467182539682552
 30
0.0
 11
2.650017797465125
 21
0.3467182539682551
 31
0.0
  0
LINE
  5
C1
330
87
100
AcDbEntity
  8
AM_9
100
AcDbLine
 10
-0.0789775874818477
 20
0.3467182539682552
 30
0.0
 11
0.0789775874818477
 21
0.3467182539682552
 31
0.0
  0
ARC
  5
C2
330
87
100
AcDbEntity
  8
AM_9
100
AcDbCircle
 10
1.221899999999683
 20
0.9067500000000966
 30
0.0
 40
1.534000000000332
100
AcDbArc
 50
338.5875329531169
 51
346.3277000380335
  0
ARC
  5
C3
330
87
100
AcDbEntity
  8
AM_9
100
AcDbCircle
 10
-1.221899999999571
 20
0.9067500000001321
 30
0.0
 40
1.534000000000449
100
AcDbArc
 50
193.6722999619668
 51
201.4124670468827
  0
LINE
  5
C4
330
87
100
AcDbEntity
  8
AM_9
100
AcDbLine
 10
-2.650017797465125
 20
0.3467182539682551
 30
0.0
 11
-0.0842192026565852
 21
0.3467182539682552
 31
0.0
  0
LINE
  5
C5
330
87
100
AcDbEntity
  8
AM_9
100
AcDbLine
 10
-2.700966191892709
 20
0.5587500000000007
 30
0.0
 11
2.700966191892709
 21
0.5587500000000007
 31
0.0
  0
ARC
  5
C6
330
87
100
AcDbEntity
  8
AM_9
100
AcDbCircle
 10
2.70096619189271
 20
0.5469500000000003
 30
0.0
 40
0.0118000000000004
100
AcDbArc
 50
346.3276834934193
 51
90.0
  0
ARC
  5
C7
330
87
100
AcDbEntity
  8
AM_9
100
AcDbCircle
 10
-2.70096619189271
 20
0.5469500000000003
 30
0.0
 40
0.0118000000000005
100
AcDbArc
 50
90.0
 51
193.6723165065808
  0
LINE
  5
C8
330
87
100
AcDbEntity
  8
AM_9
100
AcDbLine
 10
-2.712431820475596
 20
0.5441608493767213
 30
0.0
 11
2.712431820475596
 21
0.5441608493767213
 31
0.0
  0
LINE
  5
C9
330
87
100
AcDbEntity
  8
AM_9
100
AcDbLine
 10
-2.728088832782929
 20
0.674750000000001
 30
0.0
 11
2.728088832782929
 21
0.674750000000001
 31
0.0
  0
ARC
  5
CA
330
87
100
AcDbEntity
  8
AM_9
100
AcDbCircle
 10
2.728088832782929
 20
0.6865500000000003
 30
0.0
 40
0.0117999999999994
100
AcDbArc
 50
270.0
 51
351.6824641915759
  0
ARC
  5
CB
330
87
100
AcDbEntity
  8
AM_9
100
AcDbCircle
 10
-2.728088832782929
 20
0.6865500000000003
 30
0.0
 40
0.0117999999999993
100
AcDbArc
 50
188.3175358084241
 51
270.0
  0
ARC
  5
CC
330
87
100
AcDbEntity
  8
AM_9
100
AcDbCircle
 10
1.221899999999988
 20
0.9067500000000009
 30
0.0
 40
1.534000000000013
100
AcDbArc
 50
351.6824641915744
 51
21.41246680840695
  0
ARC
  5
CD
330
87
100
AcDbEntity
  8
AM_9
100
AcDbCircle
 10
-1.221900000000023
 20
0.9067500000000049
 30
0.0
 40
1.533999999999978
100
AcDbArc
 50
158.5875331915927
 51
188.3175358084259
  0
LINE
  5
CE
330
87
100
AcDbEntity
  8
AM_9
100
AcDbLine
 10
-2.739764715207603
 20
0.6848430232558147
 30
0.0
 11
2.739764715207603
 21
0.6848430232558147
 31
0.0
  0
LINE
  5
CF
330
87
100
AcDbEntity
  8
AM_9
100
AcDbLine
 10
-2.650017799796093
 20
1.466781740087624
 30
0.0
 11
2.650017799796093
 21
1.466781740087624
 31
0.0
  0
ENDBLK
  5
8A
330
87
100
AcDbEntity
  8
0
100
AcDbBlockEnd
  0
BLOCK
  5
D2
330
D0
100
AcDbEntity
  8
0
100
AcDbBlockBegin
  2
3_129939_0_in_129694_4
 70
     2
 10
0.0
 20
0.0
 30
0.0
  3
3_129939_0_in_129694_4
  1

  0
ATTDEF
  5
D4
330
D0
100
AcDbEntity
  8
AM_6
100
AcDbText
 10
7.245482965867254
 20
1.813000000000001
 30
0.0
 40
0.5
  1
Grip Tight Normal Duty Adapter and Nut Inch Bore
100
AcDbAttributeDefinition
  3

  2
NN
 70
     8
280
     0
  0
ATTDEF
  5
D5
330
D0
100
AcDbEntity
  8
AM_6
100
AcDbText
 10
7.245482965867254
 20
1.313000000000001
 30
0.0
 40
0.5
  1
GT and GTM Adapter & Lock Nut Assemblies
100
AcDbAttributeDefinition
  3

  2
NT
 70
     8
280
     0
  0
ATTDEF
  5
D6
330
D0
100
AcDbEntity
  8
AM_6
100
AcDbText
 10
7.245482965867254
 20
0.8130000000000006
 30
0.0
 40
0.5
  1
129939
100
AcDbAttributeDefinition
  3

  2
NB
 70
     8
280
     0
  0
ATTDEF
  5
D7
330
D0
100
AcDbEntity
  8
AM_6
100
AcDbText
 10
7.245482965867254
 20
0.3130000000000006
 30
0.0
 40
0.5
  1
$PN.
100
AcDbAttributeDefinition
  3

  2
NBSYN
 70
     8
280
     0
  0
ATTDEF
  5
D8
330
D0
100
AcDbEntity
  8
AM_6
100
AcDbText
 10
7.245482965867254
 20
-0.1869999999999994
 30
0.0
 40
0.5
  1
129939
100
AcDbAttributeDefinition
  3

  2
LINA
 70
     8
280
     0
  0
ATTDEF
  5
D9
330
D0
100
AcDbEntity
  8
AM_6
100
AcDbText
 10
7.245482965867254
 20
-0.6869999999999994
 30
0.0
 40
0.5
  1
216
100
AcDbAttributeDefinition
  3

  2
SERIES
 70
     8
280
     0
  0
ATTDEF
  5
DA
330
D0
100
AcDbEntity
  8
AM_6
100
AcDbText
 10
7.245482965867254
 20
-1.186999999999999
 30
0.0
 40
0.5
  1
3
100
AcDbAttributeDefinition
  3

  2
SS
 70
     8
280
     0
  0
ATTDEF
  5
DB
330
D0
100
AcDbEntity
  8
AM_6
100
AcDbText
 10
7.245482965867254
 20
-1.686999999999999
 30
0.0
 40
0.5
  1
129939
100
AcDbAttributeDefinition
  3

  2
PN
 70
     8
280
     0
  0
ATTDEF
  5
DC
330
D0
100
AcDbEntity
  8
AM_6
100
AcDbText
 10
7.245482965867254
 20
-2.186999999999999
 30
0.0
 40
0.5
  1
AN-GTM-16-300
100
AcDbAttributeDefinition
  3

  2
DESCRIPTION
 70
     8
280
     0
  0
ATTDEF
  5
DD
330
D0
100
AcDbEntity
  8
AM_6
100
AcDbText
 10
7.245482965867254
 20
-2.686999999999999
 30
0.0
 40
0.5
  1
2-49/64
100
AcDbAttributeDefinition
  3

  2
A
 70
     8
280
     0
  0
ATTDEF
  5
DE
330
D0
100
AcDbEntity
  8
AM_6
100
AcDbText
 10
7.245482965867254
 20
-3.186999999999999
 30
0.0
 40
0.5
  1
1.1810
100
AcDbAttributeDefinition
  3

  2
C
 70
     8
280
     0
  0
ATTDEF
  5
DF
330
D0
100
AcDbEntity
  8
AM_6
100
AcDbText
 10
7.245482965867254
 20
-3.686999999999999
 30
0.0
 40
0.5
  1
5.5118
100
AcDbAttributeDefinition
  3

  2
D
 70
     8
280
     0
  0
ATTDEF
  5
E0
330
D0
100
AcDbEntity
  8
AM_6
100
AcDbText
 10
7.245482965867254
 20
-4.186999999999999
 30
0.0
 40
0.5
  1
0.285
100
AcDbAttributeDefinition
  3

  2
J
 70
     8
280
     0
  0
ATTDEF
  5
E1
330
D0
100
AcDbEntity
  8
AM_6
100
AcDbText
 10
7.245482965867254
 20
-4.686999999999999
 30
0.0
 40
0.5
  1
4-1/2
100
AcDbAttributeDefinition
  3

  2
L
 70
     8
280
     0
  0
ATTDEF
  5
E2
330
D0
100
AcDbEntity
  8
AM_6
100
AcDbText
 10
7.245482965867254
 20
-5.186999999999999
 30
0.0
 40
0.5
  1
10 - 32 x 1/4
100
AcDbAttributeDefinition
  3

  2
N
 70
     8
280
     0
  0
ATTDEF
  5
E3
330
D0
100
AcDbEntity
  8
AM_6
100
AcDbText
 10
7.245482965867254
 20
-5.686999999999999
 30
0.0
 40
0.5
  1
29/32
100
AcDbAttributeDefinition
  3

  2
W
 70
     8
280
     0
  0
ATTDEF
  5
E4
330
D0
100
AcDbEntity
  8
AM_6
100
AcDbText
 10
7.245482965867254
 20
-6.186999999999999
 30
0.0
 40
0.5
  1
1-51/64
100
AcDbAttributeDefinition
  3

  2
X
 70
     8
280
     0
  0
ATTDEF
  5
E5
330
D0
100
AcDbEntity
  8
AM_6
100
AcDbText
 10
7.245482965867254
 20
-6.686999999999999
 30
0.0
 40
0.5
  1
1-55/64
100
AcDbAttributeDefinition
  3

  2
Y
 70
     8
280
     0
  0
ATTDEF
  5
E6
330
D0
100
AcDbEntity
  8
AM_6
100
AcDbText
 10
7.245482965867254
 20
-7.186999999999999
 30
0.0
 40
0.5
  1
baldor
100
AcDbAttributeDefinition
  3

  2
COMPANY
 70
     8
280
     0
  0
LINE
  5
E7
330
D0
100
AcDbEntity
  8
AM_9
100
AcDbLine
 10
-2.22745
 20
-0.7437731666454991
 30
0.0
 11
-1.71005
 21
-0.7437731666454991
 31
0.0
  0
LINE
  5
E8
330
D0
100
AcDbEntity
  8
AM_9
100
AcDbLine
 10
-1.71005
 20
-0.5988731666454992
 30
0.0
 11
-2.22745
 21
-0.5988731666454992
 31
0.0
  0
LINE
  5
E9
330
D0
100
AcDbEntity
  8
AM_9
100
AcDbLine
 10
-1.71005
 20
-0.7437731666454991
 30
0.0
 11
-1.6875
 21
-0.7663231666454994
 31
0.0
  0
LINE
  5
EA
330
D0
100
AcDbEntity
  8
AM_9
100
AcDbLine
 10
-1.6875
 20
-0.5763231666454989
 30
0.0
 11
-1.71005
 21
-0.5988731666454992
 31
0.0
  0
LINE
  5
EB
330
D0
100
AcDbEntity
  8
AM_9
100
AcDbLine
 10
-1.6875
 20
-0.5763231666454989
 30
0.0
 11
-1.6875
 21
-0.7663231666454994
 31
0.0
  0
LINE
  5
EC
330
D0
100
AcDbEntity
  8
AM_9
100
AcDbLine
 10
-1.71005
 20
-0.5988731666454992
 30
0.0
 11
-1.71005
 21
-0.7437731666454991
 31
0.0
  0
LINE
  5
ED
330
D0
100
AcDbEntity
  8
AM_9
100
AcDbLine
 10
-2.22745
 20
-0.5988731666454992
 30
0.0
 11
-2.25
 21
-0.5763231666454989
 31
0.0
  0
LINE
  5
EE
330
D0
100
AcDbEntity
  8
AM_9
100
AcDbLine
 10
-2.25
 20
-0.7663231666454994
 30
0.0
 11
-2.22745
 21
-0.7437731666454991
 31
0.0
  0
LINE
  5
EF
330
D0
100
AcDbEntity
  8
AM_9
100
AcDbLine
 10
-2.22745
 20
-0.5988731666454992
 30
0.0
 11
-2.22745
 21
-0.7437731666454991
 31
0.0
  0
LINE
  5
F0
330
D0
100
AcDbEntity
  8
AM_9
100
AcDbLine
 10
2.099999618999238
 20
0.0083125000000007
 30
0.0
 11
2.099999618999238
 21
-0.8901249999999993
 31
0.0
  0
LINE
  5
F1
330
D0
100
AcDbEntity
  8
AM_9
100
AcDbLine
 10
1.5
 20
-0.952624999999999
 30
0.0
 11
1.5
 21
1.813
 31
0.0
  0
LINE
  5
F2
330
D0
100
AcDbEntity
  8
AM_9
100
AcDbLine
 10
-1.5
 20
1.813
 30
0.0
 11
-1.5
 21
-0.952624999999999
 31
0.0
  0
LINE
  5
F3
330
D0
100
AcDbEntity
  8
AM_9
100
AcDbLine
 10
1.678571428571429
 20
-0.4409062499999994
 30
0.0
 11
1.678571428571429
 21
0.2329218750000024
 31
0.0
  0
LINE
  5
F4
330
D0
100
AcDbEntity
  8
AM_9
100
AcDbLine
 10
-1.678571428571429
 20
0.2329218750000024
 30
0.0
 11
-1.678571428571429
 21
-0.4409062499999994
 31
0.0
  0
LINE
  5
F5
330
D0
100
AcDbEntity
  8
AM_9
100
AcDbLine
 10
0.0500000000000001
 20
1.813000000000001
 30
0.0
 11
0.0500000000000001
 21
-0.8901249999999993
 31
0.0
  0
LINE
  5
F6
330
D0
100
AcDbEntity
  8
AM_9
100
AcDbLine
 10
-0.0499999999999999
 20
1.813000000000001
 30
0.0
 11
-0.0499999999999999
 21
-0.8901249999999993
 31
0.0
  0
LINE
  5
F7
330
D0
100
AcDbEntity
  8
AM_9
100
AcDbLine
 10
0.1016435353224242
 20
0.2329218750000025
 30
0.0
 11
1.678571428571429
 21
0.2329218750000024
 31
0.0
  0
LINE
  5
F8
330
D0
100
AcDbEntity
  8
AM_9
100
AcDbLine
 10
1.678571428571429
 20
0.2329218750000024
 30
0.0
 11
1.733748972553506
 21
1.813000000000001
 31
0.0
  0
LINE
  5
F9
330
D0
100
AcDbEntity
  8
AM_9
100
AcDbLine
 10
-1.733748972553506
 20
1.813000000000001
 30
0.0
 11
-1.678571428571429
 21
0.2329218750000024
 31
0.0
  0
LINE
  5
FA
330
D0
100
AcDbEntity
  8
AM_9
100
AcDbLine
 10
-0.0973447148086779
 20
0.2329218750000025
 30
0.0
 11
0.0973447148086779
 21
0.2329218750000025
 31
0.0
  0
LINE
  5
FB
330
D0
100
AcDbEntity
  8
AM_9
100
AcDbLine
 10
-1.678571428571429
 20
0.2329218750000024
 30
0.0
 11
-0.1016435353224243
 21
0.2329218750000025
 31
0.0
  0
LINE
  5
FC
330
D0
100
AcDbEntity
  8
AM_9
100
AcDbLine
 10
-1.733748972553506
 20
1.813000000000001
 30
0.0
 11
1.733748972553506
 21
1.813000000000001
 31
0.0
  0
LINE
  5
FD
330
D0
100
AcDbEntity
  8
AM_9
100
AcDbLine
 10
1.839285714285715
 20
-0.2162968749999994
 30
0.0
 11
1.839285714285715
 21
0.0083125000000005
 31
0.0
  0
LINE
  5
FE
330
D0
100
AcDbEntity
  8
AM_9
100
AcDbLine
 10
-1.839285714285715
 20
0.0083125000000005
 30
0.0
 11
-1.839285714285715
 21
-0.2162968749999994
 31
0.0
  0
LINE
  5
FF
330
D0
100
AcDbEntity
  8
AM_9
100
AcDbLine
 10
-2.249529989655263
 20
-0.7539130770621689
 30
0.0
 11
-2.248988500023263
 21
-0.7367686506265315
 31
0.0
  0
LINE
  5
100
330
D0
100
AcDbEntity
  8
AM_9
100
AcDbLine
 10
-2.20276
 20
0.0083125000000005
 30
0.0
 11
-2.211072500000001
 21
0.0000000000000001
 31
0.0
  0
LINE
  5
101
330
D0
100
AcDbEntity
  8
AM_9
100
AcDbLine
 10
-1.222481566617444
 20
0.0083125000000005
 30
0.0
 11
-1.2266464324871
 21
0.0000001508312583
 31
0.0
  0
LINE
  5
102
330
D0
100
AcDbEntity
  8
AM_9
100
AcDbLine
 10
-0.926591189460337
 20
0.0083125000000008
 30
0.0
 11
-0.926591189460337
 21
-0.8901249999999993
 31
0.0
  0
LINE
  5
103
330
D0
100
AcDbEntity
  8
AM_9
100
AcDbLine
 10
-1.173408429538902
 20
0.0083125000000008
 30
0.0
 11
-1.173408429538902
 21
0.0000000000000002
 31
0.0
  0
LINE
  5
104
330
D0
100
AcDbEntity
  8
AM_9
100
AcDbLine
 10
-2.0
 20
-0.2162968749999994
 30
0.0
 11
2.0
 21
-0.2162968749999994
 31
0.0
  0
LINE
  5
105
330
D0
100
AcDbEntity
  8
AM_9
100
AcDbLine
 10
-2.0
 20
-0.4409062499999994
 30
0.0
 11
2.0
 21
-0.4409062499999994
 31
0.0
  0
LINE
  5
106
330
D0
100
AcDbEntity
  8
AM_9
100
AcDbLine
 10
2.0
 20
-0.4409062499999994
 30
0.0
 11
2.0
 21
-0.2162968749999994
 31
0.0
  0
LINE
  5
107
330
D0
100
AcDbEntity
  8
AM_9
100
AcDbLine
 10
-2.0
 20
-0.2162968749999994
 30
0.0
 11
-2.0
 21
-0.4409062499999994
 31
0.0
  0
LINE
  5
108
330
D0
100
AcDbEntity
  8
AM_9
100
AcDbLine
 10
2.198145893156321
 20
0.0083125000000005
 30
0.0
 11
2.20647577100717
 21
0.0000000050234825
 31
0.0
  0
LINE
  5
109
330
D0
100
AcDbEntity
  8
AM_9
100
AcDbLine
 10
-2.20276
 20
0.0083125000000005
 30
0.0
 11
2.198145893156321
 21
0.0083125000000005
 31
0.0
  0
LINE
  5
10A
330
D0
100
AcDbEntity
  8
AM_9
100
AcDbLine
 10
-0.9798291924085354
 20
0.0000001508312584
 30
0.0
 11
-0.9756643265388787
 21
0.0083125000000005
 31
0.0
  0
LINE
  5
10C
330
D0
100
AcDbEntity
  8
AM_5
100
AcDbLine
 10
-2.25
 20
-0.7663231666454994
 30
0.0
 11
-1.6875
 21
-0.7663231666454994
 31
0.0
  0
LINE
  5
10D
330
D0
100
AcDbEntity
  8
AM_5
100
AcDbLine
 10
-2.25
 20
-0.5763231666454992
 30
0.0
 11
-1.6875
 21
-0.5763231666454992
 31
0.0
  0
LINE
  5
110
330
D0
100
AcDbEntity
  8
AM_7
100
AcDbLine
 10
-1.659375
 20
-0.6713231666454991
 30
0.0
 11
-2.278125
 21
-0.6713231666454991
 31
0.0
  0
LINE
  5
112
330
D0
100
AcDbEntity
  8
AM_4
100
AcDbLine
 10
0.0500000000000001
 20
-0.9526249999999993
 30
0.0
 11
0.0500000000000001
 21
-0.8901249999999993
 31
0.0
  0
LINE
  5
113
330
D0
100
AcDbEntity
  8
AM_4
100
AcDbLine
 10
-0.0499999999999999
 20
-0.9526249999999993
 30
0.0
 11
-0.0499999999999999
 21
-0.8901249999999993
 31
0.0
  0
LINE
  5
114
330
D0
100
AcDbEntity
  8
AM_4
100
AcDbLine
 10
1.678571428571429
 20
-0.952624999999999
 30
0.0
 11
1.678571428571429
 21
-0.8901249999999993
 31
0.0
  0
LINE
  5
115
330
D0
100
AcDbEntity
  8
AM_4
100
AcDbLine
 10
-1.678571428571429
 20
-0.8901249999999993
 30
0.0
 11
-1.678571428571429
 21
-0.952624999999999
 31
0.0
  0
LINE
  5
116
330
D0
100
AcDbEntity
  8
AM_4
100
AcDbLine
 10
-1.678571428571429
 20
-0.952624999999999
 30
0.0
 11
1.678571428571429
 21
-0.952624999999999
 31
0.0
  0
LINE
  5
117
330
D0
100
AcDbEntity
  8
AM_4
100
AcDbLine
 10
-2.25
 20
-0.8428849999999991
 30
0.0
 11
-2.20276
 21
-0.8901249999999993
 31
0.0
  0
LINE
  5
118
330
D0
100
AcDbEntity
  8
AM_4
100
AcDbLine
 10
-2.249016040929447
 20
-0.7377473212130164
 30
0.0
 11
-2.25
 21
-0.7663231666454985
 31
0.0
  0
LINE
  5
119
330
D0
100
AcDbEntity
  8
AM_4
100
AcDbLine
 10
-2.25
 20
-0.0389274999999991
 30
0.0
 11
-2.25
 21
-0.5763231666454989
 31
0.0
  0
LINE
  5
11A
330
D0
100
AcDbEntity
  8
AM_4
100
AcDbLine
 10
-2.25
 20
-0.7650122686000905
 30
0.0
 11
-2.25
 21
-0.8428849999999991
 31
0.0
  0
LINE
  5
11B
330
D0
100
AcDbEntity
  8
AM_4
100
AcDbLine
 10
-2.25
 20
-0.8428849999999991
 30
0.0
 11
-1.246150102972911
 21
-0.8428849999999988
 31
0.0
  0
LWPOLYLINE
  5
11C
330
D0
100
AcDbEntity
  8
AM_4
100
AcDbPolyline
 90
       11
 70
     0
 43
0.0
 10
-2.249999999999996
 20
-0.5763231666456073
 10
-2.249991081036293
 20
-0.5765435790788102
 10
-2.249710498142943
 20
-0.5837594531960716
 10
-2.249148450027942
 20
-0.6003817760067813
 10
-2.248535068433494
 20
-0.6248606763756527
 10
-2.248131928754579
 20
-0.6548694363896584
 10
-2.248074172830338
 20
-0.6707863288105577
 10
-2.248127748331529
 20
-0.6871708897467228
 10
-2.248285099937126
 20
-0.7027556414060647
 10
-2.248536969673621
 20
-0.7178813956147454
 10
-2.249016040929447
 20
-0.7377473212130164
  0
LINE
  5
11D
330
D0
100
AcDbEntity
  8
AM_4
100
AcDbLine
 10
-2.211072500000001
 20
0.0000000000000001
 30
0.0
 11
-2.25
 21
-0.0389274999999991
 31
0.0
  0
LINE
  5
11E
330
D0
100
AcDbEntity
  8
AM_4
100
AcDbLine
 10
-2.25
 20
-0.0389274999999991
 30
0.0
 11
-1.246150102972911
 21
-0.038927499999999
 31
0.0
  0
LINE
  5
11F
330
D0
100
AcDbEntity
  8
AM_4
100
AcDbLine
 10
-1.2266464324871
 20
0.0000001508312583
 30
0.0
 11
-1.246150102972911
 21
-0.038927499999999
 31
0.0
  0
LINE
  5
120
330
D0
100
AcDbEntity
  8
AM_4
100
AcDbLine
 10
-1.246150102972911
 20
-0.038927499999999
 30
0.0
 11
-1.246150102972911
 21
-0.8428849999999988
 31
0.0
  0
LINE
  5
121
330
D0
100
AcDbEntity
  8
AM_4
100
AcDbLine
 10
-1.246150102972911
 20
-0.8428849999999988
 30
0.0
 11
-1.222481566617443
 21
-0.8901249999999993
 31
0.0
  0
LINE
  5
122
330
D0
100
AcDbEntity
  8
AM_4
100
AcDbLine
 10
-1.173408429538902
 20
0.0000000000000002
 30
0.0
 11
-1.173408429538902
 21
-0.8901249999999993
 31
0.0
  0
LINE
  5
123
330
D0
100
AcDbEntity
  8
AM_4
100
AcDbLine
 10
2.20647577100717
 20
0.0000000050234825
 30
0.0
 11
2.245482965867254
 21
-0.0389274999999991
 31
0.0
  0
LINE
  5
124
330
D0
100
AcDbEntity
  8
AM_4
100
AcDbLine
 10
-0.9993328628943451
 20
-0.038927499999999
 30
0.0
 11
-0.9798291924085354
 21
0.0000001508312584
 31
0.0
  0
LINE
  5
125
330
D0
100
AcDbEntity
  8
AM_4
100
AcDbLine
 10
2.245482965867254
 20
-0.0389274999999991
 30
0.0
 11
2.245482965867254
 21
-0.8428849999999991
 31
0.0
  0
LINE
  5
126
330
D0
100
AcDbEntity
  8
AM_4
100
AcDbLine
 10
-0.9993328628943451
 20
-0.038927499999999
 30
0.0
 11
2.245482965867254
 21
-0.0389274999999991
 31
0.0
  0
LINE
  5
127
330
D0
100
AcDbEntity
  8
AM_4
100
AcDbLine
 10
-0.9993328628943452
 20
-0.8428849999999991
 30
0.0
 11
-0.9993328628943451
 21
-0.038927499999999
 31
0.0
  0
LINE
  5
128
330
D0
100
AcDbEntity
  8
AM_4
100
AcDbLine
 10
2.245482965867254
 20
-0.8428849999999991
 30
0.0
 11
2.198145893156321
 21
-0.8901249999999993
 31
0.0
  0
LINE
  5
129
330
D0
100
AcDbEntity
  8
AM_4
100
AcDbLine
 10
-0.9993328628943452
 20
-0.8428849999999991
 30
0.0
 11
2.245482965867254
 21
-0.8428849999999991
 31
0.0
  0
LINE
  5
12A
330
D0
100
AcDbEntity
  8
AM_4
100
AcDbLine
 10
-0.9756643265388787
 20
-0.8901249999999993
 30
0.0
 11
-0.9993328628943452
 21
-0.8428849999999991
 31
0.0
  0
LINE
  5
12B
330
D0
100
AcDbEntity
  8
AM_4
100
AcDbLine
 10
-2.20276
 20
-0.8901249999999993
 30
0.0
 11
2.198145893156321
 21
-0.8901249999999993
 31
0.0
  0
ENDBLK
  5
D3
330
D0
100
AcDbEntity
  8
0
100
AcDbBlockEnd
  0
BLOCK
  5
12E
330
12C
100
AcDbEntity
  8
0
100
AcDbBlockBegin
  2
4_129486I_0_in_129694_4
 70
     2
 10
0.0
 20
0.0
 30
0.0
  3
4_129486I_0_in_129694_4
  1

  0
ATTDEF
  5
130
330
12C
100
AcDbEntity
  8
AM_6
100
AcDbText
 10
8.875
 20
2.625
 30
0.0
 40
0.5
  1
GT Normal Duty 4 Bolt Flange Bearings
100
AcDbAttributeDefinition
  3

  2
NN
 70
     8
280
     0
  0
ATTDEF
  5
131
330
12C
100
AcDbEntity
  8
AM_6
100
AcDbText
 10
8.875
 20
2.125
 30
0.0
 40
0.5
  1
Grip Tight Adapter Ball Bearings
100
AcDbAttributeDefinition
  3

  2
NT
 70
     8
280
     0
  0
ATTDEF
  5
132
330
12C
100
AcDbEntity
  8
AM_6
100
AcDbText
 10
8.875
 20
1.625
 30
0.0
 40
0.5
  1
129486I
100
AcDbAttributeDefinition
  3

  2
NB
 70
     8
280
     0
  0
ATTDEF
  5
133
330
12C
100
AcDbEntity
  8
AM_6
100
AcDbText
 10
8.875
 20
1.125
 30
0.0
 40
0.5
  1
$PN.$LUBE.I
100
AcDbAttributeDefinition
  3

  2
NBSYN
 70
     8
280
     0
  0
ATTDEF
  5
134
330
12C
100
AcDbEntity
  8
AM_6
100
AcDbText
 10
8.875
 20
0.625
 30
0.0
 40
0.5
  1
129486
100
AcDbAttributeDefinition
  3

  2
LINA
 70
     8
280
     0
  0
ATTDEF
  5
135
330
12C
100
AcDbEntity
  8
AM_6
100
AcDbText
 10
8.875
 20
0.125
 30
0.0
 40
0.5
  1
216
100
AcDbAttributeDefinition
  3

  2
SERIES
 70
     8
280
     0
  0
ATTDEF
  5
136
330
12C
100
AcDbEntity
  8
AM_6
100
AcDbText
 10
8.875
 20
-0.375
 30
0.0
 40
0.5
  1
5.5118
100
AcDbAttributeDefinition
  3

  2
BOD
 70
     8
280
     0
  0
ATTDEF
  5
137
330
12C
100
AcDbEntity
  8
AM_6
100
AcDbText
 10
8.875
 20
-0.875
 30
0.0
 40
0.5
  1
129486
100
AcDbAttributeDefinition
  3

  2
PN
 70
     8
280
     0
  0
ATTDEF
  5
138
330
12C
100
AcDbEntity
  8
AM_6
100
AcDbText
 10
8.875
 20
-1.375
 30
0.0
 40
0.5
  1
F4B-GT-16
100
AcDbAttributeDefinition
  3

  2
DESCRIPTION
 70
     8
280
     0
  0
ATTDEF
  5
139
330
12C
100
AcDbEntity
  8
AM_6
100
AcDbText
 10
8.875
 20
-1.875
 30
0.0
 40
0.5
  1
With Lube
100
AcDbAttributeDefinition
  3

  2
LUBE
 70
     8
280
     0
  0
ATTDEF
  5
13A
330
12C
100
AcDbEntity
  8
AM_6
100
AcDbText
 10
8.875
 20
-2.375
 30
0.0
 40
0.5
  1
20.7
100
AcDbAttributeDefinition
  3

  2
WEIGHT
 70
     8
280
     0
  0
ATTDEF
  5
13B
330
12C
100
AcDbEntity
  8
AM_6
100
AcDbText
 10
8.875
 20
-2.875
 30
0.0
 40
0.5
  1
2-49/64
100
AcDbAttributeDefinition
  3

  2
A
 70
     8
280
     0
  0
ATTDEF
  5
13C
330
12C
100
AcDbEntity
  8
AM_6
100
AcDbText
 10
8.875
 20
-3.375
 30
0.0
 40
0.5
  1
2.7660
100
AcDbAttributeDefinition
  3

  2
A1
 70
     8
280
     0
  0
ATTDEF
  5
13D
330
12C
100
AcDbEntity
  8
AM_6
100
AcDbText
 10
8.875
 20
-3.875
 30
0.0
 40
0.5
  1
7-3/4
100
AcDbAttributeDefinition
  3

  2
B
 70
     8
280
     0
  0
ATTDEF
  5
13E
330
12C
100
AcDbEntity
  8
AM_6
100
AcDbText
 10
8.875
 20
-4.375
 30
0.0
 40
0.5
  1
7.750
100
AcDbAttributeDefinition
  3

  2
B1
 70
     8
280
     0
  0
ATTDEF
  5
13F
330
12C
100
AcDbEntity
  8
AM_6
100
AcDbText
 10
8.875
 20
-4.875
 30
0.0
 40
0.5
  1
3-29/64
100
AcDbAttributeDefinition
  3

  2
C
 70
     8
280
     0
  0
ATTDEF
  5
140
330
12C
100
AcDbEntity
  8
AM_6
100
AcDbText
 10
8.875
 20
-5.375
 30
0.0
 40
0.5
  1
3.453
100
AcDbAttributeDefinition
  3

  2
C1
 70
     8
280
     0
  0
ATTDEF
  5
141
330
12C
100
AcDbEntity
  8
AM_6
100
AcDbText
 10
8.875
 20
-5.875
 30
0.0
 40
0.5
  1
6
100
AcDbAttributeDefinition
  3

  2
D
 70
     8
280
     0
  0
ATTDEF
  5
142
330
12C
100
AcDbEntity
  8
AM_6
100
AcDbText
 10
8.875
 20
-6.375
 30
0.0
 40
0.5
  1
6.000
100
AcDbAttributeDefinition
  3

  2
D1
 70
     8
280
     0
  0
ATTDEF
  5
143
330
12C
100
AcDbEntity
  8
AM_6
100
AcDbText
 10
8.875
 20
-6.875
 30
0.0
 40
0.5
  1
3/4
100
AcDbAttributeDefinition
  3

  2
F
 70
     8
280
     0
  0
ATTDEF
  5
144
330
12C
100
AcDbEntity
  8
AM_6
100
AcDbText
 10
8.875
 20
-7.375
 30
0.0
 40
0.5
  1
0.750
100
AcDbAttributeDefinition
  3

  2
F1
 70
     8
280
     0
  0
ATTDEF
  5
145
330
12C
100
AcDbEntity
  8
AM_6
100
AcDbText
 10
8.875
 20
-7.875
 30
0.0
 40
0.5
  1
7/8
100
AcDbAttributeDefinition
  3

  2
H
 70
     8
280
     0
  0
ATTDEF
  5
146
330
12C
100
AcDbEntity
  8
AM_6
100
AcDbText
 10
8.875
 20
-8.375
 30
0.0
 40
0.5
  1
0.875
100
AcDbAttributeDefinition
  3

  2
H1
 70
     8
280
     0
  0
ATTDEF
  5
147
330
12C
100
AcDbEntity
  8
AM_6
100
AcDbText
 10
8.875
 20
-8.875
 30
0.0
 40
0.5
  1
57/64
100
AcDbAttributeDefinition
  3

  2
J
 70
     8
280
     0
  0
ATTDEF
  5
148
330
12C
100
AcDbEntity
  8
AM_6
100
AcDbText
 10
8.875
 20
-9.375
 30
0.0
 40
0.5
  1
0.891
100
AcDbAttributeDefinition
  3

  2
J1
 70
     8
280
     0
  0
ATTDEF
  5
149
330
12C
100
AcDbEntity
  8
AM_6
100
AcDbText
 10
8.875
 20
-9.875
 30
0.0
 40
0.5
  1
4-1/2
100
AcDbAttributeDefinition
  3

  2
L
 70
     8
280
     0
  0
ATTDEF
  5
14A
330
12C
100
AcDbEntity
  8
AM_6
100
AcDbText
 10
8.875
 20
-10.375
 30
0.0
 40
0.5
  1
4.500
100
AcDbAttributeDefinition
  3

  2
L1
 70
     8
280
     0
  0
ATTDEF
  5
14B
330
12C
100
AcDbEntity
  8
AM_6
100
AcDbText
 10
8.875
 20
-10.875
 30
0.0
 40
0.5
  1
4-9/32
100
AcDbAttributeDefinition
  3

  2
N
 70
     8
280
     0
  0
ATTDEF
  5
14C
330
12C
100
AcDbEntity
  8
AM_6
100
AcDbText
 10
8.875
 20
-11.375
 30
0.0
 40
0.5
  1
4.281
100
AcDbAttributeDefinition
  3

  2
N1
 70
     8
280
     0
  0
ATTDEF
  5
14D
330
12C
100
AcDbEntity
  8
AM_6
100
AcDbText
 10
8.875
 20
-11.875
 30
0.0
 40
0.5
  1
3-25/64
100
AcDbAttributeDefinition
  3

  2
Z
 70
     8
280
     0
  0
ATTDEF
  5
14E
330
12C
100
AcDbEntity
  8
AM_6
100
AcDbText
 10
8.875
 20
-12.375
 30
0.0
 40
0.5
  1
3.391
100
AcDbAttributeDefinition
  3

  2
Z1
 70
     8
280
     0
  0
ATTDEF
  5
14F
330
12C
100
AcDbEntity
  8
AM_6
100
AcDbText
 10
8.875
 20
-12.875
 30
0.0
 40
0.5
  1
Infotext
100
AcDbAttributeDefinition
  3

  2
INFO
 70
     8
280
     0
  0
ATTDEF
  5
150
330
12C
100
AcDbEntity
  8
AM_6
100
AcDbText
 10
8.875
 20
-13.375
 30
0.0
 40
0.5
  1
baldor
100
AcDbAttributeDefinition
  3

  2
COMPANY
 70
     8
280
     0
  0
LINE
  5
151
330
12C
100
AcDbEntity
  8
AM_9
100
AcDbLine
 10
0.16681783
 20
1.734375
 30
0.0
 11
0.16681783
 21
1.75406004
 31
0.0
  0
LINE
  5
152
330
12C
100
AcDbEntity
  8
AM_9
100
AcDbLine
 10
0.33516609
 20
1.734375
 30
0.0
 11
0.33516609
 21
1.75406004
 31
0.0
  0
LINE
  5
153
330
12C
100
AcDbEntity
  8
AM_9
100
AcDbLine
 10
-0.2004874629000166
 20
1.734375
 30
0.0
 11
-0.2004874629000166
 21
1.75406004
 31
0.0
  0
LINE
  5
154
330
12C
100
AcDbEntity
  8
AM_9
100
AcDbLine
 10
-0.0780523722000355
 20
1.734375
 30
0.0
 11
-0.0780523722000355
 21
1.75406004
 31
0.0
  0
LINE
  5
155
330
12C
100
AcDbEntity
  8
AM_9
100
AcDbLine
 10
0.06886975
 20
1.734375
 30
0.0
 11
0.06886975
 21
1.75406004
 31
0.0
  0
LINE
  5
156
330
12C
100
AcDbEntity
  8
AM_9
100
AcDbLine
 10
0.09335677
 20
1.734375
 30
0.0
 11
0.09335677
 21
1.75406004
 31
0.0
  0
LINE
  5
157
330
12C
100
AcDbEntity
  8
AM_9
100
AcDbLine
 10
-0.2249744897000611
 20
1.734375
 30
0.0
 11
-0.2249744897000611
 21
1.75406004
 31
0.0
  0
LINE
  5
158
330
12C
100
AcDbEntity
  8
AM_9
100
AcDbLine
 10
-0.2433397436000182
 20
1.734375
 30
0.0
 11
-0.2433397436000182
 21
1.75406004
 31
0.0
  0
LINE
  5
159
330
12C
100
AcDbEntity
  8
AM_9
100
AcDbLine
 10
-0.1821222090000572
 20
1.734375
 30
0.0
 11
-0.1821222090000572
 21
1.75406004
 31
0.0
  0
LINE
  5
15A
330
12C
100
AcDbEntity
  8
AM_9
100
AcDbLine
 10
0.05050448
 20
1.734375
 30
0.0
 11
0.05050448
 21
1.75406004
 31
0.0
  0
LINE
  5
15B
330
12C
100
AcDbEntity
  8
AM_9
100
AcDbLine
 10
-0.0964176369000162
 20
1.734375
 30
0.0
 11
-0.0964176369000162
 21
1.75406004
 31
0.0
  0
LINE
  5
15C
330
12C
100
AcDbEntity
  8
AM_9
100
AcDbLine
 10
0.11172203
 20
1.734375
 30
0.0
 11
0.11172203
 21
1.75406004
 31
0.0
  0
LINE
  5
15D
330
12C
100
AcDbEntity
  8
AM_9
100
AcDbLine
 10
0.21273099
 20
1.734375
 30
0.0
 11
0.21273099
 21
1.75406004
 31
0.0
  0
LINE
  5
15E
330
12C
100
AcDbEntity
  8
AM_9
100
AcDbLine
 10
-0.2280353653999914
 20
1.734375
 30
0.0
 11
-0.2280353653999914
 21
1.75406004
 31
0.0
  0
LINE
  5
15F
330
12C
100
AcDbEntity
  8
AM_9
100
AcDbLine
 10
0.09641765
 20
1.734375
 30
0.0
 11
0.09641765
 21
1.75406004
 31
0.0
  0
LINE
  5
160
330
12C
100
AcDbEntity
  8
AM_9
100
AcDbLine
 10
0.06580887
 20
1.734375
 30
0.0
 11
0.06580887
 21
1.75406004
 31
0.0
  0
LINE
  5
161
330
12C
100
AcDbEntity
  8
AM_9
100
AcDbLine
 10
-0.0811132479000217
 20
1.734375
 30
0.0
 11
-0.0811132479000217
 21
1.75406004
 31
0.0
  0
LINE
  5
162
330
12C
100
AcDbEntity
  8
AM_9
100
AcDbLine
 10
-0.1974265873000162
 20
1.734375
 30
0.0
 11
-0.1974265873000162
 21
1.75406004
 31
0.0
  0
LINE
  5
163
330
12C
100
AcDbEntity
  8
AM_9
100
AcDbLine
 10
0.19436572
 20
1.734375
 30
0.0
 11
0.19436572
 21
1.75406004
 31
0.0
  0
LINE
  5
164
330
12C
100
AcDbEntity
  8
AM_9
100
AcDbLine
 10
-0.1729395605000277
 20
1.734375
 30
0.0
 11
-0.1729395605000277
 21
1.75406004
 31
0.0
  0
LINE
  5
165
330
12C
100
AcDbEntity
  8
AM_9
100
AcDbLine
 10
-0.234157116700034
 20
1.734375
 30
0.0
 11
-0.234157116700034
 21
1.75406004
 31
0.0
  0
LINE
  5
166
330
12C
100
AcDbEntity
  8
AM_9
100
AcDbLine
 10
0.1025393999999999
 20
1.734375
 30
0.0
 11
0.1025394
 21
1.75406004
 31
0.0
  0
LINE
  5
167
330
12C
100
AcDbEntity
  8
AM_9
100
AcDbLine
 10
0.05968711
 20
1.734375
 30
0.0
 11
0.05968711
 21
1.75406004
 31
0.0
  0
LINE
  5
168
330
12C
100
AcDbEntity
  8
AM_9
100
AcDbLine
 10
0.20967012
 20
1.734375
 30
0.0
 11
0.20967012
 21
1.75406004
 31
0.0
  0
LINE
  5
169
330
12C
100
AcDbEntity
  8
AM_9
100
AcDbLine
 10
-0.0872349992000083
 20
1.734375
 30
0.0
 11
-0.0872349992000083
 21
1.75406004
 31
0.0
  0
LINE
  5
16A
330
12C
100
AcDbEntity
  8
AM_9
100
AcDbLine
 10
0.04132185
 20
1.734375
 30
0.0
 11
0.04132185
 21
1.75406004
 31
0.0
  0
LINE
  5
16B
330
12C
100
AcDbEntity
  8
AM_9
100
AcDbLine
 10
-0.1913048360000297
 20
1.734375
 30
0.0
 11
-0.19130483600003
 21
1.75406004
 31
0.0
  0
LINE
  5
16C
330
12C
100
AcDbEntity
  8
AM_9
100
AcDbLine
 10
-0.2525223706000493
 20
1.734375
 30
0.0
 11
-0.2525223706000493
 21
1.75406004
 31
0.0
  0
LINE
  5
16D
330
12C
100
AcDbEntity
  8
AM_9
100
AcDbLine
 10
0.19130484
 20
1.734375
 30
0.0
 11
0.19130484
 21
1.75406004
 31
0.0
  0
LINE
  5
16E
330
12C
100
AcDbEntity
  8
AM_9
100
AcDbLine
 10
0.12090467
 20
1.734375
 30
0.0
 11
0.12090467
 21
1.75406004
 31
0.0
  0
LINE
  5
16F
330
12C
100
AcDbEntity
  8
AM_9
100
AcDbLine
 10
-0.1056002639000449
 20
1.734375
 30
0.0
 11
-0.1056002639000449
 21
1.75406004
 31
0.0
  0
LINE
  5
170
330
12C
100
AcDbEntity
  8
AM_9
100
AcDbLine
 10
-0.3290443050000261
 20
1.734375
 30
0.0
 11
-0.3290443050000261
 21
1.75406004
 31
0.0
  0
LINE
  5
171
330
12C
100
AcDbEntity
  8
AM_9
100
AcDbLine
 10
0.03213922
 20
1.734375
 30
0.0
 11
0.03213922
 21
1.75406004
 31
0.0
  0
LINE
  5
172
330
12C
100
AcDbEntity
  8
AM_9
100
AcDbLine
 10
0.25558328
 20
1.734375
 30
0.0
 11
0.25558328
 21
1.75406004
 31
0.0
  0
LINE
  5
173
330
12C
100
AcDbEntity
  8
AM_9
100
AcDbLine
 10
-0.035200086200065
 20
1.734375
 30
0.0
 11
-0.035200086200065
 21
1.75406004
 31
0.0
  0
LINE
  5
174
330
12C
100
AcDbEntity
  8
AM_9
100
AcDbLine
 10
-0.1637569336000434
 20
1.734375
 30
0.0
 11
-0.1637569336000434
 21
1.75406004
 31
0.0
  0
LINE
  5
175
330
12C
100
AcDbEntity
  8
AM_9
100
AcDbLine
 10
0.13008729
 20
1.734375
 30
0.0
 11
0.13008729
 21
1.75406004
 31
0.0
  0
LINE
  5
176
330
12C
100
AcDbEntity
  8
AM_9
100
AcDbLine
 10
-0.1147829015999969
 20
1.734375
 30
0.0
 11
-0.1147829015999969
 21
1.75406004
 31
0.0
  0
LINE
  5
177
330
12C
100
AcDbEntity
  8
AM_9
100
AcDbLine
 10
-0.2617050191000226
 20
1.734375
 30
0.0
 11
-0.2617050191000226
 21
1.75406004
 31
0.0
  0
LINE
  5
178
330
12C
100
AcDbEntity
  8
AM_9
100
AcDbLine
 10
0.18212221
 20
1.734375
 30
0.0
 11
0.18212221
 21
1.75406004
 31
0.0
  0
LINE
  5
179
330
12C
100
AcDbEntity
  8
AM_9
100
AcDbLine
 10
-0.2464006193000068
 20
1.734375
 30
0.0
 11
-0.2464006193000068
 21
1.75406004
 31
0.0
  0
LINE
  5
17A
330
12C
100
AcDbEntity
  8
AM_9
100
AcDbLine
 10
0.11478291
 20
1.734375
 30
0.0
 11
0.11478291
 21
1.75406004
 31
0.0
  0
LINE
  5
17B
330
12C
100
AcDbEntity
  8
AM_9
100
AcDbLine
 10
0.19742659
 20
1.734375
 30
0.0
 11
0.19742659
 21
1.75406004
 31
0.0
  0
LINE
  5
17C
330
12C
100
AcDbEntity
  8
AM_9
100
AcDbLine
 10
-0.0994785126000024
 20
1.734375
 30
0.0
 11
-0.0994785126000024
 21
1.75406004
 31
0.0
  0
LINE
  5
17D
330
12C
100
AcDbEntity
  8
AM_9
100
AcDbLine
 10
0.04744361
 20
1.734375
 30
0.0
 11
0.04744361
 21
1.75406004
 31
0.0
  0
LINE
  5
17E
330
12C
100
AcDbEntity
  8
AM_9
100
AcDbLine
 10
-0.1790613334000591
 20
1.734375
 30
0.0
 11
-0.1790613334000591
 21
1.75406004
 31
0.0
  0
LINE
  5
17F
330
12C
100
AcDbEntity
  8
AM_9
100
AcDbLine
 10
-0.258644143400034
 20
1.734375
 30
0.0
 11
-0.258644143400034
 21
1.75406004
 31
0.0
  0
LINE
  5
180
330
12C
100
AcDbEntity
  8
AM_9
100
AcDbLine
 10
0.18518309
 20
1.734375
 30
0.0
 11
0.18518309
 21
1.75406004
 31
0.0
  0
LINE
  5
181
330
12C
100
AcDbEntity
  8
AM_9
100
AcDbLine
 10
0.12702642
 20
1.734375
 30
0.0
 11
0.12702642
 21
1.75406004
 31
0.0
  0
LINE
  5
182
330
12C
100
AcDbEntity
  8
AM_9
100
AcDbLine
 10
0.0352001
 20
1.734375
 30
0.0
 11
0.0352001
 21
1.75406004
 31
0.0
  0
LINE
  5
183
330
12C
100
AcDbEntity
  8
AM_9
100
AcDbLine
 10
-0.1117220152000316
 20
1.734375
 30
0.0
 11
-0.1117220152000316
 21
1.75406004
 31
0.0
  0
LINE
  5
184
330
12C
100
AcDbEntity
  8
AM_9
100
AcDbLine
 10
-0.1668178092000414
 20
1.734375
 30
0.0
 11
-0.1668178092000414
 21
1.75406004
 31
0.0
  0
LINE
  5
185
330
12C
100
AcDbEntity
  8
AM_9
100
AcDbLine
 10
-0.0535653508999878
 20
1.734375
 30
0.0
 11
-0.0535653508999878
 21
1.75406004
 31
0.0
  0
LINE
  5
186
330
12C
100
AcDbEntity
  8
AM_9
100
AcDbLine
 10
0.01989571
 20
1.734375
 30
0.0
 11
0.01989571
 21
1.75406004
 31
0.0
  0
LINE
  5
187
330
12C
100
AcDbEntity
  8
AM_9
100
AcDbLine
 10
0.06886975
 20
1.75406004
 30
0.0
 11
-0.0535653508999878
 21
1.75406004
 31
0.0
  0
LINE
  5
188
330
12C
100
AcDbEntity
  8
AM_9
100
AcDbLine
 10
0.21273099
 20
1.75406004
 30
0.0
 11
0.09335677
 21
1.75406004
 31
0.0
  0
LINE
  5
189
330
12C
100
AcDbEntity
  8
AM_9
100
AcDbLine
 10
-0.1270264042000257
 20
1.734375
 30
0.0
 11
-0.1270264042000257
 21
1.75406004
 31
0.0
  0
LINE
  5
18A
330
12C
100
AcDbEntity
  8
AM_9
100
AcDbLine
 10
-0.1515134310000146
 20
1.734375
 30
0.0
 11
-0.1515134310000146
 21
1.75406004
 31
0.0
  0
LINE
  5
18B
330
12C
100
AcDbEntity
  8
AM_9
100
AcDbLine
 10
0.14233081
 20
1.734375
 30
0.0
 11
0.14233081
 21
1.75406004
 31
0.0
  0
LINE
  5
18C
330
12C
100
AcDbEntity
  8
AM_9
100
AcDbLine
 10
0.1698787
 20
1.734375
 30
0.0
 11
0.1698787
 21
1.75406004
 31
0.0
  0
LINE
  5
18D
330
12C
100
AcDbEntity
  8
AM_9
100
AcDbLine
 10
-0.2739485216999935
 20
1.734375
 30
0.0
 11
-0.2739485216999935
 21
1.75406004
 31
0.0
  0
LINE
  5
18E
330
12C
100
AcDbEntity
  8
AM_9
100
AcDbLine
 10
-0.0780523722000355
 20
1.75406004
 30
0.0
 11
-0.2004874629000166
 21
1.75406004
 31
0.0
  0
LINE
  5
18F
330
12C
100
AcDbEntity
  8
AM_9
100
AcDbLine
 10
0.237218
 20
1.734375
 30
0.0
 11
0.237218
 21
1.75406004
 31
0.0
  0
LINE
  5
190
330
12C
100
AcDbEntity
  8
AM_9
100
AcDbLine
 10
0.34740959
 20
1.734375
 30
0.0
 11
0.34740959
 21
1.75406004
 31
0.0
  0
LINE
  5
191
330
12C
100
AcDbEntity
  8
AM_9
100
AcDbLine
 10
-0.2249744897000611
 20
1.75406004
 30
0.0
 11
-0.347409580399984
 21
1.75406004
 31
0.0
  0
LINE
  5
192
330
12C
100
AcDbEntity
  8
AM_9
100
AcDbLine
 10
-0.347409580399984
 20
1.734375
 30
0.0
 11
-0.347409580399984
 21
1.75406004
 31
0.0
  0
LINE
  5
193
330
12C
100
AcDbEntity
  8
AM_9
100
AcDbLine
 10
0.34740959
 20
1.75406004
 30
0.0
 11
0.237218
 21
1.75406004
 31
0.0
  0
LINE
  5
194
330
12C
100
AcDbEntity
  8
AM_9
100
AcDbLine
 10
-0.3149606400000001
 20
1.734375
 30
0.0
 11
0.3149606399999999
 21
1.734375
 31
0.0
  0
LINE
  5
195
330
12C
100
AcDbEntity
  8
AM_9
100
AcDbLine
 10
-3.12
 20
1.734375
 30
0.0
 11
-3.12
 21
1.624999999999999
 31
0.0
  0
LINE
  5
196
330
12C
100
AcDbEntity
  8
AM_9
100
AcDbLine
 10
3.12
 20
1.624999999999999
 30
0.0
 11
3.12
 21
1.734375
 31
0.0
  0
LINE
  5
197
330
12C
100
AcDbEntity
  8
AM_9
100
AcDbLine
 10
2.962357434958932
 20
1.624999999999999
 30
0.0
 11
2.962357434958932
 21
1.734375
 31
0.0
  0
LINE
  5
198
330
12C
100
AcDbEntity
  8
AM_9
100
AcDbLine
 10
2.948529610785484
 20
1.625
 30
0.0
 11
2.948529610785484
 21
1.734375
 31
0.0
  0
LINE
  5
199
330
12C
100
AcDbEntity
  8
AM_9
100
AcDbLine
 10
2.938911880621208
 20
1.734375
 30
0.0
 11
2.938911880621208
 21
1.613273349662967
 31
0.0
  0
LINE
  5
19A
330
12C
100
AcDbEntity
  8
AM_9
100
AcDbLine
 10
-2.962357434958931
 20
1.624999999999999
 30
0.0
 11
-2.962357434958931
 21
1.734375
 31
0.0
  0
LINE
  5
19B
330
12C
100
AcDbEntity
  8
AM_9
100
AcDbLine
 10
-2.948529610785484
 20
1.625
 30
0.0
 11
-2.948529610785484
 21
1.734375
 31
0.0
  0
LINE
  5
19C
330
12C
100
AcDbEntity
  8
AM_9
100
AcDbLine
 10
-2.938911880621208
 20
1.613100683822686
 30
0.0
 11
-2.938911880621208
 21
1.734375
 31
0.0
  0
LINE
  5
19D
330
12C
100
AcDbEntity
  8
AM_9
100
AcDbLine
 10
3.766432482349228
 20
1.624999999999999
 30
0.0
 11
3.766432482349228
 21
1.734375000000001
 31
0.0
  0
LINE
  5
19E
330
12C
100
AcDbEntity
  8
AM_9
100
AcDbLine
 10
-3.766432482349227
 20
1.624999999999999
 30
0.0
 11
-3.766432482349227
 21
1.734375000000001
 31
0.0
  0
LINE
  5
19F
330
12C
100
AcDbEntity
  8
AM_9
100
AcDbLine
 10
2.7559
 20
0.0
 30
0.0
 11
2.7559
 21
2.5
 31
0.0
  0
LINE
  5
1A0
330
12C
100
AcDbEntity
  8
AM_9
100
AcDbLine
 10
-2.7559
 20
2.5
 30
0.0
 11
-2.7559
 21
0.0
 31
0.0
  0
LINE
  5
1A1
330
12C
100
AcDbEntity
  8
AM_9
100
AcDbLine
 10
2.938911880621208
 20
1.734375
 30
0.0
 11
3.875
 21
1.734375000000001
 31
0.0
  0
LINE
  5
1A2
330
12C
100
AcDbEntity
  8
AM_9
100
AcDbLine
 10
-3.875
 20
1.734375000000001
 30
0.0
 11
-2.938911880621208
 21
1.734375
 31
0.0
  0
LINE
  5
1A3
330
12C
100
AcDbEntity
  8
AM_9
100
AcDbLine
 10
0.3149366568110446
 20
0.0379960840228631
 30
0.0
 11
-0.314936656811008
 21
0.0379960840228631
 31
0.0
  0
LINE
  5
1A4
330
12C
100
AcDbEntity
  8
AM_9
100
AcDbLine
 10
-0.3149606399999998
 20
1.595854413170622
 30
0.0
 11
0.3149606400000002
 21
1.595854413170622
 31
0.0
  0
LINE
  5
1A5
330
12C
100
AcDbEntity
  8
AM_9
100
AcDbLine
 10
0.3149606399999999
 20
1.587003915977137
 30
0.0
 11
-0.3149606400000001
 21
1.587003915977137
 31
0.0
  0
LINE
  5
1A6
330
12C
100
AcDbEntity
  8
AM_9
100
AcDbLine
 10
3.375
 20
1.625
 30
0.0
 11
3.375
 21
2.5
 31
0.0
  0
LINE
  5
1A7
330
12C
100
AcDbEntity
  8
AM_9
100
AcDbLine
 10
2.625
 20
2.5
 30
0.0
 11
2.625
 21
1.625
 31
0.0
  0
LINE
  5
1A8
330
12C
100
AcDbEntity
  8
AM_9
100
AcDbLine
 10
-2.625
 20
1.625
 30
0.0
 11
-2.625
 21
2.5
 31
0.0
  0
LINE
  5
1A9
330
12C
100
AcDbEntity
  8
AM_9
100
AcDbLine
 10
-3.375
 20
2.5
 30
0.0
 11
-3.375
 21
1.625
 31
0.0
  0
CIRCLE
  5
1AA
330
12C
100
AcDbEntity
  8
AM_9
100
AcDbCircle
 10
0.0
 20
0.2755905511811027
 30
0.0
 40
0.0787401600000004
  0
CIRCLE
  5
1AB
330
12C
100
AcDbEntity
  8
AM_9
100
AcDbCircle
 10
0.0
 20
0.2755905511811028
 30
0.0
 40
0.1003136142539818
  0
LINE
  5
1AC
330
12C
100
AcDbEntity
  8
AM_7
100
AcDbLine
 10
0.0000000000000001
 20
-1.090906249999999
 30
0.0
 11
0.0
 21
2.625
 31
0.0
  0
LINE
  5
1AD
330
12C
100
AcDbEntity
  8
AM_7
100
AcDbLine
 10
-3.0
 20
2.548125
 30
0.0
 11
-3.0
 21
1.489375
 31
0.0
  0
LINE
  5
1AE
330
12C
100
AcDbEntity
  8
AM_7
100
AcDbLine
 10
3.0
 20
2.548125
 30
0.0
 11
3.0
 21
1.489375
 31
0.0
  0
LINE
  5
1AF
330
12C
100
AcDbEntity
  8
AM_7
100
AcDbLine
 10
-0.165354336
 20
0.2755905511811028
 30
0.0
 11
0.165354336
 21
0.2755905511811028
 31
0.0
  0
LINE
  5
1B0
330
12C
100
AcDbEntity
  8
AM_4
100
AcDbLine
 10
-3.12
 20
1.624999999999999
 30
0.0
 11
-3.12
 21
1.595854413170624
 31
0.0
  0
LINE
  5
1B1
330
12C
100
AcDbEntity
  8
AM_4
100
AcDbLine
 10
3.12
 20
1.595854413170599
 30
0.0
 11
3.12
 21
1.624999999999999
 31
0.0
  0
LINE
  5
1B2
330
12C
100
AcDbEntity
  8
AM_4
100
AcDbLine
 10
2.948529610785484
 20
1.595854413170661
 30
0.0
 11
2.948529610785484
 21
1.624762775370541
 31
0.0
  0
LWPOLYLINE
  5
1B3
330
12C
100
AcDbEntity
  8
AM_4
100
AcDbPolyline
 90
        5
 70
     0
 43
0.0
 10
2.938911886841607
 20
1.613412918519779
 10
2.939288605790443
 20
1.609305681991682
 10
2.941979559684716
 20
1.601418789443855
 10
2.944706992480642
 20
1.597620781922996
 10
2.948529610785358
 20
1.595854413170794
  0
LINE
  5
1B4
330
12C
100
AcDbEntity
  8
AM_4
100
AcDbLine
 10
-2.948529610785484
 20
1.595854413170764
 30
0.0
 11
-2.948529610785484
 21
1.624068892226378
 31
0.0
  0
LWPOLYLINE
  5
1B5
330
12C
100
AcDbEntity
  8
AM_4
100
AcDbPolyline
 90
        4
 70
     0
 43
0.0
 10
-2.938911921478102
 20
1.613387731667862
 10
-2.940243534727289
 20
1.620028843040324
 10
-2.945583148640121
 20
1.624699494320706
 10
-2.947903401301465
 20
1.625
  0
LINE
  5
1B6
330
12C
100
AcDbEntity
  8
AM_4
100
AcDbLine
 10
-3.025234505256654
 20
0.0
 30
0.0
 11
3.025234505256654
 21
0.0
 31
0.0
  0
ARC
  5
1B7
330
12C
100
AcDbEntity
  8
AM_4
100
AcDbCircle
 10
3.025234505256654
 20
0.0393700799999999
 30
0.0
 40
0.0393700799999999
100
AcDbArc
 50
270.0
 51
358.0000000000009
  0
ARC
  5
1B8
330
12C
100
AcDbEntity
  8
AM_4
100
AcDbCircle
 10
-3.025234505256654
 20
0.0393700799999999
 30
0.0
 40
0.0393700799999998
100
AcDbArc
 50
181.9999999999992
 51
270.0
  0
LINE
  5
1B9
330
12C
100
AcDbEntity
  8
AM_4
100
AcDbLine
 10
0.3149366568110446
 20
0.037996084023911
 30
0.0
 11
3.064580602067662
 21
0.0379960840228631
 31
0.0
  0
LINE
  5
1BA
330
12C
100
AcDbEntity
  8
AM_4
100
AcDbLine
 10
3.064580602067662
 20
0.0379960840228631
 30
0.0
 11
3.118673147508249
 21
1.587003915977137
 31
0.0
  0
LINE
  5
1BB
330
12C
100
AcDbEntity
  8
AM_4
100
AcDbLine
 10
-3.118673147508249
 20
1.587003915977137
 30
0.0
 11
-3.064580602067662
 21
0.0379960840228631
 31
0.0
  0
LINE
  5
1BC
330
12C
100
AcDbEntity
  8
AM_4
100
AcDbLine
 10
-3.064580602067662
 20
0.0379960840228631
 30
0.0
 11
-0.314936656811008
 21
0.0379960840228636
 31
0.0
  0
LINE
  5
1BD
330
12C
100
AcDbEntity
  8
AM_4
100
AcDbLine
 10
1.020084866234767
 20
1.595854413170767
 30
0.0
 11
1.020084866234767
 21
1.734375000000001
 31
0.0
  0
LINE
  5
1BE
330
12C
100
AcDbEntity
  8
AM_4
100
AcDbLine
 10
-1.020084866234767
 20
1.595854413170621
 30
0.0
 11
-1.020084866234767
 21
1.734375000000001
 31
0.0
  0
LINE
  5
1BF
330
12C
100
AcDbEntity
  8
AM_4
100
AcDbLine
 10
0.3149606399999999
 20
1.587003915977137
 30
0.0
 11
3.118673147508249
 21
1.587003915977137
 31
0.0
  0
LINE
  5
1C0
330
12C
100
AcDbEntity
  8
AM_4
100
AcDbLine
 10
-0.3149606399999998
 20
1.595854413170621
 30
0.0
 11
-1.020084866234767
 21
1.595854413170621
 31
0.0
  0
LWPOLYLINE
  5
1C1
330
12C
100
AcDbEntity
  8
AM_4
100
AcDbPolyline
 90
        8
 70
     0
 43
0.0
 10
-1.132674306270704
 20
1.625
 10
-1.124793746444094
 20
1.62467056918577
 10
-1.106099765753692
 20
1.621769908728127
 10
-1.087004507809514
 20
1.616626945070904
 10
-1.065824584870336
 20
1.609305681991682
 10
-1.044677905980895
 20
1.601418789443856
 10
-1.032639035121661
 20
1.597620781922996
 10
-1.020084866234767
 20
1.595854413170621
  0
LWPOLYLINE
  5
1C2
330
12C
100
AcDbEntity
  8
AM_4
100
AcDbPolyline
 90
        4
 70
     0
 43
0.0
 10
-2.948529610785484
 20
1.595854413170767
 10
-2.943144881923981
 20
1.599496134031492
 10
-2.939146841388842
 20
1.610195070074936
 10
-2.938911921478102
 20
1.613387731667862
  0
LINE
  5
1C3
330
12C
100
AcDbEntity
  8
AM_4
100
AcDbLine
 10
-2.948529610785484
 20
1.595854413170764
 30
0.0
 11
-3.119999999999961
 21
1.595854413170624
 31
0.0
  0
LWPOLYLINE
  5
1C4
330
12C
100
AcDbEntity
  8
AM_4
100
AcDbPolyline
 90
        5
 70
     0
 43
0.0
 10
2.947903401301437
 20
1.625
 10
2.945479536070538
 20
1.62467056918577
 10
2.941297742775095
 20
1.621769908728127
 10
2.93918110160715
 20
1.616626945070904
 10
2.938911886841607
 20
1.613412918519779
  0
LWPOLYLINE
  5
1C5
330
12C
100
AcDbEntity
  8
AM_4
100
AcDbPolyline
 90
        6
 70
     0
 43
0.0
 10
1.020084866234767
 20
1.595854413170767
 10
1.039043719063457
 20
1.599496134031495
 10
1.068235787713588
 20
1.610195070074937
 10
1.098848917244359
 20
1.620028843040325
 10
1.125159685375882
 20
1.624699494320706
 10
1.132674306270792
 20
1.625
  0
LINE
  5
1C6
330
12C
100
AcDbEntity
  8
AM_4
100
AcDbLine
 10
1.020084866234767
 20
1.595854413170767
 30
0.0
 11
0.3149606400000002
 21
1.595854413170639
 31
0.0
  0
ARC
  5
1C7
330
12C
100
AcDbEntity
  8
AM_4
100
AcDbCircle
 10
3.158019244319151
 20
1.585629920000017
 30
0.0
 40
0.0393700799998932
100
AcDbArc
 50
164.9476123660973
 51
178.0000000000192
  0
ARC
  5
1C8
330
12C
100
AcDbEntity
  8
AM_4
100
AcDbCircle
 10
-3.158019244319194
 20
1.58562992000001
 30
0.0
 40
0.0393700799999369
100
AcDbArc
 50
1.999999999988282
 51
15.05238763393244
  0
LINE
  5
1C9
330
12C
100
AcDbEntity
  8
AM_4
100
AcDbLine
 10
-3.118673147508249
 20
1.587003915977137
 30
0.0
 11
-0.3149606400000001
 21
1.587003915977137
 31
0.0
  0
LINE
  5
1CA
330
12C
100
AcDbEntity
  8
AM_4
100
AcDbLine
 10
3.119999999999955
 20
1.595854413170599
 30
0.0
 11
2.948529610785484
 21
1.595854413170661
 31
0.0
  0
LINE
  5
1CB
330
12C
100
AcDbEntity
  8
AM_4
100
AcDbLine
 10
1.164801164821653
 20
1.624999999999999
 30
0.0
 11
1.164801164821653
 21
1.734375000000001
 31
0.0
  0
LINE
  5
1CC
330
12C
100
AcDbEntity
  8
AM_4
100
AcDbLine
 10
-1.164801164821653
 20
1.624999999999999
 30
0.0
 11
-1.164801164821653
 21
1.734375000000001
 31
0.0
  0
LINE
  5
1CD
330
12C
100
AcDbEntity
  8
AM_4
100
AcDbLine
 10
3.875
 20
1.625000000000001
 30
0.0
 11
3.875
 21
2.5
 31
0.0
  0
LINE
  5
1CE
330
12C
100
AcDbEntity
  8
AM_4
100
AcDbLine
 10
-2.5575
 20
1.624999999999999
 30
0.0
 11
-2.5575
 21
1.734375000000001
 31
0.0
  0
LINE
  5
1CF
330
12C
100
AcDbEntity
  8
AM_4
100
AcDbLine
 10
3.875
 20
2.5
 30
0.0
 11
-3.875
 21
2.5
 31
0.0
  0
LINE
  5
1D0
330
12C
100
AcDbEntity
  8
AM_4
100
AcDbLine
 10
-3.875
 20
1.625000000000001
 30
0.0
 11
-1.132674306270704
 21
1.625
 31
0.0
  0
LINE
  5
1D1
330
12C
100
AcDbEntity
  8
AM_4
100
AcDbLine
 10
-3.875
 20
1.625000000000001
 30
0.0
 11
-3.875
 21
2.5
 31
0.0
  0
LINE
  5
1D2
330
12C
100
AcDbEntity
  8
AM_4
100
AcDbLine
 10
1.132674306270792
 20
1.625
 30
0.0
 11
3.875
 21
1.625000000000001
 31
0.0
  0
LINE
  5
1D3
330
12C
100
AcDbEntity
  8
AM_4
100
AcDbLine
 10
2.5575
 20
1.624999999999999
 30
0.0
 11
2.5575
 21
1.734375000000001
 31
0.0
  0
LINE
  5
1D4
330
12C
100
AcDbEntity
  8
AM_4
100
AcDbLine
 10
-0.3149606400000001
 20
1.734375000000001
 30
0.0
 11
-2.867335008385781
 21
1.734375000000001
 31
0.0
  0
LINE
  5
1D5
330
12C
100
AcDbEntity
  8
AM_4
100
AcDbLine
 10
2.86733500838579
 20
1.734375000000001
 30
0.0
 11
0.3149606399999999
 21
1.734375000000001
 31
0.0
  0
LINE
  5
1D6
330
12C
100
AcDbEntity
  8
AM_4
100
AcDbLine
 10
0.3149606400000001
 20
0.0393700800000003
 30
0.0
 11
0.3149606399999999
 21
1.734375000000001
 31
0.0
  0
ARC
  5
1D7
330
12C
100
AcDbEntity
  8
AM_4
100
AcDbCircle
 10
0.2755905600000001
 20
0.0393700800000003
 30
0.0
 40
0.03937008
100
AcDbArc
 50
270.0
 51
0.0
  0
ARC
  5
1D8
330
12C
100
AcDbEntity
  8
AM_4
100
AcDbCircle
 10
-0.27559056
 20
0.0393700800000002
 30
0.0
 40
0.03937008
100
AcDbArc
 50
180.0
 51
270.0
  0
LINE
  5
1D9
330
12C
100
AcDbEntity
  8
AM_4
100
AcDbLine
 10
-0.3149606400000001
 20
1.734375000000001
 30
0.0
 11
-0.3149606400000001
 21
0.0393700800000003
 31
0.0
  0
LINE
  5
1DA
330
12C
100
AcDbEntity
  8
AM_4
100
AcDbLine
 10
2.86733500838579
 20
1.734375000000001
 30
0.0
 11
2.86733500838579
 21
1.625
 31
0.0
  0
LINE
  5
1DB
330
12C
100
AcDbEntity
  8
AM_4
100
AcDbLine
 10
3.0
 20
1.625000000000001
 30
0.0
 11
3.0
 21
2.5
 31
0.0
  0
LINE
  5
1DC
330
12C
100
AcDbEntity
  8
AM_4
100
AcDbLine
 10
-3.0
 20
1.625000000000001
 30
0.0
 11
-3.0
 21
2.5
 31
0.0
  0
LINE
  5
1DD
330
12C
100
AcDbEntity
  8
AM_4
100
AcDbLine
 10
-2.867335008385781
 20
1.625
 30
0.0
 11
-2.867335008385781
 21
1.734375000000001
 31
0.0
  0
LINE
  5
1DE
330
12C
100
AcDbEntity
  8
AM_4
100
AcDbLine
 10
-0.0909213051440684
 20
0.1181102311811027
 30
0.0
 11
-0.1818426102881368
 21
0.2755905511811027
 31
0.0
  0
LINE
  5
1DF
330
12C
100
AcDbEntity
  8
AM_4
100
AcDbLine
 10
-0.1818426102881368
 20
0.2755905511811027
 30
0.0
 11
-0.0909213051440684
 21
0.4330708711811027
 31
0.0
  0
LINE
  5
1E0
330
12C
100
AcDbEntity
  8
AM_4
100
AcDbLine
 10
0.0909213051440684
 20
0.1181102311811027
 30
0.0
 11
-0.0909213051440684
 21
0.1181102311811027
 31
0.0
  0
LINE
  5
1E1
330
12C
100
AcDbEntity
  8
AM_4
100
AcDbLine
 10
0.1818426102881368
 20
0.2755905511811027
 30
0.0
 11
0.0909213051440684
 21
0.1181102311811027
 31
0.0
  0
LINE
  5
1E2
330
12C
100
AcDbEntity
  8
AM_4
100
AcDbLine
 10
-0.0909213051440684
 20
0.4330708711811027
 30
0.0
 11
0.0909213051440684
 21
0.4330708711811027
 31
0.0
  0
LINE
  5
1E3
330
12C
100
AcDbEntity
  8
AM_4
100
AcDbLine
 10
0.0909213051440684
 20
0.4330708711811027
 30
0.0
 11
0.1818426102881368
 21
0.2755905511811027
 31
0.0
  0
CIRCLE
  5
1E4
330
12C
100
AcDbEntity
  8
AM_4
100
AcDbCircle
 10
0.0
 20
0.2755905511811027
 30
0.0
 40
0.1102362200000004
  0
CIRCLE
  5
1E5
330
12C
100
AcDbEntity
  8
AM_4
100
AcDbCircle
 10
0.0
 20
0.2755905511811028
 30
0.0
 40
0.1062855090227752
  0
CIRCLE
  5
1E6
330
12C
100
AcDbEntity
  8
AM_4
100
AcDbCircle
 10
0.0
 20
0.2755905511811028
 30
0.0
 40
0.1048775701420829
  0
CIRCLE
  5
1E7
330
12C
100
AcDbEntity
  8
AM_4
100
AcDbCircle
 10
0.0
 20
0.2755905511811028
 30
0.0
 40
0.0654127384443837
  0
CIRCLE
  5
1E8
330
12C
100
AcDbEntity
  8
AM_4
100
AcDbCircle
 10
0.0
 20
0.2755905511811028
 30
0.0
 40
0.0836898395636921
  0
CIRCLE
  5
1E9
330
12C
100
AcDbEntity
  8
AM_4
100
AcDbCircle
 10
-0.0000000000000001
 20
0.2755905511811026
 30
0.0
 40
0.1574803200000001
  0
ENDBLK
  5
12F
330
12C
100
AcDbEntity
  8
0
100
AcDbBlockEnd
  0
ENDSEC
  0
SECTION
  2
ENTITIES
  0
INSERT
  5
6F
330
1F
100
AcDbEntity
  8
0
100
AcDbBlockReference
  2
1_129694_4
 10
0.0
 20
0.0
 30
0.0
  0
POINT
  5
1EB
330
1F
100
AcDbEntity
  8
ConnectionPoints
100
AcDbPoint
 10
0.0000000000000001
 20
0.9067500000000006
 30
-0.0000000000000001
  0
POINT
  5
1EC
330
1F
100
AcDbEntity
  8
ConnectionPoints
100
AcDbPoint
 10
0.0000000000000001
 20
1.813000000000001
 30
-0.0000000000000001
  0
POINT
  5
1ED
330
1F
100
AcDbEntity
  8
ConnectionPoints
100
AcDbPoint
 10
0.0
 20
1.813000000000001
 30
-0.0000000000000001
  0
ENDSEC
  0
SECTION
  2
OBJECTS
  0
DICTIONARY
  5
C
330
0
100
AcDbDictionary
281
     1
  3
ACAD_DETAILVIEWSTYLE
350
1F5
  3
ACAD_GROUP
350
D
  3
ACAD_LAYOUT
350
1A
  3
ACAD_MATERIAL
350
43
  3
ACAD_MLEADERSTYLE
350
6B
  3
ACAD_MLINESTYLE
350
17
  3
ACAD_PLOTSETTINGS
350
19
  3
ACAD_PLOTSTYLENAME
350
E
  3
ACAD_SCALELIST
350
47
  3
ACAD_SECTIONVIEWSTYLE
350
1F6
  3
ACAD_TABLESTYLE
350
69
  3
ACAD_VISUALSTYLE
350
2A
  3
ACDB_RECOMPOSE_DATA
350
1F2
  3
AcDbVariableDictionary
350
1EE
  0
SUN
  5
6D
330
29
100
AcDbSun
 90
        1
290
     0
 63
     7
421
 16777215
 40
1.0
291
     1
 91
  2455826
 92
 54000000
292
     0
 70
     2
 71
   256
280
     1
  0
DICTIONARY
  5
1F5
102
{ACAD_REACTORS
330
C
102
}
330
C
100
AcDbDictionary
281
     1
  0
DICTIONARY
  5
D
102
{ACAD_REACTORS
330
C
102
}
330
C
100
AcDbDictionary
281
     1
  0
DICTIONARY
  5
1A
102
{ACAD_REACTORS
330
C
102
}
330
C
100
AcDbDictionary
281
     1
  3
Layout1
350
1E
  3
Layout2
350
26
  3
Model
350
22
  0
DICTIONARY
  5
43
102
{ACAD_REACTORS
330
C
102
}
330
C
100
AcDbDictionary
281
     1
  3
ByBlock
350
45
  3
ByLayer
350
44
  3
Global
350
46
  0
DICTIONARY
  5
6B
102
{ACAD_REACTORS
330
C
102
}
330
C
100
AcDbDictionary
281
     1
  3
Standard
350
6C
  0
DICTIONARY
  5
17
102
{ACAD_REACTORS
330
C
102
}
330
C
100
AcDbDictionary
281
     1
  3
Standard
350
18
  0
DICTIONARY
  5
19
102
{ACAD_REACTORS
330
C
102
}
330
C
100
AcDbDictionary
281
     1
  0
ACDBDICTIONARYWDFLT
  5
E
102
{ACAD_REACTORS
330
C
102
}
330
C
100
AcDbDictionary
281
     1
  3
Normal
350
F
100
AcDbDictionaryWithDefault
340
F
  0
DICTIONARY
  5
47
102
{ACAD_REACTORS
330
C
102
}
330
C
100
AcDbDictionary
281
     1
  3
A0
350
48
  3
A1
350
49
  3
A2
350
4A
  3
A3
350
4B
  3
A4
350
4C
  3
A5
350
4D
  3
A6
350
4E
  3
A7
350
4F
  3
A8
350
50
  3
A9
350
51
  3
B0
350
52
  3
B1
350
53
  3
B2
350
54
  3
B3
350
55
  3
B4
350
56
  3
B5
350
57
  3
B6
350
58
  3
B7
350
59
  3
B8
350
5A
  3
B9
350
5B
  3
C0
350
5C
  3
C1
350
5D
  3
C2
350
5E
  3
C3
350
5F
  3
C4
350
60
  3
C5
350
61
  3
C6
350
62
  3
C7
350
63
  3
C8
350
64
  3
C9
350
65
  3
D0
350
66
  3
D1
350
67
  3
D2
350
68
  0
DICTIONARY
  5
1F6
102
{ACAD_REACTORS
330
C
102
}
330
C
100
AcDbDictionary
281
     1
  0
DICTIONARY
  5
69
102
{ACAD_REACTORS
330
C
102
}
330
C
100
AcDbDictionary
281
     1
  3
Standard
350
6A
  0
DICTIONARY
  5
2A
102
{ACAD_REACTORS
330
C
102
}
330
C
100
AcDbDictionary
281
     1
  3
2dWireframe
350
2F
  3
Basic
350
32
  3
Brighten
350
36
  3
ColorChange
350
3A
  3
Conceptual
350
34
  3
Dim
350
35
  3
EdgeColorOff
350
3D
  3
Facepattern
350
39
  3
Flat
350
2B
  3
FlatWithEdges
350
2C
  3
Gouraud
350
2D
  3
GouraudWithEdges
350
2E
  3
Hidden
350
31
  3
JitterOff
350
3B
  3
Linepattern
350
38
  3
OverhangOff
350
3C
  3
Realistic
350
33
  3
Shaded
350
42
  3
Shaded with edges
350
41
  3
Shades of Gray
350
3E
  3
Sketchy
350
3F
  3
Thicken
350
37
  3
Wireframe
350
30
  3
X-Ray
350
40
  0
XRECORD
  5
1F2
102
{ACAD_REACTORS
330
C
102
}
330
C
100
AcDbXrecord
280
     1
 90
        1
330
6A
  0
DICTIONARY
  5
1EE
102
{ACAD_REACTORS
330
C
102
}
330
C
100
AcDbDictionary
281
     1
  3
CANNOSCALE
350
1EF
  3
CMLEADERSTYLE
350
1F4
  3
CTABLESTYLE
350
1F3
  0
LAYOUT
  5
1E
102
{ACAD_REACTORS
330
1A
102
}
330
1A
100
AcDbPlotSettings
  1

  2
none_device
  4

  6

 40
0.0
 41
0.0
 42
0.0
 43
0.0
 44
0.0
 45
0.0
 46
0.0
 47
0.0
 48
0.0
 49
0.0
140
0.0
141
0.0
142
1.0
143
1.0
 70
   688
 72
     0
 73
     0
 74
     5
  7

 75
    16
 76
     0
 77
     2
 78
   300
147
1.0
148
0.0
149
0.0
100
AcDbLayout
  1
Layout1
 70
     1
 71
     1
 10
0.0
 20
0.0
 11
12.0
 21
9.0
 12
0.0
 22
0.0
 32
0.0
 14
1.000000000000000E+20
 24
1.000000000000000E+20
 34
1.000000000000000E+20
 15
-1.000000000000000E+20
 25
-1.000000000000000E+20
 35
-1.000000000000000E+20
146
0.0
 13
0.0
 23
0.0
 33
0.0
 16
1.0
 26
0.0
 36
0.0
 17
0.0
 27
1.0
 37
0.0
 76
     0
330
1B
  0
LAYOUT
  5
26
102
{ACAD_REACTORS
330
1A
102
}
330
1A
100
AcDbPlotSettings
  1

  2
none_device
  4

  6

 40
0.0
 41
0.0
 42
0.0
 43
0.0
 44
0.0
 45
0.0
 46
0.0
 47
0.0
 48
0.0
 49
0.0
140
0.0
141
0.0
142
1.0
143
1.0
 70
   688
 72
     0
 73
     0
 74
     5
  7

 75
    16
 76
     0
 77
     2
 78
   300
147
1.0
148
0.0
149
0.0
100
AcDbLayout
  1
Layout2
 70
     1
 71
     2
 10
0.0
 20
0.0
 11
0.0
 21
0.0
 12
0.0
 22
0.0
 32
0.0
 14
0.0
 24
0.0
 34
0.0
 15
0.0
 25
0.0
 35
0.0
146
0.0
 13
0.0
 23
0.0
 33
0.0
 16
1.0
 26
0.0
 36
0.0
 17
0.0
 27
1.0
 37
0.0
 76
     0
330
23
  0
LAYOUT
  5
22
102
{ACAD_REACTORS
330
1A
102
}
330
1A
100
AcDbPlotSettings
  1

  2
none_device
  4
Letter_(8.50_x_11.00_Inches)
  6

 40
6.35
 41
6.35
 42
6.35000508
 43
6.35000508
 44
215.9
 45
279.4
 46
0.0
 47
0.0
 48
0.0
 49
0.0
140
0.0
141
0.0
142
1.0
143
1.0
 70
  1712
 72
     0
 73
     0
 74
     0
  7

 75
     0
 76
     0
 77
     2
 78
   300
147
1.0
148
0.0
149
0.0
100
AcDbLayout
  1
Model
 70
     1
 71
     0
 10
0.0
 20
0.0
 11
12.0
 21
9.0
 12
0.0
 22
0.0
 32
0.0
 14
1.000000000000000E+20
 24
1.000000000000000E+20
 34
1.000000000000000E+20
 15
-1.000000000000000E+20
 25
-1.000000000000000E+20
 35
-1.000000000000000E+20
146
0.0
 13
0.0
 23
0.0
 33
0.0
 16
1.0
 26
0.0
 36
0.0
 17
0.0
 27
1.0
 37
0.0
 76
     0
330
1F
331
29
  0
MATERIAL
  5
45
102
{ACAD_REACTORS
330
43
102
}
330
43
100
AcDbMaterial
  1
ByBlock
 72
     1
 94
      127
  0
MATERIAL
  5
44
102
{ACAD_REACTORS
330
43
102
}
330
43
100
AcDbMaterial
  1
ByLayer
 72
     1
 94
      127
  0
MATERIAL
  5
46
102
{ACAD_REACTORS
330
43
102
}
330
43
100
AcDbMaterial
  1
Global
 72
     1
 94
      127
  0
MLEADERSTYLE
  5
6C
102
{ACAD_REACTORS
330
6B
102
}
330
6B
100
AcDbMLeaderStyle
179
     2
170
     2
171
     1
172
     0
 90
        2
 40
0.0
 41
0.0
173
     1
 91
-1056964608
340
14
 92
       -2
290
     1
 42
0.09
291
     1
 43
0.36
  3
Standard
341
0
 44
0.18
300

342
11
174
     1
178
     6
175
     1
176
     0
 93
-1056964608
 45
0.18
292
     0
297
     0
 46
0.18
343
0
 94
-1056964608
 47
1.0
 49
1.0
140
1.0
293
     1
141
0.0
294
     1
177
     0
142
1.0
295
     0
296
     0
143
0.125
271
     0
272
     9
273
     9
298
     0
  0
MLINESTYLE
  5
18
102
{ACAD_REACTORS
330
17
102
}
330
17
100
AcDbMlineStyle
  2
Standard
 70
     0
  3

 62
   256
 51
90.0
 52
90.0
 71
     2
 49
0.5
 62
   256
  6
BYLAYER
 49
-0.5
 62
   256
  6
BYLAYER
  0
ACDBPLACEHOLDER
  5
F
102
{ACAD_REACTORS
330
E
102
}
330
E
  0
SCALE
  5
48
102
{ACAD_REACTORS
330
47
102
}
330
47
100
AcDbScale
 70
     0
300
1:1
140
1.0
141
1.0
290
     1
  0
SCALE
  5
49
102
{ACAD_REACTORS
330
47
102
}
330
47
100
AcDbScale
 70
     0
300
1:2
140
1.0
141
2.0
290
     0
  0
SCALE
  5
4A
102
{ACAD_REACTORS
330
47
102
}
330
47
100
AcDbScale
 70
     0
300
1:4
140
1.0
141
4.0
290
     0
  0
SCALE
  5
4B
102
{ACAD_REACTORS
330
47
102
}
330
47
100
AcDbScale
 70
     0
300
1:5
140
1.0
141
5.0
290
     0
  0
SCALE
  5
4C
102
{ACAD_REACTORS
330
47
102
}
330
47
100
AcDbScale
 70
     0
300
1:8
140
1.0
141
8.0
290
     0
  0
SCALE
  5
4D
102
{ACAD_REACTORS
330
47
102
}
330
47
100
AcDbScale
 70
     0
300
1:10
140
1.0
141
10.0
290
     0
  0
SCALE
  5
4E
102
{ACAD_REACTORS
330
47
102
}
330
47
100
AcDbScale
 70
     0
300
1:16
140
1.0
141
16.0
290
     0
  0
SCALE
  5
4F
102
{ACAD_REACTORS
330
47
102
}
330
47
100
AcDbScale
 70
     0
300
1:20
140
1.0
141
20.0
290
     0
  0
SCALE
  5
50
102
{ACAD_REACTORS
330
47
102
}
330
47
100
AcDbScale
 70
     0
300
1:30
140
1.0
141
30.0
290
     0
  0
SCALE
  5
51
102
{ACAD_REACTORS
330
47
102
}
330
47
100
AcDbScale
 70
     0
300
1:40
140
1.0
141
40.0
290
     0
  0
SCALE
  5
52
102
{ACAD_REACTORS
330
47
102
}
330
47
100
AcDbScale
 70
     0
300
1:50
140
1.0
141
50.0
290
     0
  0
SCALE
  5
53
102
{ACAD_REACTORS
330
47
102
}
330
47
100
AcDbScale
 70
     0
300
1:100
140
1.0
141
100.0
290
     0
  0
SCALE
  5
54
102
{ACAD_REACTORS
330
47
102
}
330
47
100
AcDbScale
 70
     0
300
2:1
140
2.0
141
1.0
290
     0
  0
SCALE
  5
55
102
{ACAD_REACTORS
330
47
102
}
330
47
100
AcDbScale
 70
     0
300
4:1
140
4.0
141
1.0
290
     0
  0
SCALE
  5
56
102
{ACAD_REACTORS
330
47
102
}
330
47
100
AcDbScale
 70
     0
300
8:1
140
8.0
141
1.0
290
     0
  0
SCALE
  5
57
102
{ACAD_REACTORS
330
47
102
}
330
47
100
AcDbScale
 70
     0
300
10:1
140
10.0
141
1.0
290
     0
  0
SCALE
  5
58
102
{ACAD_REACTORS
330
47
102
}
330
47
100
AcDbScale
 70
     0
300
100:1
140
100.0
141
1.0
290
     0
  0
SCALE
  5
59
102
{ACAD_REACTORS
330
47
102
}
330
47
100
AcDbScale
 70
     0
300
1/128" = 1'-0"
140
0.0078125
141
12.0
290
     0
  0
SCALE
  5
5A
102
{ACAD_REACTORS
330
47
102
}
330
47
100
AcDbScale
 70
     0
300
1/64" = 1'-0"
140
0.015625
141
12.0
290
     0
  0
SCALE
  5
5B
102
{ACAD_REACTORS
330
47
102
}
330
47
100
AcDbScale
 70
     0
300
1/32" = 1'-0"
140
0.03125
141
12.0
290
     0
  0
SCALE
  5
5C
102
{ACAD_REACTORS
330
47
102
}
330
47
100
AcDbScale
 70
     0
300
1/16" = 1'-0"
140
0.0625
141
12.0
290
     0
  0
SCALE
  5
5D
102
{ACAD_REACTORS
330
47
102
}
330
47
100
AcDbScale
 70
     0
300
3/32" = 1'-0"
140
0.09375
141
12.0
290
     0
  0
SCALE
  5
5E
102
{ACAD_REACTORS
330
47
102
}
330
47
100
AcDbScale
 70
     0
300
1/8" = 1'-0"
140
0.125
141
12.0
290
     0
  0
SCALE
  5
5F
102
{ACAD_REACTORS
330
47
102
}
330
47
100
AcDbScale
 70
     0
300
3/16" = 1'-0"
140
0.1875
141
12.0
290
     0
  0
SCALE
  5
60
102
{ACAD_REACTORS
330
47
102
}
330
47
100
AcDbScale
 70
     0
300
1/4" = 1'-0"
140
0.25
141
12.0
290
     0
  0
SCALE
  5
61
102
{ACAD_REACTORS
330
47
102
}
330
47
100
AcDbScale
 70
     0
300
3/8" = 1'-0"
140
0.375
141
12.0
290
     0
  0
SCALE
  5
62
102
{ACAD_REACTORS
330
47
102
}
330
47
100
AcDbScale
 70
     0
300
1/2" = 1'-0"
140
0.5
141
12.0
290
     0
  0
SCALE
  5
63
102
{ACAD_REACTORS
330
47
102
}
330
47
100
AcDbScale
 70
     0
300
3/4" = 1'-0"
140
0.75
141
12.0
290
     0
  0
SCALE
  5
64
102
{ACAD_REACTORS
330
47
102
}
330
47
100
AcDbScale
 70
     0
300
1" = 1'-0"
140
1.0
141
12.0
290
     0
  0
SCALE
  5
65
102
{ACAD_REACTORS
330
47
102
}
330
47
100
AcDbScale
 70
     0
300
1-1/2" = 1'-0"
140
1.5
141
12.0
290
     0
  0
SCALE
  5
66
102
{ACAD_REACTORS
330
47
102
}
330
47
100
AcDbScale
 70
     0
300
3" = 1'-0"
140
3.0
141
12.0
290
     0
  0
SCALE
  5
67
102
{ACAD_REACTORS
330
47
102
}
330
47
100
AcDbScale
 70
     0
300
6" = 1'-0"
140
6.0
141
12.0
290
     0
  0
SCALE
  5
68
102
{ACAD_REACTORS
330
47
102
}
330
47
100
AcDbScale
 70
     0
300
1'-0" = 1'-0"
140
12.0
141
12.0
290
     0
  0
TABLESTYLE
  5
6A
102
{ACAD_REACTORS
330
69
102
}
102
{ACAD_XDICTIONARY
360
1F0
102
}
330
69
100
AcDbTableStyle
  3
Standard
 70
     0
 71
     0
 40
0.06
 41
0.06
280
     0
281
     0
  7
Standard
140
0.18
170
     2
 62
     0
 63
   257
283
     0
 90
        4
 91
        0
  1

274
    -2
284
     1
 64
     0
275
    -2
285
     1
 65
     0
276
    -2
286
     1
 66
     0
277
    -2
287
     1
 67
     0
278
    -2
288
     1
 68
     0
279
    -2
289
     1
 69
     0
  7
Standard
140
0.25
170
     5
 62
     0
 63
   257
283
     0
 90
        4
 91
        0
  1

274
    -2
284
     1
 64
     0
275
    -2
285
     1
 65
     0
276
    -2
286
     1
 66
     0
277
    -2
287
     1
 67
     0
278
    -2
288
     1
 68
     0
279
    -2
289
     1
 69
     0
  7
Standard
140
0.18
170
     5
 62
     0
 63
   257
283
     0
 90
        4
 91
        0
  1

274
    -2
284
     1
 64
     0
275
    -2
285
     1
 65
     0
276
    -2
286
     1
 66
     0
277
    -2
287
     1
 67
     0
278
    -2
288
     1
 68
     0
279
    -2
289
     1
 69
     0
  0
VISUALSTYLE
  5
2F
102
{ACAD_REACTORS
330
2A
102
}
330
2A
100
AcDbVisualStyle
  2
2dWireframe
 70
     4
177
     3
291
     0
 70
    58
 90
        0
176
     1
 90
        2
176
     1
 90
        0
176
     1
 90
        0
176
     1
 40
0.6
176
     1
 40
30.0
176
     1
 62
     7
420
 16777215
176
     1
 90
        1
176
     1
 90
        4
176
     1
 62
     7
176
     1
 62
   257
176
     1
 90
        1
176
     1
 90
        1
176
     1
 40
1.0
176
     1
 90
        0
176
     1
 62
   257
176
     1
 40
1.0
176
     1
 90
        1
176
     1
 90
        6
176
     1
 90
        2
176
     1
 62
     7
176
     1
 90
        5
176
     1
 90
        0
176
     1
 90
        0
176
     1
290
     0
176
     1
 90
        1
176
     1
 40
0.0
176
     1
 90
        0
176
     1
290
     1
176
     1
290
     1
176
     1
290
     0
176
     1
290
     0
176
     1
290
     0
176
     1
290
     0
176
     1
290
     0
176
     1
290
     0
176
     1
290
     0
176
     1
 90
       50
176
     1
 40
0.0
176
     1
 40
1.0
176
     1
 90
        0
176
     1
 62
    18
420
        0
176
     1
 90
       50
176
     1
 90
        3
176
     1
 62
     5
420
      255
176
     1
290
     0
176
     1
 90
       50
176
     1
 90
       50
176
     1
 90
       50
176
     1
290
     0
176
     1
 90
       50
176
     1
 62
   256
176
     0
 40
1.0
176
     0
 90
        2
176
     1
  1
strokes_ogs.tif
176
     1
290
     0
176
     1
 40
1.0
176
     1
 40
1.0
176
     1
  0
VISUALSTYLE
  5
32
102
{ACAD_REACTORS
330
2A
102
}
330
2A
100
AcDbVisualStyle
  2
Basic
 70
     7
177
     3
291
     1
 70
    58
 90
        1
176
     1
 90
        0
176
     1
 90
        1
176
     1
 90
        0
176
     1
 40
0.6
176
     1
 40
30.0
176
     1
 62
     7
420
 16777215
176
     1
 90
        0
176
     1
 90
        4
176
     1
 62
     7
176
     1
 62
   257
176
     1
 90
        1
176
     1
 90
        1
176
     1
 40
1.0
176
     1
 90
        8
176
     1
 62
     7
176
     1
 40
1.0
176
     1
 90
        1
176
     1
 90
        6
176
     1
 90
        2
176
     1
 62
     7
176
     1
 90
        5
176
     1
 90
        0
176
     1
 90
        0
176
     1
290
     0
176
     1
 90
        1
176
     1
 40
0.0
176
     1
 90
        0
176
     1
290
     0
176
     1
290
     1
176
     1
290
     1
176
     1
290
     0
176
     1
290
     0
176
     1
290
     0
176
     1
290
     0
176
     1
290
     0
176
     1
290
     0
176
     1
 90
       50
176
     1
 40
0.0
176
     1
 40
1.0
176
     1
 90
        0
176
     1
 62
    18
420
        0
176
     1
 90
       50
176
     1
 90
        3
176
     1
 62
     5
420
      255
176
     1
290
     0
176
     1
 90
       50
176
     1
 90
       50
176
     1
 90
       50
176
     1
290
     0
176
     1
 90
       50
176
     1
 62
   256
176
     0
 40
1.0
176
     0
 90
        2
176
     1
  1
strokes_ogs.tif
176
     1
290
     0
176
     1
 40
1.0
176
     1
 40
1.0
176
     1
  0
VISUALSTYLE
  5
36
102
{ACAD_REACTORS
330
2A
102
}
330
2A
100
AcDbVisualStyle
  2
Brighten
 70
    12
177
     3
291
     1
 70
    58
 90
        2
176
     1
 90
        2
176
     1
 90
        0
176
     1
 90
        0
176
     1
 40
0.6
176
     1
 40
30.0
176
     1
 62
     7
420
 16777215
176
     1
 90
        1
176
     1
 90
        4
176
     1
 62
     7
176
     1
 62
   257
176
     1
 90
        1
176
     1
 90
        1
176
     1
 40
1.0
176
     1
 90
        8
176
     1
 62
     7
176
     1
 40
1.0
176
     1
 90
        1
176
     1
 90
        6
176
     1
 90
        2
176
     1
 62
     7
176
     1
 90
        5
176
     1
 90
        0
176
     1
 90
        0
176
     1
290
     0
176
     1
 90
        1
176
     1
 40
50.0
176
     1
 90
        0
176
     1
290
     0
176
     1
290
     1
176
     1
290
     1
176
     1
290
     0
176
     1
290
     0
176
     1
290
     0
176
     1
290
     0
176
     1
290
     0
176
     1
290
     0
176
     1
 90
       50
176
     1
 40
0.0
176
     1
 40
1.0
176
     1
 90
        0
176
     1
 62
    18
420
        0
176
     1
 90
       50
176
     1
 90
        3
176
     1
 62
     5
420
      255
176
     1
290
     0
176
     1
 90
       50
176
     1
 90
       50
176
     1
 90
       50
176
     1
290
     0
176
     1
 90
       50
176
     1
 62
   256
176
     0
 40
1.0
176
     0
 90
        2
176
     1
  1
strokes_ogs.tif
176
     1
290
     0
176
     1
 40
1.0
176
     1
 40
1.0
176
     1
  0
VISUALSTYLE
  5
3A
102
{ACAD_REACTORS
330
2A
102
}
330
2A
100
AcDbVisualStyle
  2
ColorChange
 70
    16
177
     3
291
     1
 70
    58
 90
        2
176
     1
 90
        2
176
     1
 90
        3
176
     1
 90
        0
176
     1
 40
0.6
176
     1
 40
30.0
176
     1
 62
     8
420
  8421504
176
     1
 90
        1
176
     1
 90
        4
176
     1
 62
     7
176
     1
 62
   257
176
     1
 90
        1
176
     1
 90
        1
176
     1
 40
1.0
176
     1
 90
        8
176
     1
 62
     8
420
  8421504
176
     1
 40
1.0
176
     1
 90
        1
176
     1
 90
        6
176
     1
 90
        2
176
     1
 62
     7
176
     1
 90
        5
176
     1
 90
        0
176
     1
 90
        0
176
     1
290
     0
176
     1
 90
        1
176
     1
 40
0.0
176
     1
 90
        0
176
     1
290
     0
176
     1
290
     1
176
     1
290
     1
176
     1
290
     0
176
     1
290
     0
176
     1
290
     0
176
     1
290
     0
176
     1
290
     0
176
     1
290
     0
176
     1
 90
       50
176
     1
 40
0.0
176
     1
 40
1.0
176
     1
 90
        0
176
     1
 62
    18
420
        0
176
     1
 90
       50
176
     1
 90
        3
176
     1
 62
     5
420
      255
176
     1
290
     0
176
     1
 90
       50
176
     1
 90
       50
176
     1
 90
       50
176
     1
290
     0
176
     1
 90
       50
176
     1
 62
   256
176
     0
 40
1.0
176
     0
 90
        2
176
     1
  1
strokes_ogs.tif
176
     1
290
     0
176
     1
 40
1.0
176
     1
 40
1.0
176
     1
  0
VISUALSTYLE
  5
34
102
{ACAD_REACTORS
330
2A
102
}
330
2A
100
AcDbVisualStyle
  2
Conceptual
 70
     9
177
     3
291
     0
 70
    58
 90
        3
176
     1
 90
        2
176
     1
 90
        0
176
     1
 90
        0
176
     1
 40
0.6
176
     1
 40
30.0
176
     1
 62
     7
420
 16777215
176
     1
 90
        2
176
     1
 90
        2
176
     1
 62
     7
176
     1
 62
   257
176
     1
 90
        1
176
     1
 90
        1
176
     1
 40
179.0
176
     1
 90
        8
176
     1
 62
     7
176
     1
 40
1.0
176
     1
 90
        1
176
     1
 90
        6
176
     1
 90
        2
176
     1
 62
     7
176
     1
 90
        3
176
     1
 90
        0
176
     1
 90
        0
176
     1
290
     0
176
     1
 90
        1
176
     1
 40
0.0
176
     1
 90
        0
176
     1
290
     0
176
     1
290
     1
176
     1
290
     1
176
     1
290
     0
176
     1
290
     0
176
     1
290
     0
176
     1
290
     0
176
     1
290
     0
176
     1
290
     0
176
     1
 90
       50
176
     1
 40
0.0
176
     1
 40
1.0
176
     1
 90
        0
176
     1
 62
    18
420
        0
176
     1
 90
       50
176
     1
 90
        3
176
     1
 62
     5
420
      255
176
     1
290
     0
176
     1
 90
       50
176
     1
 90
       50
176
     1
 90
       50
176
     1
290
     0
176
     1
 90
       50
176
     1
 62
   256
176
     0
 40
1.0
176
     0
 90
        2
176
     1
  1
strokes_ogs.tif
176
     1
290
     0
176
     1
 40
1.0
176
     1
 40
1.0
176
     1
  0
VISUALSTYLE
  5
35
102
{ACAD_REACTORS
330
2A
102
}
330
2A
100
AcDbVisualStyle
  2
Dim
 70
    11
177
     3
291
     1
 70
    58
 90
        2
176
     1
 90
        2
176
     1
 90
        0
176
     1
 90
        0
176
     1
 40
0.6
176
     1
 40
30.0
176
     1
 62
     7
420
 16777215
176
     1
 90
        1
176
     1
 90
        4
176
     1
 62
     7
176
     1
 62
   257
176
     1
 90
        1
176
     1
 90
        1
176
     1
 40
1.0
176
     1
 90
        8
176
     1
 62
     7
176
     1
 40
1.0
176
     1
 90
        1
176
     1
 90
        6
176
     1
 90
        2
176
     1
 62
     7
176
     1
 90
        5
176
     1
 90
        0
176
     1
 90
        0
176
     1
290
     0
176
     1
 90
        1
176
     1
 40
-50.0
176
     1
 90
        0
176
     1
290
     0
176
     1
290
     1
176
     1
290
     1
176
     1
290
     0
176
     1
290
     0
176
     1
290
     0
176
     1
290
     0
176
     1
290
     0
176
     1
290
     0
176
     1
 90
       50
176
     1
 40
0.0
176
     1
 40
1.0
176
     1
 90
        0
176
     1
 62
    18
420
        0
176
     1
 90
       50
176
     1
 90
        3
176
     1
 62
     5
420
      255
176
     1
290
     0
176
     1
 90
       50
176
     1
 90
       50
176
     1
 90
       50
176
     1
290
     0
176
     1
 90
       50
176
     1
 62
   256
176
     0
 40
1.0
176
     0
 90
        2
176
     1
  1
strokes_ogs.tif
176
     1
290
     0
176
     1
 40
1.0
176
     1
 40
1.0
176
     1
  0
VISUALSTYLE
  5
3D
102
{ACAD_REACTORS
330
2A
102
}
330
2A
100
AcDbVisualStyle
  2
EdgeColorOff
 70
    22
177
     3
291
     1
 70
    58
 90
        2
176
     0
 90
        2
176
     0
 90
        0
176
     0
 90
        0
176
     0
 40
0.6
176
     0
 40
30.0
176
     0
 62
     7
420
 16777215
176
     0
 90
        1
176
     0
 90
        4
176
     0
 62
     7
176
     0
 62
   257
176
     0
 90
        1
176
     0
 90
        1
176
     0
 40
1.0
176
     0
 90
        8
176
     2
 62
     7
176
     0
 40
1.0
176
     0
 90
        1
176
     0
 90
        6
176
     0
 90
        2
176
     0
 62
     7
176
     0
 90
        5
176
     0
 90
        0
176
     0
 90
        0
176
     0
290
     0
176
     0
 90
        1
176
     0
 40
0.0
176
     0
 90
        0
176
     0
290
     0
176
     0
290
     1
176
     0
290
     1
176
     0
290
     0
176
     0
290
     0
176
     0
290
     0
176
     0
290
     0
176
     0
290
     0
176
     0
290
     0
176
     0
 90
       50
176
     0
 40
0.0
176
     0
 40
1.0
176
     0
 90
        0
176
     0
 62
    18
420
        0
176
     0
 90
       50
176
     0
 90
        3
176
     0
 62
     5
420
      255
176
     0
290
     0
176
     0
 90
       50
176
     0
 90
       50
176
     0
 90
       50
176
     0
290
     0
176
     0
 90
       50
176
     0
 62
   256
176
     0
 40
1.0
176
     0
 90
        2
176
     0
  1
strokes_ogs.tif
176
     0
290
     0
176
     0
 40
1.0
176
     0
 40
1.0
176
     0
  0
VISUALSTYLE
  5
39
102
{ACAD_REACTORS
330
2A
102
}
330
2A
100
AcDbVisualStyle
  2
Facepattern
 70
    15
177
     3
291
     1
 70
    58
 90
        2
176
     1
 90
        2
176
     1
 90
        0
176
     1
 90
        0
176
     1
 40
0.6
176
     1
 40
30.0
176
     1
 62
     7
420
 16777215
176
     1
 90
        1
176
     1
 90
        4
176
     1
 62
     7
176
     1
 62
   257
176
     1
 90
        1
176
     1
 90
        1
176
     1
 40
1.0
176
     1
 90
        8
176
     1
 62
     7
176
     1
 40
1.0
176
     1
 90
        1
176
     1
 90
        6
176
     1
 90
        2
176
     1
 62
     7
176
     1
 90
        5
176
     1
 90
        0
176
     1
 90
        0
176
     1
290
     0
176
     1
 90
        1
176
     1
 40
0.0
176
     1
 90
        0
176
     1
290
     0
176
     1
290
     1
176
     1
290
     1
176
     1
290
     0
176
     1
290
     0
176
     1
290
     0
176
     1
290
     0
176
     1
290
     0
176
     1
290
     0
176
     1
 90
       50
176
     1
 40
0.0
176
     1
 40
1.0
176
     1
 90
        0
176
     1
 62
    18
420
        0
176
     1
 90
       50
176
     1
 90
        3
176
     1
 62
     5
420
      255
176
     1
290
     0
176
     1
 90
       50
176
     1
 90
       50
176
     1
 90
       50
176
     1
290
     0
176
     1
 90
       50
176
     1
 62
   256
176
     0
 40
1.0
176
     0
 90
        2
176
     1
  1
strokes_ogs.tif
176
     1
290
     0
176
     1
 40
1.0
176
     1
 40
1.0
176
     1
  0
VISUALSTYLE
  5
2B
102
{ACAD_REACTORS
330
2A
102
}
330
2A
100
AcDbVisualStyle
  2
Flat
 70
     0
177
     3
291
     1
 70
    58
 90
        2
176
     1
 90
        1
176
     1
 90
        1
176
     1
 90
        2
176
     1
 40
0.6
176
     1
 40
30.0
176
     1
 62
     7
420
 16777215
176
     1
 90
        0
176
     1
 90
        0
176
     1
 62
     7
176
     1
 62
   257
176
     1
 90
        1
176
     1
 90
        1
176
     1
 40
1.0
176
     1
 90
        8
176
     1
 62
     7
176
     1
 40
1.0
176
     1
 90
        1
176
     1
 90
        6
176
     1
 90
        2
176
     1
 62
     7
176
     1
 90
        5
176
     1
 90
        0
176
     1
 90
        0
176
     1
290
     0
176
     1
 90
       13
176
     1
 40
0.0
176
     1
 90
        0
176
     1
290
     0
176
     1
290
     1
176
     1
290
     1
176
     1
290
     0
176
     1
290
     0
176
     1
290
     0
176
     1
290
     0
176
     1
290
     0
176
     1
290
     0
176
     1
 90
       50
176
     1
 40
0.0
176
     1
 40
1.0
176
     1
 90
        0
176
     1
 62
    18
420
        0
176
     1
 90
       50
176
     1
 90
        3
176
     1
 62
     5
420
      255
176
     1
290
     0
176
     1
 90
       50
176
     1
 90
       50
176
     1
 90
       50
176
     1
290
     0
176
     1
 90
       50
176
     1
 62
   256
176
     0
 40
1.0
176
     0
 90
        2
176
     1
  1
strokes_ogs.tif
176
     1
290
     0
176
     1
 40
1.0
176
     1
 40
1.0
176
     1
  0
VISUALSTYLE
  5
2C
102
{ACAD_REACTORS
330
2A
102
}
330
2A
100
AcDbVisualStyle
  2
FlatWithEdges
 70
     1
177
     3
291
     1
 70
    58
 90
        2
176
     1
 90
        1
176
     1
 90
        1
176
     1
 90
        2
176
     1
 40
0.6
176
     1
 40
30.0
176
     1
 62
     7
420
 16777215
176
     1
 90
        1
176
     1
 90
        0
176
     1
 62
     7
176
     1
 62
   257
176
     1
 90
        1
176
     1
 90
        1
176
     1
 40
1.0
176
     1
 90
        0
176
     1
 62
   257
176
     1
 40
1.0
176
     1
 90
        1
176
     1
 90
        6
176
     1
 90
        2
176
     1
 62
     7
176
     1
 90
        5
176
     1
 90
        0
176
     1
 90
        0
176
     1
290
     0
176
     1
 90
       13
176
     1
 40
0.0
176
     1
 90
        0
176
     1
290
     0
176
     1
290
     1
176
     1
290
     1
176
     1
290
     0
176
     1
290
     0
176
     1
290
     0
176
     1
290
     0
176
     1
290
     0
176
     1
290
     0
176
     1
 90
       50
176
     1
 40
0.0
176
     1
 40
1.0
176
     1
 90
        0
176
     1
 62
    18
420
        0
176
     1
 90
       50
176
     1
 90
        3
176
     1
 62
     5
420
      255
176
     1
290
     0
176
     1
 90
       50
176
     1
 90
       50
176
     1
 90
       50
176
     1
290
     0
176
     1
 90
       50
176
     1
 62
   256
176
     0
 40
1.0
176
     0
 90
        2
176
     1
  1
strokes_ogs.tif
176
     1
290
     0
176
     1
 40
1.0
176
     1
 40
1.0
176
     1
  0
VISUALSTYLE
  5
2D
102
{ACAD_REACTORS
330
2A
102
}
330
2A
100
AcDbVisualStyle
  2
Gouraud
 70
     2
177
     3
291
     1
 70
    58
 90
        2
176
     1
 90
        2
176
     1
 90
        1
176
     1
 90
        2
176
     1
 40
0.6
176
     1
 40
30.0
176
     1
 62
     7
420
 16777215
176
     1
 90
        0
176
     1
 90
        0
176
     1
 62
     7
176
     1
 62
   257
176
     1
 90
        1
176
     1
 90
        1
176
     1
 40
1.0
176
     1
 90
        0
176
     1
 62
     7
176
     1
 40
1.0
176
     1
 90
        1
176
     1
 90
        6
176
     1
 90
        2
176
     1
 62
     7
176
     1
 90
        5
176
     1
 90
        0
176
     1
 90
        0
176
     1
290
     0
176
     1
 90
       13
176
     1
 40
0.0
176
     1
 90
        0
176
     1
290
     0
176
     1
290
     1
176
     1
290
     1
176
     1
290
     0
176
     1
290
     0
176
     1
290
     0
176
     1
290
     0
176
     1
290
     0
176
     1
290
     0
176
     1
 90
       50
176
     1
 40
0.0
176
     1
 40
1.0
176
     1
 90
        0
176
     1
 62
    18
420
        0
176
     1
 90
       50
176
     1
 90
        3
176
     1
 62
     5
420
      255
176
     1
290
     0
176
     1
 90
       50
176
     1
 90
       50
176
     1
 90
       50
176
     1
290
     0
176
     1
 90
       50
176
     1
 62
   256
176
     0
 40
1.0
176
     0
 90
        2
176
     1
  1
strokes_ogs.tif
176
     1
290
     0
176
     1
 40
1.0
176
     1
 40
1.0
176
     1
  0
VISUALSTYLE
  5
2E
102
{ACAD_REACTORS
330
2A
102
}
330
2A
100
AcDbVisualStyle
  2
GouraudWithEdges
 70
     3
177
     3
291
     1
 70
    58
 90
        2
176
     1
 90
        2
176
     1
 90
        1
176
     1
 90
        2
176
     1
 40
0.6
176
     1
 40
30.0
176
     1
 62
     7
420
 16777215
176
     1
 90
        1
176
     1
 90
        0
176
     1
 62
     7
176
     1
 62
   257
176
     1
 90
        1
176
     1
 90
        1
176
     1
 40
1.0
176
     1
 90
        0
176
     1
 62
   257
176
     1
 40
1.0
176
     1
 90
        1
176
     1
 90
        6
176
     1
 90
        2
176
     1
 62
     7
176
     1
 90
        5
176
     1
 90
        0
176
     1
 90
        0
176
     1
290
     0
176
     1
 90
       13
176
     1
 40
0.0
176
     1
 90
        0
176
     1
290
     0
176
     1
290
     1
176
     1
290
     1
176
     1
290
     0
176
     1
290
     0
176
     1
290
     0
176
     1
290
     0
176
     1
290
     0
176
     1
290
     0
176
     1
 90
       50
176
     1
 40
0.0
176
     1
 40
1.0
176
     1
 90
        0
176
     1
 62
    18
420
        0
176
     1
 90
       50
176
     1
 90
        3
176
     1
 62
     5
420
      255
176
     1
290
     0
176
     1
 90
       50
176
     1
 90
       50
176
     1
 90
       50
176
     1
290
     0
176
     1
 90
       50
176
     1
 62
   256
176
     0
 40
1.0
176
     0
 90
        2
176
     1
  1
strokes_ogs.tif
176
     1
290
     0
176
     1
 40
1.0
176
     1
 40
1.0
176
     1
  0
VISUALSTYLE
  5
31
102
{ACAD_REACTORS
330
2A
102
}
330
2A
100
AcDbVisualStyle
  2
Hidden
 70
     6
177
     3
291
     0
 70
    58
 90
        1
176
     1
 90
        2
176
     1
 90
        2
176
     1
 90
        0
176
     1
 40
0.6
176
     1
 40
30.0
176
     1
 62
     7
420
 16777215
176
     1
 90
        2
176
     1
 90
        2
176
     1
 62
     7
176
     1
 62
   257
176
     1
 90
        2
176
     1
 90
        1
176
     1
 40
40.0
176
     1
 90
        0
176
     1
 62
   257
176
     1
 40
1.0
176
     1
 90
        1
176
     1
 90
        6
176
     1
 90
        2
176
     1
 62
     7
176
     1
 90
        3
176
     1
 90
        0
176
     1
 90
        0
176
     1
290
     0
176
     1
 90
        1
176
     1
 40
0.0
176
     1
 90
        0
176
     1
290
     0
176
     1
290
     1
176
     1
290
     1
176
     1
290
     0
176
     1
290
     0
176
     1
290
     0
176
     1
290
     0
176
     1
290
     0
176
     1
290
     0
176
     1
 90
       50
176
     1
 40
0.0
176
     1
 40
1.0
176
     1
 90
        0
176
     1
 62
    18
420
        0
176
     1
 90
       50
176
     1
 90
        3
176
     1
 62
     5
420
      255
176
     1
290
     0
176
     1
 90
       50
176
     1
 90
       50
176
     1
 90
       50
176
     1
290
     0
176
     1
 90
       50
176
     1
 62
   256
176
     0
 40
1.0
176
     0
 90
        2
176
     1
  1
strokes_ogs.tif
176
     1
290
     0
176
     1
 40
1.0
176
     1
 40
1.0
176
     1
  0
VISUALSTYLE
  5
3B
102
{ACAD_REACTORS
330
2A
102
}
330
2A
100
AcDbVisualStyle
  2
JitterOff
 70
    20
177
     3
291
     1
 70
    58
 90
        2
176
     0
 90
        2
176
     0
 90
        0
176
     0
 90
        0
176
     0
 40
0.6
176
     0
 40
30.0
176
     0
 62
     7
420
 16777215
176
     0
 90
        1
176
     0
 90
        4
176
     0
 62
     7
176
     0
 62
   257
176
     0
 90
        1
176
     0
 90
        1
176
     0
 40
1.0
176
     0
 90
       10
176
     2
 62
     7
176
     0
 40
1.0
176
     0
 90
        1
176
     0
 90
        6
176
     0
 90
        2
176
     0
 62
     7
176
     0
 90
        5
176
     0
 90
        0
176
     0
 90
        0
176
     0
290
     0
176
     0
 90
        1
176
     0
 40
0.0
176
     0
 90
        0
176
     0
290
     0
176
     0
290
     1
176
     0
290
     1
176
     0
290
     0
176
     0
290
     0
176
     0
290
     0
176
     0
290
     0
176
     0
290
     0
176
     0
290
     0
176
     0
 90
       50
176
     0
 40
0.0
176
     0
 40
1.0
176
     0
 90
        0
176
     0
 62
    18
420
        0
176
     0
 90
       50
176
     0
 90
        3
176
     0
 62
     5
420
      255
176
     0
290
     0
176
     0
 90
       50
176
     0
 90
       50
176
     0
 90
       50
176
     0
290
     0
176
     0
 90
       50
176
     0
 62
   256
176
     0
 40
1.0
176
     0
 90
        2
176
     0
  1
strokes_ogs.tif
176
     0
290
     0
176
     0
 40
1.0
176
     0
 40
1.0
176
     0
  0
VISUALSTYLE
  5
38
102
{ACAD_REACTORS
330
2A
102
}
330
2A
100
AcDbVisualStyle
  2
Linepattern
 70
    14
177
     3
291
     1
 70
    58
 90
        2
176
     1
 90
        2
176
     1
 90
        0
176
     1
 90
        0
176
     1
 40
0.6
176
     1
 40
30.0
176
     1
 62
     7
420
 16777215
176
     1
 90
        1
176
     1
 90
        4
176
     1
 62
     7
176
     1
 62
   257
176
     1
 90
        7
176
     1
 90
        7
176
     1
 40
1.0
176
     1
 90
        8
176
     1
 62
     7
176
     1
 40
1.0
176
     1
 90
        1
176
     1
 90
        6
176
     1
 90
        2
176
     1
 62
     7
176
     1
 90
        5
176
     1
 90
        0
176
     1
 90
        0
176
     1
290
     0
176
     1
 90
        1
176
     1
 40
0.0
176
     1
 90
        0
176
     1
290
     0
176
     1
290
     1
176
     1
290
     1
176
     1
290
     0
176
     1
290
     0
176
     1
290
     0
176
     1
290
     0
176
     1
290
     0
176
     1
290
     0
176
     1
 90
       50
176
     1
 40
0.0
176
     1
 40
1.0
176
     1
 90
        0
176
     1
 62
    18
420
        0
176
     1
 90
       50
176
     1
 90
        3
176
     1
 62
     5
420
      255
176
     1
290
     0
176
     1
 90
       50
176
     1
 90
       50
176
     1
 90
       50
176
     1
290
     0
176
     1
 90
       50
176
     1
 62
   256
176
     0
 40
1.0
176
     0
 90
        2
176
     1
  1
strokes_ogs.tif
176
     1
290
     0
176
     1
 40
1.0
176
     1
 40
1.0
176
     1
  0
VISUALSTYLE
  5
3C
102
{ACAD_REACTORS
330
2A
102
}
330
2A
100
AcDbVisualStyle
  2
OverhangOff
 70
    21
177
     3
291
     1
 70
    58
 90
        2
176
     0
 90
        2
176
     0
 90
        0
176
     0
 90
        0
176
     0
 40
0.6
176
     0
 40
30.0
176
     0
 62
     7
420
 16777215
176
     0
 90
        1
176
     0
 90
        4
176
     0
 62
     7
176
     0
 62
   257
176
     0
 90
        1
176
     0
 90
        1
176
     0
 40
1.0
176
     0
 90
        9
176
     2
 62
     7
176
     0
 40
1.0
176
     0
 90
        1
176
     0
 90
        6
176
     0
 90
        2
176
     0
 62
     7
176
     0
 90
        5
176
     0
 90
        0
176
     0
 90
        0
176
     0
290
     0
176
     0
 90
        1
176
     0
 40
0.0
176
     0
 90
        0
176
     0
290
     0
176
     0
290
     1
176
     0
290
     1
176
     0
290
     0
176
     0
290
     0
176
     0
290
     0
176
     0
290
     0
176
     0
290
     0
176
     0
290
     0
176
     0
 90
       50
176
     0
 40
0.0
176
     0
 40
1.0
176
     0
 90
        0
176
     0
 62
    18
420
        0
176
     0
 90
       50
176
     0
 90
        3
176
     0
 62
     5
420
      255
176
     0
290
     0
176
     0
 90
       50
176
     0
 90
       50
176
     0
 90
       50
176
     0
290
     0
176
     0
 90
       50
176
     0
 62
   256
176
     0
 40
1.0
176
     0
 90
        2
176
     0
  1
strokes_ogs.tif
176
     0
290
     0
176
     0
 40
1.0
176
     0
 40
1.0
176
     0
  0
VISUALSTYLE
  5
33
102
{ACAD_REACTORS
330
2A
102
}
330
2A
100
AcDbVisualStyle
  2
Realistic
 70
     8
177
     3
291
     0
 70
    58
 90
        2
176
     1
 90
        3
176
     1
 90
        0
176
     1
 90
        2
176
     1
 40
0.6
176
     1
 40
30.0
176
     1
 62
     7
420
 16777215
176
     1
 90
        0
176
     1
 90
        0
176
     1
 62
     7
176
     1
 62
   257
176
     1
 90
        1
176
     1
 90
        1
176
     1
 40
1.0
176
     1
 90
        8
176
     1
 62
   257
176
     1
 40
1.0
176
     1
 90
        1
176
     1
 90
        6
176
     1
 90
        2
176
     1
 62
     7
176
     1
 90
        3
176
     1
 90
        0
176
     1
 90
        0
176
     1
290
     0
176
     1
 90
       13
176
     1
 40
0.0
176
     1
 90
        0
176
     1
290
     0
176
     1
290
     1
176
     1
290
     1
176
     1
290
     0
176
     1
290
     0
176
     1
290
     0
176
     1
290
     0
176
     1
290
     0
176
     1
290
     0
176
     1
 90
       50
176
     1
 40
0.0
176
     1
 40
1.0
176
     1
 90
        0
176
     1
 62
    18
420
        0
176
     1
 90
       50
176
     1
 90
        3
176
     1
 62
     5
420
      255
176
     1
290
     0
176
     1
 90
       50
176
     1
 90
       50
176
     1
 90
       50
176
     1
290
     0
176
     1
 90
       50
176
     1
 62
   256
176
     0
 40
1.0
176
     0
 90
        2
176
     1
  1
strokes_ogs.tif
176
     1
290
     0
176
     1
 40
1.0
176
     1
 40
1.0
176
     1
  0
VISUALSTYLE
  5
42
102
{ACAD_REACTORS
330
2A
102
}
330
2A
100
AcDbVisualStyle
  2
Shaded
 70
    27
177
     3
291
     0
 70
    58
 90
        2
176
     1
 90
        2
176
     1
 90
        1
176
     1
 90
        2
176
     1
 40
0.6
176
     1
 40
30.0
176
     1
 62
     7
420
 16777215
176
     1
 90
        0
176
     1
 90
        4
176
     1
 62
     7
176
     1
 62
   257
176
     1
 90
        1
176
     1
 90
        1
176
     1
 40
1.0
176
     1
 90
        8
176
     1
 62
   257
176
     1
 40
1.0
176
     1
 90
        1
176
     1
 90
        6
176
     1
 90
        2
176
     1
 62
     8
420
  7895160
176
     1
 90
        3
176
     1
 90
        0
176
     1
 90
        0
176
     1
290
     0
176
     1
 90
        5
176
     1
 40
0.0
176
     1
 90
        0
176
     1
290
     0
176
     1
290
     1
176
     1
290
     1
176
     1
290
     0
176
     1
290
     0
176
     1
290
     0
176
     1
290
     0
176
     1
290
     0
176
     1
290
     0
176
     1
 90
       50
176
     1
 40
0.0
176
     1
 40
1.0
176
     1
 90
        0
176
     1
 62
    18
420
        0
176
     1
 90
       50
176
     1
 90
        3
176
     1
 62
     5
420
      255
176
     1
290
     0
176
     1
 90
       50
176
     1
 90
       50
176
     1
 90
       50
176
     1
290
     0
176
     1
 90
       50
176
     1
 62
   256
176
     0
 40
1.0
176
     0
 90
        2
176
     1
  1
strokes_ogs.tif
176
     1
290
     0
176
     1
 40
1.0
176
     1
 40
1.0
176
     1
  0
VISUALSTYLE
  5
41
102
{ACAD_REACTORS
330
2A
102
}
330
2A
100
AcDbVisualStyle
  2
Shaded with edges
 70
    26
177
     3
291
     0
 70
    58
 90
        2
176
     1
 90
        2
176
     1
 90
        1
176
     1
 90
        2
176
     1
 40
0.6
176
     1
 40
30.0
176
     1
 62
     7
420
 16777215
176
     1
 90
        1
176
     1
 90
       10
176
     1
 62
     7
176
     1
 62
   257
176
     1
 90
        2
176
     1
 90
        1
176
     1
 40
1.0
176
     1
 90
        8
176
     1
 62
   257
176
     1
 40
1.0
176
     1
 90
        1
176
     1
 90
        6
176
     1
 90
        2
176
     1
 62
     7
176
     1
 90
        3
176
     1
 90
        0
176
     1
 90
        0
176
     1
290
     0
176
     1
 90
        5
176
     1
 40
0.0
176
     1
 90
        0
176
     1
290
     0
176
     1
290
     1
176
     1
290
     1
176
     1
290
     0
176
     1
290
     0
176
     1
290
     0
176
     1
290
     0
176
     1
290
     0
176
     1
290
     0
176
     1
 90
       50
176
     1
 40
0.0
176
     1
 40
1.0
176
     1
 90
        0
176
     1
 62
    18
420
        0
176
     1
 90
       50
176
     1
 90
        3
176
     1
 62
     5
420
      255
176
     1
290
     0
176
     1
 90
       50
176
     1
 90
       50
176
     1
 90
       50
176
     1
290
     0
176
     1
 90
       50
176
     1
 62
   256
176
     0
 40
1.0
176
     0
 90
        2
176
     1
  1
strokes_ogs.tif
176
     1
290
     0
176
     1
 40
1.0
176
     1
 40
1.0
176
     1
  0
VISUALSTYLE
  5
3E
102
{ACAD_REACTORS
330
2A
102
}
330
2A
100
AcDbVisualStyle
  2
Shades of Gray
 70
    23
177
     3
291
     0
 70
    58
 90
        2
176
     1
 90
        2
176
     1
 90
        3
176
     1
 90
        0
176
     1
 40
0.6
176
     1
 40
30.0
176
     1
 62
     7
420
 16777215
176
     1
 90
        2
176
     1
 90
        2
176
     1
 62
     7
176
     1
 62
     7
176
     1
 90
        1
176
     1
 90
        1
176
     1
 40
40.0
176
     1
 90
        8
176
     1
 62
     7
176
     1
 40
1.0
176
     1
 90
        1
176
     1
 90
        6
176
     1
 90
        2
176
     1
 62
     7
176
     1
 90
        3
176
     1
 90
        0
176
     1
 90
        0
176
     1
290
     0
176
     1
 90
        1
176
     1
 40
0.0
176
     1
 90
        0
176
     1
290
     0
176
     1
290
     1
176
     1
290
     1
176
     1
290
     0
176
     1
290
     0
176
     1
290
     0
176
     1
290
     0
176
     1
290
     0
176
     1
290
     0
176
     1
 90
       50
176
     1
 40
0.0
176
     1
 40
1.0
176
     1
 90
        0
176
     1
 62
    18
420
        0
176
     1
 90
       50
176
     1
 90
        3
176
     1
 62
     5
420
      255
176
     1
290
     0
176
     1
 90
       50
176
     1
 90
       50
176
     1
 90
       50
176
     1
290
     0
176
     1
 90
       50
176
     1
 62
   256
176
     0
 40
1.0
176
     0
 90
        2
176
     1
  1
strokes_ogs.tif
176
     1
290
     0
176
     1
 40
1.0
176
     1
 40
1.0
176
     1
  0
VISUALSTYLE
  5
3F
102
{ACAD_REACTORS
330
2A
102
}
330
2A
100
AcDbVisualStyle
  2
Sketchy
 70
    24
177
     3
291
     0
 70
    58
 90
        1
176
     1
 90
        2
176
     1
 90
        2
176
     1
 90
        0
176
     1
 40
0.6
176
     1
 40
30.0
176
     1
 62
     7
420
 16777215
176
     1
 90
        2
176
     1
 90
        2
176
     1
 62
     7
176
     1
 62
     7
176
     1
 90
        1
176
     1
 90
        1
176
     1
 40
40.0
176
     1
 90
       11
176
     1
 62
     7
176
     1
 40
1.0
176
     1
 90
        1
176
     1
 90
        6
176
     1
 90
        2
176
     1
 62
     7
176
     1
 90
        6
176
     1
 90
        0
176
     1
 90
        0
176
     1
290
     0
176
     1
 90
        1
176
     1
 40
0.0
176
     1
 90
        0
176
     1
290
     0
176
     1
290
     1
176
     1
290
     1
176
     1
290
     0
176
     1
290
     0
176
     1
290
     0
176
     1
290
     0
176
     1
290
     0
176
     1
290
     0
176
     1
 90
       50
176
     1
 40
0.0
176
     1
 40
1.0
176
     1
 90
        0
176
     1
 62
    18
420
        0
176
     1
 90
       50
176
     1
 90
        3
176
     1
 62
     5
420
      255
176
     1
290
     0
176
     1
 90
       50
176
     1
 90
       50
176
     1
 90
       50
176
     1
290
     0
176
     1
 90
       50
176
     1
 62
   256
176
     0
 40
1.0
176
     0
 90
        2
176
     1
  1
strokes_ogs.tif
176
     1
290
     0
176
     1
 40
1.0
176
     1
 40
1.0
176
     1
  0
VISUALSTYLE
  5
37
102
{ACAD_REACTORS
330
2A
102
}
330
2A
100
AcDbVisualStyle
  2
Thicken
 70
    13
177
     3
291
     1
 70
    58
 90
        2
176
     1
 90
        2
176
     1
 90
        0
176
     1
 90
        0
176
     1
 40
0.6
176
     1
 40
30.0
176
     1
 62
     7
420
 16777215
176
     1
 90
        1
176
     1
 90
        4
176
     1
 62
     7
176
     1
 62
   257
176
     1
 90
        1
176
     1
 90
        1
176
     1
 40
1.0
176
     1
 90
       12
176
     1
 62
     7
176
     1
 40
1.0
176
     1
 90
        1
176
     1
 90
        6
176
     1
 90
        2
176
     1
 62
     7
176
     1
 90
        5
176
     1
 90
        0
176
     1
 90
        0
176
     1
290
     0
176
     1
 90
        1
176
     1
 40
0.0
176
     1
 90
        0
176
     1
290
     0
176
     1
290
     1
176
     1
290
     1
176
     1
290
     0
176
     1
290
     0
176
     1
290
     0
176
     1
290
     0
176
     1
290
     0
176
     1
290
     0
176
     1
 90
       50
176
     1
 40
0.0
176
     1
 40
1.0
176
     1
 90
        0
176
     1
 62
    18
420
        0
176
     1
 90
       50
176
     1
 90
        3
176
     1
 62
     5
420
      255
176
     1
290
     0
176
     1
 90
       50
176
     1
 90
       50
176
     1
 90
       50
176
     1
290
     0
176
     1
 90
       50
176
     1
 62
   256
176
     0
 40
1.0
176
     0
 90
        2
176
     1
  1
strokes_ogs.tif
176
     1
290
     0
176
     1
 40
1.0
176
     1
 40
1.0
176
     1
  0
VISUALSTYLE
  5
30
102
{ACAD_REACTORS
330
2A
102
}
330
2A
100
AcDbVisualStyle
  2
Wireframe
 70
     5
177
     3
291
     0
 70
    58
 90
        0
176
     1
 90
        2
176
     1
 90
        0
176
     1
 90
        0
176
     1
 40
0.6
176
     1
 40
30.0
176
     1
 62
     7
420
 16777215
176
     1
 90
        1
176
     1
 90
        4
176
     1
 62
     7
176
     1
 62
   257
176
     1
 90
        1
176
     1
 90
        1
176
     1
 40
1.0
176
     1
 90
        0
176
     1
 62
   257
176
     1
 40
1.0
176
     1
 90
        1
176
     1
 90
        6
176
     1
 90
        2
176
     1
 62
     7
176
     1
 90
        3
176
     1
 90
        0
176
     1
 90
        0
176
     1
290
     0
176
     1
 90
        1
176
     1
 40
0.0
176
     1
 90
        0
176
     1
290
     0
176
     1
290
     1
176
     1
290
     1
176
     1
290
     0
176
     1
290
     0
176
     1
290
     0
176
     1
290
     0
176
     1
290
     0
176
     1
290
     0
176
     1
 90
       50
176
     1
 40
0.0
176
     1
 40
1.0
176
     1
 90
        0
176
     1
 62
    18
420
        0
176
     1
 90
       50
176
     1
 90
        3
176
     1
 62
     5
420
      255
176
     1
290
     0
176
     1
 90
       50
176
     1
 90
       50
176
     1
 90
       50
176
     1
290
     0
176
     1
 90
       50
176
     1
 62
   256
176
     0
 40
1.0
176
     0
 90
        2
176
     1
  1
strokes_ogs.tif
176
     1
290
     0
176
     1
 40
1.0
176
     1
 40
1.0
176
     1
  0
VISUALSTYLE
  5
40
102
{ACAD_REACTORS
330
2A
102
}
330
2A
100
AcDbVisualStyle
  2
X-Ray
 70
    25
177
     3
291
     0
 70
    58
 90
        2
176
     1
 90
        2
176
     1
 90
        1
176
     1
 90
        1
176
     1
 40
0.5
176
     1
 40
30.0
176
     1
 62
     7
420
 16777215
176
     1
 90
        1
176
     1
 90
        0
176
     1
 62
     7
176
     1
 62
   257
176
     1
 90
        1
176
     1
 90
        1
176
     1
 40
1.0
176
     1
 90
        8
176
     1
 62
     7
176
     1
 40
1.0
176
     1
 90
        1
176
     1
 90
        6
176
     1
 90
        2
176
     1
 62
     7
176
     1
 90
        3
176
     1
 90
        0
176
     1
 90
        0
176
     1
290
     0
176
     1
 90
       13
176
     1
 40
0.0
176
     1
 90
        0
176
     1
290
     0
176
     1
290
     1
176
     1
290
     1
176
     1
290
     0
176
     1
290
     0
176
     1
290
     0
176
     1
290
     0
176
     1
290
     0
176
     1
290
     0
176
     1
 90
       50
176
     1
 40
0.0
176
     1
 40
1.0
176
     1
 90
        0
176
     1
 62
    18
420
        0
176
     1
 90
       50
176
     1
 90
        3
176
     1
 62
     5
420
      255
176
     1
290
     0
176
     1
 90
       50
176
     1
 90
       50
176
     1
 90
       50
176
     1
290
     0
176
     1
 90
       50
176
     1
 62
   256
176
     0
 40
1.0
176
     0
 90
        2
176
     1
  1
strokes_ogs.tif
176
     1
290
     0
176
     1
 40
1.0
176
     1
 40
1.0
176
     1
  0
DICTIONARYVAR
  5
1EF
102
{ACAD_REACTORS
330
1EE
102
}
330
1EE
100
DictionaryVariables
280
     0
  1
1:1
  0
DICTIONARYVAR
  5
1F4
102
{ACAD_REACTORS
330
1EE
102
}
330
1EE
100
DictionaryVariables
280
     0
  1
Standard
  0
DICTIONARYVAR
  5
1F3
102
{ACAD_REACTORS
330
1EE
102
}
330
1EE
100
DictionaryVariables
280
     0
  1
Standard
  0
DICTIONARY
  5
1F0
330
6A
100
AcDbDictionary
280
     1
281
     1
  3
ACAD_ROUNDTRIP_2008_TABLESTYLE_CELLSTYLEMAP
360
1F1
  0
CELLSTYLEMAP
  5
1F1
102
{ACAD_REACTORS
330
1F0
102
}
330
1F0
100
AcDbCellStyleMap
 90
        3
300
CELLSTYLE
  1
TABLEFORMAT_BEGIN
 90
        5
170
     1
 91
        0
 92
    32768
 62
   257
 93
        1
300
CONTENTFORMAT
  1
CONTENTFORMAT_BEGIN
 90
        0
 91
        0
 92
        4
 93
        0
300

 40
0.0
140
1.0
 94
        5
 62
     0
340
11
144
0.25
309
CONTENTFORMAT_END
171
     1
301
MARGIN
  1
CELLMARGIN_BEGIN
 40
0.06
 40
0.06
 40
0.06
 40
0.06
 40
0.06
 40
0.06
309
CELLMARGIN_END
 94
        6
 95
        1
302
GRIDFORMAT
  1
GRIDFORMAT_BEGIN
 90
        0
 91
        1
 62
     0
 92
       -2
340
14
 93
        0
 40
0.045
309
GRIDFORMAT_END
 95
        2
302
GRIDFORMAT
  1
GRIDFORMAT_BEGIN
 90
        0
 91
        1
 62
     0
 92
       -2
340
14
 93
        0
 40
0.045
309
GRIDFORMAT_END
 95
        4
302
GRIDFORMAT
  1
GRIDFORMAT_BEGIN
 90
        0
 91
        1
 62
     0
 92
       -2
340
14
 93
        0
 40
0.045
309
GRIDFORMAT_END
 95
        8
302
GRIDFORMAT
  1
GRIDFORMAT_BEGIN
 90
        0
 91
        1
 62
     0
 92
       -2
340
14
 93
        0
 40
0.045
309
GRIDFORMAT_END
 95
       16
302
GRIDFORMAT
  1
GRIDFORMAT_BEGIN
 90
        0
 91
        1
 62
     0
 92
       -2
340
14
 93
        0
 40
0.045
309
GRIDFORMAT_END
 95
       32
302
GRIDFORMAT
  1
GRIDFORMAT_BEGIN
 90
        0
 91
        1
 62
     0
 92
       -2
340
14
 93
        0
 40
0.045
309
GRIDFORMAT_END
309
TABLEFORMAT_END
  1
CELLSTYLE_BEGIN
 90
        1
 91
        1
300
_TITLE
309
CELLSTYLE_END
300
CELLSTYLE
  1
TABLEFORMAT_BEGIN
 90
        5
170
     1
 91
        0
 92
        0
 62
   257
 93
        1
300
CONTENTFORMAT
  1
CONTENTFORMAT_BEGIN
 90
        0
 91
        0
 92
        4
 93
        0
300

 40
0.0
140
1.0
 94
        5
 62
     0
340
11
144
0.18
309
CONTENTFORMAT_END
171
     1
301
MARGIN
  1
CELLMARGIN_BEGIN
 40
0.06
 40
0.06
 40
0.06
 40
0.06
 40
0.06
 40
0.06
309
CELLMARGIN_END
 94
        6
 95
        1
302
GRIDFORMAT
  1
GRIDFORMAT_BEGIN
 90
        0
 91
        1
 62
     0
 92
       -2
340
14
 93
        0
 40
0.045
309
GRIDFORMAT_END
 95
        2
302
GRIDFORMAT
  1
GRIDFORMAT_BEGIN
 90
        0
 91
        1
 62
     0
 92
       -2
340
14
 93
        0
 40
0.045
309
GRIDFORMAT_END
 95
        4
302
GRIDFORMAT
  1
GRIDFORMAT_BEGIN
 90
        0
 91
        1
 62
     0
 92
       -2
340
14
 93
        0
 40
0.045
309
GRIDFORMAT_END
 95
        8
302
GRIDFORMAT
  1
GRIDFORMAT_BEGIN
 90
        0
 91
        1
 62
     0
 92
       -2
340
14
 93
        0
 40
0.045
309
GRIDFORMAT_END
 95
       16
302
GRIDFORMAT
  1
GRIDFORMAT_BEGIN
 90
        0
 91
        1
 62
     0
 92
       -2
340
14
 93
        0
 40
0.045
309
GRIDFORMAT_END
 95
       32
302
GRIDFORMAT
  1
GRIDFORMAT_BEGIN
 90
        0
 91
        1
 62
     0
 92
       -2
340
14
 93
        0
 40
0.045
309
GRIDFORMAT_END
309
TABLEFORMAT_END
  1
CELLSTYLE_BEGIN
 90
        2
 91
        1
300
_HEADER
309
CELLSTYLE_END
300
CELLSTYLE
  1
TABLEFORMAT_BEGIN
 90
        5
170
     1
 91
        0
 92
        0
 62
   257
 93
        1
300
CONTENTFORMAT
  1
CONTENTFORMAT_BEGIN
 90
        0
 91
        0
 92
        4
 93
        0
300

 40
0.0
140
1.0
 94
        2
 62
     0
340
11
144
0.18
309
CONTENTFORMAT_END
171
     1
301
MARGIN
  1
CELLMARGIN_BEGIN
 40
0.06
 40
0.06
 40
0.06
 40
0.06
 40
0.06
 40
0.06
309
CELLMARGIN_END
 94
        6
 95
        1
302
GRIDFORMAT
  1
GRIDFORMAT_BEGIN
 90
        0
 91
        1
 62
     0
 92
       -2
340
14
 93
        0
 40
0.045
309
GRIDFORMAT_END
 95
        2
302
GRIDFORMAT
  1
GRIDFORMAT_BEGIN
 90
        0
 91
        1
 62
     0
 92
       -2
340
14
 93
        0
 40
0.045
309
GRIDFORMAT_END
 95
        4
302
GRIDFORMAT
  1
GRIDFORMAT_BEGIN
 90
        0
 91
        1
 62
     0
 92
       -2
340
14
 93
        0
 40
0.045
309
GRIDFORMAT_END
 95
        8
302
GRIDFORMAT
  1
GRIDFORMAT_BEGIN
 90
        0
 91
        1
 62
     0
 92
       -2
340
14
 93
        0
 40
0.045
309
GRIDFORMAT_END
 95
       16
302
GRIDFORMAT
  1
GRIDFORMAT_BEGIN
 90
        0
 91
        1
 62
     0
 92
       -2
340
14
 93
        0
 40
0.045
309
GRIDFORMAT_END
 95
       32
302
GRIDFORMAT
  1
GRIDFORMAT_BEGIN
 90
        0
 91
        1
 62
     0
 92
       -2
340
14
 93
        0
 40
0.045
309
GRIDFORMAT_END
309
TABLEFORMAT_END
  1
CELLSTYLE_BEGIN
 90
        3
 91
        2
300
_DATA
309
CELLSTYLE_END
  0
ENDSEC
  0
EOF