0
SECTION
  2
HEADER
  9
$ACADVER
  1
AC1027
  9
$ACADMAINTVER
 70
     8
  9
$DWGCODEPAGE
  3
ANSI_1252
  9
$REQUIREDVERSIONS
160
                 0
  9
$COMMENTS
  1
File was created by Cadenas
  9
$CUSTOMPROPERTYTAG
  1
NN
  9
$CUSTOMPROPERTY
  1
Grip Tight Medium Duty Four-Bolt Flange Inch Bore
  9
$CUSTOMPROPERTYTAG
  1
NT
  9
$CUSTOMPROPERTY
  1
GTM Medium Duty 4 Bolt Flange Bearings
  9
$CUSTOMPROPERTYTAG
  1
NB
  9
$CUSTOMPROPERTY
  1
129679
  9
$CUSTOMPROPERTYTAG
  1
NBSYN
  9
$CUSTOMPROPERTY
  1
$PN.$LUBE.
  9
$CUSTOMPROPERTYTAG
  1
LINA
  9
$CUSTOMPROPERTY
  1
129679
  9
$CUSTOMPROPERTYTAG
  1
SERIES
  9
$CUSTOMPROPERTY
  1
205
  9
$CUSTOMPROPERTYTAG
  1
SS
  9
$CUSTOMPROPERTY
  1
3/4
  9
$CUSTOMPROPERTYTAG
  1
PN
  9
$CUSTOMPROPERTY
  1
129679
  9
$CUSTOMPROPERTYTAG
  1
DESCRIPTION
  9
$CUSTOMPROPERTY
  1
F4B-GTM-012
  9
$CUSTOMPROPERTYTAG
  1
A
  9
$CUSTOMPROPERTY
  1
1-29/64
  9
$CUSTOMPROPERTYTAG
  1
B
  9
$CUSTOMPROPERTY
  1
3-3/4
  9
$CUSTOMPROPERTYTAG
  1
C
  9
$CUSTOMPROPERTY
  1
1-35/64
  9
$CUSTOMPROPERTYTAG
  1
D
  9
$CUSTOMPROPERTY
  1
2-3/4
  9
$CUSTOMPROPERTYTAG
  1
F
  9
$CUSTOMPROPERTY
  1
7/16
  9
$CUSTOMPROPERTYTAG
  1
H
  9
$CUSTOMPROPERTY
  1
1/2
  9
$CUSTOMPROPERTYTAG
  1
J
  9
$CUSTOMPROPERTY
  1
19/32
  9
$CUSTOMPROPERTYTAG
  1
L
  9
$CUSTOMPROPERTY
  1
1-51/64
  9
$CUSTOMPROPERTYTAG
  1
N
  9
$CUSTOMPROPERTY
  1
2-1/16
  9
$CUSTOMPROPERTYTAG
  1
Z
  9
$CUSTOMPROPERTY
  1
1-35/64
  9
$CUSTOMPROPERTYTAG
  1
COMPANY
  9
$CUSTOMPROPERTY
  1
baldor
  9
$INSBASE
 10
0.0
 20
0.0
 30
0.0
  9
$EXTMIN
 10
1.000000000000000E+20
 20
1.000000000000000E+20
 30
1.000000000000000E+20
  9
$EXTMAX
 10
-1.000000000000000E+20
 20
-1.000000000000000E+20
 30
-1.000000000000000E+20
  9
$LIMMIN
 10
0.0
 20
0.0
  9
$LIMMAX
 10
12.0
 20
9.0
  9
$ORTHOMODE
 70
     0
  9
$REGENMODE
 70
     1
  9
$FILLMODE
 70
     1
  9
$QTEXTMODE
 70
     0
  9
$MIRRTEXT
 70
     1
  9
$LTSCALE
 40
1.0
  9
$ATTMODE
 70
     1
  9
$TEXTSIZE
 40
0.2
  9
$TRACEWID
 40
0.05
  9
$TEXTSTYLE
  7
Standard
  9
$CLAYER
  8
0
  9
$CELTYPE
  6
ByLayer
  9
$CECOLOR
 62
   256
  9
$CELTSCALE
 40
1.0
  9
$DISPSILH
 70
     0
  9
$DIMSCALE
 40
1.0
  9
$DIMASZ
 40
0.18
  9
$DIMEXO
 40
0.0625
  9
$DIMDLI
 40
0.38
  9
$DIMRND
 40
0.0
  9
$DIMDLE
 40
0.0
  9
$DIMEXE
 40
0.18
  9
$DIMTP
 40
0.0
  9
$DIMTM
 40
0.0
  9
$DIMTXT
 40
0.18
  9
$DIMCEN
 40
0.09
  9
$DIMTSZ
 40
0.0
  9
$DIMTOL
 70
     0
  9
$DIMLIM
 70
     0
  9
$DIMTIH
 70
     1
  9
$DIMTOH
 70
     1
  9
$DIMSE1
 70
     0
  9
$DIMSE2
 70
     0
  9
$DIMTAD
 70
     0
  9
$DIMZIN
 70
     0
  9
$DIMBLK
  1

  9
$DIMASO
 70
     1
  9
$DIMSHO
 70
     1
  9
$DIMPOST
  1

  9
$DIMAPOST
  1

  9
$DIMALT
 70
     0
  9
$DIMALTD
 70
     2
  9
$DIMALTF
 40
25.4
  9
$DIMLFAC
 40
1.0
  9
$DIMTOFL
 70
     0
  9
$DIMTVP
 40
0.0
  9
$DIMTIX
 70
     0
  9
$DIMSOXD
 70
     0
  9
$DIMSAH
 70
     0
  9
$DIMBLK1
  1

  9
$DIMBLK2
  1

  9
$DIMSTYLE
  2
Standard
  9
$DIMCLRD
 70
     0
  9
$DIMCLRE
 70
     0
  9
$DIMCLRT
 70
     0
  9
$DIMTFAC
 40
1.0
  9
$DIMGAP
 40
0.09
  9
$DIMJUST
 70
     0
  9
$DIMSD1
 70
     0
  9
$DIMSD2
 70
     0
  9
$DIMTOLJ
 70
     1
  9
$DIMTZIN
 70
     0
  9
$DIMALTZ
 70
     0
  9
$DIMALTTZ
 70
     0
  9
$DIMUPT
 70
     0
  9
$DIMDEC
 70
     4
  9
$DIMTDEC
 70
     4
  9
$DIMALTU
 70
     2
  9
$DIMALTTD
 70
     2
  9
$DIMTXSTY
  7
Standard
  9
$DIMAUNIT
 70
     0
  9
$DIMADEC
 70
     0
  9
$DIMALTRND
 40
0.0
  9
$DIMAZIN
 70
     0
  9
$DIMDSEP
 70
    46
  9
$DIMATFIT
 70
     3
  9
$DIMFRAC
 70
     0
  9
$DIMLDRBLK
  1

  9
$DIMLUNIT
 70
     2
  9
$DIMLWD
 70
    -2
  9
$DIMLWE
 70
    -2
  9
$DIMTMOVE
 70
     0
  9
$DIMFXL
 40
1.0
  9
$DIMFXLON
 70
     0
  9
$DIMJOGANG
 40
0.7853981633974483
  9
$DIMTFILL
 70
     0
  9
$DIMTFILLCLR
 70
     0
  9
$DIMARCSYM
 70
     0
  9
$DIMLTYPE
  6

  9
$DIMLTEX1
  6

  9
$DIMLTEX2
  6

  9
$DIMTXTDIRECTION
 70
     0
  9
$LUNITS
 70
     2
  9
$LUPREC
 70
     4
  9
$SKETCHINC
 40
0.1
  9
$FILLETRAD
 40
0.5
  9
$AUNITS
 70
     0
  9
$AUPREC
 70
     0
  9
$MENU
  1
.
  9
$ELEVATION
 40
0.0
  9
$PELEVATION
 40
0.0
  9
$THICKNESS
 40
0.0
  9
$LIMCHECK
 70
     0
  9
$CHAMFERA
 40
0.0
  9
$CHAMFERB
 40
0.0
  9
$CHAMFERC
 40
0.0
  9
$CHAMFERD
 40
0.0
  9
$SKPOLY
 70
     0
  9
$TDCREATE
 40
2458168.993364329
  9
$TDUCREATE
 40
2458168.951697662
  9
$TDUPDATE
 40
2458168.993364514
  9
$TDUUPDATE
 40
2458168.951697847
  9
$TDINDWG
 40
0.0000000116
  9
$TDUSRTIMER
 40
0.0000000116
  9
$USRTIMER
 70
     1
  9
$ANGBASE
 50
0.0
  9
$ANGDIR
 70
     0
  9
$PDMODE
 70
     0
  9
$PDSIZE
 40
0.0
  9
$PLINEWID
 40
0.0
  9
$SPLFRAME
 70
     0
  9
$SPLINETYPE
 70
     6
  9
$SPLINESEGS
 70
     8
  9
$HANDSEED
  5
1CF
  9
$SURFTAB1
 70
     6
  9
$SURFTAB2
 70
     6
  9
$SURFTYPE
 70
     6
  9
$SURFU
 70
     6
  9
$SURFV
 70
     6
  9
$UCSBASE
  2

  9
$UCSNAME
  2

  9
$UCSORG
 10
0.0
 20
0.0
 30
0.0
  9
$UCSXDIR
 10
1.0
 20
0.0
 30
0.0
  9
$UCSYDIR
 10
0.0
 20
1.0
 30
0.0
  9
$UCSORTHOREF
  2

  9
$UCSORTHOVIEW
 70
     0
  9
$UCSORGTOP
 10
0.0
 20
0.0
 30
0.0
  9
$UCSORGBOTTOM
 10
0.0
 20
0.0
 30
0.0
  9
$UCSORGLEFT
 10
0.0
 20
0.0
 30
0.0
  9
$UCSORGRIGHT
 10
0.0
 20
0.0
 30
0.0
  9
$UCSORGFRONT
 10
0.0
 20
0.0
 30
0.0
  9
$UCSORGBACK
 10
0.0
 20
0.0
 30
0.0
  9
$PUCSBASE
  2

  9
$PUCSNAME
  2

  9
$PUCSORG
 10
0.0
 20
0.0
 30
0.0
  9
$PUCSXDIR
 10
1.0
 20
0.0
 30
0.0
  9
$PUCSYDIR
 10
0.0
 20
1.0
 30
0.0
  9
$PUCSORTHOREF
  2

  9
$PUCSORTHOVIEW
 70
     0
  9
$PUCSORGTOP
 10
0.0
 20
0.0
 30
0.0
  9
$PUCSORGBOTTOM
 10
0.0
 20
0.0
 30
0.0
  9
$PUCSORGLEFT
 10
0.0
 20
0.0
 30
0.0
  9
$PUCSORGRIGHT
 10
0.0
 20
0.0
 30
0.0
  9
$PUCSORGFRONT
 10
0.0
 20
0.0
 30
0.0
  9
$PUCSORGBACK
 10
0.0
 20
0.0
 30
0.0
  9
$USERI1
 70
     0
  9
$USERI2
 70
     0
  9
$USERI3
 70
     0
  9
$USERI4
 70
     0
  9
$USERI5
 70
     0
  9
$USERR1
 40
0.0
  9
$USERR2
 40
0.0
  9
$USERR3
 40
0.0
  9
$USERR4
 40
0.0
  9
$USERR5
 40
0.0
  9
$WORLDVIEW
 70
     1
  9
$SHADEDGE
 70
     3
  9
$SHADEDIF
 70
    70
  9
$TILEMODE
 70
     1
  9
$MAXACTVP
 70
    64
  9
$PINSBASE
 10
0.0
 20
0.0
 30
0.0
  9
$PLIMCHECK
 70
     0
  9
$PEXTMIN
 10
1.000000000000000E+20
 20
1.000000000000000E+20
 30
1.000000000000000E+20
  9
$PEXTMAX
 10
-1.000000000000000E+20
 20
-1.000000000000000E+20
 30
-1.000000000000000E+20
  9
$PLIMMIN
 10
0.0
 20
0.0
  9
$PLIMMAX
 10
12.0
 20
9.0
  9
$UNITMODE
 70
     0
  9
$VISRETAIN
 70
     1
  9
$PLINEGEN
 70
     0
  9
$PSLTSCALE
 70
     1
  9
$TREEDEPTH
 70
  3020
  9
$CMLSTYLE
  2
Standard
  9
$CMLJUST
 70
     0
  9
$CMLSCALE
 40
1.0
  9
$PROXYGRAPHICS
 70
     1
  9
$MEASUREMENT
 70
     0
  9
$CELWEIGHT
370
    -1
  9
$ENDCAPS
280
     0
  9
$JOINSTYLE
280
     0
  9
$LWDISPLAY
290
     0
  9
$INSUNITS
 70
     1
  9
$HYPERLINKBASE
  1

  9
$STYLESHEET
  1

  9
$XEDIT
290
     1
  9
$CEPSNTYPE
380
     0
  9
$PSTYLEMODE
290
     1
  9
$FINGERPRINTGUID
  2
{13CA8F3B-9198-41D0-8180-48606039B3F9}
  9
$VERSIONGUID
  2
{FAEB1C32-E019-11D5-929B-00C0DF256EC4}
  9
$EXTNAMES
290
     1
  9
$PSVPSCALE
 40
0.0
  9
$OLESTARTUP
290
     0
  9
$SORTENTS
280
   127
  9
$INDEXCTL
280
     0
  9
$HIDETEXT
280
     1
  9
$XCLIPFRAME
280
     2
  9
$HALOGAP
280
     0
  9
$OBSCOLOR
 70
   257
  9
$OBSLTYPE
280
     0
  9
$INTERSECTIONDISPLAY
280
     0
  9
$INTERSECTIONCOLOR
 70
   257
  9
$DIMASSOC
280
     2
  9
$PROJECTNAME
  1

  9
$CAMERADISPLAY
290
     0
  9
$LENSLENGTH
 40
50.0
  9
$CAMERAHEIGHT
 40
0.0
  9
$STEPSPERSEC
 40
2.0
  9
$STEPSIZE
 40
6.0
  9
$3DDWFPREC
 40
2.0
  9
$PSOLWIDTH
 40
0.25
  9
$PSOLHEIGHT
 40
4.0
  9
$LOFTANG1
 40
1.570796326794897
  9
$LOFTANG2
 40
1.570796326794897
  9
$LOFTMAG1
 40
0.0
  9
$LOFTMAG2
 40
0.0
  9
$LOFTPARAM
 70
     7
  9
$LOFTNORMALS
280
     1
  9
$LATITUDE
 40
37.795
  9
$LONGITUDE
 40
-122.394
  9
$NORTHDIRECTION
 40
0.0
  9
$TIMEZONE
 70
 -8000
  9
$LIGHTGLYPHDISPLAY
280
     1
  9
$TILEMODELIGHTSYNCH
280
     1
  9
$CMATERIAL
347
44
  9
$SOLIDHIST
280
     0
  9
$SHOWHIST
280
     1
  9
$DWFFRAME
280
     2
  9
$DGNFRAME
280
     2
  9
$REALWORLDSCALE
290
     1
  9
$INTERFERECOLOR
 62
   256
  9
$CSHADOW
280
     0
  9
$SHADOWPLANELOCATION
 40
0.0
  0
ENDSEC
  0
SECTION
  2
CLASSES
  0
CLASS
  1
ACDBDICTIONARYWDFLT
  2
AcDbDictionaryWithDefault
  3
ObjectDBX Classes
 90
        0
 91
        4
280
     0
281
     0
  0
CLASS
  1
VISUALSTYLE
  2
AcDbVisualStyle
  3
ObjectDBX Classes
 90
     4095
 91
        4
280
     0
281
     0
  0
CLASS
  1
MATERIAL
  2
AcDbMaterial
  3
ObjectDBX Classes
 90
     1153
 91
        4
280
     0
281
     0
  0
CLASS
  1
SCALE
  2
AcDbScale
  3
ObjectDBX Classes
 90
     1153
 91
        4
280
     0
281
     0
  0
CLASS
  1
TABLESTYLE
  2
AcDbTableStyle
  3
ObjectDBX Classes
 90
     4095
 91
        4
280
     0
281
     0
  0
CLASS
  1
MLEADERSTYLE
  2
AcDbMLeaderStyle
  3
ACDB_MLEADERSTYLE_CLASS
 90
     4095
 91
        4
280
     0
281
     0
  0
CLASS
  1
SUN
  2
AcDbSun
  3
SCENEOE
 90
     1153
 91
        4
280
     0
281
     0
  0
CLASS
  1
DICTIONARYVAR
  2
AcDbDictionaryVar
  3
ObjectDBX Classes
 90
        0
 91
        4
280
     0
281
     0
  0
CLASS
  1
CELLSTYLEMAP
  2
AcDbCellStyleMap
  3
ObjectDBX Classes
 90
     1152
 91
        4
280
     0
281
     0
  0
ENDSEC
  0
SECTION
  2
TABLES
  0
TABLE
  2
VPORT
  5
8
330
0
100
AcDbSymbolTable
 70
     1
  0
VPORT
  5
29
330
8
100
AcDbSymbolTableRecord
100
AcDbViewportTableRecord
  2
*Active
 70
     0
 10
0.0
 20
0.0
 11
1.0
 21
1.0
 12
0.1669843750000002
 22
0.1047332736692912
 13
0.0
 23
0.0
 14
0.5
 24
0.5
 15
0.5
 25
0.5
 16
0.0
 26
0.0
 36
1.0
 17
0.0
 27
0.0
 37
0.0
 40
4.038655878285354
 41
0.4210999714395171
 42
50.0
 43
0.0
 44
0.0
 50
0.0
 51
0.0
 71
     0
 72
   100
 73
     1
 74
     3
 75
     0
 76
     0
 77
     0
 78
     0
281
     0
 65
     1
110
0.0
120
0.0
130
0.0
111
1.0
121
0.0
131
0.0
112
0.0
122
1.0
132
0.0
 79
     0
146
0.0
348
2F
 60
     3
 61
     5
292
     1
282
     1
141
0.0
142
0.0
 63
   250
361
6D
  0
ENDTAB
  0
TABLE
  2
LTYPE
  5
5
330
0
100
AcDbSymbolTable
 70
     3
  0
LTYPE
  5
14
330
5
100
AcDbSymbolTableRecord
100
AcDbLinetypeTableRecord
  2
ByBlock
 70
     0
  3

 72
    65
 73
     0
 40
0.0
  0
LTYPE
  5
15
330
5
100
AcDbSymbolTableRecord
100
AcDbLinetypeTableRecord
  2
ByLayer
 70
     0
  3

 72
    65
 73
     0
 40
0.0
  0
LTYPE
  5
16
330
5
100
AcDbSymbolTableRecord
100
AcDbLinetypeTableRecord
  2
Continuous
 70
     0
  3
Solid line
 72
    65
 73
     0
 40
0.0
  0
LTYPE
  5
9D
330
5
100
AcDbSymbolTableRecord
100
AcDbLinetypeTableRecord
  2
Dashed
 70
     0
  3

 72
    65
 73
     2
 40
2.0
 49
1.0
 74
     0
 49
-1.0
 74
     0
  0
LTYPE
  5
110
330
5
100
AcDbSymbolTableRecord
100
AcDbLinetypeTableRecord
  2
Center
 70
     0
  3

 72
    65
 73
     4
 40
1.5
 49
0.45
 74
     0
 49
-0.5
 74
     0
 49
0.05
 74
     0
 49
-0.5
 74
     0
  0
ENDTAB
  0
TABLE
  2
LAYER
  5
2
330
0
100
AcDbSymbolTable
 70
     7
  0
LAYER
  5
10
330
2
100
AcDbSymbolTableRecord
100
AcDbLayerTableRecord
  2
0
 70
     0
 62
     7
  6
Continuous
370
    -3
390
F
347
46
348
0
  0
LAYER
  5
72
330
2
100
AcDbSymbolTableRecord
100
AcDbLayerTableRecord
  2
AM_6
 70
     0
 62
    -2
  6
Continuous
370
    35
390
F
347
46
348
0
  0
LAYER
  5
9E
330
2
100
AcDbSymbolTableRecord
100
AcDbLayerTableRecord
  2
AM_9
 70
     0
 62
     6
  6
Dashed
370
    25
390
F
347
46
348
0
  0
LAYER
  5
CE
330
2
100
AcDbSymbolTableRecord
100
AcDbLayerTableRecord
  2
AM_4
 70
     0
 62
     7
  6
Continuous
370
    50
390
F
347
46
348
0
  0
LAYER
  5
111
330
2
100
AcDbSymbolTableRecord
100
AcDbLayerTableRecord
  2
AM_7
 70
     0
 62
     7
  6
Center
370
    25
390
F
347
46
348
0
  0
LAYER
  5
121
330
2
100
AcDbSymbolTableRecord
100
AcDbLayerTableRecord
  2
AM_5
 70
     0
 62
     3
  6
Continuous
370
    25
390
F
347
46
348
0
  0
LAYER
  5
1C2
330
2
100
AcDbSymbolTableRecord
100
AcDbLayerTableRecord
  2
ConnectionPoints
 70
     0
 62
     7
  6
Continuous
370
    50
390
F
347
46
348
0
  0
ENDTAB
  0
TABLE
  2
STYLE
  5
3
330
0
100
AcDbSymbolTable
 70
     1
  0
STYLE
  5
11
330
3
100
AcDbSymbolTableRecord
100
AcDbTextStyleTableRecord
  2
Standard
 70
     0
 40
0.0
 41
1.0
 50
0.0
 71
     0
 42
0.2
  3
txt
  4

  0
ENDTAB
  0
TABLE
  2
VIEW
  5
6
330
0
100
AcDbSymbolTable
 70
     0
  0
ENDTAB
  0
TABLE
  2
UCS
  5
7
330
0
100
AcDbSymbolTable
 70
     0
  0
ENDTAB
  0
TABLE
  2
APPID
  5
9
330
0
100
AcDbSymbolTable
 70
     1
  0
APPID
  5
12
330
9
100
AcDbSymbolTableRecord
100
AcDbRegAppTableRecord
  2
ACAD
 70
     0
  0
ENDTAB
  0
TABLE
  2
DIMSTYLE
  5
A
330
0
100
AcDbSymbolTable
 70
     1
100
AcDbDimStyleTable
  0
DIMSTYLE
105
27
330
A
100
AcDbSymbolTableRecord
100
AcDbDimStyleTableRecord
  2
Standard
 70
     0
178
     0
340
11
  0
ENDTAB
  0
TABLE
  2
BLOCK_RECORD
  5
1
330
0
100
AcDbSymbolTable
 70
     5
  0
BLOCK_RECORD
  5
1F
330
1
100
AcDbSymbolTableRecord
100
AcDbBlockTableRecord
  2
*Model_Space
340
22
 70
     0
280
     1
281
     0
  0
BLOCK_RECORD
  5
1B
330
1
100
AcDbSymbolTableRecord
100
AcDbBlockTableRecord
  2
*Paper_Space
340
1E
 70
     0
280
     1
281
     0
  0
BLOCK_RECORD
  5
23
330
1
100
AcDbSymbolTableRecord
100
AcDbBlockTableRecord
  2
*Paper_Space0
340
26
 70
     0
280
     1
281
     0
  0
BLOCK_RECORD
  5
6E
330
1
100
AcDbSymbolTableRecord
100
AcDbBlockTableRecord
  2
1_129679_2
340
0
102
{BLKREFS
331
6F
102
}
 70
     0
280
     1
281
     0
  0
BLOCK_RECORD
  5
87
330
1
100
AcDbSymbolTableRecord
100
AcDbBlockTableRecord
  2
2_129518I_0_in_129679_2
340
0
102
{BLKREFS
331
88
102
}
 70
     0
280
     1
281
     0
  0
BLOCK_RECORD
  5
D1
330
1
100
AcDbSymbolTableRecord
100
AcDbBlockTableRecord
  2
3_129924_0_in_129679_2
340
0
102
{BLKREFS
331
D2
102
}
 70
     0
280
     1
281
     0
  0
BLOCK_RECORD
  5
123
330
1
100
AcDbSymbolTableRecord
100
AcDbBlockTableRecord
  2
4_129466I_0_in_129679_2
340
0
102
{BLKREFS
331
124
102
}
 70
     0
280
     1
281
     0
  0
ENDTAB
  0
ENDSEC
  0
SECTION
  2
BLOCKS
  0
BLOCK
  5
20
330
1F
100
AcDbEntity
  8
0
100
AcDbBlockBegin
  2
*Model_Space
 70
     0
 10
0.0
 20
0.0
 30
0.0
  3
*Model_Space
  1

  0
ENDBLK
  5
21
330
1F
100
AcDbEntity
  8
0
100
AcDbBlockEnd
  0
BLOCK
  5
1C
330
1B
100
AcDbEntity
 67
     1
  8
0
100
AcDbBlockBegin
  2
*Paper_Space
 70
     0
 10
0.0
 20
0.0
 30
0.0
  3
*Paper_Space
  1

  0
ENDBLK
  5
1D
330
1B
100
AcDbEntity
 67
     1
  8
0
100
AcDbBlockEnd
  0
BLOCK
  5
24
330
23
100
AcDbEntity
  8
0
100
AcDbBlockBegin
  2
*Paper_Space0
 70
     0
 10
0.0
 20
0.0
 30
0.0
  3
*Paper_Space0
  1

  0
ENDBLK
  5
25
330
23
100
AcDbEntity
  8
0
100
AcDbBlockEnd
  0
BLOCK
  5
70
330
6E
100
AcDbEntity
  8
0
100
AcDbBlockBegin
  2
1_129679_2
 70
     2
 10
0.0
 20
0.0
 30
0.0
  3
1_129679_2
  1

  0
ATTDEF
  5
73
330
6E
100
AcDbEntity
  8
AM_6
100
AcDbText
 10
6.00065
 20
2.084466547338582
 30
0.0
 40
0.5
  1
Grip Tight Medium Duty Four-Bolt Flange Inch Bore
100
AcDbAttributeDefinition
  3

  2
NN
 70
     8
280
     0
  0
ATTDEF
  5
74
330
6E
100
AcDbEntity
  8
AM_6
100
AcDbText
 10
6.00065
 20
1.584466547338582
 30
0.0
 40
0.5
  1
GTM Medium Duty 4 Bolt Flange Bearings
100
AcDbAttributeDefinition
  3

  2
NT
 70
     8
280
     0
  0
ATTDEF
  5
75
330
6E
100
AcDbEntity
  8
AM_6
100
AcDbText
 10
6.00065
 20
1.084466547338582
 30
0.0
 40
0.5
  1
129679
100
AcDbAttributeDefinition
  3

  2
NB
 70
     8
280
     0
  0
ATTDEF
  5
76
330
6E
100
AcDbEntity
  8
AM_6
100
AcDbText
 10
6.00065
 20
0.5844665473385819
 30
0.0
 40
0.5
  1
$PN.$LUBE.
100
AcDbAttributeDefinition
  3

  2
NBSYN
 70
     8
280
     0
  0
ATTDEF
  5
77
330
6E
100
AcDbEntity
  8
AM_6
100
AcDbText
 10
6.00065
 20
0.0844665473385819
 30
0.0
 40
0.5
  1
129679
100
AcDbAttributeDefinition
  3

  2
LINA
 70
     8
280
     0
  0
ATTDEF
  5
78
330
6E
100
AcDbEntity
  8
AM_6
100
AcDbText
 10
6.00065
 20
-0.4155334526614181
 30
0.0
 40
0.5
  1
205
100
AcDbAttributeDefinition
  3

  2
SERIES
 70
     8
280
     0
  0
ATTDEF
  5
79
330
6E
100
AcDbEntity
  8
AM_6
100
AcDbText
 10
6.00065
 20
-0.9155334526614181
 30
0.0
 40
0.5
  1
3/4
100
AcDbAttributeDefinition
  3

  2
SS
 70
     8
280
     0
  0
ATTDEF
  5
7A
330
6E
100
AcDbEntity
  8
AM_6
100
AcDbText
 10
6.00065
 20
-1.415533452661418
 30
0.0
 40
0.5
  1
129679
100
AcDbAttributeDefinition
  3

  2
PN
 70
     8
280
     0
  0
ATTDEF
  5
7B
330
6E
100
AcDbEntity
  8
AM_6
100
AcDbText
 10
6.00065
 20
-1.915533452661418
 30
0.0
 40
0.5
  1
F4B-GTM-012
100
AcDbAttributeDefinition
  3

  2
DESCRIPTION
 70
     8
280
     0
  0
ATTDEF
  5
7C
330
6E
100
AcDbEntity
  8
AM_6
100
AcDbText
 10
6.00065
 20
-2.415533452661418
 30
0.0
 40
0.5
  1
1-29/64
100
AcDbAttributeDefinition
  3

  2
A
 70
     8
280
     0
  0
ATTDEF
  5
7D
330
6E
100
AcDbEntity
  8
AM_6
100
AcDbText
 10
6.00065
 20
-2.915533452661418
 30
0.0
 40
0.5
  1
3-3/4
100
AcDbAttributeDefinition
  3

  2
B
 70
     8
280
     0
  0
ATTDEF
  5
7E
330
6E
100
AcDbEntity
  8
AM_6
100
AcDbText
 10
6.00065
 20
-3.415533452661418
 30
0.0
 40
0.5
  1
1-35/64
100
AcDbAttributeDefinition
  3

  2
C
 70
     8
280
     0
  0
ATTDEF
  5
7F
330
6E
100
AcDbEntity
  8
AM_6
100
AcDbText
 10
6.00065
 20
-3.915533452661418
 30
0.0
 40
0.5
  1
2-3/4
100
AcDbAttributeDefinition
  3

  2
D
 70
     8
280
     0
  0
ATTDEF
  5
80
330
6E
100
AcDbEntity
  8
AM_6
100
AcDbText
 10
6.00065
 20
-4.415533452661418
 30
0.0
 40
0.5
  1
7/16
100
AcDbAttributeDefinition
  3

  2
F
 70
     8
280
     0
  0
ATTDEF
  5
81
330
6E
100
AcDbEntity
  8
AM_6
100
AcDbText
 10
6.00065
 20
-4.915533452661418
 30
0.0
 40
0.5
  1
1/2
100
AcDbAttributeDefinition
  3

  2
H
 70
     8
280
     0
  0
ATTDEF
  5
82
330
6E
100
AcDbEntity
  8
AM_6
100
AcDbText
 10
6.00065
 20
-5.415533452661418
 30
0.0
 40
0.5
  1
19/32
100
AcDbAttributeDefinition
  3

  2
J
 70
     8
280
     0
  0
ATTDEF
  5
83
330
6E
100
AcDbEntity
  8
AM_6
100
AcDbText
 10
6.00065
 20
-5.915533452661418
 30
0.0
 40
0.5
  1
1-51/64
100
AcDbAttributeDefinition
  3

  2
L
 70
     8
280
     0
  0
ATTDEF
  5
84
330
6E
100
AcDbEntity
  8
AM_6
100
AcDbText
 10
6.00065
 20
-6.415533452661418
 30
0.0
 40
0.5
  1
2-1/16
100
AcDbAttributeDefinition
  3

  2
N
 70
     8
280
     0
  0
ATTDEF
  5
85
330
6E
100
AcDbEntity
  8
AM_6
100
AcDbText
 10
6.00065
 20
-6.915533452661418
 30
0.0
 40
0.5
  1
1-35/64
100
AcDbAttributeDefinition
  3

  2
Z
 70
     8
280
     0
  0
ATTDEF
  5
86
330
6E
100
AcDbEntity
  8
AM_6
100
AcDbText
 10
6.00065
 20
-7.415533452661418
 30
0.0
 40
0.5
  1
baldor
100
AcDbAttributeDefinition
  3

  2
COMPANY
 70
     8
280
     0
  0
INSERT
  5
88
330
6E
100
AcDbEntity
  8
0
100
AcDbBlockReference
  2
2_129518I_0_in_129679_2
 10
0.0
 20
0.0
 30
0.0
  0
INSERT
  5
D2
330
6E
100
AcDbEntity
  8
0
100
AcDbBlockReference
  2
3_129924_0_in_129679_2
 10
0.0
 20
0.0
 30
0.0
  0
INSERT
  5
124
330
6E
100
AcDbEntity
  8
0
100
AcDbBlockReference
  2
4_129466I_0_in_129679_2
 10
0.0
 20
0.0
 30
0.0
  0
ENDBLK
  5
71
330
6E
100
AcDbEntity
  8
0
100
AcDbBlockEnd
  0
BLOCK
  5
89
330
87
100
AcDbEntity
  8
0
100
AcDbBlockBegin
  2
2_129518I_0_in_129679_2
 70
     2
 10
0.0
 20
0.0
 30
0.0
  3
2_129518I_0_in_129679_2
  1

  0
ATTDEF
  5
8B
330
87
100
AcDbEntity
  8
AM_6
100
AcDbText
 10
5.7911
 20
1.023573513856515
 30
0.0
 40
0.5
  1
INS-GT B
100
AcDbAttributeDefinition
  3

  2
NN
 70
     8
280
     0
  0
ATTDEF
  5
8C
330
87
100
AcDbEntity
  8
AM_6
100
AcDbText
 10
5.7911
 20
0.5235735138565145
 30
0.0
 40
0.5
  1
GT Normal Duty Bearing Inserts
100
AcDbAttributeDefinition
  3

  2
NT
 70
     8
280
     0
  0
ATTDEF
  5
8D
330
87
100
AcDbEntity
  8
AM_6
100
AcDbText
 10
5.7911
 20
0.0235735138565145
 30
0.0
 40
0.5
  1
129518I
100
AcDbAttributeDefinition
  3

  2
NB
 70
     8
280
     0
  0
ATTDEF
  5
8E
330
87
100
AcDbEntity
  8
AM_6
100
AcDbText
 10
5.7911
 20
-0.4764264861434855
 30
0.0
 40
0.5
  1
$PN.I
100
AcDbAttributeDefinition
  3

  2
NBSYN
 70
     8
280
     0
  0
ATTDEF
  5
8F
330
87
100
AcDbEntity
  8
AM_6
100
AcDbText
 10
5.7911
 20
-0.9764264861434855
 30
0.0
 40
0.5
  1
129518
100
AcDbAttributeDefinition
  3

  2
LINA
 70
     8
280
     0
  0
ATTDEF
  5
90
330
87
100
AcDbEntity
  8
AM_6
100
AcDbText
 10
5.7911
 20
-1.476426486143485
 30
0.0
 40
0.5
  1
205
100
AcDbAttributeDefinition
  3

  2
SERIES
 70
     8
280
     0
  0
ATTDEF
  5
91
330
87
100
AcDbEntity
  8
AM_6
100
AcDbText
 10
5.7911
 20
-1.976426486143485
 30
0.0
 40
0.5
  1
129518
100
AcDbAttributeDefinition
  3

  2
PN
 70
     8
280
     0
  0
ATTDEF
  5
92
330
87
100
AcDbEntity
  8
AM_6
100
AcDbText
 10
5.7911
 20
-2.476426486143485
 30
0.0
 40
0.5
  1
INS-GT-05
100
AcDbAttributeDefinition
  3

  2
DESCRIPTION
 70
     8
280
     0
  0
ATTDEF
  5
93
330
87
100
AcDbEntity
  8
AM_6
100
AcDbText
 10
5.7911
 20
-2.976426486143485
 30
0.0
 40
0.5
  1
1.46
100
AcDbAttributeDefinition
  3

  2
A
 70
     8
280
     0
  0
ATTDEF
  5
94
330
87
100
AcDbEntity
  8
AM_6
100
AcDbText
 10
5.7911
 20
-3.476426486143485
 30
0.0
 40
0.5
  1
0.59
100
AcDbAttributeDefinition
  3

  2
C
 70
     8
280
     0
  0
ATTDEF
  5
95
330
87
100
AcDbEntity
  8
AM_6
100
AcDbText
 10
5.7911
 20
-3.976426486143485
 30
0.0
 40
0.5
  1
2.0472
100
AcDbAttributeDefinition
  3

  2
D
 70
     8
280
     0
  0
ATTDEF
  5
96
330
87
100
AcDbEntity
  8
AM_6
100
AcDbText
 10
5.7911
 20
-4.476426486143485
 30
0.0
 40
0.5
  1
0.16
100
AcDbAttributeDefinition
  3

  2
J
 70
     8
280
     0
  0
ATTDEF
  5
97
330
87
100
AcDbEntity
  8
AM_6
100
AcDbText
 10
5.7911
 20
-4.976426486143485
 30
0.0
 40
0.5
  1
1.80
100
AcDbAttributeDefinition
  3

  2
L
 70
     8
280
     0
  0
ATTDEF
  5
98
330
87
100
AcDbEntity
  8
AM_6
100
AcDbText
 10
5.7911
 20
-5.476426486143485
 30
0.0
 40
0.5
  1
#10 - 32 x 1/4
100
AcDbAttributeDefinition
  3

  2
N
 70
     8
280
     0
  0
ATTDEF
  5
99
330
87
100
AcDbEntity
  8
AM_6
100
AcDbText
 10
5.7911
 20
-5.976426486143485
 30
0.0
 40
0.5
  1
0.48000
100
AcDbAttributeDefinition
  3

  2
W
 70
     8
280
     0
  0
ATTDEF
  5
9A
330
87
100
AcDbEntity
  8
AM_6
100
AcDbText
 10
5.7911
 20
-6.476426486143485
 30
0.0
 40
0.5
  1
1.00
100
AcDbAttributeDefinition
  3

  2
X
 70
     8
280
     0
  0
ATTDEF
  5
9B
330
87
100
AcDbEntity
  8
AM_6
100
AcDbText
 10
5.7911
 20
-6.976426486143485
 30
0.0
 40
0.5
  1
0.98
100
AcDbAttributeDefinition
  3

  2
Y
 70
     8
280
     0
  0
ATTDEF
  5
9C
330
87
100
AcDbEntity
  8
AM_6
100
AcDbText
 10
5.7911
 20
-7.476426486143485
 30
0.0
 40
0.5
  1
baldor
100
AcDbAttributeDefinition
  3

  2
COMPANY
 70
     8
280
     0
  0
LINE
  5
9F
330
87
100
AcDbEntity
  8
AM_9
100
AcDbLine
 10
-0.3908993649987303
 20
-0.6714285200000001
 30
0.0
 11
-0.01589936499873
 21
-0.6714285200000001
 31
0.0
  0
LINE
  5
A0
330
87
100
AcDbEntity
  8
AM_9
100
AcDbLine
 10
-0.01589936499873
 20
0.6714285200000001
 30
0.0
 11
-0.3908993649987303
 21
0.6714285200000001
 31
0.0
  0
LINE
  5
A1
330
87
100
AcDbEntity
  8
AM_9
100
AcDbLine
 10
-0.01589936499873
 20
0.6714285200000001
 30
0.0
 11
-0.01589936499873
 21
-0.6714285200000001
 31
0.0
  0
LINE
  5
A2
330
87
100
AcDbEntity
  8
AM_9
100
AcDbLine
 10
-0.01589936499873
 20
-0.6714285200000001
 30
0.0
 11
0.7910999999999999
 21
-0.6996095588051076
 31
0.0
  0
LINE
  5
A3
330
87
100
AcDbEntity
  8
AM_9
100
AcDbLine
 10
0.7910999999999999
 20
0.6996095588051076
 30
0.0
 11
-0.01589936499873
 21
0.6714285200000001
 31
0.0
  0
LINE
  5
A4
330
87
100
AcDbEntity
  8
AM_9
100
AcDbLine
 10
-0.2658993649987304
 20
-0.7357142600000001
 30
0.0
 11
-0.1408993649987302
 21
-0.7357142600000001
 31
0.0
  0
LINE
  5
A5
330
87
100
AcDbEntity
  8
AM_9
100
AcDbLine
 10
-0.1408993649987302
 20
0.7357142600000001
 30
0.0
 11
-0.2658993649987304
 21
0.7357142600000001
 31
0.0
  0
LINE
  5
A6
330
87
100
AcDbEntity
  8
AM_9
100
AcDbLine
 10
-0.3908993649987303
 20
0.7764000000000001
 30
0.0
 11
-0.3908993649987303
 21
-0.7764000000000001
 31
0.0
  0
LINE
  5
A7
330
87
100
AcDbEntity
  8
AM_9
100
AcDbLine
 10
-0.3908993649987303
 20
-0.7764000000000001
 30
0.0
 11
-0.3672993649987303
 21
-0.8
 31
0.0
  0
LINE
  5
A8
330
87
100
AcDbEntity
  8
AM_9
100
AcDbLine
 10
-0.3672993649987303
 20
0.8
 30
0.0
 11
-0.3908993649987303
 21
0.7764000000000001
 31
0.0
  0
LINE
  5
A9
330
87
100
AcDbEntity
  8
AM_9
100
AcDbLine
 10
-0.2658993649987304
 20
0.8
 30
0.0
 11
-0.2658993649987304
 21
-0.8
 31
0.0
  0
LINE
  5
AA
330
87
100
AcDbEntity
  8
AM_9
100
AcDbLine
 10
-0.3672993649987303
 20
0.8
 30
0.0
 11
-0.3672993649987303
 21
-0.8
 31
0.0
  0
LINE
  5
AB
330
87
100
AcDbEntity
  8
AM_9
100
AcDbLine
 10
-0.3672993649987303
 20
-0.8
 30
0.0
 11
-0.2658993649987304
 21
-0.8
 31
0.0
  0
LINE
  5
AC
330
87
100
AcDbEntity
  8
AM_9
100
AcDbLine
 10
-0.2658993649987304
 20
0.8
 30
0.0
 11
-0.3672993649987303
 21
0.8
 31
0.0
  0
LINE
  5
AD
330
87
100
AcDbEntity
  8
AM_9
100
AcDbLine
 10
0.6541
 20
-0.7999999999999999
 30
0.0
 11
0.7675
 21
-0.7999999999999999
 31
0.0
  0
LINE
  5
AE
330
87
100
AcDbEntity
  8
AM_9
100
AcDbLine
 10
0.7675
 20
0.7999999999999999
 30
0.0
 11
0.6541
 21
0.7999999999999999
 31
0.0
  0
LINE
  5
AF
330
87
100
AcDbEntity
  8
AM_9
100
AcDbLine
 10
0.7675
 20
0.8
 30
0.0
 11
0.7675
 21
-0.8
 31
0.0
  0
LINE
  5
B0
330
87
100
AcDbEntity
  8
AM_9
100
AcDbLine
 10
0.7910999999999999
 20
0.7764000000000001
 30
0.0
 11
0.7910999999999999
 21
-0.7764000000000001
 31
0.0
  0
LINE
  5
B1
330
87
100
AcDbEntity
  8
AM_9
100
AcDbLine
 10
0.7910999999999999
 20
0.7764000000000001
 30
0.0
 11
0.7675
 21
0.8
 31
0.0
  0
LINE
  5
B2
330
87
100
AcDbEntity
  8
AM_9
100
AcDbLine
 10
0.7675
 20
-0.8
 30
0.0
 11
0.7910999999999999
 21
-0.7764000000000001
 31
0.0
  0
LINE
  5
B3
330
87
100
AcDbEntity
  8
AM_9
100
AcDbLine
 10
-0.1408993649987302
 20
0.8
 30
0.0
 11
-0.1408993649987302
 21
-0.8000000000000002
 31
0.0
  0
LINE
  5
B4
330
87
100
AcDbEntity
  8
AM_9
100
AcDbLine
 10
0.0000000000000003
 20
-0.8000000000000002
 30
0.0
 11
0.0641000000000001
 21
-0.8000000000000002
 31
0.0
  0
LINE
  5
B5
330
87
100
AcDbEntity
  8
AM_9
100
AcDbLine
 10
-0.1408993649987302
 20
-0.8000000000000002
 30
0.0
 11
-0.1174625
 21
-0.8000000000000002
 31
0.0
  0
LINE
  5
B6
330
87
100
AcDbEntity
  8
AM_9
100
AcDbLine
 10
-0.1174625
 20
0.8000000000000002
 30
0.0
 11
-0.1408993649987302
 21
0.8000000000000002
 31
0.0
  0
LINE
  5
B7
330
87
100
AcDbEntity
  8
AM_9
100
AcDbLine
 10
0.0641000000000001
 20
0.8000000000000002
 30
0.0
 11
0.0000000000000003
 21
0.8000000000000002
 31
0.0
  0
LINE
  5
B8
330
87
100
AcDbEntity
  8
AM_9
100
AcDbLine
 10
0.1671000000000001
 20
-0.9646000000000001
 30
0.0
 11
0.2311
 21
-0.9646000000000001
 31
0.0
  0
LINE
  5
B9
330
87
100
AcDbEntity
  8
AM_9
100
AcDbLine
 10
0.2311
 20
0.9646000000000001
 30
0.0
 11
0.1671000000000001
 21
0.9646000000000001
 31
0.0
  0
LINE
  5
BA
330
87
100
AcDbEntity
  8
AM_9
100
AcDbLine
 10
0.6541
 20
0.9486878556946367
 30
0.0
 11
0.6541
 21
-0.9486878556946183
 31
0.0
  0
ARC
  5
BB
330
87
100
AcDbEntity
  8
AM_9
100
AcDbCircle
 10
0.6304999999999997
 20
-0.9486878556946367
 30
0.0
 40
0.0236000000000003
100
AcDbArc
 50
291.4124755069706
 51
0.0
  0
ARC
  5
BC
330
87
100
AcDbEntity
  8
AM_9
100
AcDbCircle
 10
0.6304999999999997
 20
0.9486878556946367
 30
0.0
 40
0.0236000000000003
100
AcDbArc
 50
0.0
 51
68.58752449302948
  0
LINE
  5
BD
330
87
100
AcDbEntity
  8
AM_9
100
AcDbLine
 10
0.0640999999999999
 20
0.9486878556946365
 30
0.0
 11
0.0640999999999999
 21
-0.9486878556946182
 31
0.0
  0
ARC
  5
BE
330
87
100
AcDbEntity
  8
AM_9
100
AcDbCircle
 10
0.0876999999999995
 20
-0.9486878556946367
 30
0.0
 40
0.0235999999999996
100
AcDbArc
 50
180.0
 51
248.5875329531172
  0
ARC
  5
BF
330
87
100
AcDbEntity
  8
AM_9
100
AcDbCircle
 10
0.0876999999999995
 20
0.9486878556946367
 30
0.0
 40
0.0235999999999996
100
AcDbArc
 50
111.4124670468828
 51
180.0
  0
LINE
  5
C0
330
87
100
AcDbEntity
  8
AM_9
100
AcDbLine
 10
0.0790841269841271
 20
0.9706588987325615
 30
0.0
 11
0.0790841269841271
 21
-0.9706588987325615
 31
0.0
  0
ARC
  5
C1
330
87
100
AcDbEntity
  8
AM_9
100
AcDbCircle
 10
0.3590999999999599
 20
-0.2566000000001237
 30
0.0
 40
0.7669999999998701
100
AcDbArc
 50
248.5875329531154
 51
254.9288463923388
  0
ARC
  5
C2
330
87
100
AcDbEntity
  8
AM_9
100
AcDbCircle
 10
0.3590999999999664
 20
0.2566000000001034
 30
0.0
 40
0.7669999999998914
100
AcDbArc
 50
105.0711536076613
 51
111.4124670468845
  0
LINE
  5
C3
330
87
100
AcDbEntity
  8
AM_9
100
AcDbLine
 10
0.1596658914728683
 20
0.9972180097432065
 30
0.0
 11
0.1596658914728683
 21
-0.9972180097432065
 31
0.0
  0
LINE
  5
C4
330
87
100
AcDbEntity
  8
AM_9
100
AcDbLine
 10
0.1671000000000001
 20
0.9915209481297971
 30
0.0
 11
0.1671000000000001
 21
-0.9915209481296147
 31
0.0
  0
ARC
  5
C5
330
87
100
AcDbEntity
  8
AM_9
100
AcDbCircle
 10
0.1612000000000002
 20
-0.9915209481297975
 30
0.0
 40
0.0058999999999998
100
AcDbArc
 50
254.928846392336
 51
0.0
  0
ARC
  5
C6
330
87
100
AcDbEntity
  8
AM_9
100
AcDbCircle
 10
0.1612000000000002
 20
0.9915209481297975
 30
0.0
 40
0.0058999999999998
100
AcDbArc
 50
0.0
 51
105.071153607664
  0
LINE
  5
C7
330
87
100
AcDbEntity
  8
AM_9
100
AcDbLine
 10
0.2311
 20
1.00784217134026
 30
0.0
 11
0.2311
 21
-1.007842171336585
 31
0.0
  0
ARC
  5
C8
330
87
100
AcDbEntity
  8
AM_9
100
AcDbCircle
 10
0.2370000000000003
 20
-1.00784217134026
 30
0.0
 40
0.0059000000000004
100
AcDbArc
 50
180.0
 51
260.768249086539
  0
ARC
  5
C9
330
87
100
AcDbEntity
  8
AM_9
100
AcDbCircle
 10
0.2370000000000003
 20
1.00784217134026
 30
0.0
 40
0.0059000000000004
100
AcDbArc
 50
99.23175091346101
 51
180.0
  0
LINE
  5
CA
330
87
100
AcDbEntity
  8
AM_9
100
AcDbLine
 10
0.2360534736639326
 20
1.013665751673279
 30
0.0
 11
0.2360534736639326
 21
-1.01366575167328
 31
0.0
  0
LINE
  5
CB
330
87
100
AcDbEntity
  8
AM_9
100
AcDbLine
 10
0.6391158762600371
 20
0.9706588974603731
 30
0.0
 11
0.6391158762600371
 21
-0.9706588974603731
 31
0.0
  0
ARC
  5
CC
330
87
100
AcDbEntity
  8
AM_9
100
AcDbCircle
 10
0.3590999999999988
 20
-0.2565999999999925
 30
0.0
 40
0.7670000000000075
100
AcDbArc
 50
260.7683926808377
 51
291.4124673071942
  0
ARC
  5
CD
330
87
100
AcDbEntity
  8
AM_9
100
AcDbCircle
 10
0.3590999999999989
 20
0.2565999999999932
 30
0.0
 40
0.7670000000000069
100
AcDbArc
 50
68.58753269280572
 51
99.23160731916224
  0
LINE
  5
CF
330
87
100
AcDbEntity
  8
AM_4
100
AcDbLine
 10
-0.1174625
 20
-0.8000000000000002
 30
0.0
 11
0.0000000000000003
 21
-0.8000000000000002
 31
0.0
  0
LINE
  5
D0
330
87
100
AcDbEntity
  8
AM_4
100
AcDbLine
 10
0.0000000000000003
 20
0.8000000000000002
 30
0.0
 11
-0.1174625
 21
0.8000000000000002
 31
0.0
  0
ENDBLK
  5
8A
330
87
100
AcDbEntity
  8
0
100
AcDbBlockEnd
  0
BLOCK
  5
D3
330
D1
100
AcDbEntity
  8
0
100
AcDbBlockBegin
  2
3_129924_0_in_129679_2
 70
     2
 10
0.0
 20
0.0
 30
0.0
  3
3_129924_0_in_129679_2
  1

  0
ATTDEF
  5
D5
330
D1
100
AcDbEntity
  8
AM_6
100
AcDbText
 10
5.8591
 20
0.8984375
 30
0.0
 40
0.5
  1
Grip Tight Normal Duty Adapter and Nut Inch Bore
100
AcDbAttributeDefinition
  3

  2
NN
 70
     8
280
     0
  0
ATTDEF
  5
D6
330
D1
100
AcDbEntity
  8
AM_6
100
AcDbText
 10
5.8591
 20
0.3984375
 30
0.0
 40
0.5
  1
GT and GTM Adapter & Lock Nut Assemblies
100
AcDbAttributeDefinition
  3

  2
NT
 70
     8
280
     0
  0
ATTDEF
  5
D7
330
D1
100
AcDbEntity
  8
AM_6
100
AcDbText
 10
5.8591
 20
-0.1015625
 30
0.0
 40
0.5
  1
129924
100
AcDbAttributeDefinition
  3

  2
NB
 70
     8
280
     0
  0
ATTDEF
  5
D8
330
D1
100
AcDbEntity
  8
AM_6
100
AcDbText
 10
5.8591
 20
-0.6015625
 30
0.0
 40
0.5
  1
$PN.
100
AcDbAttributeDefinition
  3

  2
NBSYN
 70
     8
280
     0
  0
ATTDEF
  5
D9
330
D1
100
AcDbEntity
  8
AM_6
100
AcDbText
 10
5.8591
 20
-1.1015625
 30
0.0
 40
0.5
  1
129924
100
AcDbAttributeDefinition
  3

  2
LINA
 70
     8
280
     0
  0
ATTDEF
  5
DA
330
D1
100
AcDbEntity
  8
AM_6
100
AcDbText
 10
5.8591
 20
-1.6015625
 30
0.0
 40
0.5
  1
205
100
AcDbAttributeDefinition
  3

  2
SERIES
 70
     8
280
     0
  0
ATTDEF
  5
DB
330
D1
100
AcDbEntity
  8
AM_6
100
AcDbText
 10
5.8591
 20
-2.1015625
 30
0.0
 40
0.5
  1
3/4
100
AcDbAttributeDefinition
  3

  2
SS
 70
     8
280
     0
  0
ATTDEF
  5
DC
330
D1
100
AcDbEntity
  8
AM_6
100
AcDbText
 10
5.8591
 20
-2.6015625
 30
0.0
 40
0.5
  1
129924
100
AcDbAttributeDefinition
  3

  2
PN
 70
     8
280
     0
  0
ATTDEF
  5
DD
330
D1
100
AcDbEntity
  8
AM_6
100
AcDbText
 10
5.8591
 20
-3.1015625
 30
0.0
 40
0.5
  1
AN-GTM-05-012
100
AcDbAttributeDefinition
  3

  2
DESCRIPTION
 70
     8
280
     0
  0
ATTDEF
  5
DE
330
D1
100
AcDbEntity
  8
AM_6
100
AcDbText
 10
5.8591
 20
-3.6015625
 30
0.0
 40
0.5
  1
1-29/64
100
AcDbAttributeDefinition
  3

  2
A
 70
     8
280
     0
  0
ATTDEF
  5
DF
330
D1
100
AcDbEntity
  8
AM_6
100
AcDbText
 10
5.8591
 20
-4.1015625
 30
0.0
 40
0.5
  1
0.5906
100
AcDbAttributeDefinition
  3

  2
C
 70
     8
280
     0
  0
ATTDEF
  5
E0
330
D1
100
AcDbEntity
  8
AM_6
100
AcDbText
 10
5.8591
 20
-4.6015625
 30
0.0
 40
0.5
  1
2.0472
100
AcDbAttributeDefinition
  3

  2
D
 70
     8
280
     0
  0
ATTDEF
  5
E1
330
D1
100
AcDbEntity
  8
AM_6
100
AcDbText
 10
5.8591
 20
-5.1015625
 30
0.0
 40
0.5
  1
0.152
100
AcDbAttributeDefinition
  3

  2
J
 70
     8
280
     0
  0
ATTDEF
  5
E2
330
D1
100
AcDbEntity
  8
AM_6
100
AcDbText
 10
5.8591
 20
-5.6015625
 30
0.0
 40
0.5
  1
1-51/64
100
AcDbAttributeDefinition
  3

  2
L
 70
     8
280
     0
  0
ATTDEF
  5
E3
330
D1
100
AcDbEntity
  8
AM_6
100
AcDbText
 10
5.8591
 20
-6.1015625
 30
0.0
 40
0.5
  1
10 - 32 x 1/4
100
AcDbAttributeDefinition
  3

  2
N
 70
     8
280
     0
  0
ATTDEF
  5
E4
330
D1
100
AcDbEntity
  8
AM_6
100
AcDbText
 10
5.8591
 20
-6.6015625
 30
0.0
 40
0.5
  1
1/2
100
AcDbAttributeDefinition
  3

  2
W
 70
     8
280
     0
  0
ATTDEF
  5
E5
330
D1
100
AcDbEntity
  8
AM_6
100
AcDbText
 10
5.8591
 20
-7.1015625
 30
0.0
 40
0.5
  1
61/64
100
AcDbAttributeDefinition
  3

  2
X
 70
     8
280
     0
  0
ATTDEF
  5
E6
330
D1
100
AcDbEntity
  8
AM_6
100
AcDbText
 10
5.8591
 20
-7.6015625
 30
0.0
 40
0.5
  1
61/64
100
AcDbAttributeDefinition
  3

  2
Y
 70
     8
280
     0
  0
ATTDEF
  5
E7
330
D1
100
AcDbEntity
  8
AM_6
100
AcDbText
 10
5.8591
 20
-8.1015625
 30
0.0
 40
0.5
  1
baldor
100
AcDbAttributeDefinition
  3

  2
COMPANY
 70
     8
280
     0
  0
LWPOLYLINE
  5
E8
330
D1
100
AcDbEntity
  8
AM_9
100
AcDbPolyline
 90
        3
 70
     0
 43
0.0
 10
-0.5706190632591069
 20
0.0223106146154297
 10
-0.5720928017534096
 20
0.0003982171128431
 10
-0.5704009999999998
 20
-0.0239016833261782
  0
LINE
  5
E9
330
D1
100
AcDbEntity
  8
AM_9
100
AcDbLine
 10
-0.5704009999999998
 20
0.0239016833261889
 30
0.0
 11
-0.5706190632591069
 21
0.0223106146154297
 31
0.0
  0
LINE
  5
EA
330
D1
100
AcDbEntity
  8
AM_9
100
AcDbLine
 10
-0.5694408933126904
 20
0.0270112336086204
 30
0.0
 11
-0.5704009999999998
 21
0.0239016833261889
 31
0.0
  0
LWPOLYLINE
  5
EB
330
D1
100
AcDbEntity
  8
AM_9
100
AcDbPolyline
 90
       17
 70
     0
 43
0.0
 10
-0.389626887837736
 20
0.0311945815923298
 10
-0.3958199503236938
 20
0.044005211301035
 10
-0.4041280438947162
 20
0.0558898150440726
 10
-0.4146156159503492
 20
0.0666453362347934
 10
-0.4266834870155199
 20
0.0755985489729632
 10
-0.4406932250903717
 20
0.082826023235138
 10
-0.4556876412598858
 20
0.0877175426351598
 10
-0.4718863726549439
 20
0.0901889023623158
 10
-0.4882734359230964
 20
0.0899836352422205
 10
-0.504672569158786
 20
0.0869979813490482
 10
-0.5203338679365971
 20
0.0813127988356031
 10
-0.532020053324839
 20
0.074874513061581
 10
-0.5426965430753166
 20
0.0668802846791513
 10
-0.5523729332695022
 20
0.0571522123058981
 10
-0.5604970905716797
 20
0.0460955565297936
 10
-0.566213056404653
 20
0.0353409490872392
 10
-0.5694408933126904
 20
0.0270112336086204
  0
LWPOLYLINE
  5
EC
330
D1
100
AcDbEntity
  8
AM_9
100
AcDbPolyline
 90
       16
 70
     0
 43
0.0
 10
-0.5701678126666627
 20
-0.0246960311588757
 10
-0.5642649472642035
 20
-0.0394279476697714
 10
-0.5565728585767499
 20
-0.0518671075350287
 10
-0.546992430075591
 20
-0.0629173510759544
 10
-0.5352705142592875
 20
-0.0726787922791997
 10
-0.522139097762922
 20
-0.0804531034432168
 10
-0.507241550432353
 20
-0.0862679552427809
 10
-0.4915949503900275
 20
-0.089609164347096
 10
-0.4750927032324617
 20
-0.0903594512386925
 10
-0.4586928286318425
 20
-0.0883867193396306
 10
-0.4427070220442642
 20
-0.083638320885197
 10
-0.4277608776973322
 20
-0.0762621534483841
 10
-0.4146917879345673
 20
-0.0667215764752541
 10
-0.4031441899160902
 20
-0.0546784625996043
 10
-0.3944084052073979
 20
-0.0414973021392101
 10
-0.3887494410109326
 20
-0.0288242884857524
  0
CIRCLE
  5
ED
330
D1
100
AcDbEntity
  8
AM_9
100
AcDbCircle
 10
-0.4787855416772499
 20
0.0
 30
0.0
 40
0.0724500000000001
  0
LINE
  5
EE
330
D1
100
AcDbEntity
  8
AM_9
100
AcDbLine
 10
-0.5704009999999998
 20
0.0239016833261889
 30
0.0
 11
-0.5704009999999998
 21
0.076
 31
0.0
  0
LINE
  5
EF
330
D1
100
AcDbEntity
  8
AM_9
100
AcDbLine
 10
-0.5704009999999998
 20
-0.076
 30
0.0
 11
-0.5704009999999998
 21
-0.0239016833261782
 31
0.0
  0
LINE
  5
F0
330
D1
100
AcDbEntity
  8
AM_9
100
AcDbLine
 10
-0.1410864999999999
 20
-0.076
 30
0.0
 11
-0.1410864999999999
 21
0.076
 31
0.0
  0
LINE
  5
F1
330
D1
100
AcDbEntity
  8
AM_9
100
AcDbLine
 10
-0.1174625
 20
0.6881982537116766
 30
0.0
 11
-0.5940249999999998
 21
0.6881982537116766
 31
0.0
  0
LINE
  5
F2
330
D1
100
AcDbEntity
  8
AM_9
100
AcDbLine
 10
-0.1174625
 20
0.7167463115754106
 30
0.0
 11
-0.1410864999999999
 21
0.7372808884879638
 31
0.0
  0
LINE
  5
F3
330
D1
100
AcDbEntity
  8
AM_9
100
AcDbLine
 10
-0.1410864999999999
 20
0.7372808884879638
 30
0.0
 11
-0.5704009999999998
 21
0.7372808884879641
 31
0.0
  0
LINE
  5
F4
330
D1
100
AcDbEntity
  8
AM_9
100
AcDbLine
 10
-0.5704009999999998
 20
0.7372808884879641
 30
0.0
 11
-0.5940249999999997
 21
0.7167463115754109
 31
0.0
  0
LINE
  5
F5
330
D1
100
AcDbEntity
  8
AM_9
100
AcDbLine
 10
-0.1174625
 20
-0.6881982537116769
 30
0.0
 11
-0.5940249999999998
 21
-0.6881982537116769
 31
0.0
  0
LINE
  5
F6
330
D1
100
AcDbEntity
  8
AM_9
100
AcDbLine
 10
-0.5940249999999998
 20
-0.7167463115754112
 30
0.0
 11
-0.5704009999999998
 21
-0.7372808884879641
 31
0.0
  0
LINE
  5
F7
330
D1
100
AcDbEntity
  8
AM_9
100
AcDbLine
 10
-0.5704009999999998
 20
-0.7372808884879641
 30
0.0
 11
-0.1410864999999999
 21
-0.7372808884879641
 31
0.0
  0
LINE
  5
F8
330
D1
100
AcDbEntity
  8
AM_9
100
AcDbLine
 10
-0.1410864999999999
 20
-0.7372808884879641
 30
0.0
 11
-0.1174625
 21
-0.7167463115754108
 31
0.0
  0
LINE
  5
F9
330
D1
100
AcDbEntity
  8
AM_9
100
AcDbLine
 10
-0.1174625
 20
0.7641982537116766
 30
0.0
 11
-0.5940249999999998
 21
0.7641982537116766
 31
0.0
  0
LINE
  5
FA
330
D1
100
AcDbEntity
  8
AM_9
100
AcDbLine
 10
-0.1174625
 20
-0.7641982537116769
 30
0.0
 11
-0.5940249999999998
 21
-0.7641982537116769
 31
0.0
  0
LINE
  5
FB
330
D1
100
AcDbEntity
  8
AM_9
100
AcDbLine
 10
-0.3557437499999999
 20
0.6702628968253969
 30
0.0
 11
-0.5940249999999999
 21
0.6702628968253969
 31
0.0
  0
LINE
  5
FC
330
D1
100
AcDbEntity
  8
AM_9
100
AcDbLine
 10
0.8591
 20
0.3716517186829625
 30
0.0
 11
-0.5940249999999999
 21
0.3716517186829625
 31
0.0
  0
LINE
  5
FD
330
D1
100
AcDbEntity
  8
AM_9
100
AcDbLine
 10
-0.5940249999999998
 20
-0.3749999999999999
 30
0.0
 11
0.8590999999999999
 21
-0.3749999999999999
 31
0.0
  0
LINE
  5
FE
330
D1
100
AcDbEntity
  8
AM_9
100
AcDbLine
 10
-0.35574375
 20
0.6683953552058635
 30
0.0
 11
0.0016781249999996
 21
0.6683953552058636
 31
0.0
  0
LINE
  5
FF
330
D1
100
AcDbEntity
  8
AM_9
100
AcDbLine
 10
-0.35574375
 20
-0.6702628968253969
 30
0.0
 11
0.0016781249999996
 21
-0.6702628968253969
 31
0.0
  0
LINE
  5
100
330
D1
100
AcDbEntity
  8
AM_9
100
AcDbLine
 10
0.0016781249999996
 20
0.6683953552058636
 30
0.0
 11
0.8591
 21
0.698417254787556
 31
0.0
  0
LINE
  5
101
330
D1
100
AcDbEntity
  8
AM_9
100
AcDbLine
 10
0.0016781249999996
 20
0.6683953552058636
 30
0.0
 11
0.0016781249999996
 21
-0.6702628968253969
 31
0.0
  0
LINE
  5
102
330
D1
100
AcDbEntity
  8
AM_9
100
AcDbLine
 10
0.8591
 20
0.698417254787556
 30
0.0
 11
0.8591
 21
-0.7002047284794539
 31
0.0
  0
LINE
  5
103
330
D1
100
AcDbEntity
  8
AM_9
100
AcDbLine
 10
0.0016781249999996
 20
-0.6702628968253969
 30
0.0
 11
0.8591
 21
-0.7002047284794539
 31
0.0
  0
LINE
  5
104
330
D1
100
AcDbEntity
  8
AM_9
100
AcDbLine
 10
-0.236603125
 20
-0.7344370039682537
 30
0.0
 11
-0.1174625
 21
-0.7344370039682537
 31
0.0
  0
LINE
  5
105
330
D1
100
AcDbEntity
  8
AM_9
100
AcDbLine
 10
-0.1174625
 20
0.7344370039682537
 30
0.0
 11
-0.236603125
 21
0.7344370039682537
 31
0.0
  0
LINE
  5
106
330
D1
100
AcDbEntity
  8
AM_9
100
AcDbLine
 10
-0.236603125
 20
0.798611111111112
 30
0.0
 11
-0.236603125
 21
-0.7986111111111118
 31
0.0
  0
LINE
  5
107
330
D1
100
AcDbEntity
  8
AM_9
100
AcDbLine
 10
-0.35574375
 20
0.7986111111111116
 30
0.0
 11
-0.35574375
 21
-0.7986111111111118
 31
0.0
  0
LINE
  5
108
330
D1
100
AcDbEntity
  8
AM_9
100
AcDbLine
 10
-0.35574375
 20
-0.7986111111111118
 30
0.0
 11
-0.236603125
 21
-0.7986111111111118
 31
0.0
  0
LINE
  5
109
330
D1
100
AcDbEntity
  8
AM_9
100
AcDbLine
 10
-0.236603125
 20
0.7986111111111118
 30
0.0
 11
-0.35574375
 21
0.7986111111111118
 31
0.0
  0
LINE
  5
10A
330
D1
100
AcDbEntity
  8
AM_9
100
AcDbLine
 10
-0.5704009999999998
 20
0.813280888487964
 30
0.0
 11
-0.1410864999999999
 21
0.813280888487964
 31
0.0
  0
LINE
  5
10B
330
D1
100
AcDbEntity
  8
AM_9
100
AcDbLine
 10
-0.1410864999999999
 20
0.813280888487964
 30
0.0
 11
-0.1174625000000001
 21
0.7927463115754106
 31
0.0
  0
LINE
  5
10C
330
D1
100
AcDbEntity
  8
AM_9
100
AcDbLine
 10
-0.5940249999999998
 20
0.7927463115754111
 30
0.0
 11
-0.5704009999999998
 21
0.813280888487964
 31
0.0
  0
LINE
  5
10D
330
D1
100
AcDbEntity
  8
AM_9
100
AcDbLine
 10
-0.5704009999999998
 20
-0.8132808884879643
 30
0.0
 11
-0.5940249999999997
 21
-0.7927463115754112
 31
0.0
  0
LINE
  5
10E
330
D1
100
AcDbEntity
  8
AM_9
100
AcDbLine
 10
-0.1410864999999999
 20
-0.8132808884879641
 30
0.0
 11
-0.5704009999999998
 21
-0.8132808884879643
 31
0.0
  0
LINE
  5
10F
330
D1
100
AcDbEntity
  8
AM_9
100
AcDbLine
 10
-0.1174625
 20
-0.7927463115754109
 30
0.0
 11
-0.1410864999999999
 21
-0.8132808884879641
 31
0.0
  0
LINE
  5
112
330
D1
100
AcDbEntity
  8
AM_7
100
AcDbLine
 10
-0.4787855416772499
 20
-0.0997499999999999
 30
0.0
 11
-0.4787855416772499
 21
0.0997499999999999
 31
0.0
  0
LINE
  5
113
330
D1
100
AcDbEntity
  8
AM_4
100
AcDbLine
 10
-0.1410864999999999
 20
0.8984374999999998
 30
0.0
 11
-0.5704009999999998
 21
0.8984374999999998
 31
0.0
  0
LINE
  5
114
330
D1
100
AcDbEntity
  8
AM_4
100
AcDbLine
 10
-0.1174624999999999
 20
0.076
 30
0.0
 11
-0.5940249999999998
 21
0.076
 31
0.0
  0
LINE
  5
115
330
D1
100
AcDbEntity
  8
AM_4
100
AcDbLine
 10
-0.1174625
 20
0.8748134999999996
 30
0.0
 11
-0.1410864999999999
 21
0.8984374999999996
 31
0.0
  0
LINE
  5
116
330
D1
100
AcDbEntity
  8
AM_4
100
AcDbLine
 10
-0.1174625
 20
0.8748134999999996
 30
0.0
 11
-0.1174625
 21
-0.8748134999999996
 31
0.0
  0
LINE
  5
117
330
D1
100
AcDbEntity
  8
AM_4
100
AcDbLine
 10
-0.1410864999999999
 20
0.8984374999999996
 30
0.0
 11
-0.1410864999999999
 21
0.076
 31
0.0
  0
LINE
  5
118
330
D1
100
AcDbEntity
  8
AM_4
100
AcDbLine
 10
-0.5704009999999998
 20
0.8984375
 30
0.0
 11
-0.5940249999999998
 21
0.8748135
 31
0.0
  0
LINE
  5
119
330
D1
100
AcDbEntity
  8
AM_4
100
AcDbLine
 10
-0.5704009999999998
 20
0.8984375
 30
0.0
 11
-0.5704009999999998
 21
0.076
 31
0.0
  0
LINE
  5
11A
330
D1
100
AcDbEntity
  8
AM_4
100
AcDbLine
 10
-0.5940249999999998
 20
0.8748135
 30
0.0
 11
-0.5940249999999998
 21
-0.8748135
 31
0.0
  0
LINE
  5
11B
330
D1
100
AcDbEntity
  8
AM_4
100
AcDbLine
 10
-0.5940249999999998
 20
-0.8748135
 30
0.0
 11
-0.5704009999999998
 21
-0.8984375
 31
0.0
  0
LINE
  5
11C
330
D1
100
AcDbEntity
  8
AM_4
100
AcDbLine
 10
-0.5704009999999998
 20
-0.076
 30
0.0
 11
-0.5704009999999998
 21
-0.8984374999999998
 31
0.0
  0
LINE
  5
11D
330
D1
100
AcDbEntity
  8
AM_4
100
AcDbLine
 10
-0.5704009999999998
 20
-0.8984374999999998
 30
0.0
 11
-0.1410864999999999
 21
-0.8984374999999998
 31
0.0
  0
LINE
  5
11E
330
D1
100
AcDbEntity
  8
AM_4
100
AcDbLine
 10
-0.5940249999999998
 20
-0.076
 30
0.0
 11
-0.1174624999999999
 21
-0.076
 31
0.0
  0
LINE
  5
11F
330
D1
100
AcDbEntity
  8
AM_4
100
AcDbLine
 10
-0.1410864999999999
 20
-0.076
 30
0.0
 11
-0.1410864999999999
 21
-0.8984374999999996
 31
0.0
  0
LINE
  5
120
330
D1
100
AcDbEntity
  8
AM_4
100
AcDbLine
 10
-0.1410864999999999
 20
-0.8984374999999996
 30
0.0
 11
-0.1174625
 21
-0.8748134999999996
 31
0.0
  0
ARC
  5
122
330
D1
100
AcDbEntity
  8
AM_5
100
AcDbCircle
 10
-0.4787855416772499
 20
0.0
 30
0.0
 40
0.095
100
AcDbArc
 50
75.00000000000003
 51
14.99999999999997
  0
ENDBLK
  5
D4
330
D1
100
AcDbEntity
  8
0
100
AcDbBlockEnd
  0
BLOCK
  5
125
330
123
100
AcDbEntity
  8
0
100
AcDbBlockBegin
  2
4_129466I_0_in_129679_2
 70
     2
 10
0.0
 20
0.0
 30
0.0
  3
4_129466I_0_in_129679_2
  1

  0
ATTDEF
  5
127
330
123
100
AcDbEntity
  8
AM_6
100
AcDbText
 10
6.00065
 20
2.084466547338582
 30
0.0
 40
0.5
  1
GT Normal Duty 4 Bolt Flange Bearings
100
AcDbAttributeDefinition
  3

  2
NN
 70
     8
280
     0
  0
ATTDEF
  5
128
330
123
100
AcDbEntity
  8
AM_6
100
AcDbText
 10
6.00065
 20
1.584466547338582
 30
0.0
 40
0.5
  1
Grip Tight Adapter Ball Bearings
100
AcDbAttributeDefinition
  3

  2
NT
 70
     8
280
     0
  0
ATTDEF
  5
129
330
123
100
AcDbEntity
  8
AM_6
100
AcDbText
 10
6.00065
 20
1.084466547338582
 30
0.0
 40
0.5
  1
129466I
100
AcDbAttributeDefinition
  3

  2
NB
 70
     8
280
     0
  0
ATTDEF
  5
12A
330
123
100
AcDbEntity
  8
AM_6
100
AcDbText
 10
6.00065
 20
0.5844665473385819
 30
0.0
 40
0.5
  1
$PN.$LUBE.I
100
AcDbAttributeDefinition
  3

  2
NBSYN
 70
     8
280
     0
  0
ATTDEF
  5
12B
330
123
100
AcDbEntity
  8
AM_6
100
AcDbText
 10
6.00065
 20
0.0844665473385819
 30
0.0
 40
0.5
  1
129466
100
AcDbAttributeDefinition
  3

  2
LINA
 70
     8
280
     0
  0
ATTDEF
  5
12C
330
123
100
AcDbEntity
  8
AM_6
100
AcDbText
 10
6.00065
 20
-0.4155334526614181
 30
0.0
 40
0.5
  1
205
100
AcDbAttributeDefinition
  3

  2
SERIES
 70
     8
280
     0
  0
ATTDEF
  5
12D
330
123
100
AcDbEntity
  8
AM_6
100
AcDbText
 10
6.00065
 20
-0.9155334526614181
 30
0.0
 40
0.5
  1
2.0472
100
AcDbAttributeDefinition
  3

  2
BOD
 70
     8
280
     0
  0
ATTDEF
  5
12E
330
123
100
AcDbEntity
  8
AM_6
100
AcDbText
 10
6.00065
 20
-1.415533452661418
 30
0.0
 40
0.5
  1
129466
100
AcDbAttributeDefinition
  3

  2
PN
 70
     8
280
     0
  0
ATTDEF
  5
12F
330
123
100
AcDbEntity
  8
AM_6
100
AcDbText
 10
6.00065
 20
-1.915533452661418
 30
0.0
 40
0.5
  1
F4B-GT-05
100
AcDbAttributeDefinition
  3

  2
DESCRIPTION
 70
     8
280
     0
  0
ATTDEF
  5
130
330
123
100
AcDbEntity
  8
AM_6
100
AcDbText
 10
6.00065
 20
-2.415533452661418
 30
0.0
 40
0.5
  1
With Lube
100
AcDbAttributeDefinition
  3

  2
LUBE
 70
     8
280
     0
  0
ATTDEF
  5
131
330
123
100
AcDbEntity
  8
AM_6
100
AcDbText
 10
6.00065
 20
-2.915533452661418
 30
0.0
 40
0.5
  1
2.2
100
AcDbAttributeDefinition
  3

  2
WEIGHT
 70
     8
280
     0
  0
ATTDEF
  5
132
330
123
100
AcDbEntity
  8
AM_6
100
AcDbText
 10
6.00065
 20
-3.415533452661418
 30
0.0
 40
0.5
  1
1-29/64
100
AcDbAttributeDefinition
  3

  2
A
 70
     8
280
     0
  0
ATTDEF
  5
133
330
123
100
AcDbEntity
  8
AM_6
100
AcDbText
 10
6.00065
 20
-3.915533452661418
 30
0.0
 40
0.5
  1
1.4531
100
AcDbAttributeDefinition
  3

  2
A1
 70
     8
280
     0
  0
ATTDEF
  5
134
330
123
100
AcDbEntity
  8
AM_6
100
AcDbText
 10
6.00065
 20
-4.415533452661418
 30
0.0
 40
0.5
  1
3-3/4
100
AcDbAttributeDefinition
  3

  2
B
 70
     8
280
     0
  0
ATTDEF
  5
135
330
123
100
AcDbEntity
  8
AM_6
100
AcDbText
 10
6.00065
 20
-4.915533452661418
 30
0.0
 40
0.5
  1
3.750
100
AcDbAttributeDefinition
  3

  2
B1
 70
     8
280
     0
  0
ATTDEF
  5
136
330
123
100
AcDbEntity
  8
AM_6
100
AcDbText
 10
6.00065
 20
-5.415533452661418
 30
0.0
 40
0.5
  1
1-35/64
100
AcDbAttributeDefinition
  3

  2
C
 70
     8
280
     0
  0
ATTDEF
  5
137
330
123
100
AcDbEntity
  8
AM_6
100
AcDbText
 10
6.00065
 20
-5.915533452661418
 30
0.0
 40
0.5
  1
1.547
100
AcDbAttributeDefinition
  3

  2
C1
 70
     8
280
     0
  0
ATTDEF
  5
138
330
123
100
AcDbEntity
  8
AM_6
100
AcDbText
 10
6.00065
 20
-6.415533452661418
 30
0.0
 40
0.5
  1
2-3/4
100
AcDbAttributeDefinition
  3

  2
D
 70
     8
280
     0
  0
ATTDEF
  5
139
330
123
100
AcDbEntity
  8
AM_6
100
AcDbText
 10
6.00065
 20
-6.915533452661418
 30
0.0
 40
0.5
  1
2.750
100
AcDbAttributeDefinition
  3

  2
D1
 70
     8
280
     0
  0
ATTDEF
  5
13A
330
123
100
AcDbEntity
  8
AM_6
100
AcDbText
 10
6.00065
 20
-7.415533452661418
 30
0.0
 40
0.5
  1
7/16
100
AcDbAttributeDefinition
  3

  2
F
 70
     8
280
     0
  0
ATTDEF
  5
13B
330
123
100
AcDbEntity
  8
AM_6
100
AcDbText
 10
6.00065
 20
-7.915533452661418
 30
0.0
 40
0.5
  1
0.438
100
AcDbAttributeDefinition
  3

  2
F1
 70
     8
280
     0
  0
ATTDEF
  5
13C
330
123
100
AcDbEntity
  8
AM_6
100
AcDbText
 10
6.00065
 20
-8.415533452661418
 30
0.0
 40
0.5
  1
1/2
100
AcDbAttributeDefinition
  3

  2
H
 70
     8
280
     0
  0
ATTDEF
  5
13D
330
123
100
AcDbEntity
  8
AM_6
100
AcDbText
 10
6.00065
 20
-8.915533452661418
 30
0.0
 40
0.5
  1
0.500
100
AcDbAttributeDefinition
  3

  2
H1
 70
     8
280
     0
  0
ATTDEF
  5
13E
330
123
100
AcDbEntity
  8
AM_6
100
AcDbText
 10
6.00065
 20
-9.415533452661418
 30
0.0
 40
0.5
  1
19/32
100
AcDbAttributeDefinition
  3

  2
J
 70
     8
280
     0
  0
ATTDEF
  5
13F
330
123
100
AcDbEntity
  8
AM_6
100
AcDbText
 10
6.00065
 20
-9.915533452661418
 30
0.0
 40
0.5
  1
0.594
100
AcDbAttributeDefinition
  3

  2
J1
 70
     8
280
     0
  0
ATTDEF
  5
140
330
123
100
AcDbEntity
  8
AM_6
100
AcDbText
 10
6.00065
 20
-10.41553345266142
 30
0.0
 40
0.5
  1
1-51/64
100
AcDbAttributeDefinition
  3

  2
L
 70
     8
280
     0
  0
ATTDEF
  5
141
330
123
100
AcDbEntity
  8
AM_6
100
AcDbText
 10
6.00065
 20
-10.91553345266142
 30
0.0
 40
0.5
  1
1.797
100
AcDbAttributeDefinition
  3

  2
L1
 70
     8
280
     0
  0
ATTDEF
  5
142
330
123
100
AcDbEntity
  8
AM_6
100
AcDbText
 10
6.00065
 20
-11.41553345266142
 30
0.0
 40
0.5
  1
2-1/16
100
AcDbAttributeDefinition
  3

  2
N
 70
     8
280
     0
  0
ATTDEF
  5
143
330
123
100
AcDbEntity
  8
AM_6
100
AcDbText
 10
6.00065
 20
-11.91553345266142
 30
0.0
 40
0.5
  1
2.063
100
AcDbAttributeDefinition
  3

  2
N1
 70
     8
280
     0
  0
ATTDEF
  5
144
330
123
100
AcDbEntity
  8
AM_6
100
AcDbText
 10
6.00065
 20
-12.41553345266142
 30
0.0
 40
0.5
  1
1-35/64
100
AcDbAttributeDefinition
  3

  2
Z
 70
     8
280
     0
  0
ATTDEF
  5
145
330
123
100
AcDbEntity
  8
AM_6
100
AcDbText
 10
6.00065
 20
-12.91553345266142
 30
0.0
 40
0.5
  1
1.547
100
AcDbAttributeDefinition
  3

  2
Z1
 70
     8
280
     0
  0
ATTDEF
  5
146
330
123
100
AcDbEntity
  8
AM_6
100
AcDbText
 10
6.00065
 20
-13.41553345266142
 30
0.0
 40
0.5
  1
Infotext
100
AcDbAttributeDefinition
  3

  2
INFO
 70
     8
280
     0
  0
ATTDEF
  5
147
330
123
100
AcDbEntity
  8
AM_6
100
AcDbText
 10
6.00065
 20
-13.91553345266142
 30
0.0
 40
0.5
  1
baldor
100
AcDbAttributeDefinition
  3

  2
COMPANY
 70
     8
280
     0
  0
LINE
  5
148
330
123
100
AcDbEntity
  8
AM_9
100
AcDbLine
 10
0.5154999999999998
 20
-1.64173148
 30
0.0
 11
0.5351850399999999
 21
-1.64173148
 31
0.0
  0
LINE
  5
149
330
123
100
AcDbEntity
  8
AM_9
100
AcDbLine
 10
0.5154999999999998
 20
-1.65629873
 30
0.0
 11
0.5351850399999999
 21
-1.65629873
 31
0.0
  0
LINE
  5
14A
330
123
100
AcDbEntity
  8
AM_9
100
AcDbLine
 10
0.5154999999999998
 20
-1.700000475300004
 30
0.0
 11
0.5351850399999999
 21
-1.700000475300004
 31
0.0
  0
LINE
  5
14B
330
123
100
AcDbEntity
  8
AM_9
100
AcDbLine
 10
0.5154999999999998
 20
-1.61259698
 30
0.0
 11
0.5351850399999999
 21
-1.61259698
 31
0.0
  0
LINE
  5
14C
330
123
100
AcDbEntity
  8
AM_9
100
AcDbLine
 10
0.5154999999999998
 20
-1.743702220400012
 30
0.0
 11
0.5351850399999999
 21
-1.743702220400012
 31
0.0
  0
LINE
  5
14D
330
123
100
AcDbEntity
  8
AM_9
100
AcDbLine
 10
0.5154999999999998
 20
-1.63590458
 30
0.0
 11
0.5351850399999999
 21
-1.63590458
 31
0.0
  0
LINE
  5
14E
330
123
100
AcDbEntity
  8
AM_9
100
AcDbLine
 10
0.5154999999999998
 20
-1.688346675799993
 30
0.0
 11
0.5351850399999999
 21
-1.688346675799993
 31
0.0
  0
LINE
  5
14F
330
123
100
AcDbEntity
  8
AM_9
100
AcDbLine
 10
0.5154999999999998
 20
-1.720394622799989
 30
0.0
 11
0.5351850399999999
 21
-1.720394622799989
 31
0.0
  0
LINE
  5
150
330
123
100
AcDbEntity
  8
AM_9
100
AcDbLine
 10
0.5154999999999998
 20
-1.711654275399996
 30
0.0
 11
0.5351850399999999
 21
-1.711654275399996
 31
0.0
  0
LINE
  5
151
330
123
100
AcDbEntity
  8
AM_9
100
AcDbLine
 10
0.5154999999999998
 20
-1.737875320300008
 30
0.0
 11
0.5351850399999999
 21
-1.737875320300008
 31
0.0
  0
LINE
  5
152
330
123
100
AcDbEntity
  8
AM_9
100
AcDbLine
 10
0.5154999999999998
 20
-1.61842388
 30
0.0
 11
0.5351850399999999
 21
-1.61842388
 31
0.0
  0
LINE
  5
153
330
123
100
AcDbEntity
  8
AM_9
100
AcDbLine
 10
0.5154999999999998
 20
-1.726221525499982
 30
0.0
 11
0.5351850399999999
 21
-1.726221525499982
 31
0.0
  0
LINE
  5
154
330
123
100
AcDbEntity
  8
AM_9
100
AcDbLine
 10
0.5154999999999998
 20
-1.63007768
 30
0.0
 11
0.5351850399999999
 21
-1.63007768
 31
0.0
  0
LINE
  5
155
330
123
100
AcDbEntity
  8
AM_9
100
AcDbLine
 10
0.5154999999999998
 20
-1.64464493
 30
0.0
 11
0.5351850399999999
 21
-1.64464493
 31
0.0
  0
LINE
  5
156
330
123
100
AcDbEntity
  8
AM_9
100
AcDbLine
 10
0.5154999999999998
 20
-1.71456772539999
 30
0.0
 11
0.5351850399999999
 21
-1.71456772539999
 31
0.0
  0
LINE
  5
157
330
123
100
AcDbEntity
  8
AM_9
100
AcDbLine
 10
0.5154999999999998
 20
-1.67086598
 30
0.0
 11
0.5351850399999999
 21
-1.67086598
 31
0.0
  0
LINE
  5
158
330
123
100
AcDbEntity
  8
AM_9
100
AcDbLine
 10
0.6636299199999999
 20
1.875
 30
0.0
 11
0.6636299199999999
 21
1.70866928
 31
0.0
  0
LINE
  5
159
330
123
100
AcDbEntity
  8
AM_9
100
AcDbLine
 10
0.7029999999999998
 20
1.875
 30
0.0
 11
0.7029999999999998
 21
1.70866928
 31
0.0
  0
LINE
  5
15A
330
123
100
AcDbEntity
  8
AM_9
100
AcDbLine
 10
0.4529999999999998
 20
1.70866928
 30
0.0
 11
0.7029999999999998
 21
1.70866928
 31
0.0
  0
LINE
  5
15B
330
123
100
AcDbEntity
  8
AM_9
100
AcDbLine
 10
0.4530000000000265
 20
-1.43
 30
0.0
 11
0.5154999999999998
 21
-1.43
 31
0.0
  0
LINE
  5
15C
330
123
100
AcDbEntity
  8
AM_9
100
AcDbLine
 10
0.5154999999999998
 20
1.394883434287895
 30
0.0
 11
0.4469721043193932
 21
1.394883434287895
 31
0.0
  0
LINE
  5
15D
330
123
100
AcDbEntity
  8
AM_9
100
AcDbLine
 10
0.5154999999999998
 20
-1.682519776400016
 30
0.0
 11
0.5351850399999999
 21
-1.682519776400016
 31
0.0
  0
LINE
  5
15E
330
123
100
AcDbEntity
  8
AM_9
100
AcDbLine
 10
0.5154999999999998
 20
-1.66503908
 30
0.0
 11
0.5351850399999999
 21
-1.66503908
 31
0.0
  0
LINE
  5
15F
330
123
100
AcDbEntity
  8
AM_9
100
AcDbLine
 10
0.5154999999999998
 20
-1.729134975599992
 30
0.0
 11
0.5351850399999999
 21
-1.729134975599992
 31
0.0
  0
LINE
  5
160
330
123
100
AcDbEntity
  8
AM_9
100
AcDbLine
 10
0.5154999999999998
 20
-1.746615670400006
 30
0.0
 11
0.5351850399999999
 21
-1.746615670400006
 31
0.0
  0
LINE
  5
161
330
123
100
AcDbEntity
  8
AM_9
100
AcDbLine
 10
0.5154999999999998
 20
-1.60968353
 30
0.0
 11
0.5351850399999999
 21
-1.60968353
 31
0.0
  0
LINE
  5
162
330
123
100
AcDbEntity
  8
AM_9
100
AcDbLine
 10
0.5351850399999999
 20
-1.746615670400006
 30
0.0
 11
0.5351850399999999
 21
-1.60968353
 31
0.0
  0
LINE
  5
163
330
123
100
AcDbEntity
  8
AM_9
100
AcDbLine
 10
0.5154999999999998
 20
-1.62716423
 30
0.0
 11
0.5351850399999999
 21
-1.62716423
 31
0.0
  0
LINE
  5
164
330
123
100
AcDbEntity
  8
AM_9
100
AcDbLine
 10
0.4519173359294121
 20
1.402291546972284
 30
0.0
 11
0.5154999999999998
 21
1.402291546972284
 31
0.0
  0
LINE
  5
165
330
123
100
AcDbEntity
  8
AM_9
100
AcDbLine
 10
0.4421727981483183
 20
1.391580748308197
 30
0.0
 11
0.5154999999999998
 21
1.391580748308197
 31
0.0
  0
LINE
  5
166
330
123
100
AcDbEntity
  8
AM_9
100
AcDbLine
 10
0.4315184558260705
 20
1.388894087350728
 30
0.0
 11
0.5154999999999998
 21
1.388894087350728
 31
0.0
  0
LINE
  5
167
330
123
100
AcDbEntity
  8
AM_9
100
AcDbLine
 10
0.4519173359294127
 20
-1.402291546972284
 30
0.0
 11
0.5154999999999998
 21
-1.402291546972284
 31
0.0
  0
LINE
  5
168
330
123
100
AcDbEntity
  8
AM_9
100
AcDbLine
 10
0.4417069035078059
 20
-1.391580748308197
 30
0.0
 11
0.5154999999999998
 21
-1.391580748308197
 31
0.0
  0
LINE
  5
169
330
123
100
AcDbEntity
  8
AM_9
100
AcDbLine
 10
0.5154999999999998
 20
-1.388894087350728
 30
0.0
 11
0.4314946099607916
 21
-1.388894087350728
 31
0.0
  0
LINE
  5
16A
330
123
100
AcDbEntity
  8
AM_9
100
AcDbLine
 10
0.0
 20
-1.023600000000001
 30
0.0
 11
0.953
 21
-1.023600000000001
 31
0.0
  0
LINE
  5
16B
330
123
100
AcDbEntity
  8
AM_9
100
AcDbLine
 10
0.953
 20
1.023600000000001
 30
0.0
 11
0.0
 21
1.023600000000001
 31
0.0
  0
LINE
  5
16C
330
123
100
AcDbEntity
  8
AM_9
100
AcDbLine
 10
0.453
 20
1.816672955930063
 30
0.0
 11
0.5155
 21
1.816672955930063
 31
0.0
  0
LINE
  5
16D
330
123
100
AcDbEntity
  8
AM_9
100
AcDbLine
 10
0.453
 20
-1.816672955930064
 30
0.0
 11
0.5155
 21
-1.816672955930064
 31
0.0
  0
LINE
  5
16E
330
123
100
AcDbEntity
  8
AM_9
100
AcDbLine
 10
0.5154999999999998
 20
-1.388894087350728
 30
0.0
 11
0.5155
 21
-1.875
 31
0.0
  0
LINE
  5
16F
330
123
100
AcDbEntity
  8
AM_9
100
AcDbLine
 10
0.5155
 20
1.875
 30
0.0
 11
0.5154999999999998
 21
1.388894087350728
 31
0.0
  0
LINE
  5
170
330
123
100
AcDbEntity
  8
AM_9
100
AcDbLine
 10
0.43498102703807
 20
1.389160770275345
 30
0.0
 11
0.4313903574600574
 21
1.388894097595688
 31
0.0
  0
LINE
  5
171
330
123
100
AcDbEntity
  8
AM_9
100
AcDbLine
 10
0.4300234043875538
 20
-1.38893320166903
 30
0.0
 11
0.4314006344727549
 21
-1.388894109364766
 31
0.0
  0
LINE
  5
172
330
123
100
AcDbEntity
  8
AM_9
100
AcDbLine
 10
0.453
 20
1.156
 30
0.0
 11
0.953
 21
1.156
 31
0.0
  0
LINE
  5
173
330
123
100
AcDbEntity
  8
AM_9
100
AcDbLine
 10
0.953
 20
1.594
 30
0.0
 11
0.453
 21
1.594
 31
0.0
  0
LINE
  5
174
330
123
100
AcDbEntity
  8
AM_9
100
AcDbLine
 10
0.453
 20
-1.594
 30
0.0
 11
0.953
 21
-1.594
 31
0.0
  0
LINE
  5
175
330
123
100
AcDbEntity
  8
AM_9
100
AcDbLine
 10
0.953
 20
-1.156
 30
0.0
 11
0.453
 21
-1.156
 31
0.0
  0
LINE
  5
176
330
123
100
AcDbEntity
  8
AM_7
100
AcDbLine
 10
-0.6666812499999999
 20
0.0
 30
0.0
 11
1.00065
 21
0.0
 31
0.0
  0
LINE
  5
177
330
123
100
AcDbEntity
  8
AM_7
100
AcDbLine
 10
0.2755905511811025
 20
2.084466547338582
 30
0.0
 11
0.2755905511811025
 21
1.612202755338581
 31
0.0
  0
LINE
  5
178
330
123
100
AcDbEntity
  8
AM_7
100
AcDbLine
 10
0.9804999999999996
 20
1.375
 30
0.0
 11
0.3754999999999997
 21
1.375
 31
0.0
  0
LINE
  5
179
330
123
100
AcDbEntity
  8
AM_7
100
AcDbLine
 10
0.9804999999999996
 20
-1.375
 30
0.0
 11
0.3754999999999997
 21
-1.375
 31
0.0
  0
LINE
  5
17A
330
123
100
AcDbEntity
  8
AM_4
100
AcDbLine
 10
0.3410032896254862
 20
2.063000011338582
 30
0.0
 11
0.2101778129221498
 21
2.063000011338582
 31
0.0
  0
ARC
  5
17B
330
123
100
AcDbEntity
  8
AM_4
100
AcDbCircle
 10
0.2101778127367183
 20
2.043314971338582
 30
0.0
 40
0.0196850399999997
100
AcDbArc
 50
90.0
 51
158.1985930228067
  0
ARC
  5
17C
330
123
100
AcDbEntity
  8
AM_4
100
AcDbCircle
 10
0.3410032896254868
 20
2.043314971338582
 30
0.0
 40
0.0196850399999995
100
AcDbArc
 50
21.80140697719339
 51
90.0
  0
LINE
  5
17D
330
123
100
AcDbEntity
  8
AM_4
100
AcDbLine
 10
0.3592803907447945
 20
2.050625810857829
 30
0.0
 11
0.1919007116174105
 21
2.050625810857829
 31
0.0
  0
LINE
  5
17E
330
123
100
AcDbEntity
  8
AM_4
100
AcDbLine
 10
0.1919007116174105
 20
2.050625810857829
 30
0.0
 11
0.1707129810390186
 21
1.997656477684745
 31
0.0
  0
LINE
  5
17F
330
123
100
AcDbEntity
  8
AM_4
100
AcDbLine
 10
0.3804681213231864
 20
1.997656477684745
 30
0.0
 11
0.3592803907447945
 21
2.050625810857829
 31
0.0
  0
LINE
  5
180
330
123
100
AcDbEntity
  8
AM_4
100
AcDbLine
 10
0.3804681213231864
 20
1.997656477684745
 30
0.0
 11
0.1707129810390186
 21
1.997656477684745
 31
0.0
  0
ARC
  5
181
330
123
100
AcDbEntity
  8
AM_4
100
AcDbCircle
 10
0.1889900821583276
 20
1.990345638165498
 30
0.0
 40
0.0196850400000005
100
AcDbArc
 50
158.1985930228099
 51
225.842914319104
  0
ARC
  5
182
330
123
100
AcDbEntity
  8
AM_4
100
AcDbCircle
 10
0.3621910202038774
 20
1.990345638165498
 30
0.0
 40
0.0196850400000008
100
AcDbArc
 50
314.157085680896
 51
21.80140697719019
  0
LINE
  5
183
330
123
100
AcDbEntity
  8
AM_4
100
AcDbLine
 10
0.1653543311811025
 20
1.728354331338583
 30
0.0
 11
0.1653543311811025
 21
1.70866928
 31
0.0
  0
LINE
  5
184
330
123
100
AcDbEntity
  8
AM_4
100
AcDbLine
 10
0.3858267711811025
 20
1.70866928
 30
0.0
 11
0.3858267711811025
 21
1.728354331338583
 31
0.0
  0
LINE
  5
185
330
123
100
AcDbEntity
  8
AM_4
100
AcDbLine
 10
0.3759041691477404
 20
1.97622294912109
 30
0.0
 11
0.1752769332144646
 21
1.97622294912109
 31
0.0
  0
ARC
  5
186
330
123
100
AcDbEntity
  8
AM_4
100
AcDbCircle
 10
0.1257381791498517
 20
1.925204731338582
 30
0.0
 40
0.0711122120312508
100
AcDbArc
 50
303.8550321711153
 51
45.84291431910422
  0
ARC
  5
187
330
123
100
AcDbEntity
  8
AM_4
100
AcDbCircle
 10
0.4254429232123533
 20
1.925204731338582
 30
0.0
 40
0.0711122120312508
100
AcDbArc
 50
134.1570856808958
 51
236.1449678288848
  0
LINE
  5
188
330
123
100
AcDbEntity
  8
AM_4
100
AcDbLine
 10
0.3858267711811027
 20
1.866149611338582
 30
0.0
 11
0.1653543311811023
 21
1.866149611338582
 31
0.0
  0
LINE
  5
189
330
123
100
AcDbEntity
  8
AM_4
100
AcDbLine
 10
0.1653543311811023
 20
1.866149611338582
 30
0.0
 11
0.1653543311811023
 21
1.846464571338583
 31
0.0
  0
LINE
  5
18A
330
123
100
AcDbEntity
  8
AM_4
100
AcDbLine
 10
0.3858267711811026
 20
1.846464571338583
 30
0.0
 11
0.3858267711811026
 21
1.866149611338582
 31
0.0
  0
LINE
  5
18B
330
123
100
AcDbEntity
  8
AM_4
100
AcDbLine
 10
0.4330708711811025
 20
1.846464571338583
 30
0.0
 11
0.1181102311811025
 21
1.846464571338583
 31
0.0
  0
LINE
  5
18C
330
123
100
AcDbEntity
  8
AM_4
100
AcDbLine
 10
0.1181102311811025
 20
1.728354331338583
 30
0.0
 11
0.1181102311811025
 21
1.846464571338583
 31
0.0
  0
LINE
  5
18D
330
123
100
AcDbEntity
  8
AM_4
100
AcDbLine
 10
0.4330708711811025
 20
1.728354331338583
 30
0.0
 11
0.1181102311811025
 21
1.728354331338583
 31
0.0
  0
LINE
  5
18E
330
123
100
AcDbEntity
  8
AM_4
100
AcDbLine
 10
0.4330708711811025
 20
1.846464571338583
 30
0.0
 11
0.4330708711811025
 21
1.728354331338583
 31
0.0
  0
LWPOLYLINE
  5
18F
330
123
100
AcDbEntity
  8
AM_4
100
AcDbPolyline
 90
        3
 70
     0
 43
0.0
 10
0.4330708711811025
 20
1.839936715330104
 10
0.39387780966207
 20
1.844726330599318
 10
0.3543307111811025
 20
1.846464571338583
  0
LWPOLYLINE
  5
190
330
123
100
AcDbEntity
  8
AM_4
100
AcDbPolyline
 90
        3
 70
     0
 43
0.0
 10
0.3543307111811024
 20
1.728354331338583
 10
0.3937007911811025
 20
1.730077350181595
 10
0.4330708711811025
 20
1.734882187347061
  0
LWPOLYLINE
  5
191
330
123
100
AcDbEntity
  8
AM_4
100
AcDbPolyline
 90
        3
 70
     0
 43
0.0
 10
0.2755905511811025
 20
1.734882187347061
 10
0.3147836127001351
 20
1.730092572077847
 10
0.3543307111811024
 20
1.728354331338583
  0
LWPOLYLINE
  5
192
330
123
100
AcDbEntity
  8
AM_4
100
AcDbPolyline
 90
        3
 70
     0
 43
0.0
 10
0.3543307111811025
 20
1.846464571338583
 10
0.3149606311811025
 20
1.84474155249557
 10
0.2755905511811025
 20
1.839936715330104
  0
LWPOLYLINE
  5
193
330
123
100
AcDbEntity
  8
AM_4
100
AcDbPolyline
 90
        3
 70
     0
 43
0.0
 10
0.2755905511811025
 20
1.839936715330104
 10
0.2363974896620699
 20
1.844726330599318
 10
0.1968503911811025
 20
1.846464571338583
  0
LWPOLYLINE
  5
194
330
123
100
AcDbEntity
  8
AM_4
100
AcDbPolyline
 90
        3
 70
     0
 43
0.0
 10
0.1968503911811025
 20
1.846464571338583
 10
0.1574803111811025
 20
1.84474155249557
 10
0.1181102311811025
 20
1.839936715330104
  0
LWPOLYLINE
  5
195
330
123
100
AcDbEntity
  8
AM_4
100
AcDbPolyline
 90
        3
 70
     0
 43
0.0
 10
0.1181102311811025
 20
1.734882187347061
 10
0.157303292700135
 20
1.730092572077847
 10
0.1968503911811025
 20
1.728354331338583
  0
LWPOLYLINE
  5
196
330
123
100
AcDbEntity
  8
AM_4
100
AcDbPolyline
 90
        3
 70
     0
 43
0.0
 10
0.1968503911811025
 20
1.728354331338583
 10
0.2362204711811025
 20
1.730077350181595
 10
0.2755905511811025
 20
1.734882187347061
  0
LINE
  5
197
330
123
100
AcDbEntity
  8
AM_4
100
AcDbLine
 10
0.2755905511811025
 20
1.734882187347061
 30
0.0
 11
0.2755905511811025
 21
1.839936715330104
 31
0.0
  0
LINE
  5
198
330
123
100
AcDbEntity
  8
AM_4
100
AcDbLine
 10
0.0
 20
1.70866928
 30
0.0
 11
0.4529999999999998
 21
1.70866928
 31
0.0
  0
LINE
  5
199
330
123
100
AcDbEntity
  8
AM_4
100
AcDbLine
 10
0.0000000000000001
 20
-1.376161647100982
 30
0.0
 11
0.0
 21
1.70866928
 31
0.0
  0
LINE
  5
19A
330
123
100
AcDbEntity
  8
AM_4
100
AcDbLine
 10
0.0393700800000001
 20
1.380071666824894
 30
0.0
 11
0.0393700800000001
 21
1.70866928
 31
0.0
  0
LINE
  5
19B
330
123
100
AcDbEntity
  8
AM_4
100
AcDbLine
 10
0.4238544131709271
 20
-1.43
 30
0.0
 11
0.4530000000000265
 21
-1.43
 31
0.0
  0
LINE
  5
19C
330
123
100
AcDbEntity
  8
AM_4
100
AcDbLine
 10
0.4469721043193932
 20
1.394883434287895
 30
0.0
 11
0.4238544131707672
 21
1.394883434287895
 31
0.0
  0
LINE
  5
19D
330
123
100
AcDbEntity
  8
AM_4
100
AcDbLine
 10
0.4238544131707671
 20
1.391580748308197
 30
0.0
 11
0.4421727981483183
 21
1.391580748308197
 31
0.0
  0
LWPOLYLINE
  5
19E
330
123
100
AcDbEntity
  8
AM_4
100
AcDbPolyline
 90
        6
 70
     0
 43
0.0
 10
0.431400634472755
 20
1.388894109364766
 10
0.4333169032198629
 20
1.388972324582315
 10
0.4409558489326709
 20
1.390828044621049
 10
0.4464412046871249
 20
1.394220829996648
 10
0.4507413255562805
 20
1.399587717384775
 10
0.4519173359294121
 20
1.402291546972284
  0
LINE
  5
19F
330
123
100
AcDbEntity
  8
AM_4
100
AcDbLine
 10
0.4238544131709667
 20
-1.391580748308197
 30
0.0
 11
0.4417069035078059
 21
-1.391580748308197
 31
0.0
  0
LWPOLYLINE
  5
1A0
330
123
100
AcDbEntity
  8
AM_4
100
AcDbPolyline
 90
        5
 70
     0
 43
0.0
 10
0.4313903574600574
 20
-1.388894097595688
 10
0.4279528683779903
 20
-1.389163672167201
 10
0.4256685623768191
 20
-1.389767701742656
 10
0.4241336014801552
 20
-1.39078131985882
 10
0.423854413170767
 20
-1.391580748308197
  0
LWPOLYLINE
  5
1A1
330
123
100
AcDbEntity
  8
AM_4
100
AcDbPolyline
 90
       10
 70
     0
 43
0.0
 10
0.0
 20
1.348284362510585
 10
0.0000004823395006
 20
1.348443431021209
 10
0.0007854212565287
 20
1.354656485345343
 10
0.003164122114343
 20
1.360848609093519
 10
0.0064594867226609
 20
1.365808373301289
 10
0.0111087633356116
 20
1.370475739046762
 10
0.0155572598967609
 20
1.373637908413722
 10
0.0209008860465887
 20
1.376372954631806
 10
0.0312108071234284
 20
1.379365218387699
 10
0.0379960840238812
 20
1.380027925540493
  0
ARC
  5
1A2
330
123
100
AcDbEntity
  8
AM_4
100
AcDbCircle
 10
0.03937008
 20
-1.376161647100982
 30
0.0
 40
0.0393700799999999
100
AcDbArc
 50
180.0
 51
268.0000000000001
  0
LINE
  5
1A3
330
123
100
AcDbEntity
  8
AM_4
100
AcDbLine
 10
0.0379960840238812
 20
1.380027925540493
 30
0.0
 11
0.4150039159771474
 21
1.393523145721551
 31
0.0
  0
LINE
  5
1A4
330
123
100
AcDbEntity
  8
AM_4
100
AcDbLine
 10
0.0379960840238812
 20
1.380027925540493
 30
0.0
 11
0.0379960840228629
 21
-1.41550774391199
 31
0.0
  0
LINE
  5
1A5
330
123
100
AcDbEntity
  8
AM_4
100
AcDbLine
 10
0.0379960840228629
 20
-1.41550774391199
 30
0.0
 11
0.4150039159771371
 21
-1.428673147508249
 31
0.0
  0
LINE
  5
1A6
330
123
100
AcDbEntity
  8
AM_4
100
AcDbLine
 10
0.4238544131708002
 20
0.3292461403539896
 30
0.0
 11
0.5155
 21
0.3292461403539896
 31
0.0
  0
LINE
  5
1A7
330
123
100
AcDbEntity
  8
AM_4
100
AcDbLine
 10
0.4238544131707673
 20
-0.3292461403539897
 30
0.0
 11
0.5155
 21
-0.3292461403539897
 31
0.0
  0
LINE
  5
1A8
330
123
100
AcDbEntity
  8
AM_4
100
AcDbLine
 10
0.4150039159771474
 20
1.393523145721551
 30
0.0
 11
0.4150039159771371
 21
-1.428673147508249
 31
0.0
  0
LWPOLYLINE
  5
1A9
330
123
100
AcDbEntity
  8
AM_4
100
AcDbPolyline
 90
        5
 70
     0
 43
0.0
 10
0.4519173359294121
 20
-1.402291546972284
 10
0.4489116795146688
 20
-1.396794335797757
 10
0.4444606472681799
 20
-1.392716005587829
 10
0.436488157314379
 20
-1.389429270130781
 10
0.4313903574600574
 20
-1.388894097595688
  0
LWPOLYLINE
  5
1AA
330
123
100
AcDbEntity
  8
AM_4
100
AcDbPolyline
 90
        8
 70
     0
 43
0.0
 10
0.4238544131707673
 20
-0.3292461403539897
 10
0.4245018226519915
 20
-0.3349281759848592
 10
0.4262358560153968
 20
-0.3406880998555987
 10
0.433316903219863
 20
-0.3562252575085984
 10
0.4409558489326711
 20
-0.3718420414372831
 10
0.4464412046871252
 20
-0.3844724319609876
 10
0.4507413255562807
 20
-0.3972633708048323
 10
0.4519173359294122
 20
-0.4022703459731499
  0
LINE
  5
1AB
330
123
100
AcDbEntity
  8
AM_4
100
AcDbLine
 10
0.4238544131707673
 20
-0.3292461403539897
 30
0.0
 11
0.4238544131708002
 21
0.3292461403539896
 31
0.0
  0
LWPOLYLINE
  5
1AC
330
123
100
AcDbEntity
  8
AM_4
100
AcDbPolyline
 90
        8
 70
     0
 43
0.0
 10
0.4519173359294127
 20
0.4022703459731499
 10
0.4489116795146688
 20
0.3912271908643999
 10
0.4444606472681802
 20
0.3796523946256729
 10
0.4364881573143796
 20
0.3626023416856227
 10
0.427952868377991
 20
0.3449324792994252
 10
0.4256685623768185
 20
0.3390809685701143
 10
0.4241336014801559
 20
0.3329342435975713
 10
0.4238544131708002
 20
0.3292461403539896
  0
LWPOLYLINE
  5
1AD
330
123
100
AcDbEntity
  8
AM_4
100
AcDbPolyline
 90
        4
 70
     0
 43
0.0
 10
0.4238544131707667
 20
1.391580748308197
 10
0.4245018226519914
 20
1.390409321320152
 10
0.4262358560153968
 20
1.389567094167241
 10
0.431400634472755
 20
1.388894109364766
  0
LINE
  5
1AE
330
123
100
AcDbEntity
  8
AM_4
100
AcDbLine
 10
0.4238544131707671
 20
1.391580748308197
 30
0.0
 11
0.4238544131707672
 21
1.394883434287895
 31
0.0
  0
LWPOLYLINE
  5
1AF
330
123
100
AcDbEntity
  8
AM_4
100
AcDbPolyline
 90
        3
 70
     0
 43
0.0
 10
0.4238544131707672
 20
1.394883434287895
 10
0.4186861137129554
 20
1.393832806175317
 10
0.4150039159771474
 20
1.393523145721551
  0
ARC
  5
1B0
330
123
100
AcDbEntity
  8
AM_4
100
AcDbCircle
 10
0.4136299200000011
 20
-1.468019244319243
 30
0.0
 40
0.0393700799999865
100
AcDbArc
 50
74.94761236561601
 51
88.00000000000105
  0
LINE
  5
1B1
330
123
100
AcDbEntity
  8
AM_4
100
AcDbLine
 10
0.4238544131709271
 20
-1.430000000000043
 30
0.0
 11
0.4238544131709667
 21
-1.391580748308197
 31
0.0
  0
LINE
  5
1B2
330
123
100
AcDbEntity
  8
AM_4
100
AcDbLine
 10
0.4529999999999987
 20
1.875
 30
0.0
 11
0.453
 21
0.4132763432369951
 31
0.0
  0
LINE
  5
1B3
330
123
100
AcDbEntity
  8
AM_4
100
AcDbLine
 10
0.4519173359294127
 20
0.4022703459731499
 30
0.0
 11
0.453
 21
0.4132763432369951
 31
0.0
  0
LINE
  5
1B4
330
123
100
AcDbEntity
  8
AM_4
100
AcDbLine
 10
0.4519173359294127
 20
0.4022703459731499
 30
0.0
 11
0.5155
 21
0.4022703459731499
 31
0.0
  0
LINE
  5
1B5
330
123
100
AcDbEntity
  8
AM_4
100
AcDbLine
 10
0.453000000000028
 20
-0.4132763432369931
 30
0.0
 11
0.4529999999999987
 21
-1.875
 31
0.0
  0
LINE
  5
1B6
330
123
100
AcDbEntity
  8
AM_4
100
AcDbLine
 10
0.4519173359294122
 20
-0.4022703459731499
 30
0.0
 11
0.5155
 21
-0.4022703459731499
 31
0.0
  0
LWPOLYLINE
  5
1B7
330
123
100
AcDbEntity
  8
AM_4
100
AcDbPolyline
 90
        3
 70
     0
 43
0.0
 10
0.453000000000028
 20
-0.4132763432369931
 10
0.452752822441617
 20
-0.4079972499019446
 10
0.4519173359294122
 20
-0.4022703459731499
  0
LINE
  5
1B8
330
123
100
AcDbEntity
  8
AM_4
100
AcDbLine
 10
0.4529999999999987
 20
1.875
 30
0.0
 11
0.952999999999999
 21
1.875
 31
0.0
  0
LINE
  5
1B9
330
123
100
AcDbEntity
  8
AM_4
100
AcDbLine
 10
0.952999999999999
 20
-1.875
 30
0.0
 11
0.952999999999999
 21
1.875
 31
0.0
  0
LINE
  5
1BA
330
123
100
AcDbEntity
  8
AM_4
100
AcDbLine
 10
0.4529999999999987
 20
-1.875
 30
0.0
 11
0.952999999999999
 21
-1.875
 31
0.0
  0
LINE
  5
1BB
330
123
100
AcDbEntity
  8
AM_4
100
AcDbLine
 10
0.4530000000000001
 20
-1.12
 30
0.0
 11
0.5155
 21
-1.12
 31
0.0
  0
LINE
  5
1BC
330
123
100
AcDbEntity
  8
AM_4
100
AcDbLine
 10
0.4530000000000001
 20
1.12
 30
0.0
 11
0.5155
 21
1.12
 31
0.0
  0
LINE
  5
1BD
330
123
100
AcDbEntity
  8
AM_4
100
AcDbLine
 10
0.452999999999999
 20
1.274501243788796
 30
0.0
 11
0.5155
 21
1.274501243788796
 31
0.0
  0
LINE
  5
1BE
330
123
100
AcDbEntity
  8
AM_4
100
AcDbLine
 10
0.5155
 20
-1.274501243788797
 30
0.0
 11
0.5155
 21
1.274501243788796
 31
0.0
  0
LINE
  5
1BF
330
123
100
AcDbEntity
  8
AM_4
100
AcDbLine
 10
0.5155
 20
-1.274501243788797
 30
0.0
 11
0.452999999999999
 21
-1.274501243788797
 31
0.0
  0
LINE
  5
1C0
330
123
100
AcDbEntity
  8
AM_4
100
AcDbLine
 10
0.4529999999999988
 20
-1.375
 30
0.0
 11
0.952999999999999
 21
-1.375
 31
0.0
  0
LINE
  5
1C1
330
123
100
AcDbEntity
  8
AM_4
100
AcDbLine
 10
0.4529999999999988
 20
1.375
 30
0.0
 11
0.952999999999999
 21
1.375
 31
0.0
  0
ENDBLK
  5
126
330
123
100
AcDbEntity
  8
0
100
AcDbBlockEnd
  0
ENDSEC
  0
SECTION
  2
ENTITIES
  0
INSERT
  5
6F
330
1F
100
AcDbEntity
  8
0
100
AcDbBlockReference
  2
1_129679_2
 10
0.0
 20
0.0
 30
0.0
  0
POINT
  5
1C3
330
1F
100
AcDbEntity
  8
ConnectionPoints
100
AcDbPoint
 10
0.3591
 20
0.0
 30
0.0
  0
POINT
  5
1C4
330
1F
100
AcDbEntity
  8
ConnectionPoints
100
AcDbPoint
 10
0.8591
 20
0.0
 30
0.0
  0
POINT
  5
1C5
330
1F
100
AcDbEntity
  8
ConnectionPoints
100
AcDbPoint
 10
0.8591
 20
0.0
 30
-0.0000000000000001
  0
ENDSEC
  0
SECTION
  2
OBJECTS
  0
DICTIONARY
  5
C
330
0
100
AcDbDictionary
281
     1
  3
ACAD_DETAILVIEWSTYLE
350
1CD
  3
ACAD_GROUP
350
D
  3
ACAD_LAYOUT
350
1A
  3
ACAD_MATERIAL
350
43
  3
ACAD_MLEADERSTYLE
350
6B
  3
ACAD_MLINESTYLE
350
17
  3
ACAD_PLOTSETTINGS
350
19
  3
ACAD_PLOTSTYLENAME
350
E
  3
ACAD_SCALELIST
350
47
  3
ACAD_SECTIONVIEWSTYLE
350
1CE
  3
ACAD_TABLESTYLE
350
69
  3
ACAD_VISUALSTYLE
350
2A
  3
ACDB_RECOMPOSE_DATA
350
1CA
  3
AcDbVariableDictionary
350
1C6
  0
SUN
  5
6D
330
29
100
AcDbSun
 90
        1
290
     0
 63
     7
421
 16777215
 40
1.0
291
     1
 91
  2455826
 92
 54000000
292
     0
 70
     2
 71
   256
280
     1
  0
DICTIONARY
  5
1CD
102
{ACAD_REACTORS
330
C
102
}
330
C
100
AcDbDictionary
281
     1
  0
DICTIONARY
  5
D
102
{ACAD_REACTORS
330
C
102
}
330
C
100
AcDbDictionary
281
     1
  0
DICTIONARY
  5
1A
102
{ACAD_REACTORS
330
C
102
}
330
C
100
AcDbDictionary
281
     1
  3
Layout1
350
1E
  3
Layout2
350
26
  3
Model
350
22
  0
DICTIONARY
  5
43
102
{ACAD_REACTORS
330
C
102
}
330
C
100
AcDbDictionary
281
     1
  3
ByBlock
350
45
  3
ByLayer
350
44
  3
Global
350
46
  0
DICTIONARY
  5
6B
102
{ACAD_REACTORS
330
C
102
}
330
C
100
AcDbDictionary
281
     1
  3
Standard
350
6C
  0
DICTIONARY
  5
17
102
{ACAD_REACTORS
330
C
102
}
330
C
100
AcDbDictionary
281
     1
  3
Standard
350
18
  0
DICTIONARY
  5
19
102
{ACAD_REACTORS
330
C
102
}
330
C
100
AcDbDictionary
281
     1
  0
ACDBDICTIONARYWDFLT
  5
E
102
{ACAD_REACTORS
330
C
102
}
330
C
100
AcDbDictionary
281
     1
  3
Normal
350
F
100
AcDbDictionaryWithDefault
340
F
  0
DICTIONARY
  5
47
102
{ACAD_REACTORS
330
C
102
}
330
C
100
AcDbDictionary
281
     1
  3
A0
350
48
  3
A1
350
49
  3
A2
350
4A
  3
A3
350
4B
  3
A4
350
4C
  3
A5
350
4D
  3
A6
350
4E
  3
A7
350
4F
  3
A8
350
50
  3
A9
350
51
  3
B0
350
52
  3
B1
350
53
  3
B2
350
54
  3
B3
350
55
  3
B4
350
56
  3
B5
350
57
  3
B6
350
58
  3
B7
350
59
  3
B8
350
5A
  3
B9
350
5B
  3
C0
350
5C
  3
C1
350
5D
  3
C2
350
5E
  3
C3
350
5F
  3
C4
350
60
  3
C5
350
61
  3
C6
350
62
  3
C7
350
63
  3
C8
350
64
  3
C9
350
65
  3
D0
350
66
  3
D1
350
67
  3
D2
350
68
  0
DICTIONARY
  5
1CE
102
{ACAD_REACTORS
330
C
102
}
330
C
100
AcDbDictionary
281
     1
  0
DICTIONARY
  5
69
102
{ACAD_REACTORS
330
C
102
}
330
C
100
AcDbDictionary
281
     1
  3
Standard
350
6A
  0
DICTIONARY
  5
2A
102
{ACAD_REACTORS
330
C
102
}
330
C
100
AcDbDictionary
281
     1
  3
2dWireframe
350
2F
  3
Basic
350
32
  3
Brighten
350
36
  3
ColorChange
350
3A
  3
Conceptual
350
34
  3
Dim
350
35
  3
EdgeColorOff
350
3D
  3
Facepattern
350
39
  3
Flat
350
2B
  3
FlatWithEdges
350
2C
  3
Gouraud
350
2D
  3
GouraudWithEdges
350
2E
  3
Hidden
350
31
  3
JitterOff
350
3B
  3
Linepattern
350
38
  3
OverhangOff
350
3C
  3
Realistic
350
33
  3
Shaded
350
42
  3
Shaded with edges
350
41
  3
Shades of Gray
350
3E
  3
Sketchy
350
3F
  3
Thicken
350
37
  3
Wireframe
350
30
  3
X-Ray
350
40
  0
XRECORD
  5
1CA
102
{ACAD_REACTORS
330
C
102
}
330
C
100
AcDbXrecord
280
     1
 90
        1
330
6A
  0
DICTIONARY
  5
1C6
102
{ACAD_REACTORS
330
C
102
}
330
C
100
AcDbDictionary
281
     1
  3
CANNOSCALE
350
1C7
  3
CMLEADERSTYLE
350
1CC
  3
CTABLESTYLE
350
1CB
  0
LAYOUT
  5
1E
102
{ACAD_REACTORS
330
1A
102
}
330
1A
100
AcDbPlotSettings
  1

  2
none_device
  4

  6

 40
0.0
 41
0.0
 42
0.0
 43
0.0
 44
0.0
 45
0.0
 46
0.0
 47
0.0
 48
0.0
 49
0.0
140
0.0
141
0.0
142
1.0
143
1.0
 70
   688
 72
     0
 73
     0
 74
     5
  7

 75
    16
 76
     0
 77
     2
 78
   300
147
1.0
148
0.0
149
0.0
100
AcDbLayout
  1
Layout1
 70
     1
 71
     1
 10
0.0
 20
0.0
 11
12.0
 21
9.0
 12
0.0
 22
0.0
 32
0.0
 14
1.000000000000000E+20
 24
1.000000000000000E+20
 34
1.000000000000000E+20
 15
-1.000000000000000E+20
 25
-1.000000000000000E+20
 35
-1.000000000000000E+20
146
0.0
 13
0.0
 23
0.0
 33
0.0
 16
1.0
 26
0.0
 36
0.0
 17
0.0
 27
1.0
 37
0.0
 76
     0
330
1B
  0
LAYOUT
  5
26
102
{ACAD_REACTORS
330
1A
102
}
330
1A
100
AcDbPlotSettings
  1

  2
none_device
  4

  6

 40
0.0
 41
0.0
 42
0.0
 43
0.0
 44
0.0
 45
0.0
 46
0.0
 47
0.0
 48
0.0
 49
0.0
140
0.0
141
0.0
142
1.0
143
1.0
 70
   688
 72
     0
 73
     0
 74
     5
  7

 75
    16
 76
     0
 77
     2
 78
   300
147
1.0
148
0.0
149
0.0
100
AcDbLayout
  1
Layout2
 70
     1
 71
     2
 10
0.0
 20
0.0
 11
0.0
 21
0.0
 12
0.0
 22
0.0
 32
0.0
 14
0.0
 24
0.0
 34
0.0
 15
0.0
 25
0.0
 35
0.0
146
0.0
 13
0.0
 23
0.0
 33
0.0
 16
1.0
 26
0.0
 36
0.0
 17
0.0
 27
1.0
 37
0.0
 76
     0
330
23
  0
LAYOUT
  5
22
102
{ACAD_REACTORS
330
1A
102
}
330
1A
100
AcDbPlotSettings
  1

  2
none_device
  4
Letter_(8.50_x_11.00_Inches)
  6

 40
6.35
 41
6.35
 42
6.35000508
 43
6.35000508
 44
215.9
 45
279.4
 46
0.0
 47
0.0
 48
0.0
 49
0.0
140
0.0
141
0.0
142
1.0
143
1.0
 70
  1712
 72
     0
 73
     0
 74
     0
  7

 75
     0
 76
     0
 77
     2
 78
   300
147
1.0
148
0.0
149
0.0
100
AcDbLayout
  1
Model
 70
     1
 71
     0
 10
0.0
 20
0.0
 11
12.0
 21
9.0
 12
0.0
 22
0.0
 32
0.0
 14
1.000000000000000E+20
 24
1.000000000000000E+20
 34
1.000000000000000E+20
 15
-1.000000000000000E+20
 25
-1.000000000000000E+20
 35
-1.000000000000000E+20
146
0.0
 13
0.0
 23
0.0
 33
0.0
 16
1.0
 26
0.0
 36
0.0
 17
0.0
 27
1.0
 37
0.0
 76
     0
330
1F
331
29
  0
MATERIAL
  5
45
102
{ACAD_REACTORS
330
43
102
}
330
43
100
AcDbMaterial
  1
ByBlock
 72
     1
 94
      127
  0
MATERIAL
  5
44
102
{ACAD_REACTORS
330
43
102
}
330
43
100
AcDbMaterial
  1
ByLayer
 72
     1
 94
      127
  0
MATERIAL
  5
46
102
{ACAD_REACTORS
330
43
102
}
330
43
100
AcDbMaterial
  1
Global
 72
     1
 94
      127
  0
MLEADERSTYLE
  5
6C
102
{ACAD_REACTORS
330
6B
102
}
330
6B
100
AcDbMLeaderStyle
179
     2
170
     2
171
     1
172
     0
 90
        2
 40
0.0
 41
0.0
173
     1
 91
-1056964608
340
14
 92
       -2
290
     1
 42
0.09
291
     1
 43
0.36
  3
Standard
341
0
 44
0.18
300

342
11
174
     1
178
     6
175
     1
176
     0
 93
-1056964608
 45
0.18
292
     0
297
     0
 46
0.18
343
0
 94
-1056964608
 47
1.0
 49
1.0
140
1.0
293
     1
141
0.0
294
     1
177
     0
142
1.0
295
     0
296
     0
143
0.125
271
     0
272
     9
273
     9
298
     0
  0
MLINESTYLE
  5
18
102
{ACAD_REACTORS
330
17
102
}
330
17
100
AcDbMlineStyle
  2
Standard
 70
     0
  3

 62
   256
 51
90.0
 52
90.0
 71
     2
 49
0.5
 62
   256
  6
BYLAYER
 49
-0.5
 62
   256
  6
BYLAYER
  0
ACDBPLACEHOLDER
  5
F
102
{ACAD_REACTORS
330
E
102
}
330
E
  0
SCALE
  5
48
102
{ACAD_REACTORS
330
47
102
}
330
47
100
AcDbScale
 70
     0
300
1:1
140
1.0
141
1.0
290
     1
  0
SCALE
  5
49
102
{ACAD_REACTORS
330
47
102
}
330
47
100
AcDbScale
 70
     0
300
1:2
140
1.0
141
2.0
290
     0
  0
SCALE
  5
4A
102
{ACAD_REACTORS
330
47
102
}
330
47
100
AcDbScale
 70
     0
300
1:4
140
1.0
141
4.0
290
     0
  0
SCALE
  5
4B
102
{ACAD_REACTORS
330
47
102
}
330
47
100
AcDbScale
 70
     0
300
1:5
140
1.0
141
5.0
290
     0
  0
SCALE
  5
4C
102
{ACAD_REACTORS
330
47
102
}
330
47
100
AcDbScale
 70
     0
300
1:8
140
1.0
141
8.0
290
     0
  0
SCALE
  5
4D
102
{ACAD_REACTORS
330
47
102
}
330
47
100
AcDbScale
 70
     0
300
1:10
140
1.0
141
10.0
290
     0
  0
SCALE
  5
4E
102
{ACAD_REACTORS
330
47
102
}
330
47
100
AcDbScale
 70
     0
300
1:16
140
1.0
141
16.0
290
     0
  0
SCALE
  5
4F
102
{ACAD_REACTORS
330
47
102
}
330
47
100
AcDbScale
 70
     0
300
1:20
140
1.0
141
20.0
290
     0
  0
SCALE
  5
50
102
{ACAD_REACTORS
330
47
102
}
330
47
100
AcDbScale
 70
     0
300
1:30
140
1.0
141
30.0
290
     0
  0
SCALE
  5
51
102
{ACAD_REACTORS
330
47
102
}
330
47
100
AcDbScale
 70
     0
300
1:40
140
1.0
141
40.0
290
     0
  0
SCALE
  5
52
102
{ACAD_REACTORS
330
47
102
}
330
47
100
AcDbScale
 70
     0
300
1:50
140
1.0
141
50.0
290
     0
  0
SCALE
  5
53
102
{ACAD_REACTORS
330
47
102
}
330
47
100
AcDbScale
 70
     0
300
1:100
140
1.0
141
100.0
290
     0
  0
SCALE
  5
54
102
{ACAD_REACTORS
330
47
102
}
330
47
100
AcDbScale
 70
     0
300
2:1
140
2.0
141
1.0
290
     0
  0
SCALE
  5
55
102
{ACAD_REACTORS
330
47
102
}
330
47
100
AcDbScale
 70
     0
300
4:1
140
4.0
141
1.0
290
     0
  0
SCALE
  5
56
102
{ACAD_REACTORS
330
47
102
}
330
47
100
AcDbScale
 70
     0
300
8:1
140
8.0
141
1.0
290
     0
  0
SCALE
  5
57
102
{ACAD_REACTORS
330
47
102
}
330
47
100
AcDbScale
 70
     0
300
10:1
140
10.0
141
1.0
290
     0
  0
SCALE
  5
58
102
{ACAD_REACTORS
330
47
102
}
330
47
100
AcDbScale
 70
     0
300
100:1
140
100.0
141
1.0
290
     0
  0
SCALE
  5
59
102
{ACAD_REACTORS
330
47
102
}
330
47
100
AcDbScale
 70
     0
300
1/128" = 1'-0"
140
0.0078125
141
12.0
290
     0
  0
SCALE
  5
5A
102
{ACAD_REACTORS
330
47
102
}
330
47
100
AcDbScale
 70
     0
300
1/64" = 1'-0"
140
0.015625
141
12.0
290
     0
  0
SCALE
  5
5B
102
{ACAD_REACTORS
330
47
102
}
330
47
100
AcDbScale
 70
     0
300
1/32" = 1'-0"
140
0.03125
141
12.0
290
     0
  0
SCALE
  5
5C
102
{ACAD_REACTORS
330
47
102
}
330
47
100
AcDbScale
 70
     0
300
1/16" = 1'-0"
140
0.0625
141
12.0
290
     0
  0
SCALE
  5
5D
102
{ACAD_REACTORS
330
47
102
}
330
47
100
AcDbScale
 70
     0
300
3/32" = 1'-0"
140
0.09375
141
12.0
290
     0
  0
SCALE
  5
5E
102
{ACAD_REACTORS
330
47
102
}
330
47
100
AcDbScale
 70
     0
300
1/8" = 1'-0"
140
0.125
141
12.0
290
     0
  0
SCALE
  5
5F
102
{ACAD_REACTORS
330
47
102
}
330
47
100
AcDbScale
 70
     0
300
3/16" = 1'-0"
140
0.1875
141
12.0
290
     0
  0
SCALE
  5
60
102
{ACAD_REACTORS
330
47
102
}
330
47
100
AcDbScale
 70
     0
300
1/4" = 1'-0"
140
0.25
141
12.0
290
     0
  0
SCALE
  5
61
102
{ACAD_REACTORS
330
47
102
}
330
47
100
AcDbScale
 70
     0
300
3/8" = 1'-0"
140
0.375
141
12.0
290
     0
  0
SCALE
  5
62
102
{ACAD_REACTORS
330
47
102
}
330
47
100
AcDbScale
 70
     0
300
1/2" = 1'-0"
140
0.5
141
12.0
290
     0
  0
SCALE
  5
63
102
{ACAD_REACTORS
330
47
102
}
330
47
100
AcDbScale
 70
     0
300
3/4" = 1'-0"
140
0.75
141
12.0
290
     0
  0
SCALE
  5
64
102
{ACAD_REACTORS
330
47
102
}
330
47
100
AcDbScale
 70
     0
300
1" = 1'-0"
140
1.0
141
12.0
290
     0
  0
SCALE
  5
65
102
{ACAD_REACTORS
330
47
102
}
330
47
100
AcDbScale
 70
     0
300
1-1/2" = 1'-0"
140
1.5
141
12.0
290
     0
  0
SCALE
  5
66
102
{ACAD_REACTORS
330
47
102
}
330
47
100
AcDbScale
 70
     0
300
3" = 1'-0"
140
3.0
141
12.0
290
     0
  0
SCALE
  5
67
102
{ACAD_REACTORS
330
47
102
}
330
47
100
AcDbScale
 70
     0
300
6" = 1'-0"
140
6.0
141
12.0
290
     0
  0
SCALE
  5
68
102
{ACAD_REACTORS
330
47
102
}
330
47
100
AcDbScale
 70
     0
300
1'-0" = 1'-0"
140
12.0
141
12.0
290
     0
  0
TABLESTYLE
  5
6A
102
{ACAD_REACTORS
330
69
102
}
102
{ACAD_XDICTIONARY
360
1C8
102
}
330
69
100
AcDbTableStyle
  3
Standard
 70
     0
 71
     0
 40
0.06
 41
0.06
280
     0
281
     0
  7
Standard
140
0.18
170
     2
 62
     0
 63
   257
283
     0
 90
        4
 91
        0
  1

274
    -2
284
     1
 64
     0
275
    -2
285
     1
 65
     0
276
    -2
286
     1
 66
     0
277
    -2
287
     1
 67
     0
278
    -2
288
     1
 68
     0
279
    -2
289
     1
 69
     0
  7
Standard
140
0.25
170
     5
 62
     0
 63
   257
283
     0
 90
        4
 91
        0
  1

274
    -2
284
     1
 64
     0
275
    -2
285
     1
 65
     0
276
    -2
286
     1
 66
     0
277
    -2
287
     1
 67
     0
278
    -2
288
     1
 68
     0
279
    -2
289
     1
 69
     0
  7
Standard
140
0.18
170
     5
 62
     0
 63
   257
283
     0
 90
        4
 91
        0
  1

274
    -2
284
     1
 64
     0
275
    -2
285
     1
 65
     0
276
    -2
286
     1
 66
     0
277
    -2
287
     1
 67
     0
278
    -2
288
     1
 68
     0
279
    -2
289
     1
 69
     0
  0
VISUALSTYLE
  5
2F
102
{ACAD_REACTORS
330
2A
102
}
330
2A
100
AcDbVisualStyle
  2
2dWireframe
 70
     4
177
     3
291
     0
 70
    58
 90
        0
176
     1
 90
        2
176
     1
 90
        0
176
     1
 90
        0
176
     1
 40
0.6
176
     1
 40
30.0
176
     1
 62
     7
420
 16777215
176
     1
 90
        1
176
     1
 90
        4
176
     1
 62
     7
176
     1
 62
   257
176
     1
 90
        1
176
     1
 90
        1
176
     1
 40
1.0
176
     1
 90
        0
176
     1
 62
   257
176
     1
 40
1.0
176
     1
 90
        1
176
     1
 90
        6
176
     1
 90
        2
176
     1
 62
     7
176
     1
 90
        5
176
     1
 90
        0
176
     1
 90
        0
176
     1
290
     0
176
     1
 90
        1
176
     1
 40
0.0
176
     1
 90
        0
176
     1
290
     1
176
     1
290
     1
176
     1
290
     0
176
     1
290
     0
176
     1
290
     0
176
     1
290
     0
176
     1
290
     0
176
     1
290
     0
176
     1
290
     0
176
     1
 90
       50
176
     1
 40
0.0
176
     1
 40
1.0
176
     1
 90
        0
176
     1
 62
    18
420
        0
176
     1
 90
       50
176
     1
 90
        3
176
     1
 62
     5
420
      255
176
     1
290
     0
176
     1
 90
       50
176
     1
 90
       50
176
     1
 90
       50
176
     1
290
     0
176
     1
 90
       50
176
     1
 62
   256
176
     0
 40
1.0
176
     0
 90
        2
176
     1
  1
strokes_ogs.tif
176
     1
290
     0
176
     1
 40
1.0
176
     1
 40
1.0
176
     1
  0
VISUALSTYLE
  5
32
102
{ACAD_REACTORS
330
2A
102
}
330
2A
100
AcDbVisualStyle
  2
Basic
 70
     7
177
     3
291
     1
 70
    58
 90
        1
176
     1
 90
        0
176
     1
 90
        1
176
     1
 90
        0
176
     1
 40
0.6
176
     1
 40
30.0
176
     1
 62
     7
420
 16777215
176
     1
 90
        0
176
     1
 90
        4
176
     1
 62
     7
176
     1
 62
   257
176
     1
 90
        1
176
     1
 90
        1
176
     1
 40
1.0
176
     1
 90
        8
176
     1
 62
     7
176
     1
 40
1.0
176
     1
 90
        1
176
     1
 90
        6
176
     1
 90
        2
176
     1
 62
     7
176
     1
 90
        5
176
     1
 90
        0
176
     1
 90
        0
176
     1
290
     0
176
     1
 90
        1
176
     1
 40
0.0
176
     1
 90
        0
176
     1
290
     0
176
     1
290
     1
176
     1
290
     1
176
     1
290
     0
176
     1
290
     0
176
     1
290
     0
176
     1
290
     0
176
     1
290
     0
176
     1
290
     0
176
     1
 90
       50
176
     1
 40
0.0
176
     1
 40
1.0
176
     1
 90
        0
176
     1
 62
    18
420
        0
176
     1
 90
       50
176
     1
 90
        3
176
     1
 62
     5
420
      255
176
     1
290
     0
176
     1
 90
       50
176
     1
 90
       50
176
     1
 90
       50
176
     1
290
     0
176
     1
 90
       50
176
     1
 62
   256
176
     0
 40
1.0
176
     0
 90
        2
176
     1
  1
strokes_ogs.tif
176
     1
290
     0
176
     1
 40
1.0
176
     1
 40
1.0
176
     1
  0
VISUALSTYLE
  5
36
102
{ACAD_REACTORS
330
2A
102
}
330
2A
100
AcDbVisualStyle
  2
Brighten
 70
    12
177
     3
291
     1
 70
    58
 90
        2
176
     1
 90
        2
176
     1
 90
        0
176
     1
 90
        0
176
     1
 40
0.6
176
     1
 40
30.0
176
     1
 62
     7
420
 16777215
176
     1
 90
        1
176
     1
 90
        4
176
     1
 62
     7
176
     1
 62
   257
176
     1
 90
        1
176
     1
 90
        1
176
     1
 40
1.0
176
     1
 90
        8
176
     1
 62
     7
176
     1
 40
1.0
176
     1
 90
        1
176
     1
 90
        6
176
     1
 90
        2
176
     1
 62
     7
176
     1
 90
        5
176
     1
 90
        0
176
     1
 90
        0
176
     1
290
     0
176
     1
 90
        1
176
     1
 40
50.0
176
     1
 90
        0
176
     1
290
     0
176
     1
290
     1
176
     1
290
     1
176
     1
290
     0
176
     1
290
     0
176
     1
290
     0
176
     1
290
     0
176
     1
290
     0
176
     1
290
     0
176
     1
 90
       50
176
     1
 40
0.0
176
     1
 40
1.0
176
     1
 90
        0
176
     1
 62
    18
420
        0
176
     1
 90
       50
176
     1
 90
        3
176
     1
 62
     5
420
      255
176
     1
290
     0
176
     1
 90
       50
176
     1
 90
       50
176
     1
 90
       50
176
     1
290
     0
176
     1
 90
       50
176
     1
 62
   256
176
     0
 40
1.0
176
     0
 90
        2
176
     1
  1
strokes_ogs.tif
176
     1
290
     0
176
     1
 40
1.0
176
     1
 40
1.0
176
     1
  0
VISUALSTYLE
  5
3A
102
{ACAD_REACTORS
330
2A
102
}
330
2A
100
AcDbVisualStyle
  2
ColorChange
 70
    16
177
     3
291
     1
 70
    58
 90
        2
176
     1
 90
        2
176
     1
 90
        3
176
     1
 90
        0
176
     1
 40
0.6
176
     1
 40
30.0
176
     1
 62
     8
420
  8421504
176
     1
 90
        1
176
     1
 90
        4
176
     1
 62
     7
176
     1
 62
   257
176
     1
 90
        1
176
     1
 90
        1
176
     1
 40
1.0
176
     1
 90
        8
176
     1
 62
     8
420
  8421504
176
     1
 40
1.0
176
     1
 90
        1
176
     1
 90
        6
176
     1
 90
        2
176
     1
 62
     7
176
     1
 90
        5
176
     1
 90
        0
176
     1
 90
        0
176
     1
290
     0
176
     1
 90
        1
176
     1
 40
0.0
176
     1
 90
        0
176
     1
290
     0
176
     1
290
     1
176
     1
290
     1
176
     1
290
     0
176
     1
290
     0
176
     1
290
     0
176
     1
290
     0
176
     1
290
     0
176
     1
290
     0
176
     1
 90
       50
176
     1
 40
0.0
176
     1
 40
1.0
176
     1
 90
        0
176
     1
 62
    18
420
        0
176
     1
 90
       50
176
     1
 90
        3
176
     1
 62
     5
420
      255
176
     1
290
     0
176
     1
 90
       50
176
     1
 90
       50
176
     1
 90
       50
176
     1
290
     0
176
     1
 90
       50
176
     1
 62
   256
176
     0
 40
1.0
176
     0
 90
        2
176
     1
  1
strokes_ogs.tif
176
     1
290
     0
176
     1
 40
1.0
176
     1
 40
1.0
176
     1
  0
VISUALSTYLE
  5
34
102
{ACAD_REACTORS
330
2A
102
}
330
2A
100
AcDbVisualStyle
  2
Conceptual
 70
     9
177
     3
291
     0
 70
    58
 90
        3
176
     1
 90
        2
176
     1
 90
        0
176
     1
 90
        0
176
     1
 40
0.6
176
     1
 40
30.0
176
     1
 62
     7
420
 16777215
176
     1
 90
        2
176
     1
 90
        2
176
     1
 62
     7
176
     1
 62
   257
176
     1
 90
        1
176
     1
 90
        1
176
     1
 40
179.0
176
     1
 90
        8
176
     1
 62
     7
176
     1
 40
1.0
176
     1
 90
        1
176
     1
 90
        6
176
     1
 90
        2
176
     1
 62
     7
176
     1
 90
        3
176
     1
 90
        0
176
     1
 90
        0
176
     1
290
     0
176
     1
 90
        1
176
     1
 40
0.0
176
     1
 90
        0
176
     1
290
     0
176
     1
290
     1
176
     1
290
     1
176
     1
290
     0
176
     1
290
     0
176
     1
290
     0
176
     1
290
     0
176
     1
290
     0
176
     1
290
     0
176
     1
 90
       50
176
     1
 40
0.0
176
     1
 40
1.0
176
     1
 90
        0
176
     1
 62
    18
420
        0
176
     1
 90
       50
176
     1
 90
        3
176
     1
 62
     5
420
      255
176
     1
290
     0
176
     1
 90
       50
176
     1
 90
       50
176
     1
 90
       50
176
     1
290
     0
176
     1
 90
       50
176
     1
 62
   256
176
     0
 40
1.0
176
     0
 90
        2
176
     1
  1
strokes_ogs.tif
176
     1
290
     0
176
     1
 40
1.0
176
     1
 40
1.0
176
     1
  0
VISUALSTYLE
  5
35
102
{ACAD_REACTORS
330
2A
102
}
330
2A
100
AcDbVisualStyle
  2
Dim
 70
    11
177
     3
291
     1
 70
    58
 90
        2
176
     1
 90
        2
176
     1
 90
        0
176
     1
 90
        0
176
     1
 40
0.6
176
     1
 40
30.0
176
     1
 62
     7
420
 16777215
176
     1
 90
        1
176
     1
 90
        4
176
     1
 62
     7
176
     1
 62
   257
176
     1
 90
        1
176
     1
 90
        1
176
     1
 40
1.0
176
     1
 90
        8
176
     1
 62
     7
176
     1
 40
1.0
176
     1
 90
        1
176
     1
 90
        6
176
     1
 90
        2
176
     1
 62
     7
176
     1
 90
        5
176
     1
 90
        0
176
     1
 90
        0
176
     1
290
     0
176
     1
 90
        1
176
     1
 40
-50.0
176
     1
 90
        0
176
     1
290
     0
176
     1
290
     1
176
     1
290
     1
176
     1
290
     0
176
     1
290
     0
176
     1
290
     0
176
     1
290
     0
176
     1
290
     0
176
     1
290
     0
176
     1
 90
       50
176
     1
 40
0.0
176
     1
 40
1.0
176
     1
 90
        0
176
     1
 62
    18
420
        0
176
     1
 90
       50
176
     1
 90
        3
176
     1
 62
     5
420
      255
176
     1
290
     0
176
     1
 90
       50
176
     1
 90
       50
176
     1
 90
       50
176
     1
290
     0
176
     1
 90
       50
176
     1
 62
   256
176
     0
 40
1.0
176
     0
 90
        2
176
     1
  1
strokes_ogs.tif
176
     1
290
     0
176
     1
 40
1.0
176
     1
 40
1.0
176
     1
  0
VISUALSTYLE
  5
3D
102
{ACAD_REACTORS
330
2A
102
}
330
2A
100
AcDbVisualStyle
  2
EdgeColorOff
 70
    22
177
     3
291
     1
 70
    58
 90
        2
176
     0
 90
        2
176
     0
 90
        0
176
     0
 90
        0
176
     0
 40
0.6
176
     0
 40
30.0
176
     0
 62
     7
420
 16777215
176
     0
 90
        1
176
     0
 90
        4
176
     0
 62
     7
176
     0
 62
   257
176
     0
 90
        1
176
     0
 90
        1
176
     0
 40
1.0
176
     0
 90
        8
176
     2
 62
     7
176
     0
 40
1.0
176
     0
 90
        1
176
     0
 90
        6
176
     0
 90
        2
176
     0
 62
     7
176
     0
 90
        5
176
     0
 90
        0
176
     0
 90
        0
176
     0
290
     0
176
     0
 90
        1
176
     0
 40
0.0
176
     0
 90
        0
176
     0
290
     0
176
     0
290
     1
176
     0
290
     1
176
     0
290
     0
176
     0
290
     0
176
     0
290
     0
176
     0
290
     0
176
     0
290
     0
176
     0
290
     0
176
     0
 90
       50
176
     0
 40
0.0
176
     0
 40
1.0
176
     0
 90
        0
176
     0
 62
    18
420
        0
176
     0
 90
       50
176
     0
 90
        3
176
     0
 62
     5
420
      255
176
     0
290
     0
176
     0
 90
       50
176
     0
 90
       50
176
     0
 90
       50
176
     0
290
     0
176
     0
 90
       50
176
     0
 62
   256
176
     0
 40
1.0
176
     0
 90
        2
176
     0
  1
strokes_ogs.tif
176
     0
290
     0
176
     0
 40
1.0
176
     0
 40
1.0
176
     0
  0
VISUALSTYLE
  5
39
102
{ACAD_REACTORS
330
2A
102
}
330
2A
100
AcDbVisualStyle
  2
Facepattern
 70
    15
177
     3
291
     1
 70
    58
 90
        2
176
     1
 90
        2
176
     1
 90
        0
176
     1
 90
        0
176
     1
 40
0.6
176
     1
 40
30.0
176
     1
 62
     7
420
 16777215
176
     1
 90
        1
176
     1
 90
        4
176
     1
 62
     7
176
     1
 62
   257
176
     1
 90
        1
176
     1
 90
        1
176
     1
 40
1.0
176
     1
 90
        8
176
     1
 62
     7
176
     1
 40
1.0
176
     1
 90
        1
176
     1
 90
        6
176
     1
 90
        2
176
     1
 62
     7
176
     1
 90
        5
176
     1
 90
        0
176
     1
 90
        0
176
     1
290
     0
176
     1
 90
        1
176
     1
 40
0.0
176
     1
 90
        0
176
     1
290
     0
176
     1
290
     1
176
     1
290
     1
176
     1
290
     0
176
     1
290
     0
176
     1
290
     0
176
     1
290
     0
176
     1
290
     0
176
     1
290
     0
176
     1
 90
       50
176
     1
 40
0.0
176
     1
 40
1.0
176
     1
 90
        0
176
     1
 62
    18
420
        0
176
     1
 90
       50
176
     1
 90
        3
176
     1
 62
     5
420
      255
176
     1
290
     0
176
     1
 90
       50
176
     1
 90
       50
176
     1
 90
       50
176
     1
290
     0
176
     1
 90
       50
176
     1
 62
   256
176
     0
 40
1.0
176
     0
 90
        2
176
     1
  1
strokes_ogs.tif
176
     1
290
     0
176
     1
 40
1.0
176
     1
 40
1.0
176
     1
  0
VISUALSTYLE
  5
2B
102
{ACAD_REACTORS
330
2A
102
}
330
2A
100
AcDbVisualStyle
  2
Flat
 70
     0
177
     3
291
     1
 70
    58
 90
        2
176
     1
 90
        1
176
     1
 90
        1
176
     1
 90
        2
176
     1
 40
0.6
176
     1
 40
30.0
176
     1
 62
     7
420
 16777215
176
     1
 90
        0
176
     1
 90
        0
176
     1
 62
     7
176
     1
 62
   257
176
     1
 90
        1
176
     1
 90
        1
176
     1
 40
1.0
176
     1
 90
        8
176
     1
 62
     7
176
     1
 40
1.0
176
     1
 90
        1
176
     1
 90
        6
176
     1
 90
        2
176
     1
 62
     7
176
     1
 90
        5
176
     1
 90
        0
176
     1
 90
        0
176
     1
290
     0
176
     1
 90
       13
176
     1
 40
0.0
176
     1
 90
        0
176
     1
290
     0
176
     1
290
     1
176
     1
290
     1
176
     1
290
     0
176
     1
290
     0
176
     1
290
     0
176
     1
290
     0
176
     1
290
     0
176
     1
290
     0
176
     1
 90
       50
176
     1
 40
0.0
176
     1
 40
1.0
176
     1
 90
        0
176
     1
 62
    18
420
        0
176
     1
 90
       50
176
     1
 90
        3
176
     1
 62
     5
420
      255
176
     1
290
     0
176
     1
 90
       50
176
     1
 90
       50
176
     1
 90
       50
176
     1
290
     0
176
     1
 90
       50
176
     1
 62
   256
176
     0
 40
1.0
176
     0
 90
        2
176
     1
  1
strokes_ogs.tif
176
     1
290
     0
176
     1
 40
1.0
176
     1
 40
1.0
176
     1
  0
VISUALSTYLE
  5
2C
102
{ACAD_REACTORS
330
2A
102
}
330
2A
100
AcDbVisualStyle
  2
FlatWithEdges
 70
     1
177
     3
291
     1
 70
    58
 90
        2
176
     1
 90
        1
176
     1
 90
        1
176
     1
 90
        2
176
     1
 40
0.6
176
     1
 40
30.0
176
     1
 62
     7
420
 16777215
176
     1
 90
        1
176
     1
 90
        0
176
     1
 62
     7
176
     1
 62
   257
176
     1
 90
        1
176
     1
 90
        1
176
     1
 40
1.0
176
     1
 90
        0
176
     1
 62
   257
176
     1
 40
1.0
176
     1
 90
        1
176
     1
 90
        6
176
     1
 90
        2
176
     1
 62
     7
176
     1
 90
        5
176
     1
 90
        0
176
     1
 90
        0
176
     1
290
     0
176
     1
 90
       13
176
     1
 40
0.0
176
     1
 90
        0
176
     1
290
     0
176
     1
290
     1
176
     1
290
     1
176
     1
290
     0
176
     1
290
     0
176
     1
290
     0
176
     1
290
     0
176
     1
290
     0
176
     1
290
     0
176
     1
 90
       50
176
     1
 40
0.0
176
     1
 40
1.0
176
     1
 90
        0
176
     1
 62
    18
420
        0
176
     1
 90
       50
176
     1
 90
        3
176
     1
 62
     5
420
      255
176
     1
290
     0
176
     1
 90
       50
176
     1
 90
       50
176
     1
 90
       50
176
     1
290
     0
176
     1
 90
       50
176
     1
 62
   256
176
     0
 40
1.0
176
     0
 90
        2
176
     1
  1
strokes_ogs.tif
176
     1
290
     0
176
     1
 40
1.0
176
     1
 40
1.0
176
     1
  0
VISUALSTYLE
  5
2D
102
{ACAD_REACTORS
330
2A
102
}
330
2A
100
AcDbVisualStyle
  2
Gouraud
 70
     2
177
     3
291
     1
 70
    58
 90
        2
176
     1
 90
        2
176
     1
 90
        1
176
     1
 90
        2
176
     1
 40
0.6
176
     1
 40
30.0
176
     1
 62
     7
420
 16777215
176
     1
 90
        0
176
     1
 90
        0
176
     1
 62
     7
176
     1
 62
   257
176
     1
 90
        1
176
     1
 90
        1
176
     1
 40
1.0
176
     1
 90
        0
176
     1
 62
     7
176
     1
 40
1.0
176
     1
 90
        1
176
     1
 90
        6
176
     1
 90
        2
176
     1
 62
     7
176
     1
 90
        5
176
     1
 90
        0
176
     1
 90
        0
176
     1
290
     0
176
     1
 90
       13
176
     1
 40
0.0
176
     1
 90
        0
176
     1
290
     0
176
     1
290
     1
176
     1
290
     1
176
     1
290
     0
176
     1
290
     0
176
     1
290
     0
176
     1
290
     0
176
     1
290
     0
176
     1
290
     0
176
     1
 90
       50
176
     1
 40
0.0
176
     1
 40
1.0
176
     1
 90
        0
176
     1
 62
    18
420
        0
176
     1
 90
       50
176
     1
 90
        3
176
     1
 62
     5
420
      255
176
     1
290
     0
176
     1
 90
       50
176
     1
 90
       50
176
     1
 90
       50
176
     1
290
     0
176
     1
 90
       50
176
     1
 62
   256
176
     0
 40
1.0
176
     0
 90
        2
176
     1
  1
strokes_ogs.tif
176
     1
290
     0
176
     1
 40
1.0
176
     1
 40
1.0
176
     1
  0
VISUALSTYLE
  5
2E
102
{ACAD_REACTORS
330
2A
102
}
330
2A
100
AcDbVisualStyle
  2
GouraudWithEdges
 70
     3
177
     3
291
     1
 70
    58
 90
        2
176
     1
 90
        2
176
     1
 90
        1
176
     1
 90
        2
176
     1
 40
0.6
176
     1
 40
30.0
176
     1
 62
     7
420
 16777215
176
     1
 90
        1
176
     1
 90
        0
176
     1
 62
     7
176
     1
 62
   257
176
     1
 90
        1
176
     1
 90
        1
176
     1
 40
1.0
176
     1
 90
        0
176
     1
 62
   257
176
     1
 40
1.0
176
     1
 90
        1
176
     1
 90
        6
176
     1
 90
        2
176
     1
 62
     7
176
     1
 90
        5
176
     1
 90
        0
176
     1
 90
        0
176
     1
290
     0
176
     1
 90
       13
176
     1
 40
0.0
176
     1
 90
        0
176
     1
290
     0
176
     1
290
     1
176
     1
290
     1
176
     1
290
     0
176
     1
290
     0
176
     1
290
     0
176
     1
290
     0
176
     1
290
     0
176
     1
290
     0
176
     1
 90
       50
176
     1
 40
0.0
176
     1
 40
1.0
176
     1
 90
        0
176
     1
 62
    18
420
        0
176
     1
 90
       50
176
     1
 90
        3
176
     1
 62
     5
420
      255
176
     1
290
     0
176
     1
 90
       50
176
     1
 90
       50
176
     1
 90
       50
176
     1
290
     0
176
     1
 90
       50
176
     1
 62
   256
176
     0
 40
1.0
176
     0
 90
        2
176
     1
  1
strokes_ogs.tif
176
     1
290
     0
176
     1
 40
1.0
176
     1
 40
1.0
176
     1
  0
VISUALSTYLE
  5
31
102
{ACAD_REACTORS
330
2A
102
}
330
2A
100
AcDbVisualStyle
  2
Hidden
 70
     6
177
     3
291
     0
 70
    58
 90
        1
176
     1
 90
        2
176
     1
 90
        2
176
     1
 90
        0
176
     1
 40
0.6
176
     1
 40
30.0
176
     1
 62
     7
420
 16777215
176
     1
 90
        2
176
     1
 90
        2
176
     1
 62
     7
176
     1
 62
   257
176
     1
 90
        2
176
     1
 90
        1
176
     1
 40
40.0
176
     1
 90
        0
176
     1
 62
   257
176
     1
 40
1.0
176
     1
 90
        1
176
     1
 90
        6
176
     1
 90
        2
176
     1
 62
     7
176
     1
 90
        3
176
     1
 90
        0
176
     1
 90
        0
176
     1
290
     0
176
     1
 90
        1
176
     1
 40
0.0
176
     1
 90
        0
176
     1
290
     0
176
     1
290
     1
176
     1
290
     1
176
     1
290
     0
176
     1
290
     0
176
     1
290
     0
176
     1
290
     0
176
     1
290
     0
176
     1
290
     0
176
     1
 90
       50
176
     1
 40
0.0
176
     1
 40
1.0
176
     1
 90
        0
176
     1
 62
    18
420
        0
176
     1
 90
       50
176
     1
 90
        3
176
     1
 62
     5
420
      255
176
     1
290
     0
176
     1
 90
       50
176
     1
 90
       50
176
     1
 90
       50
176
     1
290
     0
176
     1
 90
       50
176
     1
 62
   256
176
     0
 40
1.0
176
     0
 90
        2
176
     1
  1
strokes_ogs.tif
176
     1
290
     0
176
     1
 40
1.0
176
     1
 40
1.0
176
     1
  0
VISUALSTYLE
  5
3B
102
{ACAD_REACTORS
330
2A
102
}
330
2A
100
AcDbVisualStyle
  2
JitterOff
 70
    20
177
     3
291
     1
 70
    58
 90
        2
176
     0
 90
        2
176
     0
 90
        0
176
     0
 90
        0
176
     0
 40
0.6
176
     0
 40
30.0
176
     0
 62
     7
420
 16777215
176
     0
 90
        1
176
     0
 90
        4
176
     0
 62
     7
176
     0
 62
   257
176
     0
 90
        1
176
     0
 90
        1
176
     0
 40
1.0
176
     0
 90
       10
176
     2
 62
     7
176
     0
 40
1.0
176
     0
 90
        1
176
     0
 90
        6
176
     0
 90
        2
176
     0
 62
     7
176
     0
 90
        5
176
     0
 90
        0
176
     0
 90
        0
176
     0
290
     0
176
     0
 90
        1
176
     0
 40
0.0
176
     0
 90
        0
176
     0
290
     0
176
     0
290
     1
176
     0
290
     1
176
     0
290
     0
176
     0
290
     0
176
     0
290
     0
176
     0
290
     0
176
     0
290
     0
176
     0
290
     0
176
     0
 90
       50
176
     0
 40
0.0
176
     0
 40
1.0
176
     0
 90
        0
176
     0
 62
    18
420
        0
176
     0
 90
       50
176
     0
 90
        3
176
     0
 62
     5
420
      255
176
     0
290
     0
176
     0
 90
       50
176
     0
 90
       50
176
     0
 90
       50
176
     0
290
     0
176
     0
 90
       50
176
     0
 62
   256
176
     0
 40
1.0
176
     0
 90
        2
176
     0
  1
strokes_ogs.tif
176
     0
290
     0
176
     0
 40
1.0
176
     0
 40
1.0
176
     0
  0
VISUALSTYLE
  5
38
102
{ACAD_REACTORS
330
2A
102
}
330
2A
100
AcDbVisualStyle
  2
Linepattern
 70
    14
177
     3
291
     1
 70
    58
 90
        2
176
     1
 90
        2
176
     1
 90
        0
176
     1
 90
        0
176
     1
 40
0.6
176
     1
 40
30.0
176
     1
 62
     7
420
 16777215
176
     1
 90
        1
176
     1
 90
        4
176
     1
 62
     7
176
     1
 62
   257
176
     1
 90
        7
176
     1
 90
        7
176
     1
 40
1.0
176
     1
 90
        8
176
     1
 62
     7
176
     1
 40
1.0
176
     1
 90
        1
176
     1
 90
        6
176
     1
 90
        2
176
     1
 62
     7
176
     1
 90
        5
176
     1
 90
        0
176
     1
 90
        0
176
     1
290
     0
176
     1
 90
        1
176
     1
 40
0.0
176
     1
 90
        0
176
     1
290
     0
176
     1
290
     1
176
     1
290
     1
176
     1
290
     0
176
     1
290
     0
176
     1
290
     0
176
     1
290
     0
176
     1
290
     0
176
     1
290
     0
176
     1
 90
       50
176
     1
 40
0.0
176
     1
 40
1.0
176
     1
 90
        0
176
     1
 62
    18
420
        0
176
     1
 90
       50
176
     1
 90
        3
176
     1
 62
     5
420
      255
176
     1
290
     0
176
     1
 90
       50
176
     1
 90
       50
176
     1
 90
       50
176
     1
290
     0
176
     1
 90
       50
176
     1
 62
   256
176
     0
 40
1.0
176
     0
 90
        2
176
     1
  1
strokes_ogs.tif
176
     1
290
     0
176
     1
 40
1.0
176
     1
 40
1.0
176
     1
  0
VISUALSTYLE
  5
3C
102
{ACAD_REACTORS
330
2A
102
}
330
2A
100
AcDbVisualStyle
  2
OverhangOff
 70
    21
177
     3
291
     1
 70
    58
 90
        2
176
     0
 90
        2
176
     0
 90
        0
176
     0
 90
        0
176
     0
 40
0.6
176
     0
 40
30.0
176
     0
 62
     7
420
 16777215
176
     0
 90
        1
176
     0
 90
        4
176
     0
 62
     7
176
     0
 62
   257
176
     0
 90
        1
176
     0
 90
        1
176
     0
 40
1.0
176
     0
 90
        9
176
     2
 62
     7
176
     0
 40
1.0
176
     0
 90
        1
176
     0
 90
        6
176
     0
 90
        2
176
     0
 62
     7
176
     0
 90
        5
176
     0
 90
        0
176
     0
 90
        0
176
     0
290
     0
176
     0
 90
        1
176
     0
 40
0.0
176
     0
 90
        0
176
     0
290
     0
176
     0
290
     1
176
     0
290
     1
176
     0
290
     0
176
     0
290
     0
176
     0
290
     0
176
     0
290
     0
176
     0
290
     0
176
     0
290
     0
176
     0
 90
       50
176
     0
 40
0.0
176
     0
 40
1.0
176
     0
 90
        0
176
     0
 62
    18
420
        0
176
     0
 90
       50
176
     0
 90
        3
176
     0
 62
     5
420
      255
176
     0
290
     0
176
     0
 90
       50
176
     0
 90
       50
176
     0
 90
       50
176
     0
290
     0
176
     0
 90
       50
176
     0
 62
   256
176
     0
 40
1.0
176
     0
 90
        2
176
     0
  1
strokes_ogs.tif
176
     0
290
     0
176
     0
 40
1.0
176
     0
 40
1.0
176
     0
  0
VISUALSTYLE
  5
33
102
{ACAD_REACTORS
330
2A
102
}
330
2A
100
AcDbVisualStyle
  2
Realistic
 70
     8
177
     3
291
     0
 70
    58
 90
        2
176
     1
 90
        3
176
     1
 90
        0
176
     1
 90
        2
176
     1
 40
0.6
176
     1
 40
30.0
176
     1
 62
     7
420
 16777215
176
     1
 90
        0
176
     1
 90
        0
176
     1
 62
     7
176
     1
 62
   257
176
     1
 90
        1
176
     1
 90
        1
176
     1
 40
1.0
176
     1
 90
        8
176
     1
 62
   257
176
     1
 40
1.0
176
     1
 90
        1
176
     1
 90
        6
176
     1
 90
        2
176
     1
 62
     7
176
     1
 90
        3
176
     1
 90
        0
176
     1
 90
        0
176
     1
290
     0
176
     1
 90
       13
176
     1
 40
0.0
176
     1
 90
        0
176
     1
290
     0
176
     1
290
     1
176
     1
290
     1
176
     1
290
     0
176
     1
290
     0
176
     1
290
     0
176
     1
290
     0
176
     1
290
     0
176
     1
290
     0
176
     1
 90
       50
176
     1
 40
0.0
176
     1
 40
1.0
176
     1
 90
        0
176
     1
 62
    18
420
        0
176
     1
 90
       50
176
     1
 90
        3
176
     1
 62
     5
420
      255
176
     1
290
     0
176
     1
 90
       50
176
     1
 90
       50
176
     1
 90
       50
176
     1
290
     0
176
     1
 90
       50
176
     1
 62
   256
176
     0
 40
1.0
176
     0
 90
        2
176
     1
  1
strokes_ogs.tif
176
     1
290
     0
176
     1
 40
1.0
176
     1
 40
1.0
176
     1
  0
VISUALSTYLE
  5
42
102
{ACAD_REACTORS
330
2A
102
}
330
2A
100
AcDbVisualStyle
  2
Shaded
 70
    27
177
     3
291
     0
 70
    58
 90
        2
176
     1
 90
        2
176
     1
 90
        1
176
     1
 90
        2
176
     1
 40
0.6
176
     1
 40
30.0
176
     1
 62
     7
420
 16777215
176
     1
 90
        0
176
     1
 90
        4
176
     1
 62
     7
176
     1
 62
   257
176
     1
 90
        1
176
     1
 90
        1
176
     1
 40
1.0
176
     1
 90
        8
176
     1
 62
   257
176
     1
 40
1.0
176
     1
 90
        1
176
     1
 90
        6
176
     1
 90
        2
176
     1
 62
     8
420
  7895160
176
     1
 90
        3
176
     1
 90
        0
176
     1
 90
        0
176
     1
290
     0
176
     1
 90
        5
176
     1
 40
0.0
176
     1
 90
        0
176
     1
290
     0
176
     1
290
     1
176
     1
290
     1
176
     1
290
     0
176
     1
290
     0
176
     1
290
     0
176
     1
290
     0
176
     1
290
     0
176
     1
290
     0
176
     1
 90
       50
176
     1
 40
0.0
176
     1
 40
1.0
176
     1
 90
        0
176
     1
 62
    18
420
        0
176
     1
 90
       50
176
     1
 90
        3
176
     1
 62
     5
420
      255
176
     1
290
     0
176
     1
 90
       50
176
     1
 90
       50
176
     1
 90
       50
176
     1
290
     0
176
     1
 90
       50
176
     1
 62
   256
176
     0
 40
1.0
176
     0
 90
        2
176
     1
  1
strokes_ogs.tif
176
     1
290
     0
176
     1
 40
1.0
176
     1
 40
1.0
176
     1
  0
VISUALSTYLE
  5
41
102
{ACAD_REACTORS
330
2A
102
}
330
2A
100
AcDbVisualStyle
  2
Shaded with edges
 70
    26
177
     3
291
     0
 70
    58
 90
        2
176
     1
 90
        2
176
     1
 90
        1
176
     1
 90
        2
176
     1
 40
0.6
176
     1
 40
30.0
176
     1
 62
     7
420
 16777215
176
     1
 90
        1
176
     1
 90
       10
176
     1
 62
     7
176
     1
 62
   257
176
     1
 90
        2
176
     1
 90
        1
176
     1
 40
1.0
176
     1
 90
        8
176
     1
 62
   257
176
     1
 40
1.0
176
     1
 90
        1
176
     1
 90
        6
176
     1
 90
        2
176
     1
 62
     7
176
     1
 90
        3
176
     1
 90
        0
176
     1
 90
        0
176
     1
290
     0
176
     1
 90
        5
176
     1
 40
0.0
176
     1
 90
        0
176
     1
290
     0
176
     1
290
     1
176
     1
290
     1
176
     1
290
     0
176
     1
290
     0
176
     1
290
     0
176
     1
290
     0
176
     1
290
     0
176
     1
290
     0
176
     1
 90
       50
176
     1
 40
0.0
176
     1
 40
1.0
176
     1
 90
        0
176
     1
 62
    18
420
        0
176
     1
 90
       50
176
     1
 90
        3
176
     1
 62
     5
420
      255
176
     1
290
     0
176
     1
 90
       50
176
     1
 90
       50
176
     1
 90
       50
176
     1
290
     0
176
     1
 90
       50
176
     1
 62
   256
176
     0
 40
1.0
176
     0
 90
        2
176
     1
  1
strokes_ogs.tif
176
     1
290
     0
176
     1
 40
1.0
176
     1
 40
1.0
176
     1
  0
VISUALSTYLE
  5
3E
102
{ACAD_REACTORS
330
2A
102
}
330
2A
100
AcDbVisualStyle
  2
Shades of Gray
 70
    23
177
     3
291
     0
 70
    58
 90
        2
176
     1
 90
        2
176
     1
 90
        3
176
     1
 90
        0
176
     1
 40
0.6
176
     1
 40
30.0
176
     1
 62
     7
420
 16777215
176
     1
 90
        2
176
     1
 90
        2
176
     1
 62
     7
176
     1
 62
     7
176
     1
 90
        1
176
     1
 90
        1
176
     1
 40
40.0
176
     1
 90
        8
176
     1
 62
     7
176
     1
 40
1.0
176
     1
 90
        1
176
     1
 90
        6
176
     1
 90
        2
176
     1
 62
     7
176
     1
 90
        3
176
     1
 90
        0
176
     1
 90
        0
176
     1
290
     0
176
     1
 90
        1
176
     1
 40
0.0
176
     1
 90
        0
176
     1
290
     0
176
     1
290
     1
176
     1
290
     1
176
     1
290
     0
176
     1
290
     0
176
     1
290
     0
176
     1
290
     0
176
     1
290
     0
176
     1
290
     0
176
     1
 90
       50
176
     1
 40
0.0
176
     1
 40
1.0
176
     1
 90
        0
176
     1
 62
    18
420
        0
176
     1
 90
       50
176
     1
 90
        3
176
     1
 62
     5
420
      255
176
     1
290
     0
176
     1
 90
       50
176
     1
 90
       50
176
     1
 90
       50
176
     1
290
     0
176
     1
 90
       50
176
     1
 62
   256
176
     0
 40
1.0
176
     0
 90
        2
176
     1
  1
strokes_ogs.tif
176
     1
290
     0
176
     1
 40
1.0
176
     1
 40
1.0
176
     1
  0
VISUALSTYLE
  5
3F
102
{ACAD_REACTORS
330
2A
102
}
330
2A
100
AcDbVisualStyle
  2
Sketchy
 70
    24
177
     3
291
     0
 70
    58
 90
        1
176
     1
 90
        2
176
     1
 90
        2
176
     1
 90
        0
176
     1
 40
0.6
176
     1
 40
30.0
176
     1
 62
     7
420
 16777215
176
     1
 90
        2
176
     1
 90
        2
176
     1
 62
     7
176
     1
 62
     7
176
     1
 90
        1
176
     1
 90
        1
176
     1
 40
40.0
176
     1
 90
       11
176
     1
 62
     7
176
     1
 40
1.0
176
     1
 90
        1
176
     1
 90
        6
176
     1
 90
        2
176
     1
 62
     7
176
     1
 90
        6
176
     1
 90
        0
176
     1
 90
        0
176
     1
290
     0
176
     1
 90
        1
176
     1
 40
0.0
176
     1
 90
        0
176
     1
290
     0
176
     1
290
     1
176
     1
290
     1
176
     1
290
     0
176
     1
290
     0
176
     1
290
     0
176
     1
290
     0
176
     1
290
     0
176
     1
290
     0
176
     1
 90
       50
176
     1
 40
0.0
176
     1
 40
1.0
176
     1
 90
        0
176
     1
 62
    18
420
        0
176
     1
 90
       50
176
     1
 90
        3
176
     1
 62
     5
420
      255
176
     1
290
     0
176
     1
 90
       50
176
     1
 90
       50
176
     1
 90
       50
176
     1
290
     0
176
     1
 90
       50
176
     1
 62
   256
176
     0
 40
1.0
176
     0
 90
        2
176
     1
  1
strokes_ogs.tif
176
     1
290
     0
176
     1
 40
1.0
176
     1
 40
1.0
176
     1
  0
VISUALSTYLE
  5
37
102
{ACAD_REACTORS
330
2A
102
}
330
2A
100
AcDbVisualStyle
  2
Thicken
 70
    13
177
     3
291
     1
 70
    58
 90
        2
176
     1
 90
        2
176
     1
 90
        0
176
     1
 90
        0
176
     1
 40
0.6
176
     1
 40
30.0
176
     1
 62
     7
420
 16777215
176
     1
 90
        1
176
     1
 90
        4
176
     1
 62
     7
176
     1
 62
   257
176
     1
 90
        1
176
     1
 90
        1
176
     1
 40
1.0
176
     1
 90
       12
176
     1
 62
     7
176
     1
 40
1.0
176
     1
 90
        1
176
     1
 90
        6
176
     1
 90
        2
176
     1
 62
     7
176
     1
 90
        5
176
     1
 90
        0
176
     1
 90
        0
176
     1
290
     0
176
     1
 90
        1
176
     1
 40
0.0
176
     1
 90
        0
176
     1
290
     0
176
     1
290
     1
176
     1
290
     1
176
     1
290
     0
176
     1
290
     0
176
     1
290
     0
176
     1
290
     0
176
     1
290
     0
176
     1
290
     0
176
     1
 90
       50
176
     1
 40
0.0
176
     1
 40
1.0
176
     1
 90
        0
176
     1
 62
    18
420
        0
176
     1
 90
       50
176
     1
 90
        3
176
     1
 62
     5
420
      255
176
     1
290
     0
176
     1
 90
       50
176
     1
 90
       50
176
     1
 90
       50
176
     1
290
     0
176
     1
 90
       50
176
     1
 62
   256
176
     0
 40
1.0
176
     0
 90
        2
176
     1
  1
strokes_ogs.tif
176
     1
290
     0
176
     1
 40
1.0
176
     1
 40
1.0
176
     1
  0
VISUALSTYLE
  5
30
102
{ACAD_REACTORS
330
2A
102
}
330
2A
100
AcDbVisualStyle
  2
Wireframe
 70
     5
177
     3
291
     0
 70
    58
 90
        0
176
     1
 90
        2
176
     1
 90
        0
176
     1
 90
        0
176
     1
 40
0.6
176
     1
 40
30.0
176
     1
 62
     7
420
 16777215
176
     1
 90
        1
176
     1
 90
        4
176
     1
 62
     7
176
     1
 62
   257
176
     1
 90
        1
176
     1
 90
        1
176
     1
 40
1.0
176
     1
 90
        0
176
     1
 62
   257
176
     1
 40
1.0
176
     1
 90
        1
176
     1
 90
        6
176
     1
 90
        2
176
     1
 62
     7
176
     1
 90
        3
176
     1
 90
        0
176
     1
 90
        0
176
     1
290
     0
176
     1
 90
        1
176
     1
 40
0.0
176
     1
 90
        0
176
     1
290
     0
176
     1
290
     1
176
     1
290
     1
176
     1
290
     0
176
     1
290
     0
176
     1
290
     0
176
     1
290
     0
176
     1
290
     0
176
     1
290
     0
176
     1
 90
       50
176
     1
 40
0.0
176
     1
 40
1.0
176
     1
 90
        0
176
     1
 62
    18
420
        0
176
     1
 90
       50
176
     1
 90
        3
176
     1
 62
     5
420
      255
176
     1
290
     0
176
     1
 90
       50
176
     1
 90
       50
176
     1
 90
       50
176
     1
290
     0
176
     1
 90
       50
176
     1
 62
   256
176
     0
 40
1.0
176
     0
 90
        2
176
     1
  1
strokes_ogs.tif
176
     1
290
     0
176
     1
 40
1.0
176
     1
 40
1.0
176
     1
  0
VISUALSTYLE
  5
40
102
{ACAD_REACTORS
330
2A
102
}
330
2A
100
AcDbVisualStyle
  2
X-Ray
 70
    25
177
     3
291
     0
 70
    58
 90
        2
176
     1
 90
        2
176
     1
 90
        1
176
     1
 90
        1
176
     1
 40
0.5
176
     1
 40
30.0
176
     1
 62
     7
420
 16777215
176
     1
 90
        1
176
     1
 90
        0
176
     1
 62
     7
176
     1
 62
   257
176
     1
 90
        1
176
     1
 90
        1
176
     1
 40
1.0
176
     1
 90
        8
176
     1
 62
     7
176
     1
 40
1.0
176
     1
 90
        1
176
     1
 90
        6
176
     1
 90
        2
176
     1
 62
     7
176
     1
 90
        3
176
     1
 90
        0
176
     1
 90
        0
176
     1
290
     0
176
     1
 90
       13
176
     1
 40
0.0
176
     1
 90
        0
176
     1
290
     0
176
     1
290
     1
176
     1
290
     1
176
     1
290
     0
176
     1
290
     0
176
     1
290
     0
176
     1
290
     0
176
     1
290
     0
176
     1
290
     0
176
     1
 90
       50
176
     1
 40
0.0
176
     1
 40
1.0
176
     1
 90
        0
176
     1
 62
    18
420
        0
176
     1
 90
       50
176
     1
 90
        3
176
     1
 62
     5
420
      255
176
     1
290
     0
176
     1
 90
       50
176
     1
 90
       50
176
     1
 90
       50
176
     1
290
     0
176
     1
 90
       50
176
     1
 62
   256
176
     0
 40
1.0
176
     0
 90
        2
176
     1
  1
strokes_ogs.tif
176
     1
290
     0
176
     1
 40
1.0
176
     1
 40
1.0
176
     1
  0
DICTIONARYVAR
  5
1C7
102
{ACAD_REACTORS
330
1C6
102
}
330
1C6
100
DictionaryVariables
280
     0
  1
1:1
  0
DICTIONARYVAR
  5
1CC
102
{ACAD_REACTORS
330
1C6
102
}
330
1C6
100
DictionaryVariables
280
     0
  1
Standard
  0
DICTIONARYVAR
  5
1CB
102
{ACAD_REACTORS
330
1C6
102
}
330
1C6
100
DictionaryVariables
280
     0
  1
Standard
  0
DICTIONARY
  5
1C8
330
6A
100
AcDbDictionary
280
     1
281
     1
  3
ACAD_ROUNDTRIP_2008_TABLESTYLE_CELLSTYLEMAP
360
1C9
  0
CELLSTYLEMAP
  5
1C9
102
{ACAD_REACTORS
330
1C8
102
}
330
1C8
100
AcDbCellStyleMap
 90
        3
300
CELLSTYLE
  1
TABLEFORMAT_BEGIN
 90
        5
170
     1
 91
        0
 92
    32768
 62
   257
 93
        1
300
CONTENTFORMAT
  1
CONTENTFORMAT_BEGIN
 90
        0
 91
        0
 92
        4
 93
        0
300

 40
0.0
140
1.0
 94
        5
 62
     0
340
11
144
0.25
309
CONTENTFORMAT_END
171
     1
301
MARGIN
  1
CELLMARGIN_BEGIN
 40
0.06
 40
0.06
 40
0.06
 40
0.06
 40
0.06
 40
0.06
309
CELLMARGIN_END
 94
        6
 95
        1
302
GRIDFORMAT
  1
GRIDFORMAT_BEGIN
 90
        0
 91
        1
 62
     0
 92
       -2
340
14
 93
        0
 40
0.045
309
GRIDFORMAT_END
 95
        2
302
GRIDFORMAT
  1
GRIDFORMAT_BEGIN
 90
        0
 91
        1
 62
     0
 92
       -2
340
14
 93
        0
 40
0.045
309
GRIDFORMAT_END
 95
        4
302
GRIDFORMAT
  1
GRIDFORMAT_BEGIN
 90
        0
 91
        1
 62
     0
 92
       -2
340
14
 93
        0
 40
0.045
309
GRIDFORMAT_END
 95
        8
302
GRIDFORMAT
  1
GRIDFORMAT_BEGIN
 90
        0
 91
        1
 62
     0
 92
       -2
340
14
 93
        0
 40
0.045
309
GRIDFORMAT_END
 95
       16
302
GRIDFORMAT
  1
GRIDFORMAT_BEGIN
 90
        0
 91
        1
 62
     0
 92
       -2
340
14
 93
        0
 40
0.045
309
GRIDFORMAT_END
 95
       32
302
GRIDFORMAT
  1
GRIDFORMAT_BEGIN
 90
        0
 91
        1
 62
     0
 92
       -2
340
14
 93
        0
 40
0.045
309
GRIDFORMAT_END
309
TABLEFORMAT_END
  1
CELLSTYLE_BEGIN
 90
        1
 91
        1
300
_TITLE
309
CELLSTYLE_END
300
CELLSTYLE
  1
TABLEFORMAT_BEGIN
 90
        5
170
     1
 91
        0
 92
        0
 62
   257
 93
        1
300
CONTENTFORMAT
  1
CONTENTFORMAT_BEGIN
 90
        0
 91
        0
 92
        4
 93
        0
300

 40
0.0
140
1.0
 94
        5
 62
     0
340
11
144
0.18
309
CONTENTFORMAT_END
171
     1
301
MARGIN
  1
CELLMARGIN_BEGIN
 40
0.06
 40
0.06
 40
0.06
 40
0.06
 40
0.06
 40
0.06
309
CELLMARGIN_END
 94
        6
 95
        1
302
GRIDFORMAT
  1
GRIDFORMAT_BEGIN
 90
        0
 91
        1
 62
     0
 92
       -2
340
14
 93
        0
 40
0.045
309
GRIDFORMAT_END
 95
        2
302
GRIDFORMAT
  1
GRIDFORMAT_BEGIN
 90
        0
 91
        1
 62
     0
 92
       -2
340
14
 93
        0
 40
0.045
309
GRIDFORMAT_END
 95
        4
302
GRIDFORMAT
  1
GRIDFORMAT_BEGIN
 90
        0
 91
        1
 62
     0
 92
       -2
340
14
 93
        0
 40
0.045
309
GRIDFORMAT_END
 95
        8
302
GRIDFORMAT
  1
GRIDFORMAT_BEGIN
 90
        0
 91
        1
 62
     0
 92
       -2
340
14
 93
        0
 40
0.045
309
GRIDFORMAT_END
 95
       16
302
GRIDFORMAT
  1
GRIDFORMAT_BEGIN
 90
        0
 91
        1
 62
     0
 92
       -2
340
14
 93
        0
 40
0.045
309
GRIDFORMAT_END
 95
       32
302
GRIDFORMAT
  1
GRIDFORMAT_BEGIN
 90
        0
 91
        1
 62
     0
 92
       -2
340
14
 93
        0
 40
0.045
309
GRIDFORMAT_END
309
TABLEFORMAT_END
  1
CELLSTYLE_BEGIN
 90
        2
 91
        1
300
_HEADER
309
CELLSTYLE_END
300
CELLSTYLE
  1
TABLEFORMAT_BEGIN
 90
        5
170
     1
 91
        0
 92
        0
 62
   257
 93
        1
300
CONTENTFORMAT
  1
CONTENTFORMAT_BEGIN
 90
        0
 91
        0
 92
        4
 93
        0
300

 40
0.0
140
1.0
 94
        2
 62
     0
340
11
144
0.18
309
CONTENTFORMAT_END
171
     1
301
MARGIN
  1
CELLMARGIN_BEGIN
 40
0.06
 40
0.06
 40
0.06
 40
0.06
 40
0.06
 40
0.06
309
CELLMARGIN_END
 94
        6
 95
        1
302
GRIDFORMAT
  1
GRIDFORMAT_BEGIN
 90
        0
 91
        1
 62
     0
 92
       -2
340
14
 93
        0
 40
0.045
309
GRIDFORMAT_END
 95
        2
302
GRIDFORMAT
  1
GRIDFORMAT_BEGIN
 90
        0
 91
        1
 62
     0
 92
       -2
340
14
 93
        0
 40
0.045
309
GRIDFORMAT_END
 95
        4
302
GRIDFORMAT
  1
GRIDFORMAT_BEGIN
 90
        0
 91
        1
 62
     0
 92
       -2
340
14
 93
        0
 40
0.045
309
GRIDFORMAT_END
 95
        8
302
GRIDFORMAT
  1
GRIDFORMAT_BEGIN
 90
        0
 91
        1
 62
     0
 92
       -2
340
14
 93
        0
 40
0.045
309
GRIDFORMAT_END
 95
       16
302
GRIDFORMAT
  1
GRIDFORMAT_BEGIN
 90
        0
 91
        1
 62
     0
 92
       -2
340
14
 93
        0
 40
0.045
309
GRIDFORMAT_END
 95
       32
302
GRIDFORMAT
  1
GRIDFORMAT_BEGIN
 90
        0
 91
        1
 62
     0
 92
       -2
340
14
 93
        0
 40
0.045
309
GRIDFORMAT_END
309
TABLEFORMAT_END
  1
CELLSTYLE_BEGIN
 90
        3
 91
        2
300
_DATA
309
CELLSTYLE_END
  0
ENDSEC
  0
EOF