0
SECTION
  2
HEADER
  9
$ACADVER
  1
AC1027
  9
$ACADMAINTVER
 70
     8
  9
$DWGCODEPAGE
  3
ANSI_1252
  9
$REQUIREDVERSIONS
160
                 0
  9
$COMMENTS
  1
File was created by Cadenas
  9
$CUSTOMPROPERTYTAG
  1
NN
  9
$CUSTOMPROPERTY
  1
Grip Tight Four-Bolt Flange Metric Bore
  9
$CUSTOMPROPERTYTAG
  1
NT
  9
$CUSTOMPROPERTY
  1
GT Normal Duty 4 Bolt Flange Bearings
  9
$CUSTOMPROPERTYTAG
  1
NB
  9
$CUSTOMPROPERTY
  1
129676
  9
$CUSTOMPROPERTYTAG
  1
NBSYN
  9
$CUSTOMPROPERTY
  1
$PN.$LUBE.
  9
$CUSTOMPROPERTYTAG
  1
LINA
  9
$CUSTOMPROPERTY
  1
129676
  9
$CUSTOMPROPERTYTAG
  1
SERIES
  9
$CUSTOMPROPERTY
  1
212
  9
$CUSTOMPROPERTYTAG
  1
SS
  9
$CUSTOMPROPERTY
  1
60
  9
$CUSTOMPROPERTYTAG
  1
PN
  9
$CUSTOMPROPERTY
  1
129676
  9
$CUSTOMPROPERTYTAG
  1
DESCRIPTION
  9
$CUSTOMPROPERTY
  1
F4B-GT-60M
  9
$CUSTOMPROPERTYTAG
  1
A
  9
$CUSTOMPROPERTY
  1
53.6
  9
$CUSTOMPROPERTYTAG
  1
B
  9
$CUSTOMPROPERTY
  1
174.6
  9
$CUSTOMPROPERTYTAG
  1
C
  9
$CUSTOMPROPERTY
  1
58.7
  9
$CUSTOMPROPERTYTAG
  1
D
  9
$CUSTOMPROPERTY
  1
143.0
  9
$CUSTOMPROPERTYTAG
  1
F
  9
$CUSTOMPROPERTY
  1
M16
  9
$CUSTOMPROPERTYTAG
  1
H
  9
$CUSTOMPROPERTY
  1
17.5
  9
$CUSTOMPROPERTYTAG
  1
J
  9
$CUSTOMPROPERTY
  1
14.3
  9
$CUSTOMPROPERTYTAG
  1
L
  9
$CUSTOMPROPERTY
  1
88.9
  9
$CUSTOMPROPERTYTAG
  1
N
  9
$CUSTOMPROPERTY
  1
88.9
  9
$CUSTOMPROPERTYTAG
  1
Z
  9
$CUSTOMPROPERTY
  1
57.9
  9
$CUSTOMPROPERTYTAG
  1
COMPANY
  9
$CUSTOMPROPERTY
  1
baldor
  9
$INSBASE
 10
0.0
 20
0.0
 30
0.0
  9
$EXTMIN
 10
1.000000000000000E+20
 20
1.000000000000000E+20
 30
1.000000000000000E+20
  9
$EXTMAX
 10
-1.000000000000000E+20
 20
-1.000000000000000E+20
 30
-1.000000000000000E+20
  9
$LIMMIN
 10
0.0
 20
0.0
  9
$LIMMAX
 10
420.0
 20
297.0
  9
$ORTHOMODE
 70
     0
  9
$REGENMODE
 70
     1
  9
$FILLMODE
 70
     1
  9
$QTEXTMODE
 70
     0
  9
$MIRRTEXT
 70
     1
  9
$LTSCALE
 40
1.0
  9
$ATTMODE
 70
     1
  9
$TEXTSIZE
 40
2.5
  9
$TRACEWID
 40
1.0
  9
$TEXTSTYLE
  7
Standard
  9
$CLAYER
  8
0
  9
$CELTYPE
  6
ByLayer
  9
$CECOLOR
 62
   256
  9
$CELTSCALE
 40
1.0
  9
$DISPSILH
 70
     0
  9
$DIMSCALE
 40
1.0
  9
$DIMASZ
 40
2.5
  9
$DIMEXO
 40
0.625
  9
$DIMDLI
 40
3.75
  9
$DIMRND
 40
0.0
  9
$DIMDLE
 40
0.0
  9
$DIMEXE
 40
1.25
  9
$DIMTP
 40
0.0
  9
$DIMTM
 40
0.0
  9
$DIMTXT
 40
2.5
  9
$DIMCEN
 40
2.5
  9
$DIMTSZ
 40
0.0
  9
$DIMTOL
 70
     0
  9
$DIMLIM
 70
     0
  9
$DIMTIH
 70
     0
  9
$DIMTOH
 70
     0
  9
$DIMSE1
 70
     0
  9
$DIMSE2
 70
     0
  9
$DIMTAD
 70
     1
  9
$DIMZIN
 70
     8
  9
$DIMBLK
  1

  9
$DIMASO
 70
     1
  9
$DIMSHO
 70
     1
  9
$DIMPOST
  1

  9
$DIMAPOST
  1

  9
$DIMALT
 70
     0
  9
$DIMALTD
 70
     3
  9
$DIMALTF
 40
0.03937007874016
  9
$DIMLFAC
 40
1.0
  9
$DIMTOFL
 70
     1
  9
$DIMTVP
 40
0.0
  9
$DIMTIX
 70
     0
  9
$DIMSOXD
 70
     0
  9
$DIMSAH
 70
     0
  9
$DIMBLK1
  1

  9
$DIMBLK2
  1

  9
$DIMSTYLE
  2
ISO-25
  9
$DIMCLRD
 70
     0
  9
$DIMCLRE
 70
     0
  9
$DIMCLRT
 70
     0
  9
$DIMTFAC
 40
1.0
  9
$DIMGAP
 40
0.625
  9
$DIMJUST
 70
     0
  9
$DIMSD1
 70
     0
  9
$DIMSD2
 70
     0
  9
$DIMTOLJ
 70
     0
  9
$DIMTZIN
 70
     8
  9
$DIMALTZ
 70
     0
  9
$DIMALTTZ
 70
     0
  9
$DIMUPT
 70
     0
  9
$DIMDEC
 70
     2
  9
$DIMTDEC
 70
     2
  9
$DIMALTU
 70
     2
  9
$DIMALTTD
 70
     3
  9
$DIMTXSTY
  7
Standard
  9
$DIMAUNIT
 70
     0
  9
$DIMADEC
 70
     0
  9
$DIMALTRND
 40
0.0
  9
$DIMAZIN
 70
     0
  9
$DIMDSEP
 70
    44
  9
$DIMATFIT
 70
     3
  9
$DIMFRAC
 70
     0
  9
$DIMLDRBLK
  1

  9
$DIMLUNIT
 70
     2
  9
$DIMLWD
 70
    -2
  9
$DIMLWE
 70
    -2
  9
$DIMTMOVE
 70
     0
  9
$DIMFXL
 40
1.0
  9
$DIMFXLON
 70
     0
  9
$DIMJOGANG
 40
0.7853981633974483
  9
$DIMTFILL
 70
     0
  9
$DIMTFILLCLR
 70
     0
  9
$DIMARCSYM
 70
     0
  9
$DIMLTYPE
  6

  9
$DIMLTEX1
  6

  9
$DIMLTEX2
  6

  9
$DIMTXTDIRECTION
 70
     0
  9
$LUNITS
 70
     2
  9
$LUPREC
 70
     4
  9
$SKETCHINC
 40
1.0
  9
$FILLETRAD
 40
10.0
  9
$AUNITS
 70
     0
  9
$AUPREC
 70
     0
  9
$MENU
  1
.
  9
$ELEVATION
 40
0.0
  9
$PELEVATION
 40
0.0
  9
$THICKNESS
 40
0.0
  9
$LIMCHECK
 70
     0
  9
$CHAMFERA
 40
0.0
  9
$CHAMFERB
 40
0.0
  9
$CHAMFERC
 40
0.0
  9
$CHAMFERD
 40
0.0
  9
$SKPOLY
 70
     0
  9
$TDCREATE
 40
2458168.994943033
  9
$TDUCREATE
 40
2458168.953276366
  9
$TDUPDATE
 40
2458168.994943217
  9
$TDUUPDATE
 40
2458168.953276551
  9
$TDINDWG
 40
0.0000000116
  9
$TDUSRTIMER
 40
0.0000000116
  9
$USRTIMER
 70
     1
  9
$ANGBASE
 50
0.0
  9
$ANGDIR
 70
     0
  9
$PDMODE
 70
     0
  9
$PDSIZE
 40
0.0
  9
$PLINEWID
 40
0.0
  9
$SPLFRAME
 70
     0
  9
$SPLINETYPE
 70
     6
  9
$SPLINESEGS
 70
     8
  9
$HANDSEED
  5
1C3
  9
$SURFTAB1
 70
     6
  9
$SURFTAB2
 70
     6
  9
$SURFTYPE
 70
     6
  9
$SURFU
 70
     6
  9
$SURFV
 70
     6
  9
$UCSBASE
  2

  9
$UCSNAME
  2

  9
$UCSORG
 10
0.0
 20
0.0
 30
0.0
  9
$UCSXDIR
 10
1.0
 20
0.0
 30
0.0
  9
$UCSYDIR
 10
0.0
 20
1.0
 30
0.0
  9
$UCSORTHOREF
  2

  9
$UCSORTHOVIEW
 70
     0
  9
$UCSORGTOP
 10
0.0
 20
0.0
 30
0.0
  9
$UCSORGBOTTOM
 10
0.0
 20
0.0
 30
0.0
  9
$UCSORGLEFT
 10
0.0
 20
0.0
 30
0.0
  9
$UCSORGRIGHT
 10
0.0
 20
0.0
 30
0.0
  9
$UCSORGFRONT
 10
0.0
 20
0.0
 30
0.0
  9
$UCSORGBACK
 10
0.0
 20
0.0
 30
0.0
  9
$PUCSBASE
  2

  9
$PUCSNAME
  2

  9
$PUCSORG
 10
0.0
 20
0.0
 30
0.0
  9
$PUCSXDIR
 10
1.0
 20
0.0
 30
0.0
  9
$PUCSYDIR
 10
0.0
 20
1.0
 30
0.0
  9
$PUCSORTHOREF
  2

  9
$PUCSORTHOVIEW
 70
     0
  9
$PUCSORGTOP
 10
0.0
 20
0.0
 30
0.0
  9
$PUCSORGBOTTOM
 10
0.0
 20
0.0
 30
0.0
  9
$PUCSORGLEFT
 10
0.0
 20
0.0
 30
0.0
  9
$PUCSORGRIGHT
 10
0.0
 20
0.0
 30
0.0
  9
$PUCSORGFRONT
 10
0.0
 20
0.0
 30
0.0
  9
$PUCSORGBACK
 10
0.0
 20
0.0
 30
0.0
  9
$USERI1
 70
     0
  9
$USERI2
 70
     0
  9
$USERI3
 70
     0
  9
$USERI4
 70
     0
  9
$USERI5
 70
     0
  9
$USERR1
 40
0.0
  9
$USERR2
 40
0.0
  9
$USERR3
 40
0.0
  9
$USERR4
 40
0.0
  9
$USERR5
 40
0.0
  9
$WORLDVIEW
 70
     1
  9
$SHADEDGE
 70
     3
  9
$SHADEDIF
 70
    70
  9
$TILEMODE
 70
     1
  9
$MAXACTVP
 70
    64
  9
$PINSBASE
 10
0.0
 20
0.0
 30
0.0
  9
$PLIMCHECK
 70
     0
  9
$PEXTMIN
 10
1.000000000000000E+20
 20
1.000000000000000E+20
 30
1.000000000000000E+20
  9
$PEXTMAX
 10
-1.000000000000000E+20
 20
-1.000000000000000E+20
 30
-1.000000000000000E+20
  9
$PLIMMIN
 10
0.0
 20
0.0
  9
$PLIMMAX
 10
420.0
 20
297.0
  9
$UNITMODE
 70
     0
  9
$VISRETAIN
 70
     1
  9
$PLINEGEN
 70
     0
  9
$PSLTSCALE
 70
     1
  9
$TREEDEPTH
 70
  3020
  9
$CMLSTYLE
  2
Standard
  9
$CMLJUST
 70
     0
  9
$CMLSCALE
 40
20.0
  9
$PROXYGRAPHICS
 70
     1
  9
$MEASUREMENT
 70
     1
  9
$CELWEIGHT
370
    -1
  9
$ENDCAPS
280
     0
  9
$JOINSTYLE
280
     0
  9
$LWDISPLAY
290
     0
  9
$INSUNITS
 70
     4
  9
$HYPERLINKBASE
  1

  9
$STYLESHEET
  1

  9
$XEDIT
290
     1
  9
$CEPSNTYPE
380
     0
  9
$PSTYLEMODE
290
     1
  9
$FINGERPRINTGUID
  2
{18E2EDEA-0C95-4E6E-AEA2-DF18C7566B8F}
  9
$VERSIONGUID
  2
{FAEB1C32-E019-11D5-929B-00C0DF256EC4}
  9
$EXTNAMES
290
     1
  9
$PSVPSCALE
 40
0.0
  9
$OLESTARTUP
290
     0
  9
$SORTENTS
280
   127
  9
$INDEXCTL
280
     0
  9
$HIDETEXT
280
     1
  9
$XCLIPFRAME
280
     2
  9
$HALOGAP
280
     0
  9
$OBSCOLOR
 70
   257
  9
$OBSLTYPE
280
     0
  9
$INTERSECTIONDISPLAY
280
     0
  9
$INTERSECTIONCOLOR
 70
   257
  9
$DIMASSOC
280
     2
  9
$PROJECTNAME
  1

  9
$CAMERADISPLAY
290
     0
  9
$LENSLENGTH
 40
50.0
  9
$CAMERAHEIGHT
 40
0.0
  9
$STEPSPERSEC
 40
2.0
  9
$STEPSIZE
 40
6.0
  9
$3DDWFPREC
 40
2.0
  9
$PSOLWIDTH
 40
5.0
  9
$PSOLHEIGHT
 40
80.0
  9
$LOFTANG1
 40
1.570796326794897
  9
$LOFTANG2
 40
1.570796326794897
  9
$LOFTMAG1
 40
0.0
  9
$LOFTMAG2
 40
0.0
  9
$LOFTPARAM
 70
     7
  9
$LOFTNORMALS
280
     1
  9
$LATITUDE
 40
37.795
  9
$LONGITUDE
 40
-122.394
  9
$NORTHDIRECTION
 40
0.0
  9
$TIMEZONE
 70
 -8000
  9
$LIGHTGLYPHDISPLAY
280
     1
  9
$TILEMODELIGHTSYNCH
280
     1
  9
$CMATERIAL
347
44
  9
$SOLIDHIST
280
     0
  9
$SHOWHIST
280
     1
  9
$DWFFRAME
280
     2
  9
$DGNFRAME
280
     2
  9
$REALWORLDSCALE
290
     1
  9
$INTERFERECOLOR
 62
   256
  9
$CSHADOW
280
     0
  9
$SHADOWPLANELOCATION
 40
0.0
  0
ENDSEC
  0
SECTION
  2
CLASSES
  0
CLASS
  1
ACDBDICTIONARYWDFLT
  2
AcDbDictionaryWithDefault
  3
ObjectDBX Classes
 90
        0
 91
        4
280
     0
281
     0
  0
CLASS
  1
VISUALSTYLE
  2
AcDbVisualStyle
  3
ObjectDBX Classes
 90
     4095
 91
        4
280
     0
281
     0
  0
CLASS
  1
MATERIAL
  2
AcDbMaterial
  3
ObjectDBX Classes
 90
     1153
 91
        4
280
     0
281
     0
  0
CLASS
  1
SCALE
  2
AcDbScale
  3
ObjectDBX Classes
 90
     1153
 91
        4
280
     0
281
     0
  0
CLASS
  1
TABLESTYLE
  2
AcDbTableStyle
  3
ObjectDBX Classes
 90
     4095
 91
        4
280
     0
281
     0
  0
CLASS
  1
MLEADERSTYLE
  2
AcDbMLeaderStyle
  3
ACDB_MLEADERSTYLE_CLASS
 90
     4095
 91
        4
280
     0
281
     0
  0
CLASS
  1
SUN
  2
AcDbSun
  3
SCENEOE
 90
     1153
 91
        4
280
     0
281
     0
  0
CLASS
  1
DICTIONARYVAR
  2
AcDbDictionaryVar
  3
ObjectDBX Classes
 90
        0
 91
        4
280
     0
281
     0
  0
CLASS
  1
CELLSTYLEMAP
  2
AcDbCellStyleMap
  3
ObjectDBX Classes
 90
     1152
 91
        4
280
     0
281
     0
  0
ENDSEC
  0
SECTION
  2
TABLES
  0
TABLE
  2
VPORT
  5
8
330
0
100
AcDbSymbolTable
 70
     1
  0
VPORT
  5
29
330
8
100
AcDbSymbolTableRecord
100
AcDbViewportTableRecord
  2
*Active
 70
     0
 10
0.0
 20
0.0
 11
1.0
 21
1.0
 12
-29.60000000000008
 22
1.112300000000005
 13
0.0
 23
0.0
 14
10.0
 24
10.0
 15
10.0
 25
10.0
 16
0.0
 26
0.0
 36
1.0
 17
0.0
 27
0.0
 37
0.0
 40
180.361092
 41
0.3594522481600407
 42
50.0
 43
0.0
 44
0.0
 50
0.0
 51
0.0
 71
     0
 72
   100
 73
     1
 74
     3
 75
     0
 76
     0
 77
     0
 78
     0
281
     0
 65
     1
110
0.0
120
0.0
130
0.0
111
1.0
121
0.0
131
0.0
112
0.0
122
1.0
132
0.0
 79
     0
146
0.0
348
2F
 60
     3
 61
     5
292
     1
282
     1
141
0.0
142
0.0
 63
   250
361
6D
  0
ENDTAB
  0
TABLE
  2
LTYPE
  5
5
330
0
100
AcDbSymbolTable
 70
     3
  0
LTYPE
  5
14
330
5
100
AcDbSymbolTableRecord
100
AcDbLinetypeTableRecord
  2
ByBlock
 70
     0
  3

 72
    65
 73
     0
 40
0.0
  0
LTYPE
  5
15
330
5
100
AcDbSymbolTableRecord
100
AcDbLinetypeTableRecord
  2
ByLayer
 70
     0
  3

 72
    65
 73
     0
 40
0.0
  0
LTYPE
  5
16
330
5
100
AcDbSymbolTableRecord
100
AcDbLinetypeTableRecord
  2
Continuous
 70
     0
  3
Solid line
 72
    65
 73
     0
 40
0.0
  0
LTYPE
  5
9D
330
5
100
AcDbSymbolTableRecord
100
AcDbLinetypeTableRecord
  2
Dashed
 70
     0
  3

 72
    65
 73
     2
 40
2.0
 49
1.0
 74
     0
 49
-1.0
 74
     0
  0
LTYPE
  5
115
330
5
100
AcDbSymbolTableRecord
100
AcDbLinetypeTableRecord
  2
Center
 70
     0
  3

 72
    65
 73
     4
 40
1.5
 49
0.45
 74
     0
 49
-0.5
 74
     0
 49
0.05
 74
     0
 49
-0.5
 74
     0
  0
ENDTAB
  0
TABLE
  2
LAYER
  5
2
330
0
100
AcDbSymbolTable
 70
     7
  0
LAYER
  5
10
330
2
100
AcDbSymbolTableRecord
100
AcDbLayerTableRecord
  2
0
 70
     0
 62
     7
  6
Continuous
370
    -3
390
F
347
46
348
0
  0
LAYER
  5
72
330
2
100
AcDbSymbolTableRecord
100
AcDbLayerTableRecord
  2
AM_6
 70
     0
 62
    -2
  6
Continuous
370
    35
390
F
347
46
348
0
  0
LAYER
  5
9E
330
2
100
AcDbSymbolTableRecord
100
AcDbLayerTableRecord
  2
AM_9
 70
     0
 62
     6
  6
Dashed
370
    25
390
F
347
46
348
0
  0
LAYER
  5
CE
330
2
100
AcDbSymbolTableRecord
100
AcDbLayerTableRecord
  2
AM_4
 70
     0
 62
     7
  6
Continuous
370
    50
390
F
347
46
348
0
  0
LAYER
  5
116
330
2
100
AcDbSymbolTableRecord
100
AcDbLayerTableRecord
  2
AM_7
 70
     0
 62
     7
  6
Center
370
    25
390
F
347
46
348
0
  0
LAYER
  5
124
330
2
100
AcDbSymbolTableRecord
100
AcDbLayerTableRecord
  2
AM_5
 70
     0
 62
     3
  6
Continuous
370
    25
390
F
347
46
348
0
  0
LAYER
  5
1B6
330
2
100
AcDbSymbolTableRecord
100
AcDbLayerTableRecord
  2
ConnectionPoints
 70
     0
 62
     7
  6
Continuous
370
    50
390
F
347
46
348
0
  0
ENDTAB
  0
TABLE
  2
STYLE
  5
3
330
0
100
AcDbSymbolTable
 70
     1
  0
STYLE
  5
11
330
3
100
AcDbSymbolTableRecord
100
AcDbTextStyleTableRecord
  2
Standard
 70
     0
 40
0.0
 41
1.0
 50
0.0
 71
     0
 42
2.5
  3
txt
  4

  0
ENDTAB
  0
TABLE
  2
VIEW
  5
6
330
0
100
AcDbSymbolTable
 70
     0
  0
ENDTAB
  0
TABLE
  2
UCS
  5
7
330
0
100
AcDbSymbolTable
 70
     0
  0
ENDTAB
  0
TABLE
  2
APPID
  5
9
330
0
100
AcDbSymbolTable
 70
     1
  0
APPID
  5
12
330
9
100
AcDbSymbolTableRecord
100
AcDbRegAppTableRecord
  2
ACAD
 70
     0
  0
ENDTAB
  0
TABLE
  2
DIMSTYLE
  5
A
330
0
100
AcDbSymbolTable
 70
     1
100
AcDbDimStyleTable
  0
DIMSTYLE
105
27
330
A
100
AcDbSymbolTableRecord
100
AcDbDimStyleTableRecord
  2
ISO-25
 70
     0
 41
2.5
 42
0.625
 43
3.75
 44
1.25
 73
     0
 74
     0
 77
     1
 78
     8
140
2.5
141
2.5
143
0.03937007874016
147
0.625
171
     3
172
     1
178
     0
271
     2
272
     2
274
     3
278
    44
283
     0
284
     8
340
11
  0
ENDTAB
  0
TABLE
  2
BLOCK_RECORD
  5
1
330
0
100
AcDbSymbolTable
 70
     5
  0
BLOCK_RECORD
  5
1F
330
1
100
AcDbSymbolTableRecord
100
AcDbBlockTableRecord
  2
*Model_Space
340
22
 70
     0
280
     1
281
     0
  0
BLOCK_RECORD
  5
1B
330
1
100
AcDbSymbolTableRecord
100
AcDbBlockTableRecord
  2
*Paper_Space
340
1E
 70
     0
280
     1
281
     0
  0
BLOCK_RECORD
  5
23
330
1
100
AcDbSymbolTableRecord
100
AcDbBlockTableRecord
  2
*Paper_Space0
340
26
 70
     0
280
     1
281
     0
  0
BLOCK_RECORD
  5
6E
330
1
100
AcDbSymbolTableRecord
100
AcDbBlockTableRecord
  2
1_129676_2
340
0
102
{BLKREFS
331
6F
102
}
 70
     0
280
     1
281
     0
  0
BLOCK_RECORD
  5
87
330
1
100
AcDbSymbolTableRecord
100
AcDbBlockTableRecord
  2
2_129525_0_in_129676_2
340
0
102
{BLKREFS
331
88
102
}
 70
     0
280
     1
281
     0
  0
BLOCK_RECORD
  5
D1
330
1
100
AcDbSymbolTableRecord
100
AcDbBlockTableRecord
  2
3_129951_0_in_129676_2
340
0
102
{BLKREFS
331
D2
102
}
 70
     0
280
     1
281
     0
  0
BLOCK_RECORD
  5
126
330
1
100
AcDbSymbolTableRecord
100
AcDbBlockTableRecord
  2
4_129473_0_in_129676_2
340
0
102
{BLKREFS
331
127
102
}
 70
     0
280
     1
281
     0
  0
ENDTAB
  0
ENDSEC
  0
SECTION
  2
BLOCKS
  0
BLOCK
  5
20
330
1F
100
AcDbEntity
  8
0
100
AcDbBlockBegin
  2
*Model_Space
 70
     0
 10
0.0
 20
0.0
 30
0.0
  3
*Model_Space
  1

  0
ENDBLK
  5
21
330
1F
100
AcDbEntity
  8
0
100
AcDbBlockEnd
  0
BLOCK
  5
1C
330
1B
100
AcDbEntity
 67
     1
  8
0
100
AcDbBlockBegin
  2
*Paper_Space
 70
     0
 10
0.0
 20
0.0
 30
0.0
  3
*Paper_Space
  1

  0
ENDBLK
  5
1D
330
1B
100
AcDbEntity
 67
     1
  8
0
100
AcDbBlockEnd
  0
BLOCK
  5
24
330
23
100
AcDbEntity
  8
0
100
AcDbBlockBegin
  2
*Paper_Space0
 70
     0
 10
0.0
 20
0.0
 30
0.0
  3
*Paper_Space0
  1

  0
ENDBLK
  5
25
330
23
100
AcDbEntity
  8
0
100
AcDbBlockEnd
  0
BLOCK
  5
70
330
6E
100
AcDbEntity
  8
0
100
AcDbBlockBegin
  2
1_129676_2
 70
     2
 10
0.0
 20
0.0
 30
0.0
  3
1_129676_2
  1

  0
ATTDEF
  5
73
330
6E
100
AcDbEntity
  8
AM_6
100
AcDbText
 10
7.18
 20
89.5246
 30
0.0
 40
0.5
  1
Grip Tight Four-Bolt Flange Metric Bore
100
AcDbAttributeDefinition
  3

  2
NN
 70
     8
280
     0
  0
ATTDEF
  5
74
330
6E
100
AcDbEntity
  8
AM_6
100
AcDbText
 10
7.18
 20
89.0246
 30
0.0
 40
0.5
  1
GT Normal Duty 4 Bolt Flange Bearings
100
AcDbAttributeDefinition
  3

  2
NT
 70
     8
280
     0
  0
ATTDEF
  5
75
330
6E
100
AcDbEntity
  8
AM_6
100
AcDbText
 10
7.18
 20
88.5246
 30
0.0
 40
0.5
  1
129676
100
AcDbAttributeDefinition
  3

  2
NB
 70
     8
280
     0
  0
ATTDEF
  5
76
330
6E
100
AcDbEntity
  8
AM_6
100
AcDbText
 10
7.18
 20
88.0246
 30
0.0
 40
0.5
  1
$PN.$LUBE.
100
AcDbAttributeDefinition
  3

  2
NBSYN
 70
     8
280
     0
  0
ATTDEF
  5
77
330
6E
100
AcDbEntity
  8
AM_6
100
AcDbText
 10
7.18
 20
87.5246
 30
0.0
 40
0.5
  1
129676
100
AcDbAttributeDefinition
  3

  2
LINA
 70
     8
280
     0
  0
ATTDEF
  5
78
330
6E
100
AcDbEntity
  8
AM_6
100
AcDbText
 10
7.18
 20
87.0246
 30
0.0
 40
0.5
  1
212
100
AcDbAttributeDefinition
  3

  2
SERIES
 70
     8
280
     0
  0
ATTDEF
  5
79
330
6E
100
AcDbEntity
  8
AM_6
100
AcDbText
 10
7.18
 20
86.5246
 30
0.0
 40
0.5
  1
60
100
AcDbAttributeDefinition
  3

  2
SS
 70
     8
280
     0
  0
ATTDEF
  5
7A
330
6E
100
AcDbEntity
  8
AM_6
100
AcDbText
 10
7.18
 20
86.0246
 30
0.0
 40
0.5
  1
129676
100
AcDbAttributeDefinition
  3

  2
PN
 70
     8
280
     0
  0
ATTDEF
  5
7B
330
6E
100
AcDbEntity
  8
AM_6
100
AcDbText
 10
7.18
 20
85.5246
 30
0.0
 40
0.5
  1
F4B-GT-60M
100
AcDbAttributeDefinition
  3

  2
DESCRIPTION
 70
     8
280
     0
  0
ATTDEF
  5
7C
330
6E
100
AcDbEntity
  8
AM_6
100
AcDbText
 10
7.18
 20
85.0246
 30
0.0
 40
0.5
  1
53.6
100
AcDbAttributeDefinition
  3

  2
A
 70
     8
280
     0
  0
ATTDEF
  5
7D
330
6E
100
AcDbEntity
  8
AM_6
100
AcDbText
 10
7.18
 20
84.5246
 30
0.0
 40
0.5
  1
174.6
100
AcDbAttributeDefinition
  3

  2
B
 70
     8
280
     0
  0
ATTDEF
  5
7E
330
6E
100
AcDbEntity
  8
AM_6
100
AcDbText
 10
7.18
 20
84.0246
 30
0.0
 40
0.5
  1
58.7
100
AcDbAttributeDefinition
  3

  2
C
 70
     8
280
     0
  0
ATTDEF
  5
7F
330
6E
100
AcDbEntity
  8
AM_6
100
AcDbText
 10
7.18
 20
83.5246
 30
0.0
 40
0.5
  1
143.0
100
AcDbAttributeDefinition
  3

  2
D
 70
     8
280
     0
  0
ATTDEF
  5
80
330
6E
100
AcDbEntity
  8
AM_6
100
AcDbText
 10
7.18
 20
83.0246
 30
0.0
 40
0.5
  1
M16
100
AcDbAttributeDefinition
  3

  2
F
 70
     8
280
     0
  0
ATTDEF
  5
81
330
6E
100
AcDbEntity
  8
AM_6
100
AcDbText
 10
7.18
 20
82.5246
 30
0.0
 40
0.5
  1
17.5
100
AcDbAttributeDefinition
  3

  2
H
 70
     8
280
     0
  0
ATTDEF
  5
82
330
6E
100
AcDbEntity
  8
AM_6
100
AcDbText
 10
7.18
 20
82.0246
 30
0.0
 40
0.5
  1
14.3
100
AcDbAttributeDefinition
  3

  2
J
 70
     8
280
     0
  0
ATTDEF
  5
83
330
6E
100
AcDbEntity
  8
AM_6
100
AcDbText
 10
7.18
 20
81.5246
 30
0.0
 40
0.5
  1
88.9
100
AcDbAttributeDefinition
  3

  2
L
 70
     8
280
     0
  0
ATTDEF
  5
84
330
6E
100
AcDbEntity
  8
AM_6
100
AcDbText
 10
7.18
 20
81.0246
 30
0.0
 40
0.5
  1
88.9
100
AcDbAttributeDefinition
  3

  2
N
 70
     8
280
     0
  0
ATTDEF
  5
85
330
6E
100
AcDbEntity
  8
AM_6
100
AcDbText
 10
7.18
 20
80.5246
 30
0.0
 40
0.5
  1
57.9
100
AcDbAttributeDefinition
  3

  2
Z
 70
     8
280
     0
  0
ATTDEF
  5
86
330
6E
100
AcDbEntity
  8
AM_6
100
AcDbText
 10
7.18
 20
80.0246
 30
0.0
 40
0.5
  1
baldor
100
AcDbAttributeDefinition
  3

  2
COMPANY
 70
     8
280
     0
  0
INSERT
  5
88
330
6E
100
AcDbEntity
  8
0
100
AcDbBlockReference
  2
2_129525_0_in_129676_2
 10
0.0
 20
0.0
 30
0.0
  0
INSERT
  5
D2
330
6E
100
AcDbEntity
  8
0
100
AcDbBlockReference
  2
3_129951_0_in_129676_2
 10
0.0
 20
0.0
 30
0.0
  0
INSERT
  5
127
330
6E
100
AcDbEntity
  8
0
100
AcDbBlockReference
  2
4_129473_0_in_129676_2
 10
0.0
 20
0.0
 30
0.0
  0
ENDBLK
  5
71
330
6E
100
AcDbEntity
  8
0
100
AcDbBlockEnd
  0
BLOCK
  5
89
330
87
100
AcDbEntity
  8
0
100
AcDbBlockBegin
  2
2_129525_0_in_129676_2
 70
     2
 10
0.0
 20
0.0
 30
0.0
  3
2_129525_0_in_129676_2
  1

  0
ATTDEF
  5
8B
330
87
100
AcDbEntity
  8
AM_6
100
AcDbText
 10
-2.849999999999996
 20
54.98751516310697
 30
0.0
 40
0.5
  1
INS-GT-M B
100
AcDbAttributeDefinition
  3

  2
NN
 70
     8
280
     0
  0
ATTDEF
  5
8C
330
87
100
AcDbEntity
  8
AM_6
100
AcDbText
 10
-2.849999999999996
 20
54.48751516310697
 30
0.0
 40
0.5
  1
GT Normal Duty Bearing Inserts
100
AcDbAttributeDefinition
  3

  2
NT
 70
     8
280
     0
  0
ATTDEF
  5
8D
330
87
100
AcDbEntity
  8
AM_6
100
AcDbText
 10
-2.849999999999996
 20
53.98751516310697
 30
0.0
 40
0.5
  1
129525
100
AcDbAttributeDefinition
  3

  2
NB
 70
     8
280
     0
  0
ATTDEF
  5
8E
330
87
100
AcDbEntity
  8
AM_6
100
AcDbText
 10
-2.849999999999996
 20
53.48751516310697
 30
0.0
 40
0.5
  1
$PN.
100
AcDbAttributeDefinition
  3

  2
NBSYN
 70
     8
280
     0
  0
ATTDEF
  5
8F
330
87
100
AcDbEntity
  8
AM_6
100
AcDbText
 10
-2.849999999999996
 20
52.98751516310697
 30
0.0
 40
0.5
  1
129525
100
AcDbAttributeDefinition
  3

  2
LINA
 70
     8
280
     0
  0
ATTDEF
  5
90
330
87
100
AcDbEntity
  8
AM_6
100
AcDbText
 10
-2.849999999999996
 20
52.48751516310697
 30
0.0
 40
0.5
  1
212
100
AcDbAttributeDefinition
  3

  2
SERIES
 70
     8
280
     0
  0
ATTDEF
  5
91
330
87
100
AcDbEntity
  8
AM_6
100
AcDbText
 10
-2.849999999999996
 20
51.98751516310697
 30
0.0
 40
0.5
  1
129525
100
AcDbAttributeDefinition
  3

  2
PN
 70
     8
280
     0
  0
ATTDEF
  5
92
330
87
100
AcDbEntity
  8
AM_6
100
AcDbText
 10
-2.849999999999996
 20
51.48751516310697
 30
0.0
 40
0.5
  1
INS-GT-12
100
AcDbAttributeDefinition
  3

  2
DESCRIPTION
 70
     8
280
     0
  0
ATTDEF
  5
93
330
87
100
AcDbEntity
  8
AM_6
100
AcDbText
 10
-2.849999999999996
 20
50.98751516310697
 30
0.0
 40
0.5
  1
53.8
100
AcDbAttributeDefinition
  3

  2
A
 70
     8
280
     0
  0
ATTDEF
  5
94
330
87
100
AcDbEntity
  8
AM_6
100
AcDbText
 10
-2.849999999999996
 20
50.48751516310697
 30
0.0
 40
0.5
  1
25.9
100
AcDbAttributeDefinition
  3

  2
C
 70
     8
280
     0
  0
ATTDEF
  5
95
330
87
100
AcDbEntity
  8
AM_6
100
AcDbText
 10
-2.849999999999996
 20
49.98751516310697
 30
0.0
 40
0.5
  1
110.0
100
AcDbAttributeDefinition
  3

  2
D
 70
     8
280
     0
  0
ATTDEF
  5
96
330
87
100
AcDbEntity
  8
AM_6
100
AcDbText
 10
-2.849999999999996
 20
49.48751516310697
 30
0.0
 40
0.5
  1
6.4
100
AcDbAttributeDefinition
  3

  2
J
 70
     8
280
     0
  0
ATTDEF
  5
97
330
87
100
AcDbEntity
  8
AM_6
100
AcDbText
 10
-2.849999999999996
 20
48.98751516310697
 30
0.0
 40
0.5
  1
93.7
100
AcDbAttributeDefinition
  3

  2
L
 70
     8
280
     0
  0
ATTDEF
  5
98
330
87
100
AcDbEntity
  8
AM_6
100
AcDbText
 10
-2.849999999999996
 20
48.48751516310697
 30
0.0
 40
0.5
  1
#10 - 32 x 1/4
100
AcDbAttributeDefinition
  3

  2
N
 70
     8
280
     0
  0
ATTDEF
  5
99
330
87
100
AcDbEntity
  8
AM_6
100
AcDbText
 10
-2.849999999999996
 20
47.98751516310697
 30
0.0
 40
0.5
  1
18.5
100
AcDbAttributeDefinition
  3

  2
W
 70
     8
280
     0
  0
ATTDEF
  5
9A
330
87
100
AcDbEntity
  8
AM_6
100
AcDbText
 10
-2.849999999999996
 20
47.48751516310697
 30
0.0
 40
0.5
  1
37.1
100
AcDbAttributeDefinition
  3

  2
X
 70
     8
280
     0
  0
ATTDEF
  5
9B
330
87
100
AcDbEntity
  8
AM_6
100
AcDbText
 10
-2.849999999999996
 20
46.98751516310697
 30
0.0
 40
0.5
  1
35.3
100
AcDbAttributeDefinition
  3

  2
Y
 70
     8
280
     0
  0
ATTDEF
  5
9C
330
87
100
AcDbEntity
  8
AM_6
100
AcDbText
 10
-2.849999999999996
 20
46.48751516310697
 30
0.0
 40
0.5
  1
baldor
100
AcDbAttributeDefinition
  3

  2
COMPANY
 70
     8
280
     0
  0
LINE
  5
9F
330
87
100
AcDbEntity
  8
AM_9
100
AcDbLine
 10
-52.325
 20
-34.9515873015873
 30
0.0
 11
-38.4125
 21
-34.9515873015873
 31
0.0
  0
LINE
  5
A0
330
87
100
AcDbEntity
  8
AM_9
100
AcDbLine
 10
-38.4125
 20
34.9515873015873
 30
0.0
 11
-52.325
 21
34.9515873015873
 31
0.0
  0
LINE
  5
A1
330
87
100
AcDbEntity
  8
AM_9
100
AcDbLine
 10
-38.4125
 20
34.9515873015873
 30
0.0
 11
-38.4125
 21
-34.9515873015873
 31
0.0
  0
LINE
  5
A2
330
87
100
AcDbEntity
  8
AM_9
100
AcDbLine
 10
-38.4125
 20
-34.9515873015873
 30
0.0
 11
-7.849999999999996
 21
-36.01885331917885
 31
0.0
  0
LINE
  5
A3
330
87
100
AcDbEntity
  8
AM_9
100
AcDbLine
 10
-7.849999999999996
 20
36.01885331917885
 30
0.0
 11
-38.4125
 21
34.9515873015873
 31
0.0
  0
LINE
  5
A4
330
87
100
AcDbEntity
  8
AM_9
100
AcDbLine
 10
-47.68749999999999
 20
-38.29801587301587
 30
0.0
 11
-43.05
 21
-38.29801587301587
 31
0.0
  0
LINE
  5
A5
330
87
100
AcDbEntity
  8
AM_9
100
AcDbLine
 10
-43.05
 20
38.29801587301587
 30
0.0
 11
-47.68749999999999
 21
38.29801587301587
 31
0.0
  0
LINE
  5
A6
330
87
100
AcDbEntity
  8
AM_9
100
AcDbLine
 10
-11.54999999999999
 20
-41.64444444444444
 30
0.0
 11
-8.885999999999994
 21
-41.64444444444444
 31
0.0
  0
LINE
  5
A7
330
87
100
AcDbEntity
  8
AM_9
100
AcDbLine
 10
-8.885999999999994
 20
41.64444444444444
 30
0.0
 11
-11.54999999999999
 21
41.64444444444444
 31
0.0
  0
LINE
  5
A8
330
87
100
AcDbEntity
  8
AM_9
100
AcDbLine
 10
-8.885999999999994
 20
41.64444444444445
 30
0.0
 11
-8.885999999999994
 21
-41.64444444444445
 31
0.0
  0
LINE
  5
A9
330
87
100
AcDbEntity
  8
AM_9
100
AcDbLine
 10
-7.849999999999996
 20
40.60844444444444
 30
0.0
 11
-7.849999999999996
 21
-40.60844444444444
 31
0.0
  0
LINE
  5
AA
330
87
100
AcDbEntity
  8
AM_9
100
AcDbLine
 10
-7.849999999999996
 20
40.60844444444444
 30
0.0
 11
-8.885999999999994
 21
41.64444444444445
 31
0.0
  0
LINE
  5
AB
330
87
100
AcDbEntity
  8
AM_9
100
AcDbLine
 10
-8.885999999999994
 20
-41.64444444444445
 30
0.0
 11
-7.849999999999996
 21
-40.60844444444444
 31
0.0
  0
LINE
  5
AC
330
87
100
AcDbEntity
  8
AM_9
100
AcDbLine
 10
-47.68749999999999
 20
-3.199999999999999
 30
0.0
 11
-47.68749999999999
 21
-41.64444444444445
 31
0.0
  0
LINE
  5
AD
330
87
100
AcDbEntity
  8
AM_9
100
AcDbLine
 10
-47.68749999999999
 20
41.64444444444445
 30
0.0
 11
-47.68749999999999
 21
3.199999999999999
 31
0.0
  0
LINE
  5
AE
330
87
100
AcDbEntity
  8
AM_9
100
AcDbLine
 10
-51.28899999999999
 20
-41.64444444444445
 30
0.0
 11
-47.68749999999999
 21
-41.64444444444445
 31
0.0
  0
LINE
  5
AF
330
87
100
AcDbEntity
  8
AM_9
100
AcDbLine
 10
-47.68749999999999
 20
41.64444444444445
 30
0.0
 11
-51.28899999999999
 21
41.64444444444445
 31
0.0
  0
LINE
  5
B0
330
87
100
AcDbEntity
  8
AM_9
100
AcDbLine
 10
-52.325
 20
40.60844444444444
 30
0.0
 11
-52.325
 21
-40.60844444444444
 31
0.0
  0
LINE
  5
B1
330
87
100
AcDbEntity
  8
AM_9
100
AcDbLine
 10
-51.28899999999999
 20
-3.199999999999999
 30
0.0
 11
-51.28899999999999
 21
-41.64444444444445
 31
0.0
  0
LINE
  5
B2
330
87
100
AcDbEntity
  8
AM_9
100
AcDbLine
 10
-51.28899999999999
 20
41.64444444444445
 30
0.0
 11
-51.28899999999999
 21
3.199999999999999
 31
0.0
  0
LINE
  5
B3
330
87
100
AcDbEntity
  8
AM_9
100
AcDbLine
 10
-52.325
 20
-40.60844444444444
 30
0.0
 11
-51.28899999999999
 21
-41.64444444444445
 31
0.0
  0
LINE
  5
B4
330
87
100
AcDbEntity
  8
AM_9
100
AcDbLine
 10
-51.28899999999999
 20
41.64444444444445
 30
0.0
 11
-52.325
 21
40.60844444444444
 31
0.0
  0
LINE
  5
B5
330
87
100
AcDbEntity
  8
AM_9
100
AcDbLine
 10
-43.05
 20
41.64444444444445
 30
0.0
 11
-43.05
 21
-41.64444444444445
 31
0.0
  0
LINE
  5
B6
330
87
100
AcDbEntity
  8
AM_9
100
AcDbLine
 10
-43.05
 20
-41.64444444444445
 30
0.0
 11
-37.45
 21
-41.64444444444445
 31
0.0
  0
LINE
  5
B7
330
87
100
AcDbEntity
  8
AM_9
100
AcDbLine
 10
-37.45
 20
41.64444444444445
 30
0.0
 11
-43.05
 21
41.64444444444445
 31
0.0
  0
LINE
  5
B8
330
87
100
AcDbEntity
  8
AM_9
100
AcDbLine
 10
-32.17999999999999
 20
-52.41
 30
0.0
 11
-29.61999999999999
 21
-52.41
 31
0.0
  0
LINE
  5
B9
330
87
100
AcDbEntity
  8
AM_9
100
AcDbLine
 10
-29.61999999999999
 20
52.41
 30
0.0
 11
-32.17999999999999
 21
52.41
 31
0.0
  0
LINE
  5
BA
330
87
100
AcDbEntity
  8
AM_9
100
AcDbLine
 10
-11.54999999999999
 20
51.71148383473064
 30
0.0
 11
-11.54999999999999
 21
-51.71148383467349
 31
0.0
  0
ARC
  5
BB
330
87
100
AcDbEntity
  8
AM_9
100
AcDbCircle
 10
-12.586
 20
-51.71148383473064
 30
0.0
 40
1.036000000000008
100
AcDbArc
 50
291.4124670468845
 51
0.0
  0
ARC
  5
BC
330
87
100
AcDbEntity
  8
AM_9
100
AcDbCircle
 10
-12.586
 20
51.71148383473064
 30
0.0
 40
1.036000000000005
100
AcDbArc
 50
0.0
 51
68.58753295311567
  0
LINE
  5
BD
330
87
100
AcDbEntity
  8
AM_9
100
AcDbLine
 10
-37.44999999999999
 20
51.71148383473066
 30
0.0
 11
-37.44999999999999
 21
-51.7114838346735
 31
0.0
  0
ARC
  5
BE
330
87
100
AcDbEntity
  8
AM_9
100
AcDbCircle
 10
-36.41400000000001
 20
-51.71148383473066
 30
0.0
 40
1.03599999999998
100
AcDbArc
 50
180.0
 51
248.5875329531165
  0
ARC
  5
BF
330
87
100
AcDbEntity
  8
AM_9
100
AcDbCircle
 10
-36.41400000000001
 20
51.71148383473066
 30
0.0
 40
1.035999999999985
100
AcDbArc
 50
111.4124670468834
 51
180.0
  0
LINE
  5
C0
330
87
100
AcDbEntity
  8
AM_9
100
AcDbLine
 10
-36.79222222222221
 20
52.67597538503956
 30
0.0
 11
-36.79222222222221
 21
-52.67597538503956
 31
0.0
  0
ARC
  5
C1
330
87
100
AcDbEntity
  8
AM_9
100
AcDbCircle
 10
-24.50000000000083
 20
-21.33000000000254
 30
0.0
 40
33.66999999999733
100
AcDbArc
 50
248.5875329531157
 51
256.2541017719978
  0
ARC
  5
C2
330
87
100
AcDbEntity
  8
AM_9
100
AcDbCircle
 10
-24.50000000000054
 20
21.33000000000162
 30
0.0
 40
33.6699999999983
100
AcDbArc
 50
103.7458982280024
 51
111.4124670468842
  0
LINE
  5
C3
330
87
100
AcDbEntity
  8
AM_9
100
AcDbLine
 10
-32.50054263565891
 20
54.03566032868017
 30
0.0
 11
-32.50054263565891
 21
-54.03566032868017
 31
0.0
  0
LINE
  5
C4
330
87
100
AcDbEntity
  8
AM_9
100
AcDbLine
 10
-32.17999999999999
 20
53.78407832615186
 30
0.0
 11
-32.17999999999999
 21
-53.78407832608602
 31
0.0
  0
ARC
  5
C5
330
87
100
AcDbEntity
  8
AM_9
100
AcDbCircle
 10
-32.43899999999999
 20
-53.78407832615187
 30
0.0
 40
0.2589999999999953
100
AcDbArc
 50
256.254101771995
 51
0.0
  0
ARC
  5
C6
330
87
100
AcDbEntity
  8
AM_9
100
AcDbCircle
 10
-32.43899999999999
 20
53.78407832615187
 30
0.0
 40
0.2589999999999932
100
AcDbArc
 50
0.0
 51
103.7458982280049
  0
LINE
  5
C7
330
87
100
AcDbEntity
  8
AM_9
100
AcDbLine
 10
-29.61999999999999
 20
54.38549273570218
 30
0.0
 11
-29.61999999999999
 21
-54.38549273569816
 31
0.0
  0
ARC
  5
C8
330
87
100
AcDbEntity
  8
AM_9
100
AcDbCircle
 10
-29.36100000000001
 20
-54.38549273570219
 30
0.0
 40
0.2589999999999826
100
AcDbArc
 50
180.0
 51
261.6341375374579
  0
ARC
  5
C9
330
87
100
AcDbEntity
  8
AM_9
100
AcDbCircle
 10
-29.36100000000001
 20
54.38549273570219
 30
0.0
 40
0.2589999999999786
100
AcDbArc
 50
98.36586246254217
 51
180.0
  0
LINE
  5
CA
330
87
100
AcDbEntity
  8
AM_9
100
AcDbLine
 10
-29.39868283771684
 20
54.64173676732361
 30
0.0
 11
-29.39868283771684
 21
-54.64173676732361
 31
0.0
  0
LINE
  5
CB
330
87
100
AcDbEntity
  8
AM_9
100
AcDbLine
 10
-12.20777777777777
 20
52.67597538503956
 30
0.0
 11
-12.20777777777777
 21
-52.67597538503956
 31
0.0
  0
ARC
  5
CC
330
87
100
AcDbEntity
  8
AM_9
100
AcDbCircle
 10
-24.50000000000003
 20
-21.33000000000003
 30
0.0
 40
33.66999999999998
100
AcDbArc
 50
261.6342855690434
 51
291.412467046884
  0
ARC
  5
CD
330
87
100
AcDbEntity
  8
AM_9
100
AcDbCircle
 10
-24.4999999999998
 20
21.33000000000204
 30
0.0
 40
33.66999999999803
100
AcDbArc
 50
68.58753295311497
 51
98.36571443095748
  0
LINE
  5
CF
330
87
100
AcDbEntity
  8
AM_4
100
AcDbLine
 10
-47.68749999999999
 20
3.199999999999999
 30
0.0
 11
-47.68749999999999
 21
-3.199999999999999
 31
0.0
  0
LINE
  5
D0
330
87
100
AcDbEntity
  8
AM_4
100
AcDbLine
 10
-51.28899999999999
 20
3.199999999999999
 30
0.0
 11
-51.28899999999999
 21
-3.199999999999999
 31
0.0
  0
ENDBLK
  5
8A
330
87
100
AcDbEntity
  8
0
100
AcDbBlockEnd
  0
BLOCK
  5
D3
330
D1
100
AcDbEntity
  8
0
100
AcDbBlockBegin
  2
3_129951_0_in_129676_2
 70
     2
 10
0.0
 20
0.0
 30
0.0
  3
3_129951_0_in_129676_2
  1

  0
ATTDEF
  5
D5
330
D1
100
AcDbEntity
  8
AM_6
100
AcDbText
 10
-0.0999999999999934
 20
44.45
 30
0.0
 40
0.5
  1
Grip Tight Normal Duty Adapter and Nut Metric Bore
100
AcDbAttributeDefinition
  3

  2
NN
 70
     8
280
     0
  0
ATTDEF
  5
D6
330
D1
100
AcDbEntity
  8
AM_6
100
AcDbText
 10
-0.0999999999999934
 20
43.95
 30
0.0
 40
0.5
  1
GT and GTM Adapter & Lock Nut Assemblies
100
AcDbAttributeDefinition
  3

  2
NT
 70
     8
280
     0
  0
ATTDEF
  5
D7
330
D1
100
AcDbEntity
  8
AM_6
100
AcDbText
 10
-0.0999999999999934
 20
43.45
 30
0.0
 40
0.5
  1
129951
100
AcDbAttributeDefinition
  3

  2
NB
 70
     8
280
     0
  0
ATTDEF
  5
D8
330
D1
100
AcDbEntity
  8
AM_6
100
AcDbText
 10
-0.0999999999999934
 20
42.95
 30
0.0
 40
0.5
  1
$PN.
100
AcDbAttributeDefinition
  3

  2
NBSYN
 70
     8
280
     0
  0
ATTDEF
  5
D9
330
D1
100
AcDbEntity
  8
AM_6
100
AcDbText
 10
-0.0999999999999934
 20
42.45
 30
0.0
 40
0.5
  1
129951
100
AcDbAttributeDefinition
  3

  2
LINA
 70
     8
280
     0
  0
ATTDEF
  5
DA
330
D1
100
AcDbEntity
  8
AM_6
100
AcDbText
 10
-0.0999999999999934
 20
41.95
 30
0.0
 40
0.5
  1
212
100
AcDbAttributeDefinition
  3

  2
SERIES
 70
     8
280
     0
  0
ATTDEF
  5
DB
330
D1
100
AcDbEntity
  8
AM_6
100
AcDbText
 10
-0.0999999999999934
 20
41.45
 30
0.0
 40
0.5
  1
60
100
AcDbAttributeDefinition
  3

  2
SS
 70
     8
280
     0
  0
ATTDEF
  5
DC
330
D1
100
AcDbEntity
  8
AM_6
100
AcDbText
 10
-0.0999999999999934
 20
40.95
 30
0.0
 40
0.5
  1
129951
100
AcDbAttributeDefinition
  3

  2
PN
 70
     8
280
     0
  0
ATTDEF
  5
DD
330
D1
100
AcDbEntity
  8
AM_6
100
AcDbText
 10
-0.0999999999999934
 20
40.45
 30
0.0
 40
0.5
  1
AN-GT-12-60M
100
AcDbAttributeDefinition
  3

  2
DESCRIPTION
 70
     8
280
     0
  0
ATTDEF
  5
DE
330
D1
100
AcDbEntity
  8
AM_6
100
AcDbText
 10
-0.0999999999999934
 20
39.95
 30
0.0
 40
0.5
  1
53.6
100
AcDbAttributeDefinition
  3

  2
A
 70
     8
280
     0
  0
ATTDEF
  5
DF
330
D1
100
AcDbEntity
  8
AM_6
100
AcDbText
 10
-0.0999999999999934
 20
39.45
 30
0.0
 40
0.5
  1
26.0
100
AcDbAttributeDefinition
  3

  2
C
 70
     8
280
     0
  0
ATTDEF
  5
E0
330
D1
100
AcDbEntity
  8
AM_6
100
AcDbText
 10
-0.0999999999999934
 20
38.95
 30
0.0
 40
0.5
  1
110.0
100
AcDbAttributeDefinition
  3

  2
D
 70
     8
280
     0
  0
ATTDEF
  5
E1
330
D1
100
AcDbEntity
  8
AM_6
100
AcDbText
 10
-0.0999999999999934
 20
38.45
 30
0.0
 40
0.5
  1
6.4
100
AcDbAttributeDefinition
  3

  2
J
 70
     8
280
     0
  0
ATTDEF
  5
E2
330
D1
100
AcDbEntity
  8
AM_6
100
AcDbText
 10
-0.0999999999999934
 20
37.95
 30
0.0
 40
0.5
  1
88.9
100
AcDbAttributeDefinition
  3

  2
L
 70
     8
280
     0
  0
ATTDEF
  5
E3
330
D1
100
AcDbEntity
  8
AM_6
100
AcDbText
 10
-0.0999999999999934
 20
37.45
 30
0.0
 40
0.5
  1
10 - 32 x 1/4
100
AcDbAttributeDefinition
  3

  2
N
 70
     8
280
     0
  0
ATTDEF
  5
E4
330
D1
100
AcDbEntity
  8
AM_6
100
AcDbText
 10
-0.0999999999999934
 20
36.95
 30
0.0
 40
0.5
  1
19.4
100
AcDbAttributeDefinition
  3

  2
W
 70
     8
280
     0
  0
ATTDEF
  5
E5
330
D1
100
AcDbEntity
  8
AM_6
100
AcDbText
 10
-0.0999999999999934
 20
36.45
 30
0.0
 40
0.5
  1
33.3
100
AcDbAttributeDefinition
  3

  2
X
 70
     8
280
     0
  0
ATTDEF
  5
E6
330
D1
100
AcDbEntity
  8
AM_6
100
AcDbText
 10
-0.0999999999999934
 20
35.95
 30
0.0
 40
0.5
  1
34.1
100
AcDbAttributeDefinition
  3

  2
Y
 70
     8
280
     0
  0
ATTDEF
  5
E7
330
D1
100
AcDbEntity
  8
AM_6
100
AcDbText
 10
-0.0999999999999934
 20
35.45
 30
0.0
 40
0.5
  1
baldor
100
AcDbAttributeDefinition
  3

  2
COMPANY
 70
     8
280
     0
  0
LWPOLYLINE
  5
E8
330
D1
100
AcDbEntity
  8
AM_9
100
AcDbPolyline
 90
        6
 70
     0
 43
0.0
 10
-56.75999999999999
 20
1.210487295799203
 10
-56.88244078996608
 20
0.6520885550538795
 10
-56.93196835382886
 20
0.0557996675500248
 10
-56.9024099644372
 20
-0.5051007808168837
 10
-56.79833916580581
 20
-1.06777274381466
 10
-56.75999999999999
 20
-1.21048729579921
  0
LWPOLYLINE
  5
E9
330
D1
100
AcDbEntity
  8
AM_9
100
AcDbPolyline
 90
       13
 70
     0
 43
0.0
 10
-52.62125926418049
 20
1.207118367054569
 10
-52.77282056880799
 20
1.424724541372782
 10
-53.03634298009924
 20
1.710183031914607
 10
-53.35023098439752
 20
1.953618429955053
 10
-53.69958816672278
 20
2.142805606195579
 10
-54.08484289009346
 20
2.274971888676671
 10
-54.48659546145295
 20
2.34228396461056
 10
-54.90102732999072
 20
2.341689567869082
 10
-55.30959616610755
 20
2.272359182464673
 10
-55.70213539154818
 20
2.134359335667158
 10
-56.06573519145452
 20
1.93222633234028
 10
-56.5334541298165
 20
1.518502499221067
 10
-56.75999999999999
 20
1.210487295799203
  0
LWPOLYLINE
  5
EA
330
D1
100
AcDbEntity
  8
AM_9
100
AcDbPolyline
 90
       15
 70
     0
 43
0.0
 10
-56.75999999999999
 20
-1.21048729579921
 10
-56.69664140683538
 20
-1.307730189786262
 10
-56.44917401223249
 20
-1.610199319304771
 10
-56.15576451364474
 20
-1.868405202451573
 10
-55.81563667942887
 20
-2.079813253091161
 10
-55.44555604527405
 20
-2.233047940572193
 10
-55.04599395489757
 20
-2.325069436772127
 10
-54.63670527612575
 20
-2.350183861587965
 10
-54.22346773275105
 20
-2.305848522335128
 10
-53.8234492798161
 20
-2.193263258461822
 10
-53.44860226707109
 20
-2.014400834928632
 10
-53.10951617116927
 20
-1.774705498865922
 10
-52.8211799416131
 20
-1.484425440960693
 10
-52.58677020937009
 20
-1.149131899624261
 10
-52.46634630455983
 20
-0.9087201238121067
  0
CIRCLE
  5
EB
330
D1
100
AcDbEntity
  8
AM_9
100
AcDbCircle
 10
-54.69166666666666
 20
0.0
 30
0.0
 40
1.981200000000006
  0
LINE
  5
EC
330
D1
100
AcDbEntity
  8
AM_9
100
AcDbLine
 10
-56.75999999999999
 20
1.210487295799203
 30
0.0
 11
-56.75999999999999
 21
3.2
 31
0.0
  0
LINE
  5
ED
330
D1
100
AcDbEntity
  8
AM_9
100
AcDbLine
 10
-56.75999999999999
 20
-3.2
 30
0.0
 11
-56.75999999999999
 21
-1.21048729579921
 31
0.0
  0
LINE
  5
EE
330
D1
100
AcDbEntity
  8
AM_9
100
AcDbLine
 10
-41.14999999999999
 20
34.3284986972354
 30
0.0
 11
-57.79999999999998
 21
34.3284986972354
 31
0.0
  0
LINE
  5
EF
330
D1
100
AcDbEntity
  8
AM_9
100
AcDbLine
 10
-41.14999999999999
 20
35.89188012090082
 30
0.0
 11
-42.18999999999999
 21
36.79494595646671
 31
0.0
  0
LINE
  5
F0
330
D1
100
AcDbEntity
  8
AM_9
100
AcDbLine
 10
-42.18999999999999
 20
36.79494595646671
 30
0.0
 11
-56.75999999999999
 21
36.79494595646671
 31
0.0
  0
LINE
  5
F1
330
D1
100
AcDbEntity
  8
AM_9
100
AcDbLine
 10
-56.75999999999999
 20
36.79494595646671
 30
0.0
 11
-57.79999999999999
 21
35.89188012090084
 31
0.0
  0
LINE
  5
F2
330
D1
100
AcDbEntity
  8
AM_9
100
AcDbLine
 10
-41.14999999999999
 20
-34.32849869723542
 30
0.0
 11
-57.79999999999998
 21
-34.32849869723542
 31
0.0
  0
LINE
  5
F3
330
D1
100
AcDbEntity
  8
AM_9
100
AcDbLine
 10
-57.79999999999999
 20
-35.89188012090086
 30
0.0
 11
-56.75999999999998
 21
-36.79494595646673
 31
0.0
  0
LINE
  5
F4
330
D1
100
AcDbEntity
  8
AM_9
100
AcDbLine
 10
-56.75999999999998
 20
-36.79494595646673
 30
0.0
 11
-42.18999999999999
 21
-36.79494595646671
 31
0.0
  0
LINE
  5
F5
330
D1
100
AcDbEntity
  8
AM_9
100
AcDbLine
 10
-42.18999999999999
 20
-36.79494595646671
 30
0.0
 11
-41.14999999999999
 21
-35.89188012090084
 31
0.0
  0
LINE
  5
F6
330
D1
100
AcDbEntity
  8
AM_9
100
AcDbLine
 10
-41.14999999999999
 20
37.52849869723539
 30
0.0
 11
-57.79999999999998
 21
37.52849869723539
 31
0.0
  0
LINE
  5
F7
330
D1
100
AcDbEntity
  8
AM_9
100
AcDbLine
 10
-41.14999999999999
 20
-37.52849869723541
 30
0.0
 11
-57.79999999999998
 21
-37.52849869723541
 31
0.0
  0
LINE
  5
F8
330
D1
100
AcDbEntity
  8
AM_9
100
AcDbLine
 10
-49.47499999999999
 20
33.16111111111111
 30
0.0
 11
-57.79999999999999
 21
33.16111111111111
 31
0.0
  0
LINE
  5
F9
330
D1
100
AcDbEntity
  8
AM_9
100
AcDbLine
 10
-5.099999999999993
 20
29.97394702070449
 30
0.0
 11
-58.7
 21
29.97394702070449
 31
0.0
  0
LINE
  5
FA
330
D1
100
AcDbEntity
  8
AM_9
100
AcDbLine
 10
-58.7
 20
-30.0
 30
0.0
 11
-5.099999999999993
 21
-30.0
 31
0.0
  0
LINE
  5
FB
330
D1
100
AcDbEntity
  8
AM_9
100
AcDbLine
 10
-49.47499999999999
 20
33.13754351371652
 30
0.0
 11
-36.98750000000039
 21
33.13754351371652
 31
0.0
  0
LINE
  5
FC
330
D1
100
AcDbEntity
  8
AM_9
100
AcDbLine
 10
-49.47499999999999
 20
-33.1611111111111
 30
0.0
 11
-36.98750000000039
 21
-33.1611111111111
 31
0.0
  0
LINE
  5
FD
330
D1
100
AcDbEntity
  8
AM_9
100
AcDbLine
 10
-5.099999999999993
 20
34.25184574791619
 30
0.0
 11
-5.099999999999993
 21
-34.27464714827921
 31
0.0
  0
LINE
  5
FE
330
D1
100
AcDbEntity
  8
AM_9
100
AcDbLine
 10
-36.98750000000039
 20
33.13754351371652
 30
0.0
 11
-5.099999999999993
 21
34.25184574791619
 31
0.0
  0
LINE
  5
FF
330
D1
100
AcDbEntity
  8
AM_9
100
AcDbLine
 10
-36.98750000000039
 20
33.13754351371652
 30
0.0
 11
-36.98750000000039
 21
-33.1611111111111
 31
0.0
  0
LINE
  5
100
330
D1
100
AcDbEntity
  8
AM_9
100
AcDbLine
 10
-36.98750000000039
 20
-33.1611111111111
 30
0.0
 11
-5.099999999999993
 21
-34.27464714827921
 31
0.0
  0
LINE
  5
101
330
D1
100
AcDbEntity
  8
AM_9
100
AcDbLine
 10
-45.31249999999999
 20
-36.33611111111112
 30
0.0
 11
-41.14999999999999
 21
-36.33611111111112
 31
0.0
  0
LINE
  5
102
330
D1
100
AcDbEntity
  8
AM_9
100
AcDbLine
 10
-41.14999999999999
 20
36.33611111111112
 30
0.0
 11
-45.31249999999999
 21
36.33611111111112
 31
0.0
  0
LINE
  5
103
330
D1
100
AcDbEntity
  8
AM_9
100
AcDbLine
 10
-45.31249999999999
 20
39.95561111111112
 30
0.0
 11
-45.31249999999999
 21
-39.95561111111112
 31
0.0
  0
LINE
  5
104
330
D1
100
AcDbEntity
  8
AM_9
100
AcDbLine
 10
-49.47499999999999
 20
39.95561111111112
 30
0.0
 11
-49.47499999999999
 21
-39.95561111111112
 31
0.0
  0
LINE
  5
105
330
D1
100
AcDbEntity
  8
AM_9
100
AcDbLine
 10
-49.47499999999999
 20
-39.95561111111112
 30
0.0
 11
-45.31249999999999
 21
-39.95561111111112
 31
0.0
  0
LINE
  5
106
330
D1
100
AcDbEntity
  8
AM_9
100
AcDbLine
 10
-45.31249999999999
 20
39.95561111111112
 30
0.0
 11
-49.47499999999999
 21
39.95561111111112
 31
0.0
  0
LINE
  5
107
330
D1
100
AcDbEntity
  8
AM_9
100
AcDbLine
 10
-41.14999999999999
 20
3.2
 30
0.0
 11
-43.59999999999999
 21
3.2
 31
0.0
  0
LINE
  5
108
330
D1
100
AcDbEntity
  8
AM_9
100
AcDbLine
 10
-42.18999999999999
 20
39.9949459564667
 30
0.0
 11
-41.15
 21
39.09188012090083
 31
0.0
  0
LINE
  5
109
330
D1
100
AcDbEntity
  8
AM_9
100
AcDbLine
 10
-41.14999999999999
 20
43.40999999999999
 30
0.0
 11
-42.18999999999999
 21
44.44999999999999
 31
0.0
  0
LINE
  5
10A
330
D1
100
AcDbEntity
  8
AM_9
100
AcDbLine
 10
-41.14999999999999
 20
43.40999999999999
 30
0.0
 11
-41.14999999999999
 21
-43.40999999999999
 31
0.0
  0
LINE
  5
10B
330
D1
100
AcDbEntity
  8
AM_9
100
AcDbLine
 10
-43.59999999999999
 20
-3.199999999999999
 30
0.0
 11
-41.14999999999999
 21
-3.2
 31
0.0
  0
LINE
  5
10C
330
D1
100
AcDbEntity
  8
AM_9
100
AcDbLine
 10
-41.14999999999999
 20
-39.09188012090084
 30
0.0
 11
-42.18999999999999
 21
-39.99494595646672
 31
0.0
  0
LINE
  5
10D
330
D1
100
AcDbEntity
  8
AM_9
100
AcDbLine
 10
-42.18999999999999
 20
-44.44999999999999
 30
0.0
 11
-41.14999999999999
 21
-43.40999999999999
 31
0.0
  0
LINE
  5
10E
330
D1
100
AcDbEntity
  8
AM_9
100
AcDbLine
 10
-56.75999999999998
 20
-39.99494595646673
 30
0.0
 11
-57.79999999999999
 21
-39.09188012090086
 31
0.0
  0
LINE
  5
10F
330
D1
100
AcDbEntity
  8
AM_9
100
AcDbLine
 10
-57.79999999999999
 20
39.09188012090084
 30
0.0
 11
-56.75999999999998
 21
39.99494595646672
 31
0.0
  0
LINE
  5
110
330
D1
100
AcDbEntity
  8
AM_9
100
AcDbLine
 10
-56.75999999999998
 20
39.99494595646672
 30
0.0
 11
-42.18999999999999
 21
39.9949459564667
 31
0.0
  0
LINE
  5
111
330
D1
100
AcDbEntity
  8
AM_9
100
AcDbLine
 10
-42.18999999999999
 20
44.45
 30
0.0
 11
-43.59999999999999
 21
44.45
 31
0.0
  0
LINE
  5
112
330
D1
100
AcDbEntity
  8
AM_9
100
AcDbLine
 10
-42.18999999999999
 20
44.45
 30
0.0
 11
-42.18999999999999
 21
-44.45
 31
0.0
  0
LINE
  5
113
330
D1
100
AcDbEntity
  8
AM_9
100
AcDbLine
 10
-42.18999999999999
 20
-39.99494595646672
 30
0.0
 11
-56.75999999999998
 21
-39.99494595646673
 31
0.0
  0
LINE
  5
114
330
D1
100
AcDbEntity
  8
AM_9
100
AcDbLine
 10
-43.59999999999999
 20
-44.45
 30
0.0
 11
-42.18999999999999
 21
-44.45
 31
0.0
  0
LINE
  5
117
330
D1
100
AcDbEntity
  8
AM_7
100
AcDbLine
 10
-54.69166666666666
 20
-2.533649999999995
 30
0.0
 11
-54.69166666666666
 21
2.533649999999995
 31
0.0
  0
LINE
  5
118
330
D1
100
AcDbEntity
  8
AM_4
100
AcDbLine
 10
-58.7
 20
33.13754351371652
 30
0.0
 11
-58.7
 21
-33.1611111111111
 31
0.0
  0
LINE
  5
119
330
D1
100
AcDbEntity
  8
AM_4
100
AcDbLine
 10
-58.7
 20
33.13754351371652
 30
0.0
 11
-57.79999999999999
 21
33.13754351371652
 31
0.0
  0
LINE
  5
11A
330
D1
100
AcDbEntity
  8
AM_4
100
AcDbLine
 10
-58.7
 20
-33.1611111111111
 30
0.0
 11
-57.79999999999999
 21
-33.1611111111111
 31
0.0
  0
LINE
  5
11B
330
D1
100
AcDbEntity
  8
AM_4
100
AcDbLine
 10
-57.79999999999999
 20
-3.2
 30
0.0
 11
-43.59999999999999
 21
-3.199999999999999
 31
0.0
  0
LINE
  5
11C
330
D1
100
AcDbEntity
  8
AM_4
100
AcDbLine
 10
-57.79999999999999
 20
43.41
 30
0.0
 11
-57.79999999999999
 21
-43.41
 31
0.0
  0
LINE
  5
11D
330
D1
100
AcDbEntity
  8
AM_4
100
AcDbLine
 10
-57.79999999999999
 20
-43.41
 30
0.0
 11
-56.75999999999999
 21
-44.45
 31
0.0
  0
LINE
  5
11E
330
D1
100
AcDbEntity
  8
AM_4
100
AcDbLine
 10
-43.59999999999999
 20
3.2
 30
0.0
 11
-57.79999999999999
 21
3.2
 31
0.0
  0
LINE
  5
11F
330
D1
100
AcDbEntity
  8
AM_4
100
AcDbLine
 10
-56.75999999999999
 20
44.45
 30
0.0
 11
-57.79999999999999
 21
43.41
 31
0.0
  0
LINE
  5
120
330
D1
100
AcDbEntity
  8
AM_4
100
AcDbLine
 10
-43.59999999999999
 20
44.45
 30
0.0
 11
-56.75999999999999
 21
44.45
 31
0.0
  0
LINE
  5
121
330
D1
100
AcDbEntity
  8
AM_4
100
AcDbLine
 10
-56.75999999999999
 20
44.45
 30
0.0
 11
-56.75999999999999
 21
3.2
 31
0.0
  0
LINE
  5
122
330
D1
100
AcDbEntity
  8
AM_4
100
AcDbLine
 10
-56.75999999999999
 20
-3.2
 30
0.0
 11
-56.75999999999999
 21
-44.45
 31
0.0
  0
LINE
  5
123
330
D1
100
AcDbEntity
  8
AM_4
100
AcDbLine
 10
-56.75999999999999
 20
-44.45
 30
0.0
 11
-43.59999999999999
 21
-44.45
 31
0.0
  0
ARC
  5
125
330
D1
100
AcDbEntity
  8
AM_5
100
AcDbCircle
 10
-54.69167388891295
 20
-0.0000000000000004
 30
0.0
 40
2.413000000000001
100
AcDbArc
 50
74.99999999999996
 51
15.00000000000002
  0
ENDBLK
  5
D4
330
D1
100
AcDbEntity
  8
0
100
AcDbBlockEnd
  0
BLOCK
  5
128
330
126
100
AcDbEntity
  8
0
100
AcDbBlockBegin
  2
4_129473_0_in_129676_2
 70
     2
 10
0.0
 20
0.0
 30
0.0
  3
4_129473_0_in_129676_2
  1

  0
ATTDEF
  5
12A
330
126
100
AcDbEntity
  8
AM_6
100
AcDbText
 10
7.18
 20
89.5246
 30
0.0
 40
0.5
  1
BODY
100
AcDbAttributeDefinition
  3

  2
NN
 70
     8
280
     0
  0
ATTDEF
  5
12B
330
126
100
AcDbEntity
  8
AM_6
100
AcDbText
 10
7.18
 20
89.0246
 30
0.0
 40
0.5
  1
Grip Tight Adapter Ball Berarings
100
AcDbAttributeDefinition
  3

  2
NT
 70
     8
280
     0
  0
ATTDEF
  5
12C
330
126
100
AcDbEntity
  8
AM_6
100
AcDbText
 10
7.18
 20
88.5246
 30
0.0
 40
0.5
  1
129473
100
AcDbAttributeDefinition
  3

  2
NB
 70
     8
280
     0
  0
ATTDEF
  5
12D
330
126
100
AcDbEntity
  8
AM_6
100
AcDbText
 10
7.18
 20
88.0246
 30
0.0
 40
0.5
  1
$PN.$LUBE.
100
AcDbAttributeDefinition
  3

  2
NBSYN
 70
     8
280
     0
  0
ATTDEF
  5
12E
330
126
100
AcDbEntity
  8
AM_6
100
AcDbText
 10
7.18
 20
87.5246
 30
0.0
 40
0.5
  1
129473
100
AcDbAttributeDefinition
  3

  2
LINA
 70
     8
280
     0
  0
ATTDEF
  5
12F
330
126
100
AcDbEntity
  8
AM_6
100
AcDbText
 10
7.18
 20
87.0246
 30
0.0
 40
0.5
  1
212
100
AcDbAttributeDefinition
  3

  2
SERIES
 70
     8
280
     0
  0
ATTDEF
  5
130
330
126
100
AcDbEntity
  8
AM_6
100
AcDbText
 10
7.18
 20
86.5246
 30
0.0
 40
0.5
  1
129473
100
AcDbAttributeDefinition
  3

  2
PN
 70
     8
280
     0
  0
ATTDEF
  5
131
330
126
100
AcDbEntity
  8
AM_6
100
AcDbText
 10
7.18
 20
86.0246
 30
0.0
 40
0.5
  1
F4B-GT-12
100
AcDbAttributeDefinition
  3

  2
DESCRIPTION
 70
     8
280
     0
  0
ATTDEF
  5
132
330
126
100
AcDbEntity
  8
AM_6
100
AcDbText
 10
7.18
 20
85.5246
 30
0.0
 40
0.5
  1
With Lube
100
AcDbAttributeDefinition
  3

  2
LUBE
 70
     8
280
     0
  0
ATTDEF
  5
133
330
126
100
AcDbEntity
  8
AM_6
100
AcDbText
 10
7.18
 20
85.0246
 30
0.0
 40
0.5
  1
5.9
100
AcDbAttributeDefinition
  3

  2
WEIGHT
 70
     8
280
     0
  0
ATTDEF
  5
134
330
126
100
AcDbEntity
  8
AM_6
100
AcDbText
 10
7.18
 20
84.5246
 30
0.0
 40
0.5
  1
53.6
100
AcDbAttributeDefinition
  3

  2
A
 70
     8
280
     0
  0
ATTDEF
  5
135
330
126
100
AcDbEntity
  8
AM_6
100
AcDbText
 10
7.18
 20
84.0246
 30
0.0
 40
0.5
  1
174.6
100
AcDbAttributeDefinition
  3

  2
B
 70
     8
280
     0
  0
ATTDEF
  5
136
330
126
100
AcDbEntity
  8
AM_6
100
AcDbText
 10
7.18
 20
83.5246
 30
0.0
 40
0.5
  1
58.7
100
AcDbAttributeDefinition
  3

  2
C
 70
     8
280
     0
  0
ATTDEF
  5
137
330
126
100
AcDbEntity
  8
AM_6
100
AcDbText
 10
7.18
 20
83.0246
 30
0.0
 40
0.5
  1
M16
100
AcDbAttributeDefinition
  3

  2
F
 70
     8
280
     0
  0
ATTDEF
  5
138
330
126
100
AcDbEntity
  8
AM_6
100
AcDbText
 10
7.18
 20
82.5246
 30
0.0
 40
0.5
  1
17.5
100
AcDbAttributeDefinition
  3

  2
H
 70
     8
280
     0
  0
ATTDEF
  5
139
330
126
100
AcDbEntity
  8
AM_6
100
AcDbText
 10
7.18
 20
82.0246
 30
0.0
 40
0.5
  1
14.3
100
AcDbAttributeDefinition
  3

  2
J
 70
     8
280
     0
  0
ATTDEF
  5
13A
330
126
100
AcDbEntity
  8
AM_6
100
AcDbText
 10
7.18
 20
81.5246
 30
0.0
 40
0.5
  1
88.9
100
AcDbAttributeDefinition
  3

  2
L
 70
     8
280
     0
  0
ATTDEF
  5
13B
330
126
100
AcDbEntity
  8
AM_6
100
AcDbText
 10
7.18
 20
81.0246
 30
0.0
 40
0.5
  1
88.9
100
AcDbAttributeDefinition
  3

  2
N
 70
     8
280
     0
  0
ATTDEF
  5
13C
330
126
100
AcDbEntity
  8
AM_6
100
AcDbText
 10
7.18
 20
80.5246
 30
0.0
 40
0.5
  1
57.9
100
AcDbAttributeDefinition
  3

  2
Z
 70
     8
280
     0
  0
ATTDEF
  5
13D
330
126
100
AcDbEntity
  8
AM_6
100
AcDbText
 10
7.18
 20
80.0246
 30
0.0
 40
0.5
  1
Infotext
100
AcDbAttributeDefinition
  3

  2
INFO
 70
     8
280
     0
  0
ATTDEF
  5
13E
330
126
100
AcDbEntity
  8
AM_6
100
AcDbText
 10
7.18
 20
79.5246
 30
0.0
 40
0.5
  1
baldor
100
AcDbAttributeDefinition
  3

  2
COMPANY
 70
     8
280
     0
  0
LINE
  5
13F
330
126
100
AcDbEntity
  8
AM_9
100
AcDbLine
 10
-17.50000000000006
 20
-70.52675980459533
 30
0.0
 11
-15.31250000000001
 21
-70.52675980459533
 31
0.0
  0
LINE
  5
140
330
126
100
AcDbEntity
  8
AM_9
100
AcDbLine
 10
-15.31250000000001
 20
69.7195506185239
 30
0.0
 11
-17.50000000000006
 21
69.71955061852375
 31
0.0
  0
LINE
  5
141
330
126
100
AcDbEntity
  8
AM_9
100
AcDbLine
 10
-17.5
 20
56.87645763693551
 30
0.0
 11
-15.3125
 21
56.87645763693551
 31
0.0
  0
LINE
  5
142
330
126
100
AcDbEntity
  8
AM_9
100
AcDbLine
 10
-17.5
 20
-77.74195552336424
 30
0.0
 11
-15.3125
 21
-77.74195552336424
 31
0.0
  0
LINE
  5
143
330
126
100
AcDbEntity
  8
AM_9
100
AcDbLine
 10
-15.3125
 20
-81.3749797519998
 30
0.0
 11
-14.8125
 21
-81.3749797519998
 31
0.0
  0
LINE
  5
144
330
126
100
AcDbEntity
  8
AM_9
100
AcDbLine
 10
-15.3125
 20
-81.74498783849974
 30
0.0
 11
-14.8125
 21
-81.74498783849974
 31
0.0
  0
LINE
  5
145
330
126
100
AcDbEntity
  8
AM_9
100
AcDbLine
 10
-15.3125
 20
-82.8550122326201
 30
0.0
 11
-14.8125
 21
-82.8550122326201
 31
0.0
  0
LINE
  5
146
330
126
100
AcDbEntity
  8
AM_9
100
AcDbLine
 10
-15.3125
 20
-80.63496344438009
 30
0.0
 11
-14.8125
 21
-80.63496344438009
 31
0.0
  0
LINE
  5
147
330
126
100
AcDbEntity
  8
AM_9
100
AcDbLine
 10
-15.3125
 20
-83.96503655816032
 30
0.0
 11
-14.8125
 21
-83.96503655816032
 31
0.0
  0
LINE
  5
148
330
126
100
AcDbEntity
  8
AM_9
100
AcDbLine
 10
-15.3125
 20
-82.55900572531984
 30
0.0
 11
-14.8125
 21
-82.55900572531984
 31
0.0
  0
LINE
  5
149
330
126
100
AcDbEntity
  8
AM_9
100
AcDbLine
 10
-15.3125
 20
-81.2269764894597
 30
0.0
 11
-14.8125
 21
-81.2269764894597
 31
0.0
  0
LINE
  5
14A
330
126
100
AcDbEntity
  8
AM_9
100
AcDbLine
 10
-15.3125
 20
-83.37302357911972
 30
0.0
 11
-14.8125
 21
-83.37302357911972
 31
0.0
  0
LINE
  5
14B
330
126
100
AcDbEntity
  8
AM_9
100
AcDbLine
 10
-15.3125
 20
-83.1510187551599
 30
0.0
 11
-14.8125
 21
-83.1510187551599
 31
0.0
  0
LINE
  5
14C
330
126
100
AcDbEntity
  8
AM_9
100
AcDbLine
 10
-15.3125
 20
-83.8170332956202
 30
0.0
 11
-14.8125
 21
-83.8170332956202
 31
0.0
  0
LINE
  5
14D
330
126
100
AcDbEntity
  8
AM_9
100
AcDbLine
 10
-15.3125
 20
-80.78296670437979
 30
0.0
 11
-14.8125
 21
-80.78296670437979
 31
0.0
  0
LINE
  5
14E
330
126
100
AcDbEntity
  8
AM_9
100
AcDbLine
 10
-15.3125
 20
-81.07897322946
 30
0.0
 11
-14.8125
 21
-81.07897322946
 31
0.0
  0
LINE
  5
14F
330
126
100
AcDbEntity
  8
AM_9
100
AcDbLine
 10
-15.3125
 20
-83.52102690769955
 30
0.0
 11
-14.8125
 21
-83.52102690769955
 31
0.0
  0
LINE
  5
150
330
126
100
AcDbEntity
  8
AM_9
100
AcDbLine
 10
-15.3125
 20
-83.22502038515975
 30
0.0
 11
-14.8125
 21
-83.22502038515975
 31
0.0
  0
LINE
  5
151
330
126
100
AcDbEntity
  8
AM_9
100
AcDbLine
 10
-15.3125
 20
-82.11499597326015
 30
0.0
 11
-14.8125
 21
-82.11499597326015
 31
0.0
  0
LINE
  5
152
330
126
100
AcDbEntity
  8
AM_9
100
AcDbLine
 10
-15.3125
 20
-81.44898138199966
 30
0.0
 11
-14.8125
 21
-81.44898138199966
 31
0.0
  0
LINE
  5
153
330
126
100
AcDbEntity
  8
AM_9
100
AcDbLine
 10
-17.50000000000004
 20
79.9
 30
0.0
 11
-15.3125
 21
79.9
 31
0.0
  0
LINE
  5
154
330
126
100
AcDbEntity
  8
AM_9
100
AcDbLine
 10
-15.3125
 20
-82.41100248056041
 30
0.0
 11
-14.8125
 21
-82.41100248056041
 31
0.0
  0
LINE
  5
155
330
126
100
AcDbEntity
  8
AM_9
100
AcDbLine
 10
-15.3125
 20
-81.9669927310404
 30
0.0
 11
-14.8125
 21
-81.9669927310404
 31
0.0
  0
LINE
  5
156
330
126
100
AcDbEntity
  8
AM_9
100
AcDbLine
 10
-15.3125
 20
-84.03903818816016
 30
0.0
 11
-14.8125
 21
-84.03903818816016
 31
0.0
  0
LINE
  5
157
330
126
100
AcDbEntity
  8
AM_9
100
AcDbLine
 10
-15.3125
 20
-81.00497159691975
 30
0.0
 11
-14.8125
 21
-81.00497159691975
 31
0.0
  0
LINE
  5
158
330
126
100
AcDbEntity
  8
AM_9
100
AcDbLine
 10
-15.3125
 20
-83.59502854023981
 30
0.0
 11
-14.8125
 21
-83.59502854023981
 31
0.0
  0
LINE
  5
159
330
126
100
AcDbEntity
  8
AM_9
100
AcDbLine
 10
-14.8125
 20
-84.03903818816016
 30
0.0
 11
-14.8125
 21
-80.56096181183983
 31
0.0
  0
LINE
  5
15A
330
126
100
AcDbEntity
  8
AM_9
100
AcDbLine
 10
-15.3125
 20
-80.56096181183983
 30
0.0
 11
-14.8125
 21
-80.56096181183983
 31
0.0
  0
LINE
  5
15B
330
126
100
AcDbEntity
  8
AM_9
100
AcDbLine
 10
-15.3125
 20
73.92840861265714
 30
0.0
 11
-17.49999999999999
 21
73.92840861265714
 31
0.0
  0
LINE
  5
15C
330
126
100
AcDbEntity
  8
AM_9
100
AcDbLine
 10
-17.5
 20
-74.36
 30
0.0
 11
-15.3125
 21
-74.36
 31
0.0
  0
LINE
  5
15D
330
126
100
AcDbEntity
  8
AM_9
100
AcDbLine
 10
-17.49999999999999
 20
-65.46074041109661
 30
0.0
 11
-15.3125
 21
-65.46074041109661
 31
0.0
  0
LINE
  5
15E
330
126
100
AcDbEntity
  8
AM_9
100
AcDbLine
 10
-17.49999999999999
 20
-65.25626981782425
 30
0.0
 11
-15.3125
 21
-65.25626981782425
 31
0.0
  0
LINE
  5
15F
330
126
100
AcDbEntity
  8
AM_9
100
AcDbLine
 10
-15.3125
 20
-64.8277725661081
 30
0.0
 11
-17.49999999999999
 21
-64.8277725661081
 31
0.0
  0
LINE
  5
160
330
126
100
AcDbEntity
  8
AM_9
100
AcDbLine
 10
-17.49999999999999
 20
65.46074041109661
 30
0.0
 11
-15.3125
 21
65.46074041109661
 31
0.0
  0
LINE
  5
161
330
126
100
AcDbEntity
  8
AM_9
100
AcDbLine
 10
-17.50000000000003
 20
65.25626988782362
 30
0.0
 11
-15.3125
 21
65.25626988782362
 31
0.0
  0
LINE
  5
162
330
126
100
AcDbEntity
  8
AM_9
100
AcDbLine
 10
-17.49999999999999
 20
64.82777256610808
 30
0.0
 11
-15.3125
 21
64.82777256610808
 31
0.0
  0
LINE
  5
163
330
126
100
AcDbEntity
  8
AM_9
100
AcDbLine
 10
-43.59999999999999
 20
-55.0
 30
0.0
 11
0.0
 21
-55.0
 31
0.0
  0
LINE
  5
164
330
126
100
AcDbEntity
  8
AM_9
100
AcDbLine
 10
0.0
 20
55.0
 30
0.0
 11
-43.59999999999999
 21
55.0
 31
0.0
  0
LINE
  5
165
330
126
100
AcDbEntity
  8
AM_9
100
AcDbLine
 10
-15.3125
 20
87.3
 30
0.0
 11
-15.3125
 21
70.52675980459533
 31
0.0
  0
LINE
  5
166
330
126
100
AcDbEntity
  8
AM_9
100
AcDbLine
 10
-17.49999999999999
 20
77.74195552336424
 30
0.0
 11
-15.3125
 21
77.74195552336424
 31
0.0
  0
LINE
  5
167
330
126
100
AcDbEntity
  8
AM_9
100
AcDbLine
 10
-15.3125
 20
-69.71955061852364
 30
0.0
 11
-15.3125
 21
-87.30000000000001
 31
0.0
  0
LINE
  5
168
330
126
100
AcDbEntity
  8
AM_9
100
AcDbLine
 10
-17.50974952456965
 20
36.45433607741126
 30
0.0
 11
-17.50030196495727
 21
36.81816420260138
 31
0.0
  0
LWPOLYLINE
  5
169
330
126
100
AcDbEntity
  8
AM_9
100
AcDbPolyline
 90
        3
 70
     0
 43
0.0
 10
-17.51442549974824
 20
-64.97266287790133
 10
-17.50482817976476
 20
-64.90490890080886
 10
-17.50022245410197
 20
-64.86394324031954
  0
LINE
  5
16A
330
126
100
AcDbEntity
  8
AM_9
100
AcDbLine
 10
-17.53193226570362
 20
-65.25626988782362
 30
0.0
 11
-17.52460404298615
 21
-65.06650307888223
 31
0.0
  0
LINE
  5
16B
330
126
100
AcDbEntity
  8
AM_9
100
AcDbLine
 10
-17.5
 20
-79.75000000000001
 30
0.0
 11
0.0000000000000069
 21
-79.75000000000001
 31
0.0
  0
LINE
  5
16C
330
126
100
AcDbEntity
  8
AM_9
100
AcDbLine
 10
0.0000000000000069
 20
-63.25
 30
0.0
 11
-17.5
 21
-63.25
 31
0.0
  0
LINE
  5
16D
330
126
100
AcDbEntity
  8
AM_9
100
AcDbLine
 10
-17.5
 20
63.25
 30
0.0
 11
0.0000000000000069
 21
63.25
 31
0.0
  0
LINE
  5
16E
330
126
100
AcDbEntity
  8
AM_9
100
AcDbLine
 10
0.0000000000000069
 20
79.75000000000001
 30
0.0
 11
-17.5
 21
79.75000000000001
 31
0.0
  0
LINE
  5
16F
330
126
100
AcDbEntity
  8
AM_7
100
AcDbLine
 10
-61.38
 20
0.0
 30
0.0
 11
2.18
 21
0.0
 31
0.0
  0
LINE
  5
170
330
126
100
AcDbEntity
  8
AM_7
100
AcDbLine
 10
-36.59999999999999
 20
89.5246
 30
0.0
 11
-36.59999999999999
 21
75.7834
 31
0.0
  0
LINE
  5
171
330
126
100
AcDbEntity
  8
AM_7
100
AcDbLine
 10
0.9624999999999957
 20
71.50000000000001
 30
0.0
 11
-20.2125
 21
71.50000000000001
 31
0.0
  0
LINE
  5
172
330
126
100
AcDbEntity
  8
AM_7
100
AcDbLine
 10
0.9624999999999957
 20
-71.50000000000001
 30
0.0
 11
-20.2125
 21
-71.50000000000001
 31
0.0
  0
LINE
  5
173
330
126
100
AcDbEntity
  8
AM_4
100
AcDbLine
 10
-34.93851648071345
 20
88.9
 30
0.0
 11
-38.26093658421814
 21
88.9
 31
0.0
  0
ARC
  5
174
330
126
100
AcDbEntity
  8
AM_4
100
AcDbCircle
 10
-38.26148351928659
 20
88.40000000000003
 30
0.0
 40
0.4999999999999716
100
AcDbArc
 50
90.0
 51
158.19859051365
  0
ARC
  5
175
330
126
100
AcDbEntity
  8
AM_4
100
AcDbCircle
 10
-34.9385164807134
 20
88.40000000000006
 30
0.0
 40
0.4999999999999549
100
AcDbArc
 50
21.80140948634726
 51
90.0
  0
LINE
  5
176
330
126
100
AcDbEntity
  8
AM_4
100
AcDbLine
 10
-34.47427813527079
 20
88.58569533817706
 30
0.0
 11
-38.72572186472919
 21
88.58569533817706
 31
0.0
  0
LINE
  5
177
330
126
100
AcDbEntity
  8
AM_4
100
AcDbLine
 10
-38.72572186472919
 20
88.58569533817706
 30
0.0
 11
-39.26389026452834
 21
87.24027433867916
 31
0.0
  0
LINE
  5
178
330
126
100
AcDbEntity
  8
AM_4
100
AcDbLine
 10
-33.93610973547165
 20
87.24027433867916
 30
0.0
 11
-34.47427813527079
 21
88.58569533817706
 31
0.0
  0
LINE
  5
179
330
126
100
AcDbEntity
  8
AM_4
100
AcDbLine
 10
-33.93610973547165
 20
87.24027433867916
 30
0.0
 11
-39.26389026452834
 21
87.24027433867916
 31
0.0
  0
ARC
  5
17A
330
126
100
AcDbEntity
  8
AM_4
100
AcDbCircle
 10
-38.79965191908568
 20
87.05457900050212
 30
0.0
 40
0.5000000000000169
100
AcDbArc
 50
158.1985905136503
 51
225.8429183036488
  0
ARC
  5
17B
330
126
100
AcDbEntity
  8
AM_4
100
AcDbCircle
 10
-34.40034808091431
 20
87.05457900050212
 30
0.0
 40
0.5000000000000212
100
AcDbArc
 50
314.1570816963512
 51
21.80140948634938
  0
LINE
  5
17C
330
126
100
AcDbEntity
  8
AM_4
100
AcDbLine
 10
-39.39999999999999
 20
80.40000000000002
 30
0.0
 11
-39.39999999999999
 21
79.9
 31
0.0
  0
LINE
  5
17D
330
126
100
AcDbEntity
  8
AM_4
100
AcDbLine
 10
-33.79999999999999
 20
79.9
 30
0.0
 11
-33.79999999999999
 21
80.40000000000002
 31
0.0
  0
LINE
  5
17E
330
126
100
AcDbEntity
  8
AM_4
100
AcDbLine
 10
-34.05203413383259
 20
86.69586268603011
 30
0.0
 11
-39.1479658661674
 21
86.69586268603011
 31
0.0
  0
ARC
  5
17F
330
126
100
AcDbEntity
  8
AM_4
100
AcDbCircle
 10
-40.40624999999999
 20
85.4
 30
0.0
 40
1.806250000000001
100
AcDbArc
 50
303.8550261282941
 51
45.84291830365068
  0
ARC
  5
180
330
126
100
AcDbEntity
  8
AM_4
100
AcDbCircle
 10
-32.79375000000001
 20
85.40000000000002
 30
0.0
 40
1.806249999999982
100
AcDbArc
 50
134.1570816963493
 51
236.1449738717067
  0
LINE
  5
181
330
126
100
AcDbEntity
  8
AM_4
100
AcDbLine
 10
-33.79999999999999
 20
83.9
 30
0.0
 11
-39.39999999999999
 21
83.9
 31
0.0
  0
LINE
  5
182
330
126
100
AcDbEntity
  8
AM_4
100
AcDbLine
 10
-39.39999999999999
 20
83.9
 30
0.0
 11
-39.39999999999999
 21
83.4
 31
0.0
  0
LINE
  5
183
330
126
100
AcDbEntity
  8
AM_4
100
AcDbLine
 10
-33.79999999999999
 20
83.4
 30
0.0
 11
-33.79999999999999
 21
83.9
 31
0.0
  0
LINE
  5
184
330
126
100
AcDbEntity
  8
AM_4
100
AcDbLine
 10
-32.59999999999999
 20
83.4
 30
0.0
 11
-40.59999999999999
 21
83.4
 31
0.0
  0
LINE
  5
185
330
126
100
AcDbEntity
  8
AM_4
100
AcDbLine
 10
-32.59999999999999
 20
83.4
 30
0.0
 11
-32.59999999999999
 21
80.4
 31
0.0
  0
LINE
  5
186
330
126
100
AcDbEntity
  8
AM_4
100
AcDbLine
 10
-32.59999999999999
 20
80.4
 30
0.0
 11
-40.59999999999999
 21
80.4
 31
0.0
  0
LINE
  5
187
330
126
100
AcDbEntity
  8
AM_4
100
AcDbLine
 10
-40.59999999999999
 20
80.4
 30
0.0
 11
-40.59999999999999
 21
83.4
 31
0.0
  0
LWPOLYLINE
  5
188
330
126
100
AcDbEntity
  8
AM_4
100
AcDbPolyline
 90
        3
 70
     0
 43
0.0
 10
-32.59999999999999
 20
83.2341924626905
 10
-33.59550373072729
 20
83.35584868663553
 10
-34.59999999999999
 20
83.4
  0
LWPOLYLINE
  5
189
330
126
100
AcDbEntity
  8
AM_4
100
AcDbPolyline
 90
        3
 70
     0
 43
0.0
 10
-34.59999999999999
 20
83.4
 10
-35.59999999999999
 20
83.35623532278794
 10
-36.59999999999999
 20
83.2341924626905
  0
LWPOLYLINE
  5
18A
330
126
100
AcDbEntity
  8
AM_4
100
AcDbPolyline
 90
        3
 70
     0
 43
0.0
 10
-36.59999999999999
 20
80.56580753730952
 10
-35.60449626927269
 20
80.44415131336449
 10
-34.59999999999999
 20
80.4
  0
LWPOLYLINE
  5
18B
330
126
100
AcDbEntity
  8
AM_4
100
AcDbPolyline
 90
        3
 70
     0
 43
0.0
 10
-34.59999999999999
 20
80.4
 10
-33.59999999999999
 20
80.44376467721207
 10
-32.59999999999999
 20
80.56580753730952
  0
LWPOLYLINE
  5
18C
330
126
100
AcDbEntity
  8
AM_4
100
AcDbPolyline
 90
        3
 70
     0
 43
0.0
 10
-36.59999999999999
 20
83.2341924626905
 10
-37.5955037307273
 20
83.35584868663553
 10
-38.59999999999999
 20
83.4
  0
LWPOLYLINE
  5
18D
330
126
100
AcDbEntity
  8
AM_4
100
AcDbPolyline
 90
        3
 70
     0
 43
0.0
 10
-38.59999999999999
 20
83.4
 10
-39.59999999999999
 20
83.35623532278794
 10
-40.59999999999999
 20
83.2341924626905
  0
LWPOLYLINE
  5
18E
330
126
100
AcDbEntity
  8
AM_4
100
AcDbPolyline
 90
        3
 70
     0
 43
0.0
 10
-40.59999999999999
 20
80.56580753730952
 10
-39.60449626927269
 20
80.44415131336449
 10
-38.59999999999999
 20
80.40000000000002
  0
LWPOLYLINE
  5
18F
330
126
100
AcDbEntity
  8
AM_4
100
AcDbPolyline
 90
        3
 70
     0
 43
0.0
 10
-38.59999999999999
 20
80.40000000000002
 10
-37.59999999999999
 20
80.44376467721207
 10
-36.59999999999999
 20
80.56580753730952
  0
LINE
  5
190
330
126
100
AcDbEntity
  8
AM_4
100
AcDbLine
 10
-36.59999999999999
 20
80.56580753730952
 30
0.0
 11
-36.59999999999999
 21
83.2341924626905
 31
0.0
  0
LINE
  5
191
330
126
100
AcDbEntity
  8
AM_4
100
AcDbLine
 10
-43.59999999999999
 20
79.9
 30
0.0
 11
-17.50000000000004
 21
79.9
 31
0.0
  0
LINE
  5
192
330
126
100
AcDbEntity
  8
AM_4
100
AcDbLine
 10
-43.59999999999999
 20
-71.76787914145835
 30
0.0
 11
-43.59999999999999
 21
79.9
 31
0.0
  0
LINE
  5
193
330
126
100
AcDbEntity
  8
AM_4
100
AcDbLine
 10
-42.59999999999999
 20
72.32740107047374
 30
0.0
 11
-42.59999999999999
 21
79.9
 31
0.0
  0
LINE
  5
194
330
126
100
AcDbEntity
  8
AM_4
100
AcDbLine
 10
-17.49999999999999
 20
73.92840861265714
 30
0.0
 11
-17.53193226570367
 21
73.92840861265714
 31
0.0
  0
LINE
  5
195
330
126
100
AcDbEntity
  8
AM_4
100
AcDbLine
 10
-17.53193226570372
 20
-74.36
 30
0.0
 11
-17.5
 21
-74.36
 31
0.0
  0
LINE
  5
196
330
126
100
AcDbEntity
  8
AM_4
100
AcDbLine
 10
-17.53193226570359
 20
-65.25626981782425
 30
0.0
 11
-17.49999999999999
 21
-65.25626981782425
 31
0.0
  0
LINE
  5
197
330
126
100
AcDbEntity
  8
AM_4
100
AcDbLine
 10
-17.53193226570361
 20
65.25626988782362
 30
0.0
 11
-17.50000000000003
 21
65.25626988782362
 31
0.0
  0
LWPOLYLINE
  5
198
330
126
100
AcDbEntity
  8
AM_4
100
AcDbPolyline
 90
        7
 70
     0
 43
0.0
 10
-43.59999999999999
 20
71.42568499120588
 10
-43.59998897169378
 20
71.42994352917788
 10
-43.52690086192713
 20
71.76520088469655
 10
-43.3251024946472
 20
72.04742955473941
 10
-43.08110783717942
 20
72.21625494673984
 10
-42.82844883151329
 20
72.30310353591277
 10
-42.63489949667706
 20
72.32624229878111
  0
ARC
  5
199
330
126
100
AcDbEntity
  8
AM_4
100
AcDbCircle
 10
-42.6
 20
-71.76787914145834
 30
0.0
 40
0.9999999999999858
100
AcDbArc
 50
180.0
 51
267.9999999999999
  0
LINE
  5
19A
330
126
100
AcDbEntity
  8
AM_4
100
AcDbLine
 10
-42.63489949667706
 20
72.32624229878111
 30
0.0
 11
-18.4651005032975
 21
73.17529081293779
 31
0.0
  0
LINE
  5
19B
330
126
100
AcDbEntity
  8
AM_4
100
AcDbLine
 10
-42.63489949667706
 20
72.32624229878111
 30
0.0
 11
-42.6348994967025
 21
-72.76726996847742
 31
0.0
  0
LINE
  5
19C
330
126
100
AcDbEntity
  8
AM_4
100
AcDbLine
 10
-42.6348994967025
 20
-72.76726996847742
 30
0.0
 11
-18.4651005032975
 21
-73.61129794778799
 31
0.0
  0
LINE
  5
19D
330
126
100
AcDbEntity
  8
AM_4
100
AcDbLine
 10
-17.5319322657036
 20
35.65149036254262
 30
0.0
 11
-15.3125
 21
35.65149036254262
 31
0.0
  0
LINE
  5
19E
330
126
100
AcDbEntity
  8
AM_4
100
AcDbLine
 10
-17.53193226570362
 20
-35.65149154612354
 30
0.0
 11
-15.3125
 21
-35.65149154612354
 31
0.0
  0
LINE
  5
19F
330
126
100
AcDbEntity
  8
AM_4
100
AcDbLine
 10
-18.4651005032975
 20
73.17529081293779
 30
0.0
 11
-18.4651005032975
 21
-73.61129794778799
 31
0.0
  0
LWPOLYLINE
  5
1A0
330
126
100
AcDbEntity
  8
AM_4
100
AcDbPolyline
 90
        4
 70
     0
 43
0.0
 10
-17.53193226570362
 20
-35.65149154612354
 10
-17.52297542302587
 20
-36.10738577172964
 10
-17.50482817547607
 20
-36.59879137111553
 10
-17.5
 20
-36.88387060972391
  0
LINE
  5
1A1
330
126
100
AcDbEntity
  8
AM_4
100
AcDbLine
 10
-17.53193226570362
 20
-35.65149154612354
 30
0.0
 11
-17.5319322657036
 21
35.65149036254262
 31
0.0
  0
LWPOLYLINE
  5
1A2
330
126
100
AcDbEntity
  8
AM_4
100
AcDbPolyline
 90
        4
 70
     0
 43
0.0
 10
-17.53193226570361
 20
65.25626988782362
 10
-17.52297542778309
 20
65.04808949549279
 10
-17.50482817976475
 20
64.90490890080886
 10
-17.5002467643295
 20
64.86438737181021
  0
LINE
  5
1A3
330
126
100
AcDbEntity
  8
AM_4
100
AcDbLine
 10
-17.53193226570361
 20
65.25626988782362
 30
0.0
 11
-17.53193226570367
 21
73.92840861265714
 31
0.0
  0
LWPOLYLINE
  5
1A4
330
126
100
AcDbEntity
  8
AM_4
100
AcDbPolyline
 90
        7
 70
     0
 43
0.0
 10
-17.53193226570367
 20
73.92840861265714
 10
-17.54728919225128
 20
73.87490818650788
 10
-17.70293945353727
 20
73.57312602827827
 10
-17.9492893471939
 20
73.34096452661441
 10
-18.13781533148872
 20
73.24297581810589
 10
-18.46487402409439
 20
73.17529879473636
 10
-18.4651005032975
 20
73.17529081293779
  0
LWPOLYLINE
  5
1A5
330
126
100
AcDbEntity
  8
AM_4
100
AcDbPolyline
 90
        4
 70
     0
 43
0.0
 10
-17.50025350765741
 20
-64.86450728316701
 10
-17.51079069250895
 20
-64.94624218122709
 10
-17.52707330042368
 20
-65.09945851658483
 10
-17.53193226570361
 20
-65.25626981782425
  0
LWPOLYLINE
  5
1A6
330
126
100
AcDbEntity
  8
AM_4
100
AcDbPolyline
 90
        4
 70
     0
 43
0.0
 10
-17.50034619406396
 20
36.81339702477725
 10
-17.51079069250896
 20
36.42663402154998
 10
-17.52707330042374
 20
35.97751601496226
 10
-17.53193226570362
 20
35.65149036254262
  0
ARC
  5
1A7
330
126
100
AcDbEntity
  8
AM_4
100
AcDbCircle
 10
-18.49999999999996
 20
-74.61068877480704
 30
0.0
 40
0.9999999999999645
100
AcDbArc
 50
14.51827406296597
 51
88.00000000000196
  0
LINE
  5
1A8
330
126
100
AcDbEntity
  8
AM_4
100
AcDbLine
 10
-17.53193226570372
 20
-74.35999999999957
 30
0.0
 11
-17.53193226570359
 21
-65.25626981782425
 31
0.0
  0
LINE
  5
1A9
330
126
100
AcDbEntity
  8
AM_4
100
AcDbLine
 10
-17.49999999999999
 20
-39.33706475397933
 30
0.0
 11
-15.3125
 21
-39.33706475397933
 31
0.0
  0
LINE
  5
1AA
330
126
100
AcDbEntity
  8
AM_4
100
AcDbLine
 10
-17.50000000000005
 20
-87.3
 30
0.0
 11
-0.0000000000000555
 21
-87.3
 31
0.0
  0
LINE
  5
1AB
330
126
100
AcDbEntity
  8
AM_4
100
AcDbLine
 10
-17.49999999999999
 20
39.3370647539793
 30
0.0
 11
-15.3125
 21
39.3370647539793
 31
0.0
  0
LINE
  5
1AC
330
126
100
AcDbEntity
  8
AM_4
100
AcDbLine
 10
-15.31249999999999
 20
-69.71955061852364
 30
0.0
 11
-15.3125
 21
70.52675980459533
 31
0.0
  0
LINE
  5
1AD
330
126
100
AcDbEntity
  8
AM_4
100
AcDbLine
 10
-17.50000000000004
 20
70.5267598045953
 30
0.0
 11
-15.3125
 21
70.52675980459533
 31
0.0
  0
LINE
  5
1AE
330
126
100
AcDbEntity
  8
AM_4
100
AcDbLine
 10
-17.50000000000004
 20
-71.50000000000001
 30
0.0
 11
-0.0000000000000555
 21
-71.50000000000001
 31
0.0
  0
LINE
  5
1AF
330
126
100
AcDbEntity
  8
AM_4
100
AcDbLine
 10
-17.5
 20
-36.88387060972391
 30
0.0
 11
-17.50000000000005
 21
-87.3
 31
0.0
  0
LINE
  5
1B0
330
126
100
AcDbEntity
  8
AM_4
100
AcDbLine
 10
-15.31249999999999
 20
-69.71955061852364
 30
0.0
 11
-17.50000000000004
 21
-69.71955061852351
 31
0.0
  0
LINE
  5
1B1
330
126
100
AcDbEntity
  8
AM_4
100
AcDbLine
 10
-17.49999999999999
 20
-56.87645763693548
 30
0.0
 11
-15.3125
 21
-56.87645763693548
 31
0.0
  0
LINE
  5
1B2
330
126
100
AcDbEntity
  8
AM_4
100
AcDbLine
 10
-0.0000000000000555
 20
-87.3
 30
0.0
 11
-0.0000000000000555
 21
87.3
 31
0.0
  0
LINE
  5
1B3
330
126
100
AcDbEntity
  8
AM_4
100
AcDbLine
 10
-17.50000000000005
 20
87.3
 30
0.0
 11
-0.0000000000000555
 21
87.3
 31
0.0
  0
LINE
  5
1B4
330
126
100
AcDbEntity
  8
AM_4
100
AcDbLine
 10
-17.50000000000005
 20
87.3
 30
0.0
 11
-17.50034619406396
 21
36.81339702477725
 31
0.0
  0
LINE
  5
1B5
330
126
100
AcDbEntity
  8
AM_4
100
AcDbLine
 10
-17.50000000000004
 20
71.50000000000001
 30
0.0
 11
-0.0000000000000555
 21
71.50000000000001
 31
0.0
  0
ENDBLK
  5
129
330
126
100
AcDbEntity
  8
0
100
AcDbBlockEnd
  0
ENDSEC
  0
SECTION
  2
ENTITIES
  0
INSERT
  5
6F
330
1F
100
AcDbEntity
  8
0
100
AcDbBlockReference
  2
1_129676_2
 10
0.0
 20
0.0
 30
0.0
  0
POINT
  5
1B7
330
1F
100
AcDbEntity
  8
ConnectionPoints
100
AcDbPoint
 10
-24.49999999999999
 20
0.0
 30
0.0000000000000039
  0
POINT
  5
1B8
330
1F
100
AcDbEntity
  8
ConnectionPoints
100
AcDbPoint
 10
-5.099999999999994
 20
0.0
 30
0.0000000000000027
  0
POINT
  5
1B9
330
1F
100
AcDbEntity
  8
ConnectionPoints
100
AcDbPoint
 10
-5.099999999999994
 20
0.0
 30
0.0000000000000003
  0
ENDSEC
  0
SECTION
  2
OBJECTS
  0
DICTIONARY
  5
C
330
0
100
AcDbDictionary
281
     1
  3
ACAD_DETAILVIEWSTYLE
350
1C1
  3
ACAD_GROUP
350
D
  3
ACAD_LAYOUT
350
1A
  3
ACAD_MATERIAL
350
43
  3
ACAD_MLEADERSTYLE
350
6B
  3
ACAD_MLINESTYLE
350
17
  3
ACAD_PLOTSETTINGS
350
19
  3
ACAD_PLOTSTYLENAME
350
E
  3
ACAD_SCALELIST
350
47
  3
ACAD_SECTIONVIEWSTYLE
350
1C2
  3
ACAD_TABLESTYLE
350
69
  3
ACAD_VISUALSTYLE
350
2A
  3
ACDB_RECOMPOSE_DATA
350
1BE
  3
AcDbVariableDictionary
350
1BA
  0
SUN
  5
6D
330
29
100
AcDbSun
 90
        1
290
     0
 63
     7
421
 16777215
 40
1.0
291
     1
 91
  2455826
 92
 54000000
292
     0
 70
     2
 71
   256
280
     1
  0
DICTIONARY
  5
1C1
102
{ACAD_REACTORS
330
C
102
}
330
C
100
AcDbDictionary
281
     1
  0
DICTIONARY
  5
D
102
{ACAD_REACTORS
330
C
102
}
330
C
100
AcDbDictionary
281
     1
  0
DICTIONARY
  5
1A
102
{ACAD_REACTORS
330
C
102
}
330
C
100
AcDbDictionary
281
     1
  3
Layout1
350
1E
  3
Layout2
350
26
  3
Model
350
22
  0
DICTIONARY
  5
43
102
{ACAD_REACTORS
330
C
102
}
330
C
100
AcDbDictionary
281
     1
  3
ByBlock
350
45
  3
ByLayer
350
44
  3
Global
350
46
  0
DICTIONARY
  5
6B
102
{ACAD_REACTORS
330
C
102
}
330
C
100
AcDbDictionary
281
     1
  3
Standard
350
6C
  0
DICTIONARY
  5
17
102
{ACAD_REACTORS
330
C
102
}
330
C
100
AcDbDictionary
281
     1
  3
Standard
350
18
  0
DICTIONARY
  5
19
102
{ACAD_REACTORS
330
C
102
}
330
C
100
AcDbDictionary
281
     1
  0
ACDBDICTIONARYWDFLT
  5
E
102
{ACAD_REACTORS
330
C
102
}
330
C
100
AcDbDictionary
281
     1
  3
Normal
350
F
100
AcDbDictionaryWithDefault
340
F
  0
DICTIONARY
  5
47
102
{ACAD_REACTORS
330
C
102
}
330
C
100
AcDbDictionary
281
     1
  3
A0
350
48
  3
A1
350
49
  3
A2
350
4A
  3
A3
350
4B
  3
A4
350
4C
  3
A5
350
4D
  3
A6
350
4E
  3
A7
350
4F
  3
A8
350
50
  3
A9
350
51
  3
B0
350
52
  3
B1
350
53
  3
B2
350
54
  3
B3
350
55
  3
B4
350
56
  3
B5
350
57
  3
B6
350
58
  3
B7
350
59
  3
B8
350
5A
  3
B9
350
5B
  3
C0
350
5C
  3
C1
350
5D
  3
C2
350
5E
  3
C3
350
5F
  3
C4
350
60
  3
C5
350
61
  3
C6
350
62
  3
C7
350
63
  3
C8
350
64
  3
C9
350
65
  3
D0
350
66
  3
D1
350
67
  3
D2
350
68
  0
DICTIONARY
  5
1C2
102
{ACAD_REACTORS
330
C
102
}
330
C
100
AcDbDictionary
281
     1
  0
DICTIONARY
  5
69
102
{ACAD_REACTORS
330
C
102
}
330
C
100
AcDbDictionary
281
     1
  3
Standard
350
6A
  0
DICTIONARY
  5
2A
102
{ACAD_REACTORS
330
C
102
}
330
C
100
AcDbDictionary
281
     1
  3
2dWireframe
350
2F
  3
Basic
350
32
  3
Brighten
350
36
  3
ColorChange
350
3A
  3
Conceptual
350
34
  3
Dim
350
35
  3
EdgeColorOff
350
3D
  3
Facepattern
350
39
  3
Flat
350
2B
  3
FlatWithEdges
350
2C
  3
Gouraud
350
2D
  3
GouraudWithEdges
350
2E
  3
Hidden
350
31
  3
JitterOff
350
3B
  3
Linepattern
350
38
  3
OverhangOff
350
3C
  3
Realistic
350
33
  3
Shaded
350
42
  3
Shaded with edges
350
41
  3
Shades of Gray
350
3E
  3
Sketchy
350
3F
  3
Thicken
350
37
  3
Wireframe
350
30
  3
X-Ray
350
40
  0
XRECORD
  5
1BE
102
{ACAD_REACTORS
330
C
102
}
330
C
100
AcDbXrecord
280
     1
 90
        1
330
6A
  0
DICTIONARY
  5
1BA
102
{ACAD_REACTORS
330
C
102
}
330
C
100
AcDbDictionary
281
     1
  3
CANNOSCALE
350
1BB
  3
CMLEADERSTYLE
350
1C0
  3
CTABLESTYLE
350
1BF
  0
LAYOUT
  5
1E
102
{ACAD_REACTORS
330
1A
102
}
330
1A
100
AcDbPlotSettings
  1

  2
none_device
  4

  6

 40
0.0
 41
0.0
 42
0.0
 43
0.0
 44
0.0
 45
0.0
 46
0.0
 47
0.0
 48
0.0
 49
0.0
140
0.0
141
0.0
142
1.0
143
1.0
 70
   688
 72
     1
 73
     0
 74
     5
  7

 75
    16
 76
     0
 77
     2
 78
   300
147
1.0
148
0.0
149
0.0
100
AcDbLayout
  1
Layout1
 70
     1
 71
     1
 10
0.0
 20
0.0
 11
420.0
 21
297.0
 12
0.0
 22
0.0
 32
0.0
 14
1.000000000000000E+20
 24
1.000000000000000E+20
 34
1.000000000000000E+20
 15
-1.000000000000000E+20
 25
-1.000000000000000E+20
 35
-1.000000000000000E+20
146
0.0
 13
0.0
 23
0.0
 33
0.0
 16
1.0
 26
0.0
 36
0.0
 17
0.0
 27
1.0
 37
0.0
 76
     0
330
1B
  0
LAYOUT
  5
26
102
{ACAD_REACTORS
330
1A
102
}
330
1A
100
AcDbPlotSettings
  1

  2
none_device
  4

  6

 40
0.0
 41
0.0
 42
0.0
 43
0.0
 44
0.0
 45
0.0
 46
0.0
 47
0.0
 48
0.0
 49
0.0
140
0.0
141
0.0
142
1.0
143
1.0
 70
   688
 72
     1
 73
     0
 74
     5
  7

 75
    16
 76
     0
 77
     2
 78
   300
147
1.0
148
0.0
149
0.0
100
AcDbLayout
  1
Layout2
 70
     1
 71
     2
 10
0.0
 20
0.0
 11
0.0
 21
0.0
 12
0.0
 22
0.0
 32
0.0
 14
0.0
 24
0.0
 34
0.0
 15
0.0
 25
0.0
 35
0.0
146
0.0
 13
0.0
 23
0.0
 33
0.0
 16
1.0
 26
0.0
 36
0.0
 17
0.0
 27
1.0
 37
0.0
 76
     0
330
23
  0
LAYOUT
  5
22
102
{ACAD_REACTORS
330
1A
102
}
330
1A
100
AcDbPlotSettings
  1

  2
none_device
  4
Letter_(8.50_x_11.00_Inches)
  6

 40
6.35
 41
6.35
 42
6.35000508
 43
6.35000508
 44
215.9
 45
279.4
 46
0.0
 47
0.0
 48
0.0
 49
0.0
140
0.0
141
0.0
142
1.0
143
1.0
 70
  1712
 72
     1
 73
     0
 74
     0
  7

 75
     0
 76
     0
 77
     2
 78
   300
147
1.0
148
0.0
149
0.0
100
AcDbLayout
  1
Model
 70
     1
 71
     0
 10
0.0
 20
0.0
 11
420.0
 21
297.0
 12
0.0
 22
0.0
 32
0.0
 14
1.000000000000000E+20
 24
1.000000000000000E+20
 34
1.000000000000000E+20
 15
-1.000000000000000E+20
 25
-1.000000000000000E+20
 35
-1.000000000000000E+20
146
0.0
 13
0.0
 23
0.0
 33
0.0
 16
1.0
 26
0.0
 36
0.0
 17
0.0
 27
1.0
 37
0.0
 76
     0
330
1F
331
29
  0
MATERIAL
  5
45
102
{ACAD_REACTORS
330
43
102
}
330
43
100
AcDbMaterial
  1
ByBlock
 72
     1
 94
      127
  0
MATERIAL
  5
44
102
{ACAD_REACTORS
330
43
102
}
330
43
100
AcDbMaterial
  1
ByLayer
 72
     1
 94
      127
  0
MATERIAL
  5
46
102
{ACAD_REACTORS
330
43
102
}
330
43
100
AcDbMaterial
  1
Global
 72
     1
 94
      127
  0
MLEADERSTYLE
  5
6C
102
{ACAD_REACTORS
330
6B
102
}
330
6B
100
AcDbMLeaderStyle
179
     2
170
     2
171
     1
172
     0
 90
        2
 40
0.0
 41
0.0
173
     1
 91
-1056964608
340
14
 92
       -2
290
     1
 42
2.0
291
     1
 43
8.0
  3
Standard
341
0
 44
4.0
300

342
11
174
     1
178
     6
175
     1
176
     0
 93
-1056964608
 45
4.0
292
     0
297
     0
 46
4.0
343
0
 94
-1056964608
 47
1.0
 49
1.0
140
1.0
293
     1
141
0.0
294
     1
177
     0
142
1.0
295
     0
296
     0
143
3.75
271
     0
272
     9
273
     9
298
     0
  0
MLINESTYLE
  5
18
102
{ACAD_REACTORS
330
17
102
}
330
17
100
AcDbMlineStyle
  2
Standard
 70
     0
  3

 62
   256
 51
90.0
 52
90.0
 71
     2
 49
0.5
 62
   256
  6
BYLAYER
 49
-0.5
 62
   256
  6
BYLAYER
  0
ACDBPLACEHOLDER
  5
F
102
{ACAD_REACTORS
330
E
102
}
330
E
  0
SCALE
  5
48
102
{ACAD_REACTORS
330
47
102
}
330
47
100
AcDbScale
 70
     0
300
1:1
140
1.0
141
1.0
290
     1
  0
SCALE
  5
49
102
{ACAD_REACTORS
330
47
102
}
330
47
100
AcDbScale
 70
     0
300
1:2
140
1.0
141
2.0
290
     0
  0
SCALE
  5
4A
102
{ACAD_REACTORS
330
47
102
}
330
47
100
AcDbScale
 70
     0
300
1:4
140
1.0
141
4.0
290
     0
  0
SCALE
  5
4B
102
{ACAD_REACTORS
330
47
102
}
330
47
100
AcDbScale
 70
     0
300
1:5
140
1.0
141
5.0
290
     0
  0
SCALE
  5
4C
102
{ACAD_REACTORS
330
47
102
}
330
47
100
AcDbScale
 70
     0
300
1:8
140
1.0
141
8.0
290
     0
  0
SCALE
  5
4D
102
{ACAD_REACTORS
330
47
102
}
330
47
100
AcDbScale
 70
     0
300
1:10
140
1.0
141
10.0
290
     0
  0
SCALE
  5
4E
102
{ACAD_REACTORS
330
47
102
}
330
47
100
AcDbScale
 70
     0
300
1:16
140
1.0
141
16.0
290
     0
  0
SCALE
  5
4F
102
{ACAD_REACTORS
330
47
102
}
330
47
100
AcDbScale
 70
     0
300
1:20
140
1.0
141
20.0
290
     0
  0
SCALE
  5
50
102
{ACAD_REACTORS
330
47
102
}
330
47
100
AcDbScale
 70
     0
300
1:30
140
1.0
141
30.0
290
     0
  0
SCALE
  5
51
102
{ACAD_REACTORS
330
47
102
}
330
47
100
AcDbScale
 70
     0
300
1:40
140
1.0
141
40.0
290
     0
  0
SCALE
  5
52
102
{ACAD_REACTORS
330
47
102
}
330
47
100
AcDbScale
 70
     0
300
1:50
140
1.0
141
50.0
290
     0
  0
SCALE
  5
53
102
{ACAD_REACTORS
330
47
102
}
330
47
100
AcDbScale
 70
     0
300
1:100
140
1.0
141
100.0
290
     0
  0
SCALE
  5
54
102
{ACAD_REACTORS
330
47
102
}
330
47
100
AcDbScale
 70
     0
300
2:1
140
2.0
141
1.0
290
     0
  0
SCALE
  5
55
102
{ACAD_REACTORS
330
47
102
}
330
47
100
AcDbScale
 70
     0
300
4:1
140
4.0
141
1.0
290
     0
  0
SCALE
  5
56
102
{ACAD_REACTORS
330
47
102
}
330
47
100
AcDbScale
 70
     0
300
8:1
140
8.0
141
1.0
290
     0
  0
SCALE
  5
57
102
{ACAD_REACTORS
330
47
102
}
330
47
100
AcDbScale
 70
     0
300
10:1
140
10.0
141
1.0
290
     0
  0
SCALE
  5
58
102
{ACAD_REACTORS
330
47
102
}
330
47
100
AcDbScale
 70
     0
300
100:1
140
100.0
141
1.0
290
     0
  0
SCALE
  5
59
102
{ACAD_REACTORS
330
47
102
}
330
47
100
AcDbScale
 70
     0
300
1/128" = 1'-0"
140
0.0078125
141
12.0
290
     0
  0
SCALE
  5
5A
102
{ACAD_REACTORS
330
47
102
}
330
47
100
AcDbScale
 70
     0
300
1/64" = 1'-0"
140
0.015625
141
12.0
290
     0
  0
SCALE
  5
5B
102
{ACAD_REACTORS
330
47
102
}
330
47
100
AcDbScale
 70
     0
300
1/32" = 1'-0"
140
0.03125
141
12.0
290
     0
  0
SCALE
  5
5C
102
{ACAD_REACTORS
330
47
102
}
330
47
100
AcDbScale
 70
     0
300
1/16" = 1'-0"
140
0.0625
141
12.0
290
     0
  0
SCALE
  5
5D
102
{ACAD_REACTORS
330
47
102
}
330
47
100
AcDbScale
 70
     0
300
3/32" = 1'-0"
140
0.09375
141
12.0
290
     0
  0
SCALE
  5
5E
102
{ACAD_REACTORS
330
47
102
}
330
47
100
AcDbScale
 70
     0
300
1/8" = 1'-0"
140
0.125
141
12.0
290
     0
  0
SCALE
  5
5F
102
{ACAD_REACTORS
330
47
102
}
330
47
100
AcDbScale
 70
     0
300
3/16" = 1'-0"
140
0.1875
141
12.0
290
     0
  0
SCALE
  5
60
102
{ACAD_REACTORS
330
47
102
}
330
47
100
AcDbScale
 70
     0
300
1/4" = 1'-0"
140
0.25
141
12.0
290
     0
  0
SCALE
  5
61
102
{ACAD_REACTORS
330
47
102
}
330
47
100
AcDbScale
 70
     0
300
3/8" = 1'-0"
140
0.375
141
12.0
290
     0
  0
SCALE
  5
62
102
{ACAD_REACTORS
330
47
102
}
330
47
100
AcDbScale
 70
     0
300
1/2" = 1'-0"
140
0.5
141
12.0
290
     0
  0
SCALE
  5
63
102
{ACAD_REACTORS
330
47
102
}
330
47
100
AcDbScale
 70
     0
300
3/4" = 1'-0"
140
0.75
141
12.0
290
     0
  0
SCALE
  5
64
102
{ACAD_REACTORS
330
47
102
}
330
47
100
AcDbScale
 70
     0
300
1" = 1'-0"
140
1.0
141
12.0
290
     0
  0
SCALE
  5
65
102
{ACAD_REACTORS
330
47
102
}
330
47
100
AcDbScale
 70
     0
300
1-1/2" = 1'-0"
140
1.5
141
12.0
290
     0
  0
SCALE
  5
66
102
{ACAD_REACTORS
330
47
102
}
330
47
100
AcDbScale
 70
     0
300
3" = 1'-0"
140
3.0
141
12.0
290
     0
  0
SCALE
  5
67
102
{ACAD_REACTORS
330
47
102
}
330
47
100
AcDbScale
 70
     0
300
6" = 1'-0"
140
6.0
141
12.0
290
     0
  0
SCALE
  5
68
102
{ACAD_REACTORS
330
47
102
}
330
47
100
AcDbScale
 70
     0
300
1'-0" = 1'-0"
140
12.0
141
12.0
290
     0
  0
TABLESTYLE
  5
6A
102
{ACAD_REACTORS
330
69
102
}
102
{ACAD_XDICTIONARY
360
1BC
102
}
330
69
100
AcDbTableStyle
  3
Standard
 70
     0
 71
     0
 40
0.06
 41
0.06
280
     0
281
     0
  7
Standard
140
4.5
170
     2
 62
     0
 63
   257
283
     0
 90
        4
 91
        0
  1

274
    -2
284
     1
 64
     0
275
    -2
285
     1
 65
     0
276
    -2
286
     1
 66
     0
277
    -2
287
     1
 67
     0
278
    -2
288
     1
 68
     0
279
    -2
289
     1
 69
     0
  7
Standard
140
6.0
170
     5
 62
     0
 63
   257
283
     0
 90
        4
 91
        0
  1

274
    -2
284
     1
 64
     0
275
    -2
285
     1
 65
     0
276
    -2
286
     1
 66
     0
277
    -2
287
     1
 67
     0
278
    -2
288
     1
 68
     0
279
    -2
289
     1
 69
     0
  7
Standard
140
4.5
170
     5
 62
     0
 63
   257
283
     0
 90
        4
 91
        0
  1

274
    -2
284
     1
 64
     0
275
    -2
285
     1
 65
     0
276
    -2
286
     1
 66
     0
277
    -2
287
     1
 67
     0
278
    -2
288
     1
 68
     0
279
    -2
289
     1
 69
     0
  0
VISUALSTYLE
  5
2F
102
{ACAD_REACTORS
330
2A
102
}
330
2A
100
AcDbVisualStyle
  2
2dWireframe
 70
     4
177
     3
291
     0
 70
    58
 90
        0
176
     1
 90
        2
176
     1
 90
        0
176
     1
 90
        0
176
     1
 40
0.6
176
     1
 40
30.0
176
     1
 62
     7
420
 16777215
176
     1
 90
        1
176
     1
 90
        4
176
     1
 62
     7
176
     1
 62
   257
176
     1
 90
        1
176
     1
 90
        1
176
     1
 40
1.0
176
     1
 90
        0
176
     1
 62
   257
176
     1
 40
1.0
176
     1
 90
        1
176
     1
 90
        6
176
     1
 90
        2
176
     1
 62
     7
176
     1
 90
        5
176
     1
 90
        0
176
     1
 90
        0
176
     1
290
     0
176
     1
 90
        1
176
     1
 40
0.0
176
     1
 90
        0
176
     1
290
     1
176
     1
290
     1
176
     1
290
     0
176
     1
290
     0
176
     1
290
     0
176
     1
290
     0
176
     1
290
     0
176
     1
290
     0
176
     1
290
     0
176
     1
 90
       50
176
     1
 40
0.0
176
     1
 40
1.0
176
     1
 90
        0
176
     1
 62
    18
420
        0
176
     1
 90
       50
176
     1
 90
        3
176
     1
 62
     5
420
      255
176
     1
290
     0
176
     1
 90
       50
176
     1
 90
       50
176
     1
 90
       50
176
     1
290
     0
176
     1
 90
       50
176
     1
 62
   256
176
     0
 40
1.0
176
     0
 90
        2
176
     1
  1
strokes_ogs.tif
176
     1
290
     0
176
     1
 40
1.0
176
     1
 40
1.0
176
     1
  0
VISUALSTYLE
  5
32
102
{ACAD_REACTORS
330
2A
102
}
330
2A
100
AcDbVisualStyle
  2
Basic
 70
     7
177
     3
291
     1
 70
    58
 90
        1
176
     1
 90
        0
176
     1
 90
        1
176
     1
 90
        0
176
     1
 40
0.6
176
     1
 40
30.0
176
     1
 62
     7
420
 16777215
176
     1
 90
        0
176
     1
 90
        4
176
     1
 62
     7
176
     1
 62
   257
176
     1
 90
        1
176
     1
 90
        1
176
     1
 40
1.0
176
     1
 90
        8
176
     1
 62
     7
176
     1
 40
1.0
176
     1
 90
        1
176
     1
 90
        6
176
     1
 90
        2
176
     1
 62
     7
176
     1
 90
        5
176
     1
 90
        0
176
     1
 90
        0
176
     1
290
     0
176
     1
 90
        1
176
     1
 40
0.0
176
     1
 90
        0
176
     1
290
     0
176
     1
290
     1
176
     1
290
     1
176
     1
290
     0
176
     1
290
     0
176
     1
290
     0
176
     1
290
     0
176
     1
290
     0
176
     1
290
     0
176
     1
 90
       50
176
     1
 40
0.0
176
     1
 40
1.0
176
     1
 90
        0
176
     1
 62
    18
420
        0
176
     1
 90
       50
176
     1
 90
        3
176
     1
 62
     5
420
      255
176
     1
290
     0
176
     1
 90
       50
176
     1
 90
       50
176
     1
 90
       50
176
     1
290
     0
176
     1
 90
       50
176
     1
 62
   256
176
     0
 40
1.0
176
     0
 90
        2
176
     1
  1
strokes_ogs.tif
176
     1
290
     0
176
     1
 40
1.0
176
     1
 40
1.0
176
     1
  0
VISUALSTYLE
  5
36
102
{ACAD_REACTORS
330
2A
102
}
330
2A
100
AcDbVisualStyle
  2
Brighten
 70
    12
177
     3
291
     1
 70
    58
 90
        2
176
     1
 90
        2
176
     1
 90
        0
176
     1
 90
        0
176
     1
 40
0.6
176
     1
 40
30.0
176
     1
 62
     7
420
 16777215
176
     1
 90
        1
176
     1
 90
        4
176
     1
 62
     7
176
     1
 62
   257
176
     1
 90
        1
176
     1
 90
        1
176
     1
 40
1.0
176
     1
 90
        8
176
     1
 62
     7
176
     1
 40
1.0
176
     1
 90
        1
176
     1
 90
        6
176
     1
 90
        2
176
     1
 62
     7
176
     1
 90
        5
176
     1
 90
        0
176
     1
 90
        0
176
     1
290
     0
176
     1
 90
        1
176
     1
 40
50.0
176
     1
 90
        0
176
     1
290
     0
176
     1
290
     1
176
     1
290
     1
176
     1
290
     0
176
     1
290
     0
176
     1
290
     0
176
     1
290
     0
176
     1
290
     0
176
     1
290
     0
176
     1
 90
       50
176
     1
 40
0.0
176
     1
 40
1.0
176
     1
 90
        0
176
     1
 62
    18
420
        0
176
     1
 90
       50
176
     1
 90
        3
176
     1
 62
     5
420
      255
176
     1
290
     0
176
     1
 90
       50
176
     1
 90
       50
176
     1
 90
       50
176
     1
290
     0
176
     1
 90
       50
176
     1
 62
   256
176
     0
 40
1.0
176
     0
 90
        2
176
     1
  1
strokes_ogs.tif
176
     1
290
     0
176
     1
 40
1.0
176
     1
 40
1.0
176
     1
  0
VISUALSTYLE
  5
3A
102
{ACAD_REACTORS
330
2A
102
}
330
2A
100
AcDbVisualStyle
  2
ColorChange
 70
    16
177
     3
291
     1
 70
    58
 90
        2
176
     1
 90
        2
176
     1
 90
        3
176
     1
 90
        0
176
     1
 40
0.6
176
     1
 40
30.0
176
     1
 62
     8
420
  8421504
176
     1
 90
        1
176
     1
 90
        4
176
     1
 62
     7
176
     1
 62
   257
176
     1
 90
        1
176
     1
 90
        1
176
     1
 40
1.0
176
     1
 90
        8
176
     1
 62
     8
420
  8421504
176
     1
 40
1.0
176
     1
 90
        1
176
     1
 90
        6
176
     1
 90
        2
176
     1
 62
     7
176
     1
 90
        5
176
     1
 90
        0
176
     1
 90
        0
176
     1
290
     0
176
     1
 90
        1
176
     1
 40
0.0
176
     1
 90
        0
176
     1
290
     0
176
     1
290
     1
176
     1
290
     1
176
     1
290
     0
176
     1
290
     0
176
     1
290
     0
176
     1
290
     0
176
     1
290
     0
176
     1
290
     0
176
     1
 90
       50
176
     1
 40
0.0
176
     1
 40
1.0
176
     1
 90
        0
176
     1
 62
    18
420
        0
176
     1
 90
       50
176
     1
 90
        3
176
     1
 62
     5
420
      255
176
     1
290
     0
176
     1
 90
       50
176
     1
 90
       50
176
     1
 90
       50
176
     1
290
     0
176
     1
 90
       50
176
     1
 62
   256
176
     0
 40
1.0
176
     0
 90
        2
176
     1
  1
strokes_ogs.tif
176
     1
290
     0
176
     1
 40
1.0
176
     1
 40
1.0
176
     1
  0
VISUALSTYLE
  5
34
102
{ACAD_REACTORS
330
2A
102
}
330
2A
100
AcDbVisualStyle
  2
Conceptual
 70
     9
177
     3
291
     0
 70
    58
 90
        3
176
     1
 90
        2
176
     1
 90
        0
176
     1
 90
        0
176
     1
 40
0.6
176
     1
 40
30.0
176
     1
 62
     7
420
 16777215
176
     1
 90
        2
176
     1
 90
        2
176
     1
 62
     7
176
     1
 62
   257
176
     1
 90
        1
176
     1
 90
        1
176
     1
 40
179.0
176
     1
 90
        8
176
     1
 62
     7
176
     1
 40
1.0
176
     1
 90
        1
176
     1
 90
        6
176
     1
 90
        2
176
     1
 62
     7
176
     1
 90
        3
176
     1
 90
        0
176
     1
 90
        0
176
     1
290
     0
176
     1
 90
        1
176
     1
 40
0.0
176
     1
 90
        0
176
     1
290
     0
176
     1
290
     1
176
     1
290
     1
176
     1
290
     0
176
     1
290
     0
176
     1
290
     0
176
     1
290
     0
176
     1
290
     0
176
     1
290
     0
176
     1
 90
       50
176
     1
 40
0.0
176
     1
 40
1.0
176
     1
 90
        0
176
     1
 62
    18
420
        0
176
     1
 90
       50
176
     1
 90
        3
176
     1
 62
     5
420
      255
176
     1
290
     0
176
     1
 90
       50
176
     1
 90
       50
176
     1
 90
       50
176
     1
290
     0
176
     1
 90
       50
176
     1
 62
   256
176
     0
 40
1.0
176
     0
 90
        2
176
     1
  1
strokes_ogs.tif
176
     1
290
     0
176
     1
 40
1.0
176
     1
 40
1.0
176
     1
  0
VISUALSTYLE
  5
35
102
{ACAD_REACTORS
330
2A
102
}
330
2A
100
AcDbVisualStyle
  2
Dim
 70
    11
177
     3
291
     1
 70
    58
 90
        2
176
     1
 90
        2
176
     1
 90
        0
176
     1
 90
        0
176
     1
 40
0.6
176
     1
 40
30.0
176
     1
 62
     7
420
 16777215
176
     1
 90
        1
176
     1
 90
        4
176
     1
 62
     7
176
     1
 62
   257
176
     1
 90
        1
176
     1
 90
        1
176
     1
 40
1.0
176
     1
 90
        8
176
     1
 62
     7
176
     1
 40
1.0
176
     1
 90
        1
176
     1
 90
        6
176
     1
 90
        2
176
     1
 62
     7
176
     1
 90
        5
176
     1
 90
        0
176
     1
 90
        0
176
     1
290
     0
176
     1
 90
        1
176
     1
 40
-50.0
176
     1
 90
        0
176
     1
290
     0
176
     1
290
     1
176
     1
290
     1
176
     1
290
     0
176
     1
290
     0
176
     1
290
     0
176
     1
290
     0
176
     1
290
     0
176
     1
290
     0
176
     1
 90
       50
176
     1
 40
0.0
176
     1
 40
1.0
176
     1
 90
        0
176
     1
 62
    18
420
        0
176
     1
 90
       50
176
     1
 90
        3
176
     1
 62
     5
420
      255
176
     1
290
     0
176
     1
 90
       50
176
     1
 90
       50
176
     1
 90
       50
176
     1
290
     0
176
     1
 90
       50
176
     1
 62
   256
176
     0
 40
1.0
176
     0
 90
        2
176
     1
  1
strokes_ogs.tif
176
     1
290
     0
176
     1
 40
1.0
176
     1
 40
1.0
176
     1
  0
VISUALSTYLE
  5
3D
102
{ACAD_REACTORS
330
2A
102
}
330
2A
100
AcDbVisualStyle
  2
EdgeColorOff
 70
    22
177
     3
291
     1
 70
    58
 90
        2
176
     0
 90
        2
176
     0
 90
        0
176
     0
 90
        0
176
     0
 40
0.6
176
     0
 40
30.0
176
     0
 62
     7
420
 16777215
176
     0
 90
        1
176
     0
 90
        4
176
     0
 62
     7
176
     0
 62
   257
176
     0
 90
        1
176
     0
 90
        1
176
     0
 40
1.0
176
     0
 90
        8
176
     2
 62
     7
176
     0
 40
1.0
176
     0
 90
        1
176
     0
 90
        6
176
     0
 90
        2
176
     0
 62
     7
176
     0
 90
        5
176
     0
 90
        0
176
     0
 90
        0
176
     0
290
     0
176
     0
 90
        1
176
     0
 40
0.0
176
     0
 90
        0
176
     0
290
     0
176
     0
290
     1
176
     0
290
     1
176
     0
290
     0
176
     0
290
     0
176
     0
290
     0
176
     0
290
     0
176
     0
290
     0
176
     0
290
     0
176
     0
 90
       50
176
     0
 40
0.0
176
     0
 40
1.0
176
     0
 90
        0
176
     0
 62
    18
420
        0
176
     0
 90
       50
176
     0
 90
        3
176
     0
 62
     5
420
      255
176
     0
290
     0
176
     0
 90
       50
176
     0
 90
       50
176
     0
 90
       50
176
     0
290
     0
176
     0
 90
       50
176
     0
 62
   256
176
     0
 40
1.0
176
     0
 90
        2
176
     0
  1
strokes_ogs.tif
176
     0
290
     0
176
     0
 40
1.0
176
     0
 40
1.0
176
     0
  0
VISUALSTYLE
  5
39
102
{ACAD_REACTORS
330
2A
102
}
330
2A
100
AcDbVisualStyle
  2
Facepattern
 70
    15
177
     3
291
     1
 70
    58
 90
        2
176
     1
 90
        2
176
     1
 90
        0
176
     1
 90
        0
176
     1
 40
0.6
176
     1
 40
30.0
176
     1
 62
     7
420
 16777215
176
     1
 90
        1
176
     1
 90
        4
176
     1
 62
     7
176
     1
 62
   257
176
     1
 90
        1
176
     1
 90
        1
176
     1
 40
1.0
176
     1
 90
        8
176
     1
 62
     7
176
     1
 40
1.0
176
     1
 90
        1
176
     1
 90
        6
176
     1
 90
        2
176
     1
 62
     7
176
     1
 90
        5
176
     1
 90
        0
176
     1
 90
        0
176
     1
290
     0
176
     1
 90
        1
176
     1
 40
0.0
176
     1
 90
        0
176
     1
290
     0
176
     1
290
     1
176
     1
290
     1
176
     1
290
     0
176
     1
290
     0
176
     1
290
     0
176
     1
290
     0
176
     1
290
     0
176
     1
290
     0
176
     1
 90
       50
176
     1
 40
0.0
176
     1
 40
1.0
176
     1
 90
        0
176
     1
 62
    18
420
        0
176
     1
 90
       50
176
     1
 90
        3
176
     1
 62
     5
420
      255
176
     1
290
     0
176
     1
 90
       50
176
     1
 90
       50
176
     1
 90
       50
176
     1
290
     0
176
     1
 90
       50
176
     1
 62
   256
176
     0
 40
1.0
176
     0
 90
        2
176
     1
  1
strokes_ogs.tif
176
     1
290
     0
176
     1
 40
1.0
176
     1
 40
1.0
176
     1
  0
VISUALSTYLE
  5
2B
102
{ACAD_REACTORS
330
2A
102
}
330
2A
100
AcDbVisualStyle
  2
Flat
 70
     0
177
     3
291
     1
 70
    58
 90
        2
176
     1
 90
        1
176
     1
 90
        1
176
     1
 90
        2
176
     1
 40
0.6
176
     1
 40
30.0
176
     1
 62
     7
420
 16777215
176
     1
 90
        0
176
     1
 90
        0
176
     1
 62
     7
176
     1
 62
   257
176
     1
 90
        1
176
     1
 90
        1
176
     1
 40
1.0
176
     1
 90
        8
176
     1
 62
     7
176
     1
 40
1.0
176
     1
 90
        1
176
     1
 90
        6
176
     1
 90
        2
176
     1
 62
     7
176
     1
 90
        5
176
     1
 90
        0
176
     1
 90
        0
176
     1
290
     0
176
     1
 90
       13
176
     1
 40
0.0
176
     1
 90
        0
176
     1
290
     0
176
     1
290
     1
176
     1
290
     1
176
     1
290
     0
176
     1
290
     0
176
     1
290
     0
176
     1
290
     0
176
     1
290
     0
176
     1
290
     0
176
     1
 90
       50
176
     1
 40
0.0
176
     1
 40
1.0
176
     1
 90
        0
176
     1
 62
    18
420
        0
176
     1
 90
       50
176
     1
 90
        3
176
     1
 62
     5
420
      255
176
     1
290
     0
176
     1
 90
       50
176
     1
 90
       50
176
     1
 90
       50
176
     1
290
     0
176
     1
 90
       50
176
     1
 62
   256
176
     0
 40
1.0
176
     0
 90
        2
176
     1
  1
strokes_ogs.tif
176
     1
290
     0
176
     1
 40
1.0
176
     1
 40
1.0
176
     1
  0
VISUALSTYLE
  5
2C
102
{ACAD_REACTORS
330
2A
102
}
330
2A
100
AcDbVisualStyle
  2
FlatWithEdges
 70
     1
177
     3
291
     1
 70
    58
 90
        2
176
     1
 90
        1
176
     1
 90
        1
176
     1
 90
        2
176
     1
 40
0.6
176
     1
 40
30.0
176
     1
 62
     7
420
 16777215
176
     1
 90
        1
176
     1
 90
        0
176
     1
 62
     7
176
     1
 62
   257
176
     1
 90
        1
176
     1
 90
        1
176
     1
 40
1.0
176
     1
 90
        0
176
     1
 62
   257
176
     1
 40
1.0
176
     1
 90
        1
176
     1
 90
        6
176
     1
 90
        2
176
     1
 62
     7
176
     1
 90
        5
176
     1
 90
        0
176
     1
 90
        0
176
     1
290
     0
176
     1
 90
       13
176
     1
 40
0.0
176
     1
 90
        0
176
     1
290
     0
176
     1
290
     1
176
     1
290
     1
176
     1
290
     0
176
     1
290
     0
176
     1
290
     0
176
     1
290
     0
176
     1
290
     0
176
     1
290
     0
176
     1
 90
       50
176
     1
 40
0.0
176
     1
 40
1.0
176
     1
 90
        0
176
     1
 62
    18
420
        0
176
     1
 90
       50
176
     1
 90
        3
176
     1
 62
     5
420
      255
176
     1
290
     0
176
     1
 90
       50
176
     1
 90
       50
176
     1
 90
       50
176
     1
290
     0
176
     1
 90
       50
176
     1
 62
   256
176
     0
 40
1.0
176
     0
 90
        2
176
     1
  1
strokes_ogs.tif
176
     1
290
     0
176
     1
 40
1.0
176
     1
 40
1.0
176
     1
  0
VISUALSTYLE
  5
2D
102
{ACAD_REACTORS
330
2A
102
}
330
2A
100
AcDbVisualStyle
  2
Gouraud
 70
     2
177
     3
291
     1
 70
    58
 90
        2
176
     1
 90
        2
176
     1
 90
        1
176
     1
 90
        2
176
     1
 40
0.6
176
     1
 40
30.0
176
     1
 62
     7
420
 16777215
176
     1
 90
        0
176
     1
 90
        0
176
     1
 62
     7
176
     1
 62
   257
176
     1
 90
        1
176
     1
 90
        1
176
     1
 40
1.0
176
     1
 90
        0
176
     1
 62
     7
176
     1
 40
1.0
176
     1
 90
        1
176
     1
 90
        6
176
     1
 90
        2
176
     1
 62
     7
176
     1
 90
        5
176
     1
 90
        0
176
     1
 90
        0
176
     1
290
     0
176
     1
 90
       13
176
     1
 40
0.0
176
     1
 90
        0
176
     1
290
     0
176
     1
290
     1
176
     1
290
     1
176
     1
290
     0
176
     1
290
     0
176
     1
290
     0
176
     1
290
     0
176
     1
290
     0
176
     1
290
     0
176
     1
 90
       50
176
     1
 40
0.0
176
     1
 40
1.0
176
     1
 90
        0
176
     1
 62
    18
420
        0
176
     1
 90
       50
176
     1
 90
        3
176
     1
 62
     5
420
      255
176
     1
290
     0
176
     1
 90
       50
176
     1
 90
       50
176
     1
 90
       50
176
     1
290
     0
176
     1
 90
       50
176
     1
 62
   256
176
     0
 40
1.0
176
     0
 90
        2
176
     1
  1
strokes_ogs.tif
176
     1
290
     0
176
     1
 40
1.0
176
     1
 40
1.0
176
     1
  0
VISUALSTYLE
  5
2E
102
{ACAD_REACTORS
330
2A
102
}
330
2A
100
AcDbVisualStyle
  2
GouraudWithEdges
 70
     3
177
     3
291
     1
 70
    58
 90
        2
176
     1
 90
        2
176
     1
 90
        1
176
     1
 90
        2
176
     1
 40
0.6
176
     1
 40
30.0
176
     1
 62
     7
420
 16777215
176
     1
 90
        1
176
     1
 90
        0
176
     1
 62
     7
176
     1
 62
   257
176
     1
 90
        1
176
     1
 90
        1
176
     1
 40
1.0
176
     1
 90
        0
176
     1
 62
   257
176
     1
 40
1.0
176
     1
 90
        1
176
     1
 90
        6
176
     1
 90
        2
176
     1
 62
     7
176
     1
 90
        5
176
     1
 90
        0
176
     1
 90
        0
176
     1
290
     0
176
     1
 90
       13
176
     1
 40
0.0
176
     1
 90
        0
176
     1
290
     0
176
     1
290
     1
176
     1
290
     1
176
     1
290
     0
176
     1
290
     0
176
     1
290
     0
176
     1
290
     0
176
     1
290
     0
176
     1
290
     0
176
     1
 90
       50
176
     1
 40
0.0
176
     1
 40
1.0
176
     1
 90
        0
176
     1
 62
    18
420
        0
176
     1
 90
       50
176
     1
 90
        3
176
     1
 62
     5
420
      255
176
     1
290
     0
176
     1
 90
       50
176
     1
 90
       50
176
     1
 90
       50
176
     1
290
     0
176
     1
 90
       50
176
     1
 62
   256
176
     0
 40
1.0
176
     0
 90
        2
176
     1
  1
strokes_ogs.tif
176
     1
290
     0
176
     1
 40
1.0
176
     1
 40
1.0
176
     1
  0
VISUALSTYLE
  5
31
102
{ACAD_REACTORS
330
2A
102
}
330
2A
100
AcDbVisualStyle
  2
Hidden
 70
     6
177
     3
291
     0
 70
    58
 90
        1
176
     1
 90
        2
176
     1
 90
        2
176
     1
 90
        0
176
     1
 40
0.6
176
     1
 40
30.0
176
     1
 62
     7
420
 16777215
176
     1
 90
        2
176
     1
 90
        2
176
     1
 62
     7
176
     1
 62
   257
176
     1
 90
        2
176
     1
 90
        1
176
     1
 40
40.0
176
     1
 90
        0
176
     1
 62
   257
176
     1
 40
1.0
176
     1
 90
        1
176
     1
 90
        6
176
     1
 90
        2
176
     1
 62
     7
176
     1
 90
        3
176
     1
 90
        0
176
     1
 90
        0
176
     1
290
     0
176
     1
 90
        1
176
     1
 40
0.0
176
     1
 90
        0
176
     1
290
     0
176
     1
290
     1
176
     1
290
     1
176
     1
290
     0
176
     1
290
     0
176
     1
290
     0
176
     1
290
     0
176
     1
290
     0
176
     1
290
     0
176
     1
 90
       50
176
     1
 40
0.0
176
     1
 40
1.0
176
     1
 90
        0
176
     1
 62
    18
420
        0
176
     1
 90
       50
176
     1
 90
        3
176
     1
 62
     5
420
      255
176
     1
290
     0
176
     1
 90
       50
176
     1
 90
       50
176
     1
 90
       50
176
     1
290
     0
176
     1
 90
       50
176
     1
 62
   256
176
     0
 40
1.0
176
     0
 90
        2
176
     1
  1
strokes_ogs.tif
176
     1
290
     0
176
     1
 40
1.0
176
     1
 40
1.0
176
     1
  0
VISUALSTYLE
  5
3B
102
{ACAD_REACTORS
330
2A
102
}
330
2A
100
AcDbVisualStyle
  2
JitterOff
 70
    20
177
     3
291
     1
 70
    58
 90
        2
176
     0
 90
        2
176
     0
 90
        0
176
     0
 90
        0
176
     0
 40
0.6
176
     0
 40
30.0
176
     0
 62
     7
420
 16777215
176
     0
 90
        1
176
     0
 90
        4
176
     0
 62
     7
176
     0
 62
   257
176
     0
 90
        1
176
     0
 90
        1
176
     0
 40
1.0
176
     0
 90
       10
176
     2
 62
     7
176
     0
 40
1.0
176
     0
 90
        1
176
     0
 90
        6
176
     0
 90
        2
176
     0
 62
     7
176
     0
 90
        5
176
     0
 90
        0
176
     0
 90
        0
176
     0
290
     0
176
     0
 90
        1
176
     0
 40
0.0
176
     0
 90
        0
176
     0
290
     0
176
     0
290
     1
176
     0
290
     1
176
     0
290
     0
176
     0
290
     0
176
     0
290
     0
176
     0
290
     0
176
     0
290
     0
176
     0
290
     0
176
     0
 90
       50
176
     0
 40
0.0
176
     0
 40
1.0
176
     0
 90
        0
176
     0
 62
    18
420
        0
176
     0
 90
       50
176
     0
 90
        3
176
     0
 62
     5
420
      255
176
     0
290
     0
176
     0
 90
       50
176
     0
 90
       50
176
     0
 90
       50
176
     0
290
     0
176
     0
 90
       50
176
     0
 62
   256
176
     0
 40
1.0
176
     0
 90
        2
176
     0
  1
strokes_ogs.tif
176
     0
290
     0
176
     0
 40
1.0
176
     0
 40
1.0
176
     0
  0
VISUALSTYLE
  5
38
102
{ACAD_REACTORS
330
2A
102
}
330
2A
100
AcDbVisualStyle
  2
Linepattern
 70
    14
177
     3
291
     1
 70
    58
 90
        2
176
     1
 90
        2
176
     1
 90
        0
176
     1
 90
        0
176
     1
 40
0.6
176
     1
 40
30.0
176
     1
 62
     7
420
 16777215
176
     1
 90
        1
176
     1
 90
        4
176
     1
 62
     7
176
     1
 62
   257
176
     1
 90
        7
176
     1
 90
        7
176
     1
 40
1.0
176
     1
 90
        8
176
     1
 62
     7
176
     1
 40
1.0
176
     1
 90
        1
176
     1
 90
        6
176
     1
 90
        2
176
     1
 62
     7
176
     1
 90
        5
176
     1
 90
        0
176
     1
 90
        0
176
     1
290
     0
176
     1
 90
        1
176
     1
 40
0.0
176
     1
 90
        0
176
     1
290
     0
176
     1
290
     1
176
     1
290
     1
176
     1
290
     0
176
     1
290
     0
176
     1
290
     0
176
     1
290
     0
176
     1
290
     0
176
     1
290
     0
176
     1
 90
       50
176
     1
 40
0.0
176
     1
 40
1.0
176
     1
 90
        0
176
     1
 62
    18
420
        0
176
     1
 90
       50
176
     1
 90
        3
176
     1
 62
     5
420
      255
176
     1
290
     0
176
     1
 90
       50
176
     1
 90
       50
176
     1
 90
       50
176
     1
290
     0
176
     1
 90
       50
176
     1
 62
   256
176
     0
 40
1.0
176
     0
 90
        2
176
     1
  1
strokes_ogs.tif
176
     1
290
     0
176
     1
 40
1.0
176
     1
 40
1.0
176
     1
  0
VISUALSTYLE
  5
3C
102
{ACAD_REACTORS
330
2A
102
}
330
2A
100
AcDbVisualStyle
  2
OverhangOff
 70
    21
177
     3
291
     1
 70
    58
 90
        2
176
     0
 90
        2
176
     0
 90
        0
176
     0
 90
        0
176
     0
 40
0.6
176
     0
 40
30.0
176
     0
 62
     7
420
 16777215
176
     0
 90
        1
176
     0
 90
        4
176
     0
 62
     7
176
     0
 62
   257
176
     0
 90
        1
176
     0
 90
        1
176
     0
 40
1.0
176
     0
 90
        9
176
     2
 62
     7
176
     0
 40
1.0
176
     0
 90
        1
176
     0
 90
        6
176
     0
 90
        2
176
     0
 62
     7
176
     0
 90
        5
176
     0
 90
        0
176
     0
 90
        0
176
     0
290
     0
176
     0
 90
        1
176
     0
 40
0.0
176
     0
 90
        0
176
     0
290
     0
176
     0
290
     1
176
     0
290
     1
176
     0
290
     0
176
     0
290
     0
176
     0
290
     0
176
     0
290
     0
176
     0
290
     0
176
     0
290
     0
176
     0
 90
       50
176
     0
 40
0.0
176
     0
 40
1.0
176
     0
 90
        0
176
     0
 62
    18
420
        0
176
     0
 90
       50
176
     0
 90
        3
176
     0
 62
     5
420
      255
176
     0
290
     0
176
     0
 90
       50
176
     0
 90
       50
176
     0
 90
       50
176
     0
290
     0
176
     0
 90
       50
176
     0
 62
   256
176
     0
 40
1.0
176
     0
 90
        2
176
     0
  1
strokes_ogs.tif
176
     0
290
     0
176
     0
 40
1.0
176
     0
 40
1.0
176
     0
  0
VISUALSTYLE
  5
33
102
{ACAD_REACTORS
330
2A
102
}
330
2A
100
AcDbVisualStyle
  2
Realistic
 70
     8
177
     3
291
     0
 70
    58
 90
        2
176
     1
 90
        3
176
     1
 90
        0
176
     1
 90
        2
176
     1
 40
0.6
176
     1
 40
30.0
176
     1
 62
     7
420
 16777215
176
     1
 90
        0
176
     1
 90
        0
176
     1
 62
     7
176
     1
 62
   257
176
     1
 90
        1
176
     1
 90
        1
176
     1
 40
1.0
176
     1
 90
        8
176
     1
 62
   257
176
     1
 40
1.0
176
     1
 90
        1
176
     1
 90
        6
176
     1
 90
        2
176
     1
 62
     7
176
     1
 90
        3
176
     1
 90
        0
176
     1
 90
        0
176
     1
290
     0
176
     1
 90
       13
176
     1
 40
0.0
176
     1
 90
        0
176
     1
290
     0
176
     1
290
     1
176
     1
290
     1
176
     1
290
     0
176
     1
290
     0
176
     1
290
     0
176
     1
290
     0
176
     1
290
     0
176
     1
290
     0
176
     1
 90
       50
176
     1
 40
0.0
176
     1
 40
1.0
176
     1
 90
        0
176
     1
 62
    18
420
        0
176
     1
 90
       50
176
     1
 90
        3
176
     1
 62
     5
420
      255
176
     1
290
     0
176
     1
 90
       50
176
     1
 90
       50
176
     1
 90
       50
176
     1
290
     0
176
     1
 90
       50
176
     1
 62
   256
176
     0
 40
1.0
176
     0
 90
        2
176
     1
  1
strokes_ogs.tif
176
     1
290
     0
176
     1
 40
1.0
176
     1
 40
1.0
176
     1
  0
VISUALSTYLE
  5
42
102
{ACAD_REACTORS
330
2A
102
}
330
2A
100
AcDbVisualStyle
  2
Shaded
 70
    27
177
     3
291
     0
 70
    58
 90
        2
176
     1
 90
        2
176
     1
 90
        1
176
     1
 90
        2
176
     1
 40
0.6
176
     1
 40
30.0
176
     1
 62
     7
420
 16777215
176
     1
 90
        0
176
     1
 90
        4
176
     1
 62
     7
176
     1
 62
   257
176
     1
 90
        1
176
     1
 90
        1
176
     1
 40
1.0
176
     1
 90
        8
176
     1
 62
   257
176
     1
 40
1.0
176
     1
 90
        1
176
     1
 90
        6
176
     1
 90
        2
176
     1
 62
     8
420
  7895160
176
     1
 90
        3
176
     1
 90
        0
176
     1
 90
        0
176
     1
290
     0
176
     1
 90
        5
176
     1
 40
0.0
176
     1
 90
        0
176
     1
290
     0
176
     1
290
     1
176
     1
290
     1
176
     1
290
     0
176
     1
290
     0
176
     1
290
     0
176
     1
290
     0
176
     1
290
     0
176
     1
290
     0
176
     1
 90
       50
176
     1
 40
0.0
176
     1
 40
1.0
176
     1
 90
        0
176
     1
 62
    18
420
        0
176
     1
 90
       50
176
     1
 90
        3
176
     1
 62
     5
420
      255
176
     1
290
     0
176
     1
 90
       50
176
     1
 90
       50
176
     1
 90
       50
176
     1
290
     0
176
     1
 90
       50
176
     1
 62
   256
176
     0
 40
1.0
176
     0
 90
        2
176
     1
  1
strokes_ogs.tif
176
     1
290
     0
176
     1
 40
1.0
176
     1
 40
1.0
176
     1
  0
VISUALSTYLE
  5
41
102
{ACAD_REACTORS
330
2A
102
}
330
2A
100
AcDbVisualStyle
  2
Shaded with edges
 70
    26
177
     3
291
     0
 70
    58
 90
        2
176
     1
 90
        2
176
     1
 90
        1
176
     1
 90
        2
176
     1
 40
0.6
176
     1
 40
30.0
176
     1
 62
     7
420
 16777215
176
     1
 90
        1
176
     1
 90
       10
176
     1
 62
     7
176
     1
 62
   257
176
     1
 90
        2
176
     1
 90
        1
176
     1
 40
1.0
176
     1
 90
        8
176
     1
 62
   257
176
     1
 40
1.0
176
     1
 90
        1
176
     1
 90
        6
176
     1
 90
        2
176
     1
 62
     7
176
     1
 90
        3
176
     1
 90
        0
176
     1
 90
        0
176
     1
290
     0
176
     1
 90
        5
176
     1
 40
0.0
176
     1
 90
        0
176
     1
290
     0
176
     1
290
     1
176
     1
290
     1
176
     1
290
     0
176
     1
290
     0
176
     1
290
     0
176
     1
290
     0
176
     1
290
     0
176
     1
290
     0
176
     1
 90
       50
176
     1
 40
0.0
176
     1
 40
1.0
176
     1
 90
        0
176
     1
 62
    18
420
        0
176
     1
 90
       50
176
     1
 90
        3
176
     1
 62
     5
420
      255
176
     1
290
     0
176
     1
 90
       50
176
     1
 90
       50
176
     1
 90
       50
176
     1
290
     0
176
     1
 90
       50
176
     1
 62
   256
176
     0
 40
1.0
176
     0
 90
        2
176
     1
  1
strokes_ogs.tif
176
     1
290
     0
176
     1
 40
1.0
176
     1
 40
1.0
176
     1
  0
VISUALSTYLE
  5
3E
102
{ACAD_REACTORS
330
2A
102
}
330
2A
100
AcDbVisualStyle
  2
Shades of Gray
 70
    23
177
     3
291
     0
 70
    58
 90
        2
176
     1
 90
        2
176
     1
 90
        3
176
     1
 90
        0
176
     1
 40
0.6
176
     1
 40
30.0
176
     1
 62
     7
420
 16777215
176
     1
 90
        2
176
     1
 90
        2
176
     1
 62
     7
176
     1
 62
     7
176
     1
 90
        1
176
     1
 90
        1
176
     1
 40
40.0
176
     1
 90
        8
176
     1
 62
     7
176
     1
 40
1.0
176
     1
 90
        1
176
     1
 90
        6
176
     1
 90
        2
176
     1
 62
     7
176
     1
 90
        3
176
     1
 90
        0
176
     1
 90
        0
176
     1
290
     0
176
     1
 90
        1
176
     1
 40
0.0
176
     1
 90
        0
176
     1
290
     0
176
     1
290
     1
176
     1
290
     1
176
     1
290
     0
176
     1
290
     0
176
     1
290
     0
176
     1
290
     0
176
     1
290
     0
176
     1
290
     0
176
     1
 90
       50
176
     1
 40
0.0
176
     1
 40
1.0
176
     1
 90
        0
176
     1
 62
    18
420
        0
176
     1
 90
       50
176
     1
 90
        3
176
     1
 62
     5
420
      255
176
     1
290
     0
176
     1
 90
       50
176
     1
 90
       50
176
     1
 90
       50
176
     1
290
     0
176
     1
 90
       50
176
     1
 62
   256
176
     0
 40
1.0
176
     0
 90
        2
176
     1
  1
strokes_ogs.tif
176
     1
290
     0
176
     1
 40
1.0
176
     1
 40
1.0
176
     1
  0
VISUALSTYLE
  5
3F
102
{ACAD_REACTORS
330
2A
102
}
330
2A
100
AcDbVisualStyle
  2
Sketchy
 70
    24
177
     3
291
     0
 70
    58
 90
        1
176
     1
 90
        2
176
     1
 90
        2
176
     1
 90
        0
176
     1
 40
0.6
176
     1
 40
30.0
176
     1
 62
     7
420
 16777215
176
     1
 90
        2
176
     1
 90
        2
176
     1
 62
     7
176
     1
 62
     7
176
     1
 90
        1
176
     1
 90
        1
176
     1
 40
40.0
176
     1
 90
       11
176
     1
 62
     7
176
     1
 40
1.0
176
     1
 90
        1
176
     1
 90
        6
176
     1
 90
        2
176
     1
 62
     7
176
     1
 90
        6
176
     1
 90
        0
176
     1
 90
        0
176
     1
290
     0
176
     1
 90
        1
176
     1
 40
0.0
176
     1
 90
        0
176
     1
290
     0
176
     1
290
     1
176
     1
290
     1
176
     1
290
     0
176
     1
290
     0
176
     1
290
     0
176
     1
290
     0
176
     1
290
     0
176
     1
290
     0
176
     1
 90
       50
176
     1
 40
0.0
176
     1
 40
1.0
176
     1
 90
        0
176
     1
 62
    18
420
        0
176
     1
 90
       50
176
     1
 90
        3
176
     1
 62
     5
420
      255
176
     1
290
     0
176
     1
 90
       50
176
     1
 90
       50
176
     1
 90
       50
176
     1
290
     0
176
     1
 90
       50
176
     1
 62
   256
176
     0
 40
1.0
176
     0
 90
        2
176
     1
  1
strokes_ogs.tif
176
     1
290
     0
176
     1
 40
1.0
176
     1
 40
1.0
176
     1
  0
VISUALSTYLE
  5
37
102
{ACAD_REACTORS
330
2A
102
}
330
2A
100
AcDbVisualStyle
  2
Thicken
 70
    13
177
     3
291
     1
 70
    58
 90
        2
176
     1
 90
        2
176
     1
 90
        0
176
     1
 90
        0
176
     1
 40
0.6
176
     1
 40
30.0
176
     1
 62
     7
420
 16777215
176
     1
 90
        1
176
     1
 90
        4
176
     1
 62
     7
176
     1
 62
   257
176
     1
 90
        1
176
     1
 90
        1
176
     1
 40
1.0
176
     1
 90
       12
176
     1
 62
     7
176
     1
 40
1.0
176
     1
 90
        1
176
     1
 90
        6
176
     1
 90
        2
176
     1
 62
     7
176
     1
 90
        5
176
     1
 90
        0
176
     1
 90
        0
176
     1
290
     0
176
     1
 90
        1
176
     1
 40
0.0
176
     1
 90
        0
176
     1
290
     0
176
     1
290
     1
176
     1
290
     1
176
     1
290
     0
176
     1
290
     0
176
     1
290
     0
176
     1
290
     0
176
     1
290
     0
176
     1
290
     0
176
     1
 90
       50
176
     1
 40
0.0
176
     1
 40
1.0
176
     1
 90
        0
176
     1
 62
    18
420
        0
176
     1
 90
       50
176
     1
 90
        3
176
     1
 62
     5
420
      255
176
     1
290
     0
176
     1
 90
       50
176
     1
 90
       50
176
     1
 90
       50
176
     1
290
     0
176
     1
 90
       50
176
     1
 62
   256
176
     0
 40
1.0
176
     0
 90
        2
176
     1
  1
strokes_ogs.tif
176
     1
290
     0
176
     1
 40
1.0
176
     1
 40
1.0
176
     1
  0
VISUALSTYLE
  5
30
102
{ACAD_REACTORS
330
2A
102
}
330
2A
100
AcDbVisualStyle
  2
Wireframe
 70
     5
177
     3
291
     0
 70
    58
 90
        0
176
     1
 90
        2
176
     1
 90
        0
176
     1
 90
        0
176
     1
 40
0.6
176
     1
 40
30.0
176
     1
 62
     7
420
 16777215
176
     1
 90
        1
176
     1
 90
        4
176
     1
 62
     7
176
     1
 62
   257
176
     1
 90
        1
176
     1
 90
        1
176
     1
 40
1.0
176
     1
 90
        0
176
     1
 62
   257
176
     1
 40
1.0
176
     1
 90
        1
176
     1
 90
        6
176
     1
 90
        2
176
     1
 62
     7
176
     1
 90
        3
176
     1
 90
        0
176
     1
 90
        0
176
     1
290
     0
176
     1
 90
        1
176
     1
 40
0.0
176
     1
 90
        0
176
     1
290
     0
176
     1
290
     1
176
     1
290
     1
176
     1
290
     0
176
     1
290
     0
176
     1
290
     0
176
     1
290
     0
176
     1
290
     0
176
     1
290
     0
176
     1
 90
       50
176
     1
 40
0.0
176
     1
 40
1.0
176
     1
 90
        0
176
     1
 62
    18
420
        0
176
     1
 90
       50
176
     1
 90
        3
176
     1
 62
     5
420
      255
176
     1
290
     0
176
     1
 90
       50
176
     1
 90
       50
176
     1
 90
       50
176
     1
290
     0
176
     1
 90
       50
176
     1
 62
   256
176
     0
 40
1.0
176
     0
 90
        2
176
     1
  1
strokes_ogs.tif
176
     1
290
     0
176
     1
 40
1.0
176
     1
 40
1.0
176
     1
  0
VISUALSTYLE
  5
40
102
{ACAD_REACTORS
330
2A
102
}
330
2A
100
AcDbVisualStyle
  2
X-Ray
 70
    25
177
     3
291
     0
 70
    58
 90
        2
176
     1
 90
        2
176
     1
 90
        1
176
     1
 90
        1
176
     1
 40
0.5
176
     1
 40
30.0
176
     1
 62
     7
420
 16777215
176
     1
 90
        1
176
     1
 90
        0
176
     1
 62
     7
176
     1
 62
   257
176
     1
 90
        1
176
     1
 90
        1
176
     1
 40
1.0
176
     1
 90
        8
176
     1
 62
     7
176
     1
 40
1.0
176
     1
 90
        1
176
     1
 90
        6
176
     1
 90
        2
176
     1
 62
     7
176
     1
 90
        3
176
     1
 90
        0
176
     1
 90
        0
176
     1
290
     0
176
     1
 90
       13
176
     1
 40
0.0
176
     1
 90
        0
176
     1
290
     0
176
     1
290
     1
176
     1
290
     1
176
     1
290
     0
176
     1
290
     0
176
     1
290
     0
176
     1
290
     0
176
     1
290
     0
176
     1
290
     0
176
     1
 90
       50
176
     1
 40
0.0
176
     1
 40
1.0
176
     1
 90
        0
176
     1
 62
    18
420
        0
176
     1
 90
       50
176
     1
 90
        3
176
     1
 62
     5
420
      255
176
     1
290
     0
176
     1
 90
       50
176
     1
 90
       50
176
     1
 90
       50
176
     1
290
     0
176
     1
 90
       50
176
     1
 62
   256
176
     0
 40
1.0
176
     0
 90
        2
176
     1
  1
strokes_ogs.tif
176
     1
290
     0
176
     1
 40
1.0
176
     1
 40
1.0
176
     1
  0
DICTIONARYVAR
  5
1BB
102
{ACAD_REACTORS
330
1BA
102
}
330
1BA
100
DictionaryVariables
280
     0
  1
1:1
  0
DICTIONARYVAR
  5
1C0
102
{ACAD_REACTORS
330
1BA
102
}
330
1BA
100
DictionaryVariables
280
     0
  1
Standard
  0
DICTIONARYVAR
  5
1BF
102
{ACAD_REACTORS
330
1BA
102
}
330
1BA
100
DictionaryVariables
280
     0
  1
Standard
  0
DICTIONARY
  5
1BC
330
6A
100
AcDbDictionary
280
     1
281
     1
  3
ACAD_ROUNDTRIP_2008_TABLESTYLE_CELLSTYLEMAP
360
1BD
  0
CELLSTYLEMAP
  5
1BD
102
{ACAD_REACTORS
330
1BC
102
}
330
1BC
100
AcDbCellStyleMap
 90
        3
300
CELLSTYLE
  1
TABLEFORMAT_BEGIN
 90
        5
170
     1
 91
        0
 92
    32768
 62
   257
 93
        1
300
CONTENTFORMAT
  1
CONTENTFORMAT_BEGIN
 90
        0
 91
        0
 92
        4
 93
        0
300

 40
0.0
140
1.0
 94
        5
 62
     0
340
11
144
6.0
309
CONTENTFORMAT_END
171
     1
301
MARGIN
  1
CELLMARGIN_BEGIN
 40
1.5
 40
1.5
 40
1.5
 40
1.5
 40
1.5
 40
1.5
309
CELLMARGIN_END
 94
        6
 95
        1
302
GRIDFORMAT
  1
GRIDFORMAT_BEGIN
 90
        0
 91
        1
 62
     0
 92
       -2
340
14
 93
        0
 40
0.045
309
GRIDFORMAT_END
 95
        2
302
GRIDFORMAT
  1
GRIDFORMAT_BEGIN
 90
        0
 91
        1
 62
     0
 92
       -2
340
14
 93
        0
 40
0.045
309
GRIDFORMAT_END
 95
        4
302
GRIDFORMAT
  1
GRIDFORMAT_BEGIN
 90
        0
 91
        1
 62
     0
 92
       -2
340
14
 93
        0
 40
0.045
309
GRIDFORMAT_END
 95
        8
302
GRIDFORMAT
  1
GRIDFORMAT_BEGIN
 90
        0
 91
        1
 62
     0
 92
       -2
340
14
 93
        0
 40
0.045
309
GRIDFORMAT_END
 95
       16
302
GRIDFORMAT
  1
GRIDFORMAT_BEGIN
 90
        0
 91
        1
 62
     0
 92
       -2
340
14
 93
        0
 40
0.045
309
GRIDFORMAT_END
 95
       32
302
GRIDFORMAT
  1
GRIDFORMAT_BEGIN
 90
        0
 91
        1
 62
     0
 92
       -2
340
14
 93
        0
 40
0.045
309
GRIDFORMAT_END
309
TABLEFORMAT_END
  1
CELLSTYLE_BEGIN
 90
        1
 91
        1
300
_TITLE
309
CELLSTYLE_END
300
CELLSTYLE
  1
TABLEFORMAT_BEGIN
 90
        5
170
     1
 91
        0
 92
        0
 62
   257
 93
        1
300
CONTENTFORMAT
  1
CONTENTFORMAT_BEGIN
 90
        0
 91
        0
 92
        4
 93
        0
300

 40
0.0
140
1.0
 94
        5
 62
     0
340
11
144
4.5
309
CONTENTFORMAT_END
171
     1
301
MARGIN
  1
CELLMARGIN_BEGIN
 40
1.5
 40
1.5
 40
1.5
 40
1.5
 40
1.5
 40
1.5
309
CELLMARGIN_END
 94
        6
 95
        1
302
GRIDFORMAT
  1
GRIDFORMAT_BEGIN
 90
        0
 91
        1
 62
     0
 92
       -2
340
14
 93
        0
 40
0.045
309
GRIDFORMAT_END
 95
        2
302
GRIDFORMAT
  1
GRIDFORMAT_BEGIN
 90
        0
 91
        1
 62
     0
 92
       -2
340
14
 93
        0
 40
0.045
309
GRIDFORMAT_END
 95
        4
302
GRIDFORMAT
  1
GRIDFORMAT_BEGIN
 90
        0
 91
        1
 62
     0
 92
       -2
340
14
 93
        0
 40
0.045
309
GRIDFORMAT_END
 95
        8
302
GRIDFORMAT
  1
GRIDFORMAT_BEGIN
 90
        0
 91
        1
 62
     0
 92
       -2
340
14
 93
        0
 40
0.045
309
GRIDFORMAT_END
 95
       16
302
GRIDFORMAT
  1
GRIDFORMAT_BEGIN
 90
        0
 91
        1
 62
     0
 92
       -2
340
14
 93
        0
 40
0.045
309
GRIDFORMAT_END
 95
       32
302
GRIDFORMAT
  1
GRIDFORMAT_BEGIN
 90
        0
 91
        1
 62
     0
 92
       -2
340
14
 93
        0
 40
0.045
309
GRIDFORMAT_END
309
TABLEFORMAT_END
  1
CELLSTYLE_BEGIN
 90
        2
 91
        1
300
_HEADER
309
CELLSTYLE_END
300
CELLSTYLE
  1
TABLEFORMAT_BEGIN
 90
        5
170
     1
 91
        0
 92
        0
 62
   257
 93
        1
300
CONTENTFORMAT
  1
CONTENTFORMAT_BEGIN
 90
        0
 91
        0
 92
        4
 93
        0
300

 40
0.0
140
1.0
 94
        2
 62
     0
340
11
144
4.5
309
CONTENTFORMAT_END
171
     1
301
MARGIN
  1
CELLMARGIN_BEGIN
 40
1.5
 40
1.5
 40
1.5
 40
1.5
 40
1.5
 40
1.5
309
CELLMARGIN_END
 94
        6
 95
        1
302
GRIDFORMAT
  1
GRIDFORMAT_BEGIN
 90
        0
 91
        1
 62
     0
 92
       -2
340
14
 93
        0
 40
0.045
309
GRIDFORMAT_END
 95
        2
302
GRIDFORMAT
  1
GRIDFORMAT_BEGIN
 90
        0
 91
        1
 62
     0
 92
       -2
340
14
 93
        0
 40
0.045
309
GRIDFORMAT_END
 95
        4
302
GRIDFORMAT
  1
GRIDFORMAT_BEGIN
 90
        0
 91
        1
 62
     0
 92
       -2
340
14
 93
        0
 40
0.045
309
GRIDFORMAT_END
 95
        8
302
GRIDFORMAT
  1
GRIDFORMAT_BEGIN
 90
        0
 91
        1
 62
     0
 92
       -2
340
14
 93
        0
 40
0.045
309
GRIDFORMAT_END
 95
       16
302
GRIDFORMAT
  1
GRIDFORMAT_BEGIN
 90
        0
 91
        1
 62
     0
 92
       -2
340
14
 93
        0
 40
0.045
309
GRIDFORMAT_END
 95
       32
302
GRIDFORMAT
  1
GRIDFORMAT_BEGIN
 90
        0
 91
        1
 62
     0
 92
       -2
340
14
 93
        0
 40
0.045
309
GRIDFORMAT_END
309
TABLEFORMAT_END
  1
CELLSTYLE_BEGIN
 90
        3
 91
        2
300
_DATA
309
CELLSTYLE_END
  0
ENDSEC
  0
EOF