0
SECTION
  2
HEADER
  9
$ACADVER
  1
AC1027
  9
$ACADMAINTVER
 70
     8
  9
$DWGCODEPAGE
  3
ANSI_1252
  9
$REQUIREDVERSIONS
160
                 0
  9
$COMMENTS
  1
File was created by Cadenas
  9
$CUSTOMPROPERTYTAG
  1
NN
  9
$CUSTOMPROPERTY
  1
Grip Tight Four-Bolt Flange Metric Bore
  9
$CUSTOMPROPERTYTAG
  1
NT
  9
$CUSTOMPROPERTY
  1
GT Normal Duty 4 Bolt Flange Bearings
  9
$CUSTOMPROPERTYTAG
  1
NB
  9
$CUSTOMPROPERTY
  1
129670
  9
$CUSTOMPROPERTYTAG
  1
NBSYN
  9
$CUSTOMPROPERTY
  1
$PN.$LUBE.
  9
$CUSTOMPROPERTYTAG
  1
LINA
  9
$CUSTOMPROPERTY
  1
129670
  9
$CUSTOMPROPERTYTAG
  1
SERIES
  9
$CUSTOMPROPERTY
  1
206
  9
$CUSTOMPROPERTYTAG
  1
SS
  9
$CUSTOMPROPERTY
  1
30
  9
$CUSTOMPROPERTYTAG
  1
PN
  9
$CUSTOMPROPERTY
  1
129670
  9
$CUSTOMPROPERTYTAG
  1
DESCRIPTION
  9
$CUSTOMPROPERTY
  1
F4B-GT-30M
  9
$CUSTOMPROPERTYTAG
  1
A
  9
$CUSTOMPROPERTY
  1
40.9
  9
$CUSTOMPROPERTYTAG
  1
B
  9
$CUSTOMPROPERTY
  1
108.0
  9
$CUSTOMPROPERTYTAG
  1
C
  9
$CUSTOMPROPERTY
  1
43.3
  9
$CUSTOMPROPERTYTAG
  1
D
  9
$CUSTOMPROPERTY
  1
82.5
  9
$CUSTOMPROPERTYTAG
  1
F
  9
$CUSTOMPROPERTY
  1
M10
  9
$CUSTOMPROPERTYTAG
  1
H
  9
$CUSTOMPROPERTY
  1
12.7
  9
$CUSTOMPROPERTYTAG
  1
J
  9
$CUSTOMPROPERTY
  1
15.1
  9
$CUSTOMPROPERTYTAG
  1
L
  9
$CUSTOMPROPERTY
  1
50.8
  9
$CUSTOMPROPERTYTAG
  1
N
  9
$CUSTOMPROPERTY
  1
55.6
  9
$CUSTOMPROPERTYTAG
  1
Z
  9
$CUSTOMPROPERTY
  1
42.1
  9
$CUSTOMPROPERTYTAG
  1
COMPANY
  9
$CUSTOMPROPERTY
  1
baldor
  9
$INSBASE
 10
0.0
 20
0.0
 30
0.0
  9
$EXTMIN
 10
1.000000000000000E+20
 20
1.000000000000000E+20
 30
1.000000000000000E+20
  9
$EXTMAX
 10
-1.000000000000000E+20
 20
-1.000000000000000E+20
 30
-1.000000000000000E+20
  9
$LIMMIN
 10
0.0
 20
0.0
  9
$LIMMAX
 10
420.0
 20
297.0
  9
$ORTHOMODE
 70
     0
  9
$REGENMODE
 70
     1
  9
$FILLMODE
 70
     1
  9
$QTEXTMODE
 70
     0
  9
$MIRRTEXT
 70
     1
  9
$LTSCALE
 40
1.0
  9
$ATTMODE
 70
     1
  9
$TEXTSIZE
 40
2.5
  9
$TRACEWID
 40
1.0
  9
$TEXTSTYLE
  7
Standard
  9
$CLAYER
  8
0
  9
$CELTYPE
  6
ByLayer
  9
$CECOLOR
 62
   256
  9
$CELTSCALE
 40
1.0
  9
$DISPSILH
 70
     0
  9
$DIMSCALE
 40
1.0
  9
$DIMASZ
 40
2.5
  9
$DIMEXO
 40
0.625
  9
$DIMDLI
 40
3.75
  9
$DIMRND
 40
0.0
  9
$DIMDLE
 40
0.0
  9
$DIMEXE
 40
1.25
  9
$DIMTP
 40
0.0
  9
$DIMTM
 40
0.0
  9
$DIMTXT
 40
2.5
  9
$DIMCEN
 40
2.5
  9
$DIMTSZ
 40
0.0
  9
$DIMTOL
 70
     0
  9
$DIMLIM
 70
     0
  9
$DIMTIH
 70
     0
  9
$DIMTOH
 70
     0
  9
$DIMSE1
 70
     0
  9
$DIMSE2
 70
     0
  9
$DIMTAD
 70
     1
  9
$DIMZIN
 70
     8
  9
$DIMBLK
  1

  9
$DIMASO
 70
     1
  9
$DIMSHO
 70
     1
  9
$DIMPOST
  1

  9
$DIMAPOST
  1

  9
$DIMALT
 70
     0
  9
$DIMALTD
 70
     3
  9
$DIMALTF
 40
0.03937007874016
  9
$DIMLFAC
 40
1.0
  9
$DIMTOFL
 70
     1
  9
$DIMTVP
 40
0.0
  9
$DIMTIX
 70
     0
  9
$DIMSOXD
 70
     0
  9
$DIMSAH
 70
     0
  9
$DIMBLK1
  1

  9
$DIMBLK2
  1

  9
$DIMSTYLE
  2
ISO-25
  9
$DIMCLRD
 70
     0
  9
$DIMCLRE
 70
     0
  9
$DIMCLRT
 70
     0
  9
$DIMTFAC
 40
1.0
  9
$DIMGAP
 40
0.625
  9
$DIMJUST
 70
     0
  9
$DIMSD1
 70
     0
  9
$DIMSD2
 70
     0
  9
$DIMTOLJ
 70
     0
  9
$DIMTZIN
 70
     8
  9
$DIMALTZ
 70
     0
  9
$DIMALTTZ
 70
     0
  9
$DIMUPT
 70
     0
  9
$DIMDEC
 70
     2
  9
$DIMTDEC
 70
     2
  9
$DIMALTU
 70
     2
  9
$DIMALTTD
 70
     3
  9
$DIMTXSTY
  7
Standard
  9
$DIMAUNIT
 70
     0
  9
$DIMADEC
 70
     0
  9
$DIMALTRND
 40
0.0
  9
$DIMAZIN
 70
     0
  9
$DIMDSEP
 70
    44
  9
$DIMATFIT
 70
     3
  9
$DIMFRAC
 70
     0
  9
$DIMLDRBLK
  1

  9
$DIMLUNIT
 70
     2
  9
$DIMLWD
 70
    -2
  9
$DIMLWE
 70
    -2
  9
$DIMTMOVE
 70
     0
  9
$DIMFXL
 40
1.0
  9
$DIMFXLON
 70
     0
  9
$DIMJOGANG
 40
0.7853981633974483
  9
$DIMTFILL
 70
     0
  9
$DIMTFILLCLR
 70
     0
  9
$DIMARCSYM
 70
     0
  9
$DIMLTYPE
  6

  9
$DIMLTEX1
  6

  9
$DIMLTEX2
  6

  9
$DIMTXTDIRECTION
 70
     0
  9
$LUNITS
 70
     2
  9
$LUPREC
 70
     4
  9
$SKETCHINC
 40
1.0
  9
$FILLETRAD
 40
10.0
  9
$AUNITS
 70
     0
  9
$AUPREC
 70
     0
  9
$MENU
  1
.
  9
$ELEVATION
 40
0.0
  9
$PELEVATION
 40
0.0
  9
$THICKNESS
 40
0.0
  9
$LIMCHECK
 70
     0
  9
$CHAMFERA
 40
0.0
  9
$CHAMFERB
 40
0.0
  9
$CHAMFERC
 40
0.0
  9
$CHAMFERD
 40
0.0
  9
$SKPOLY
 70
     0
  9
$TDCREATE
 40
2458168.973810683
  9
$TDUCREATE
 40
2458168.932144016
  9
$TDUPDATE
 40
2458168.973810683
  9
$TDUUPDATE
 40
2458168.932144016
  9
$TDINDWG
 40
0.0000000116
  9
$TDUSRTIMER
 40
0.0000000116
  9
$USRTIMER
 70
     1
  9
$ANGBASE
 50
0.0
  9
$ANGDIR
 70
     0
  9
$PDMODE
 70
     0
  9
$PDSIZE
 40
0.0
  9
$PLINEWID
 40
0.0
  9
$SPLFRAME
 70
     0
  9
$SPLINETYPE
 70
     6
  9
$SPLINESEGS
 70
     8
  9
$HANDSEED
  5
1F0
  9
$SURFTAB1
 70
     6
  9
$SURFTAB2
 70
     6
  9
$SURFTYPE
 70
     6
  9
$SURFU
 70
     6
  9
$SURFV
 70
     6
  9
$UCSBASE
  2

  9
$UCSNAME
  2

  9
$UCSORG
 10
0.0
 20
0.0
 30
0.0
  9
$UCSXDIR
 10
1.0
 20
0.0
 30
0.0
  9
$UCSYDIR
 10
0.0
 20
1.0
 30
0.0
  9
$UCSORTHOREF
  2

  9
$UCSORTHOVIEW
 70
     0
  9
$UCSORGTOP
 10
0.0
 20
0.0
 30
0.0
  9
$UCSORGBOTTOM
 10
0.0
 20
0.0
 30
0.0
  9
$UCSORGLEFT
 10
0.0
 20
0.0
 30
0.0
  9
$UCSORGRIGHT
 10
0.0
 20
0.0
 30
0.0
  9
$UCSORGFRONT
 10
0.0
 20
0.0
 30
0.0
  9
$UCSORGBACK
 10
0.0
 20
0.0
 30
0.0
  9
$PUCSBASE
  2

  9
$PUCSNAME
  2

  9
$PUCSORG
 10
0.0
 20
0.0
 30
0.0
  9
$PUCSXDIR
 10
1.0
 20
0.0
 30
0.0
  9
$PUCSYDIR
 10
0.0
 20
1.0
 30
0.0
  9
$PUCSORTHOREF
  2

  9
$PUCSORTHOVIEW
 70
     0
  9
$PUCSORGTOP
 10
0.0
 20
0.0
 30
0.0
  9
$PUCSORGBOTTOM
 10
0.0
 20
0.0
 30
0.0
  9
$PUCSORGLEFT
 10
0.0
 20
0.0
 30
0.0
  9
$PUCSORGRIGHT
 10
0.0
 20
0.0
 30
0.0
  9
$PUCSORGFRONT
 10
0.0
 20
0.0
 30
0.0
  9
$PUCSORGBACK
 10
0.0
 20
0.0
 30
0.0
  9
$USERI1
 70
     0
  9
$USERI2
 70
     0
  9
$USERI3
 70
     0
  9
$USERI4
 70
     0
  9
$USERI5
 70
     0
  9
$USERR1
 40
0.0
  9
$USERR2
 40
0.0
  9
$USERR3
 40
0.0
  9
$USERR4
 40
0.0
  9
$USERR5
 40
0.0
  9
$WORLDVIEW
 70
     1
  9
$SHADEDGE
 70
     3
  9
$SHADEDIF
 70
    70
  9
$TILEMODE
 70
     1
  9
$MAXACTVP
 70
    64
  9
$PINSBASE
 10
0.0
 20
0.0
 30
0.0
  9
$PLIMCHECK
 70
     0
  9
$PEXTMIN
 10
1.000000000000000E+20
 20
1.000000000000000E+20
 30
1.000000000000000E+20
  9
$PEXTMAX
 10
-1.000000000000000E+20
 20
-1.000000000000000E+20
 30
-1.000000000000000E+20
  9
$PLIMMIN
 10
0.0
 20
0.0
  9
$PLIMMAX
 10
420.0
 20
297.0
  9
$UNITMODE
 70
     0
  9
$VISRETAIN
 70
     1
  9
$PLINEGEN
 70
     0
  9
$PSLTSCALE
 70
     1
  9
$TREEDEPTH
 70
  3020
  9
$CMLSTYLE
  2
Standard
  9
$CMLJUST
 70
     0
  9
$CMLSCALE
 40
20.0
  9
$PROXYGRAPHICS
 70
     1
  9
$MEASUREMENT
 70
     1
  9
$CELWEIGHT
370
    -1
  9
$ENDCAPS
280
     0
  9
$JOINSTYLE
280
     0
  9
$LWDISPLAY
290
     0
  9
$INSUNITS
 70
     4
  9
$HYPERLINKBASE
  1

  9
$STYLESHEET
  1

  9
$XEDIT
290
     1
  9
$CEPSNTYPE
380
     0
  9
$PSTYLEMODE
290
     1
  9
$FINGERPRINTGUID
  2
{9E775CE9-55B5-44C6-9C39-3802B52A19BF}
  9
$VERSIONGUID
  2
{FAEB1C32-E019-11D5-929B-00C0DF256EC4}
  9
$EXTNAMES
290
     1
  9
$PSVPSCALE
 40
0.0
  9
$OLESTARTUP
290
     0
  9
$SORTENTS
280
   127
  9
$INDEXCTL
280
     0
  9
$HIDETEXT
280
     1
  9
$XCLIPFRAME
280
     2
  9
$HALOGAP
280
     0
  9
$OBSCOLOR
 70
   257
  9
$OBSLTYPE
280
     0
  9
$INTERSECTIONDISPLAY
280
     0
  9
$INTERSECTIONCOLOR
 70
   257
  9
$DIMASSOC
280
     2
  9
$PROJECTNAME
  1

  9
$CAMERADISPLAY
290
     0
  9
$LENSLENGTH
 40
50.0
  9
$CAMERAHEIGHT
 40
0.0
  9
$STEPSPERSEC
 40
2.0
  9
$STEPSIZE
 40
6.0
  9
$3DDWFPREC
 40
2.0
  9
$PSOLWIDTH
 40
5.0
  9
$PSOLHEIGHT
 40
80.0
  9
$LOFTANG1
 40
1.570796326794897
  9
$LOFTANG2
 40
1.570796326794897
  9
$LOFTMAG1
 40
0.0
  9
$LOFTMAG2
 40
0.0
  9
$LOFTPARAM
 70
     7
  9
$LOFTNORMALS
280
     1
  9
$LATITUDE
 40
37.795
  9
$LONGITUDE
 40
-122.394
  9
$NORTHDIRECTION
 40
0.0
  9
$TIMEZONE
 70
 -8000
  9
$LIGHTGLYPHDISPLAY
280
     1
  9
$TILEMODELIGHTSYNCH
280
     1
  9
$CMATERIAL
347
44
  9
$SOLIDHIST
280
     0
  9
$SHOWHIST
280
     1
  9
$DWFFRAME
280
     2
  9
$DGNFRAME
280
     2
  9
$REALWORLDSCALE
290
     1
  9
$INTERFERECOLOR
 62
   256
  9
$CSHADOW
280
     0
  9
$SHADOWPLANELOCATION
 40
0.0
  0
ENDSEC
  0
SECTION
  2
CLASSES
  0
CLASS
  1
ACDBDICTIONARYWDFLT
  2
AcDbDictionaryWithDefault
  3
ObjectDBX Classes
 90
        0
 91
        4
280
     0
281
     0
  0
CLASS
  1
VISUALSTYLE
  2
AcDbVisualStyle
  3
ObjectDBX Classes
 90
     4095
 91
        4
280
     0
281
     0
  0
CLASS
  1
MATERIAL
  2
AcDbMaterial
  3
ObjectDBX Classes
 90
     1153
 91
        4
280
     0
281
     0
  0
CLASS
  1
SCALE
  2
AcDbScale
  3
ObjectDBX Classes
 90
     1153
 91
        4
280
     0
281
     0
  0
CLASS
  1
TABLESTYLE
  2
AcDbTableStyle
  3
ObjectDBX Classes
 90
     4095
 91
        4
280
     0
281
     0
  0
CLASS
  1
MLEADERSTYLE
  2
AcDbMLeaderStyle
  3
ACDB_MLEADERSTYLE_CLASS
 90
     4095
 91
        4
280
     0
281
     0
  0
CLASS
  1
SUN
  2
AcDbSun
  3
SCENEOE
 90
     1153
 91
        4
280
     0
281
     0
  0
CLASS
  1
DICTIONARYVAR
  2
AcDbDictionaryVar
  3
ObjectDBX Classes
 90
        0
 91
        4
280
     0
281
     0
  0
CLASS
  1
CELLSTYLEMAP
  2
AcDbCellStyleMap
  3
ObjectDBX Classes
 90
     1152
 91
        4
280
     0
281
     0
  0
ENDSEC
  0
SECTION
  2
TABLES
  0
TABLE
  2
VPORT
  5
8
330
0
100
AcDbSymbolTable
 70
     1
  0
VPORT
  5
29
330
8
100
AcDbSymbolTableRecord
100
AcDbViewportTableRecord
  2
*Active
 70
     0
 10
0.0
 20
0.0
 11
1.0
 21
1.0
 12
0.0
 22
-21.9975
 13
0.0
 23
0.0
 14
10.0
 24
10.0
 15
10.0
 25
10.0
 16
0.0
 26
0.0
 36
1.0
 17
0.0
 27
0.0
 37
0.0
 40
47.62889999999999
 41
2.312881464824928
 42
50.0
 43
0.0
 44
0.0
 50
0.0
 51
0.0
 71
     0
 72
   100
 73
     1
 74
     3
 75
     0
 76
     0
 77
     0
 78
     0
281
     0
 65
     1
110
0.0
120
0.0
130
0.0
111
1.0
121
0.0
131
0.0
112
0.0
122
1.0
132
0.0
 79
     0
146
0.0
348
2F
 60
     3
 61
     5
292
     1
282
     1
141
0.0
142
0.0
 63
   250
361
6D
  0
ENDTAB
  0
TABLE
  2
LTYPE
  5
5
330
0
100
AcDbSymbolTable
 70
     3
  0
LTYPE
  5
14
330
5
100
AcDbSymbolTableRecord
100
AcDbLinetypeTableRecord
  2
ByBlock
 70
     0
  3

 72
    65
 73
     0
 40
0.0
  0
LTYPE
  5
15
330
5
100
AcDbSymbolTableRecord
100
AcDbLinetypeTableRecord
  2
ByLayer
 70
     0
  3

 72
    65
 73
     0
 40
0.0
  0
LTYPE
  5
16
330
5
100
AcDbSymbolTableRecord
100
AcDbLinetypeTableRecord
  2
Continuous
 70
     0
  3
Solid line
 72
    65
 73
     0
 40
0.0
  0
LTYPE
  5
9D
330
5
100
AcDbSymbolTableRecord
100
AcDbLinetypeTableRecord
  2
Dashed
 70
     0
  3

 72
    65
 73
     2
 40
2.0
 49
1.0
 74
     0
 49
-1.0
 74
     0
  0
LTYPE
  5
10E
330
5
100
AcDbSymbolTableRecord
100
AcDbLinetypeTableRecord
  2
Center
 70
     0
  3

 72
    65
 73
     4
 40
1.5
 49
0.45
 74
     0
 49
-0.5
 74
     0
 49
0.05
 74
     0
 49
-0.5
 74
     0
  0
ENDTAB
  0
TABLE
  2
LAYER
  5
2
330
0
100
AcDbSymbolTable
 70
     7
  0
LAYER
  5
10
330
2
100
AcDbSymbolTableRecord
100
AcDbLayerTableRecord
  2
0
 70
     0
 62
     7
  6
Continuous
370
    -3
390
F
347
46
348
0
  0
LAYER
  5
72
330
2
100
AcDbSymbolTableRecord
100
AcDbLayerTableRecord
  2
AM_6
 70
     0
 62
    -2
  6
Continuous
370
    35
390
F
347
46
348
0
  0
LAYER
  5
9E
330
2
100
AcDbSymbolTableRecord
100
AcDbLayerTableRecord
  2
AM_9
 70
     0
 62
     6
  6
Dashed
370
    25
390
F
347
46
348
0
  0
LAYER
  5
D6
330
2
100
AcDbSymbolTableRecord
100
AcDbLayerTableRecord
  2
AM_4
 70
     0
 62
     7
  6
Continuous
370
    50
390
F
347
46
348
0
  0
LAYER
  5
10B
330
2
100
AcDbSymbolTableRecord
100
AcDbLayerTableRecord
  2
AM_5
 70
     0
 62
     3
  6
Continuous
370
    25
390
F
347
46
348
0
  0
LAYER
  5
10F
330
2
100
AcDbSymbolTableRecord
100
AcDbLayerTableRecord
  2
AM_7
 70
     0
 62
     7
  6
Center
370
    25
390
F
347
46
348
0
  0
LAYER
  5
1E3
330
2
100
AcDbSymbolTableRecord
100
AcDbLayerTableRecord
  2
ConnectionPoints
 70
     0
 62
     7
  6
Continuous
370
    50
390
F
347
46
348
0
  0
ENDTAB
  0
TABLE
  2
STYLE
  5
3
330
0
100
AcDbSymbolTable
 70
     1
  0
STYLE
  5
11
330
3
100
AcDbSymbolTableRecord
100
AcDbTextStyleTableRecord
  2
Standard
 70
     0
 40
0.0
 41
1.0
 50
0.0
 71
     0
 42
2.5
  3
txt
  4

  0
ENDTAB
  0
TABLE
  2
VIEW
  5
6
330
0
100
AcDbSymbolTable
 70
     0
  0
ENDTAB
  0
TABLE
  2
UCS
  5
7
330
0
100
AcDbSymbolTable
 70
     0
  0
ENDTAB
  0
TABLE
  2
APPID
  5
9
330
0
100
AcDbSymbolTable
 70
     1
  0
APPID
  5
12
330
9
100
AcDbSymbolTableRecord
100
AcDbRegAppTableRecord
  2
ACAD
 70
     0
  0
ENDTAB
  0
TABLE
  2
DIMSTYLE
  5
A
330
0
100
AcDbSymbolTable
 70
     1
100
AcDbDimStyleTable
  0
DIMSTYLE
105
27
330
A
100
AcDbSymbolTableRecord
100
AcDbDimStyleTableRecord
  2
ISO-25
 70
     0
 41
2.5
 42
0.625
 43
3.75
 44
1.25
 73
     0
 74
     0
 77
     1
 78
     8
140
2.5
141
2.5
143
0.03937007874016
147
0.625
171
     3
172
     1
178
     0
271
     2
272
     2
274
     3
278
    44
283
     0
284
     8
340
11
  0
ENDTAB
  0
TABLE
  2
BLOCK_RECORD
  5
1
330
0
100
AcDbSymbolTable
 70
     5
  0
BLOCK_RECORD
  5
1F
330
1
100
AcDbSymbolTableRecord
100
AcDbBlockTableRecord
  2
*Model_Space
340
22
 70
     0
280
     1
281
     0
  0
BLOCK_RECORD
  5
1B
330
1
100
AcDbSymbolTableRecord
100
AcDbBlockTableRecord
  2
*Paper_Space
340
1E
 70
     0
280
     1
281
     0
  0
BLOCK_RECORD
  5
23
330
1
100
AcDbSymbolTableRecord
100
AcDbBlockTableRecord
  2
*Paper_Space0
340
26
 70
     0
280
     1
281
     0
  0
BLOCK_RECORD
  5
6E
330
1
100
AcDbSymbolTableRecord
100
AcDbBlockTableRecord
  2
1_129670_4
340
0
102
{BLKREFS
331
6F
102
}
 70
     0
280
     1
281
     0
  0
BLOCK_RECORD
  5
87
330
1
100
AcDbSymbolTableRecord
100
AcDbBlockTableRecord
  2
2_129519_0_in_129670_4
340
0
102
{BLKREFS
331
88
102
}
 70
     0
280
     1
281
     0
  0
BLOCK_RECORD
  5
D9
330
1
100
AcDbSymbolTableRecord
100
AcDbBlockTableRecord
  2
3_129945_0_in_129670_4
340
0
102
{BLKREFS
331
DA
102
}
 70
     0
280
     1
281
     0
  0
BLOCK_RECORD
  5
12B
330
1
100
AcDbSymbolTableRecord
100
AcDbBlockTableRecord
  2
4_129467_0_in_129670_4
340
0
102
{BLKREFS
331
12C
102
}
 70
     0
280
     1
281
     0
  0
ENDTAB
  0
ENDSEC
  0
SECTION
  2
BLOCKS
  0
BLOCK
  5
20
330
1F
100
AcDbEntity
  8
0
100
AcDbBlockBegin
  2
*Model_Space
 70
     0
 10
0.0
 20
0.0
 30
0.0
  3
*Model_Space
  1

  0
ENDBLK
  5
21
330
1F
100
AcDbEntity
  8
0
100
AcDbBlockEnd
  0
BLOCK
  5
1C
330
1B
100
AcDbEntity
 67
     1
  8
0
100
AcDbBlockBegin
  2
*Paper_Space
 70
     0
 10
0.0
 20
0.0
 30
0.0
  3
*Paper_Space
  1

  0
ENDBLK
  5
1D
330
1B
100
AcDbEntity
 67
     1
  8
0
100
AcDbBlockEnd
  0
BLOCK
  5
24
330
23
100
AcDbEntity
  8
0
100
AcDbBlockBegin
  2
*Paper_Space0
 70
     0
 10
0.0
 20
0.0
 30
0.0
  3
*Paper_Space0
  1

  0
ENDBLK
  5
25
330
23
100
AcDbEntity
  8
0
100
AcDbBlockEnd
  0
BLOCK
  5
70
330
6E
100
AcDbEntity
  8
0
100
AcDbBlockBegin
  2
1_129670_4
 70
     2
 10
0.0
 20
0.0
 30
0.0
  3
1_129670_4
  1

  0
ATTDEF
  5
73
330
6E
100
AcDbEntity
  8
AM_6
100
AcDbText
 10
59.0
 20
1.35
 30
0.0
 40
0.5
  1
Grip Tight Four-Bolt Flange Metric Bore
100
AcDbAttributeDefinition
  3

  2
NN
 70
     8
280
     0
  0
ATTDEF
  5
74
330
6E
100
AcDbEntity
  8
AM_6
100
AcDbText
 10
59.0
 20
0.8500000000000001
 30
0.0
 40
0.5
  1
GT Normal Duty 4 Bolt Flange Bearings
100
AcDbAttributeDefinition
  3

  2
NT
 70
     8
280
     0
  0
ATTDEF
  5
75
330
6E
100
AcDbEntity
  8
AM_6
100
AcDbText
 10
59.0
 20
0.3500000000000001
 30
0.0
 40
0.5
  1
129670
100
AcDbAttributeDefinition
  3

  2
NB
 70
     8
280
     0
  0
ATTDEF
  5
76
330
6E
100
AcDbEntity
  8
AM_6
100
AcDbText
 10
59.0
 20
-0.1499999999999999
 30
0.0
 40
0.5
  1
$PN.$LUBE.
100
AcDbAttributeDefinition
  3

  2
NBSYN
 70
     8
280
     0
  0
ATTDEF
  5
77
330
6E
100
AcDbEntity
  8
AM_6
100
AcDbText
 10
59.0
 20
-0.6499999999999999
 30
0.0
 40
0.5
  1
129670
100
AcDbAttributeDefinition
  3

  2
LINA
 70
     8
280
     0
  0
ATTDEF
  5
78
330
6E
100
AcDbEntity
  8
AM_6
100
AcDbText
 10
59.0
 20
-1.15
 30
0.0
 40
0.5
  1
206
100
AcDbAttributeDefinition
  3

  2
SERIES
 70
     8
280
     0
  0
ATTDEF
  5
79
330
6E
100
AcDbEntity
  8
AM_6
100
AcDbText
 10
59.0
 20
-1.65
 30
0.0
 40
0.5
  1
30
100
AcDbAttributeDefinition
  3

  2
SS
 70
     8
280
     0
  0
ATTDEF
  5
7A
330
6E
100
AcDbEntity
  8
AM_6
100
AcDbText
 10
59.0
 20
-2.15
 30
0.0
 40
0.5
  1
129670
100
AcDbAttributeDefinition
  3

  2
PN
 70
     8
280
     0
  0
ATTDEF
  5
7B
330
6E
100
AcDbEntity
  8
AM_6
100
AcDbText
 10
59.0
 20
-2.65
 30
0.0
 40
0.5
  1
F4B-GT-30M
100
AcDbAttributeDefinition
  3

  2
DESCRIPTION
 70
     8
280
     0
  0
ATTDEF
  5
7C
330
6E
100
AcDbEntity
  8
AM_6
100
AcDbText
 10
59.0
 20
-3.15
 30
0.0
 40
0.5
  1
40.9
100
AcDbAttributeDefinition
  3

  2
A
 70
     8
280
     0
  0
ATTDEF
  5
7D
330
6E
100
AcDbEntity
  8
AM_6
100
AcDbText
 10
59.0
 20
-3.65
 30
0.0
 40
0.5
  1
108.0
100
AcDbAttributeDefinition
  3

  2
B
 70
     8
280
     0
  0
ATTDEF
  5
7E
330
6E
100
AcDbEntity
  8
AM_6
100
AcDbText
 10
59.0
 20
-4.15
 30
0.0
 40
0.5
  1
43.3
100
AcDbAttributeDefinition
  3

  2
C
 70
     8
280
     0
  0
ATTDEF
  5
7F
330
6E
100
AcDbEntity
  8
AM_6
100
AcDbText
 10
59.0
 20
-4.65
 30
0.0
 40
0.5
  1
82.5
100
AcDbAttributeDefinition
  3

  2
D
 70
     8
280
     0
  0
ATTDEF
  5
80
330
6E
100
AcDbEntity
  8
AM_6
100
AcDbText
 10
59.0
 20
-5.15
 30
0.0
 40
0.5
  1
M10
100
AcDbAttributeDefinition
  3

  2
F
 70
     8
280
     0
  0
ATTDEF
  5
81
330
6E
100
AcDbEntity
  8
AM_6
100
AcDbText
 10
59.0
 20
-5.65
 30
0.0
 40
0.5
  1
12.7
100
AcDbAttributeDefinition
  3

  2
H
 70
     8
280
     0
  0
ATTDEF
  5
82
330
6E
100
AcDbEntity
  8
AM_6
100
AcDbText
 10
59.0
 20
-6.15
 30
0.0
 40
0.5
  1
15.1
100
AcDbAttributeDefinition
  3

  2
J
 70
     8
280
     0
  0
ATTDEF
  5
83
330
6E
100
AcDbEntity
  8
AM_6
100
AcDbText
 10
59.0
 20
-6.65
 30
0.0
 40
0.5
  1
50.8
100
AcDbAttributeDefinition
  3

  2
L
 70
     8
280
     0
  0
ATTDEF
  5
84
330
6E
100
AcDbEntity
  8
AM_6
100
AcDbText
 10
59.0
 20
-7.15
 30
0.0
 40
0.5
  1
55.6
100
AcDbAttributeDefinition
  3

  2
N
 70
     8
280
     0
  0
ATTDEF
  5
85
330
6E
100
AcDbEntity
  8
AM_6
100
AcDbText
 10
59.0
 20
-7.65
 30
0.0
 40
0.5
  1
42.1
100
AcDbAttributeDefinition
  3

  2
Z
 70
     8
280
     0
  0
ATTDEF
  5
86
330
6E
100
AcDbEntity
  8
AM_6
100
AcDbText
 10
59.0
 20
-8.15
 30
0.0
 40
0.5
  1
baldor
100
AcDbAttributeDefinition
  3

  2
COMPANY
 70
     8
280
     0
  0
INSERT
  5
88
330
6E
100
AcDbEntity
  8
0
100
AcDbBlockReference
  2
2_129519_0_in_129670_4
 10
0.0
 20
0.0
 30
0.0
  0
INSERT
  5
DA
330
6E
100
AcDbEntity
  8
0
100
AcDbBlockReference
  2
3_129945_0_in_129670_4
 10
0.0
 20
0.0
 30
0.0
  0
INSERT
  5
12C
330
6E
100
AcDbEntity
  8
0
100
AcDbBlockReference
  2
4_129467_0_in_129670_4
 10
0.0
 20
0.0
 30
0.0
  0
ENDBLK
  5
71
330
6E
100
AcDbEntity
  8
0
100
AcDbBlockEnd
  0
BLOCK
  5
89
330
87
100
AcDbEntity
  8
0
100
AcDbBlockBegin
  2
2_129519_0_in_129670_4
 70
     2
 10
0.0
 20
0.0
 30
0.0
  3
2_129519_0_in_129670_4
  1

  0
ATTDEF
  5
8B
330
87
100
AcDbEntity
  8
AM_6
100
AcDbText
 10
35.98792201028491
 20
-4.019999999999998
 30
0.0
 40
0.5
  1
INS-GT-M B
100
AcDbAttributeDefinition
  3

  2
NN
 70
     8
280
     0
  0
ATTDEF
  5
8C
330
87
100
AcDbEntity
  8
AM_6
100
AcDbText
 10
35.98792201028491
 20
-4.519999999999998
 30
0.0
 40
0.5
  1
GT Normal Duty Bearing Inserts
100
AcDbAttributeDefinition
  3

  2
NT
 70
     8
280
     0
  0
ATTDEF
  5
8D
330
87
100
AcDbEntity
  8
AM_6
100
AcDbText
 10
35.98792201028491
 20
-5.019999999999998
 30
0.0
 40
0.5
  1
129519
100
AcDbAttributeDefinition
  3

  2
NB
 70
     8
280
     0
  0
ATTDEF
  5
8E
330
87
100
AcDbEntity
  8
AM_6
100
AcDbText
 10
35.98792201028491
 20
-5.519999999999998
 30
0.0
 40
0.5
  1
$PN.
100
AcDbAttributeDefinition
  3

  2
NBSYN
 70
     8
280
     0
  0
ATTDEF
  5
8F
330
87
100
AcDbEntity
  8
AM_6
100
AcDbText
 10
35.98792201028491
 20
-6.019999999999998
 30
0.0
 40
0.5
  1
129519
100
AcDbAttributeDefinition
  3

  2
LINA
 70
     8
280
     0
  0
ATTDEF
  5
90
330
87
100
AcDbEntity
  8
AM_6
100
AcDbText
 10
35.98792201028491
 20
-6.519999999999998
 30
0.0
 40
0.5
  1
206
100
AcDbAttributeDefinition
  3

  2
SERIES
 70
     8
280
     0
  0
ATTDEF
  5
91
330
87
100
AcDbEntity
  8
AM_6
100
AcDbText
 10
35.98792201028491
 20
-7.019999999999998
 30
0.0
 40
0.5
  1
129519
100
AcDbAttributeDefinition
  3

  2
PN
 70
     8
280
     0
  0
ATTDEF
  5
92
330
87
100
AcDbEntity
  8
AM_6
100
AcDbText
 10
35.98792201028491
 20
-7.519999999999998
 30
0.0
 40
0.5
  1
INS-GT-06
100
AcDbAttributeDefinition
  3

  2
DESCRIPTION
 70
     8
280
     0
  0
ATTDEF
  5
93
330
87
100
AcDbEntity
  8
AM_6
100
AcDbText
 10
35.98792201028491
 20
-8.019999999999998
 30
0.0
 40
0.5
  1
40.9
100
AcDbAttributeDefinition
  3

  2
A
 70
     8
280
     0
  0
ATTDEF
  5
94
330
87
100
AcDbEntity
  8
AM_6
100
AcDbText
 10
35.98792201028491
 20
-8.519999999999998
 30
0.0
 40
0.5
  1
17.5
100
AcDbAttributeDefinition
  3

  2
C
 70
     8
280
     0
  0
ATTDEF
  5
95
330
87
100
AcDbEntity
  8
AM_6
100
AcDbText
 10
35.98792201028491
 20
-9.019999999999998
 30
0.0
 40
0.5
  1
62.0
100
AcDbAttributeDefinition
  3

  2
D
 70
     8
280
     0
  0
ATTDEF
  5
96
330
87
100
AcDbEntity
  8
AM_6
100
AcDbText
 10
35.98792201028491
 20
-9.519999999999998
 30
0.0
 40
0.5
  1
4.1
100
AcDbAttributeDefinition
  3

  2
J
 70
     8
280
     0
  0
ATTDEF
  5
97
330
87
100
AcDbEntity
  8
AM_6
100
AcDbText
 10
35.98792201028491
 20
-10.02
 30
0.0
 40
0.5
  1
52.8
100
AcDbAttributeDefinition
  3

  2
L
 70
     8
280
     0
  0
ATTDEF
  5
98
330
87
100
AcDbEntity
  8
AM_6
100
AcDbText
 10
35.98792201028491
 20
-10.52
 30
0.0
 40
0.5
  1
#10 - 32 x 1/4
100
AcDbAttributeDefinition
  3

  2
N
 70
     8
280
     0
  0
ATTDEF
  5
99
330
87
100
AcDbEntity
  8
AM_6
100
AcDbText
 10
35.98792201028491
 20
-11.02
 30
0.0
 40
0.5
  1
13.2
100
AcDbAttributeDefinition
  3

  2
W
 70
     8
280
     0
  0
ATTDEF
  5
9A
330
87
100
AcDbEntity
  8
AM_6
100
AcDbText
 10
35.98792201028491
 20
-11.52
 30
0.0
 40
0.5
  1
28.7
100
AcDbAttributeDefinition
  3

  2
X
 70
     8
280
     0
  0
ATTDEF
  5
9B
330
87
100
AcDbEntity
  8
AM_6
100
AcDbText
 10
35.98792201028491
 20
-12.02
 30
0.0
 40
0.5
  1
27.7
100
AcDbAttributeDefinition
  3

  2
Y
 70
     8
280
     0
  0
ATTDEF
  5
9C
330
87
100
AcDbEntity
  8
AM_6
100
AcDbText
 10
35.98792201028491
 20
-12.52
 30
0.0
 40
0.5
  1
baldor
100
AcDbAttributeDefinition
  3

  2
COMPANY
 70
     8
280
     0
  0
LINE
  5
9F
330
87
100
AcDbEntity
  8
AM_9
100
AcDbLine
 10
19.69523809523809
 20
-37.425
 30
0.0
 11
19.69523809523809
 21
-26.6625
 31
0.0
  0
LINE
  5
A0
330
87
100
AcDbEntity
  8
AM_9
100
AcDbLine
 10
-19.69523809523809
 20
-26.6625
 30
0.0
 11
-19.69523809523809
 21
-37.425
 31
0.0
  0
LINE
  5
A1
330
87
100
AcDbEntity
  8
AM_9
100
AcDbLine
 10
-19.69523809523809
 20
-26.6625
 30
0.0
 11
19.69523809523809
 21
-26.6625
 31
0.0
  0
LINE
  5
A2
330
87
100
AcDbEntity
  8
AM_9
100
AcDbLine
 10
19.69523809523809
 20
-26.6625
 30
0.0
 11
20.48593161845499
 21
-4.019999999999998
 31
0.0
  0
LINE
  5
A3
330
87
100
AcDbEntity
  8
AM_9
100
AcDbLine
 10
-20.48593161845499
 20
-4.019999999999998
 30
0.0
 11
-19.69523809523809
 21
-26.6625
 31
0.0
  0
LINE
  5
A4
330
87
100
AcDbEntity
  8
AM_9
100
AcDbLine
 10
21.58095238095238
 20
-33.8375
 30
0.0
 11
21.58095238095238
 21
-30.25
 31
0.0
  0
LINE
  5
A5
330
87
100
AcDbEntity
  8
AM_9
100
AcDbLine
 10
-21.58095238095238
 20
-30.25
 30
0.0
 11
-21.58095238095238
 21
-33.8375
 31
0.0
  0
LINE
  5
A6
330
87
100
AcDbEntity
  8
AM_9
100
AcDbLine
 10
22.76666666666667
 20
-37.425
 30
0.0
 11
23.46666666666667
 21
-36.725
 31
0.0
  0
LINE
  5
A7
330
87
100
AcDbEntity
  8
AM_9
100
AcDbLine
 10
-23.46666666666667
 20
-36.725
 30
0.0
 11
-22.76666666666667
 21
-37.425
 31
0.0
  0
LINE
  5
A8
330
87
100
AcDbEntity
  8
AM_9
100
AcDbLine
 10
-22.76666666666667
 20
-37.425
 30
0.0
 11
22.76666666666667
 21
-37.425
 31
0.0
  0
LINE
  5
A9
330
87
100
AcDbEntity
  8
AM_9
100
AcDbLine
 10
-22.76666666666667
 20
-4.019999999999998
 30
0.0
 11
22.76666666666667
 21
-4.019999999999998
 31
0.0
  0
LINE
  5
AA
330
87
100
AcDbEntity
  8
AM_9
100
AcDbLine
 10
-22.76666666666667
 20
-4.019999999999998
 30
0.0
 11
-23.46666666666667
 21
-4.719999999999997
 31
0.0
  0
LINE
  5
AB
330
87
100
AcDbEntity
  8
AM_9
100
AcDbLine
 10
23.46666666666667
 20
-4.719999999999997
 30
0.0
 11
22.76666666666667
 21
-4.019999999999998
 31
0.0
  0
LINE
  5
AC
330
87
100
AcDbEntity
  8
AM_9
100
AcDbLine
 10
23.46666666666667
 20
-36.725
 30
0.0
 11
23.46666666666667
 21
-33.8375
 31
0.0
  0
LINE
  5
AD
330
87
100
AcDbEntity
  8
AM_9
100
AcDbLine
 10
-23.46666666666667
 20
-33.8375
 30
0.0
 11
-23.46666666666667
 21
-36.725
 31
0.0
  0
LINE
  5
AE
330
87
100
AcDbEntity
  8
AM_9
100
AcDbLine
 10
-23.46666666666667
 20
-36.725
 30
0.0
 11
23.46666666666667
 21
-36.725
 31
0.0
  0
LINE
  5
AF
330
87
100
AcDbEntity
  8
AM_9
100
AcDbLine
 10
-23.46666666666667
 20
-33.8375
 30
0.0
 11
23.46666666666667
 21
-33.8375
 31
0.0
  0
LINE
  5
B0
330
87
100
AcDbEntity
  8
AM_9
100
AcDbLine
 10
-23.46666666666667
 20
-4.719999999999997
 30
0.0
 11
23.46666666666667
 21
-4.719999999999997
 31
0.0
  0
LINE
  5
B1
330
87
100
AcDbEntity
  8
AM_9
100
AcDbLine
 10
23.46666666666667
 20
-7.149999999999997
 30
0.0
 11
23.46666666666667
 21
-4.719999999999997
 31
0.0
  0
LINE
  5
B2
330
87
100
AcDbEntity
  8
AM_9
100
AcDbLine
 10
-23.46666666666667
 20
-4.719999999999997
 30
0.0
 11
-23.46666666666667
 21
-7.149999999999997
 31
0.0
  0
LINE
  5
B3
330
87
100
AcDbEntity
  8
AM_9
100
AcDbLine
 10
23.46666666666667
 20
-27.0
 30
0.0
 11
23.46666666666667
 21
-24.65
 31
0.0
  0
LINE
  5
B4
330
87
100
AcDbEntity
  8
AM_9
100
AcDbLine
 10
23.46666666666667
 20
-30.25
 30
0.0
 11
23.46666666666667
 21
-29.0
 31
0.0
  0
LINE
  5
B5
330
87
100
AcDbEntity
  8
AM_9
100
AcDbLine
 10
-23.46666666666667
 20
-29.0
 30
0.0
 11
-23.46666666666667
 21
-30.25
 31
0.0
  0
LINE
  5
B6
330
87
100
AcDbEntity
  8
AM_9
100
AcDbLine
 10
-23.46666666666667
 20
-24.65
 30
0.0
 11
-23.46666666666667
 21
-27.0
 31
0.0
  0
LINE
  5
B7
330
87
100
AcDbEntity
  8
AM_9
100
AcDbLine
 10
-23.46666666666667
 20
-30.25
 30
0.0
 11
23.46666666666667
 21
-30.25
 31
0.0
  0
LINE
  5
B8
330
87
100
AcDbEntity
  8
AM_9
100
AcDbLine
 10
29.25
 20
-20.82
 30
0.0
 11
29.25
 21
-19.18
 31
0.0
  0
LINE
  5
B9
330
87
100
AcDbEntity
  8
AM_9
100
AcDbLine
 10
-29.25
 20
-19.18
 30
0.0
 11
-29.25
 21
-20.82
 31
0.0
  0
LINE
  5
BA
330
87
100
AcDbEntity
  8
AM_9
100
AcDbLine
 10
-28.77802961806126
 20
-24.65
 30
0.0
 11
28.77802961806126
 21
-24.65
 31
0.0
  0
ARC
  5
BB
330
87
100
AcDbEntity
  8
AM_9
100
AcDbCircle
 10
28.77802961806126
 20
-23.95000000000002
 30
0.0
 40
0.6999999999999815
100
AcDbArc
 50
270.0
 51
338.5875329531162
  0
ARC
  5
BC
330
87
100
AcDbEntity
  8
AM_9
100
AcDbCircle
 10
-28.77802961806126
 20
-23.95000000000002
 30
0.0
 40
0.6999999999999827
100
AcDbArc
 50
201.4124670468838
 51
270.0
  0
LINE
  5
BD
330
87
100
AcDbEntity
  8
AM_9
100
AcDbLine
 10
-28.77802961806125
 20
-7.149999999999997
 30
0.0
 11
28.77802961806125
 21
-7.149999999999997
 31
0.0
  0
ARC
  5
BE
330
87
100
AcDbEntity
  8
AM_9
100
AcDbCircle
 10
28.77802961806126
 20
-7.849999999999982
 30
0.0
 40
0.6999999999999853
100
AcDbArc
 50
21.4124638199221
 51
90.0
  0
ARC
  5
BF
330
87
100
AcDbEntity
  8
AM_9
100
AcDbCircle
 10
-28.77802961806126
 20
-7.849999999999982
 30
0.0
 40
0.6999999999999851
100
AcDbArc
 50
90.0
 51
158.5875361800779
  0
ARC
  5
C0
330
87
100
AcDbEntity
  8
AM_9
100
AcDbCircle
 10
8.249999999999336
 20
-15.89999999999977
 30
0.0
 40
22.7500000000007
100
AcDbArc
 50
338.587532953116
 51
346.9564183455464
  0
ARC
  5
C1
330
87
100
AcDbEntity
  8
AM_9
100
AcDbCircle
 10
-8.249999999996742
 20
-15.89999999999897
 30
0.0
 40
22.75000000000341
100
AcDbArc
 50
193.0435816544542
 51
201.4124670468835
  0
LINE
  5
C2
330
87
100
AcDbEntity
  8
AM_9
100
AcDbLine
 10
-29.4297130979997
 20
-24.20555555555556
 30
0.0
 11
29.4297130979997
 21
-24.20555555555556
 31
0.0
  0
LINE
  5
C3
330
87
100
AcDbEntity
  8
AM_9
100
AcDbLine
 10
2.601887347554627
 20
-21.034496124031
 30
0.0
 11
30.4130198653593
 21
-21.034496124031
 31
0.0
  0
LINE
  5
C4
330
87
100
AcDbEntity
  8
AM_9
100
AcDbLine
 10
-2.493579405911915
 20
-21.034496124031
 30
0.0
 11
2.493579405911915
 21
-21.034496124031
 31
0.0
  0
LINE
  5
C5
330
87
100
AcDbEntity
  8
AM_9
100
AcDbLine
 10
2.677237382078777
 20
-20.81999999999999
 30
0.0
 11
30.24253509716422
 21
-20.82
 31
0.0
  0
LINE
  5
C6
330
87
100
AcDbEntity
  8
AM_9
100
AcDbLine
 10
-2.572104291086035
 20
-20.81999999999999
 30
0.0
 11
2.572104291086034
 21
-20.81999999999999
 31
0.0
  0
LINE
  5
C7
330
87
100
AcDbEntity
  8
AM_9
100
AcDbLine
 10
-30.24253509716422
 20
-20.82
 30
0.0
 11
-2.677237382078777
 21
-20.81999999999999
 31
0.0
  0
ARC
  5
C8
330
87
100
AcDbEntity
  8
AM_9
100
AcDbCircle
 10
30.24253509716421
 20
-20.995
 30
0.0
 40
0.1750000000000076
100
AcDbArc
 50
346.9564183455497
 51
90.0
  0
ARC
  5
C9
330
87
100
AcDbEntity
  8
AM_9
100
AcDbCircle
 10
-30.24253509716421
 20
-20.995
 30
0.0
 40
0.1750000000000043
100
AcDbArc
 50
90.0
 51
193.0435816544504
  0
LINE
  5
CA
330
87
100
AcDbEntity
  8
AM_9
100
AcDbLine
 10
-30.4130198653593
 20
-21.034496124031
 30
0.0
 11
-2.601887347554627
 21
-21.034496124031
 31
0.0
  0
LINE
  5
CB
330
87
100
AcDbEntity
  8
AM_9
100
AcDbLine
 10
2.677237382078774
 20
-19.17999999999999
 30
0.0
 11
30.61044722271896
 21
-19.18
 31
0.0
  0
LINE
  5
CC
330
87
100
AcDbEntity
  8
AM_9
100
AcDbLine
 10
-2.572104291086031
 20
-19.17999999999999
 30
0.0
 11
2.572104291086032
 21
-19.17999999999999
 31
0.0
  0
LINE
  5
CD
330
87
100
AcDbEntity
  8
AM_9
100
AcDbLine
 10
-30.61044722271896
 20
-19.18
 30
0.0
 11
-2.677237382078774
 21
-19.17999999999999
 31
0.0
  0
ARC
  5
CE
330
87
100
AcDbEntity
  8
AM_9
100
AcDbCircle
 10
30.61044722271895
 20
-19.00499999999999
 30
0.0
 40
0.1750000000000043
100
AcDbArc
 50
270.0
 51
352.0943900499387
  0
ARC
  5
CF
330
87
100
AcDbEntity
  8
AM_9
100
AcDbCircle
 10
-30.61044722271895
 20
-19.00499999999999
 30
0.0
 40
0.1750000000000047
100
AcDbArc
 50
187.9056099500613
 51
270.0
  0
LINE
  5
D0
330
87
100
AcDbEntity
  8
AM_9
100
AcDbLine
 10
2.626270070557216
 20
-19.02906976744185
 30
0.0
 11
30.78378402289508
 21
-19.02906976744186
 31
0.0
  0
LINE
  5
D1
330
87
100
AcDbEntity
  8
AM_9
100
AcDbLine
 10
-2.519010712110564
 20
-19.02906976744185
 30
0.0
 11
2.519010712110564
 21
-19.02906976744185
 31
0.0
  0
LINE
  5
D2
330
87
100
AcDbEntity
  8
AM_9
100
AcDbLine
 10
-29.42971311239288
 20
-7.59444448114797
 30
0.0
 11
29.42971311239288
 21
-7.59444448114797
 31
0.0
  0
ARC
  5
D3
330
87
100
AcDbEntity
  8
AM_9
100
AcDbCircle
 10
8.249999999999968
 20
-15.9
 30
0.0
 40
22.75000000000003
100
AcDbArc
 50
352.0943900499403
 51
21.41246694759291
  0
ARC
  5
D4
330
87
100
AcDbEntity
  8
AM_9
100
AcDbCircle
 10
-8.249999999999659
 20
-15.90000000000004
 30
0.0
 40
22.75000000000033
100
AcDbArc
 50
158.5875330524073
 51
187.9056099500595
  0
LINE
  5
D5
330
87
100
AcDbEntity
  8
AM_9
100
AcDbLine
 10
-30.78378402289508
 20
-19.02906976744186
 30
0.0
 11
-2.626270070557216
 21
-19.02906976744185
 31
0.0
  0
LINE
  5
D7
330
87
100
AcDbEntity
  8
AM_4
100
AcDbLine
 10
23.46666666666667
 20
-29.0
 30
0.0
 11
23.46666666666667
 21
-27.0
 31
0.0
  0
LINE
  5
D8
330
87
100
AcDbEntity
  8
AM_4
100
AcDbLine
 10
-23.46666666666667
 20
-27.0
 30
0.0
 11
-23.46666666666667
 21
-29.0
 31
0.0
  0
ENDBLK
  5
8A
330
87
100
AcDbEntity
  8
0
100
AcDbBlockEnd
  0
BLOCK
  5
DB
330
D9
100
AcDbEntity
  8
0
100
AcDbBlockBegin
  2
3_129945_0_in_129670_4
 70
     2
 10
0.0
 20
0.0
 30
0.0
  3
3_129945_0_in_129670_4
  1

  0
ATTDEF
  5
DD
330
D9
100
AcDbEntity
  8
AM_6
100
AcDbText
 10
30.28635995947223
 20
-2.399999999999996
 30
0.0
 40
0.5
  1
Grip Tight Normal Duty Adapter and Nut Metric Bore
100
AcDbAttributeDefinition
  3

  2
NN
 70
     8
280
     0
  0
ATTDEF
  5
DE
330
D9
100
AcDbEntity
  8
AM_6
100
AcDbText
 10
30.28635995947223
 20
-2.899999999999996
 30
0.0
 40
0.5
  1
GT and GTM Adapter & Lock Nut Assemblies
100
AcDbAttributeDefinition
  3

  2
NT
 70
     8
280
     0
  0
ATTDEF
  5
DF
330
D9
100
AcDbEntity
  8
AM_6
100
AcDbText
 10
30.28635995947223
 20
-3.399999999999996
 30
0.0
 40
0.5
  1
129945
100
AcDbAttributeDefinition
  3

  2
NB
 70
     8
280
     0
  0
ATTDEF
  5
E0
330
D9
100
AcDbEntity
  8
AM_6
100
AcDbText
 10
30.28635995947223
 20
-3.899999999999996
 30
0.0
 40
0.5
  1
$PN.
100
AcDbAttributeDefinition
  3

  2
NBSYN
 70
     8
280
     0
  0
ATTDEF
  5
E1
330
D9
100
AcDbEntity
  8
AM_6
100
AcDbText
 10
30.28635995947223
 20
-4.399999999999996
 30
0.0
 40
0.5
  1
129945
100
AcDbAttributeDefinition
  3

  2
LINA
 70
     8
280
     0
  0
ATTDEF
  5
E2
330
D9
100
AcDbEntity
  8
AM_6
100
AcDbText
 10
30.28635995947223
 20
-4.899999999999996
 30
0.0
 40
0.5
  1
206
100
AcDbAttributeDefinition
  3

  2
SERIES
 70
     8
280
     0
  0
ATTDEF
  5
E3
330
D9
100
AcDbEntity
  8
AM_6
100
AcDbText
 10
30.28635995947223
 20
-5.399999999999996
 30
0.0
 40
0.5
  1
30
100
AcDbAttributeDefinition
  3

  2
SS
 70
     8
280
     0
  0
ATTDEF
  5
E4
330
D9
100
AcDbEntity
  8
AM_6
100
AcDbText
 10
30.28635995947223
 20
-5.899999999999996
 30
0.0
 40
0.5
  1
129945
100
AcDbAttributeDefinition
  3

  2
PN
 70
     8
280
     0
  0
ATTDEF
  5
E5
330
D9
100
AcDbEntity
  8
AM_6
100
AcDbText
 10
30.28635995947223
 20
-6.399999999999996
 30
0.0
 40
0.5
  1
AN-GT-06-30M
100
AcDbAttributeDefinition
  3

  2
DESCRIPTION
 70
     8
280
     0
  0
ATTDEF
  5
E6
330
D9
100
AcDbEntity
  8
AM_6
100
AcDbText
 10
30.28635995947223
 20
-6.899999999999996
 30
0.0
 40
0.5
  1
40.9
100
AcDbAttributeDefinition
  3

  2
A
 70
     8
280
     0
  0
ATTDEF
  5
E7
330
D9
100
AcDbEntity
  8
AM_6
100
AcDbText
 10
30.28635995947223
 20
-7.399999999999996
 30
0.0
 40
0.5
  1
18.0
100
AcDbAttributeDefinition
  3

  2
C
 70
     8
280
     0
  0
ATTDEF
  5
E8
330
D9
100
AcDbEntity
  8
AM_6
100
AcDbText
 10
30.28635995947223
 20
-7.899999999999996
 30
0.0
 40
0.5
  1
62.0
100
AcDbAttributeDefinition
  3

  2
D
 70
     8
280
     0
  0
ATTDEF
  5
E9
330
D9
100
AcDbEntity
  8
AM_6
100
AcDbText
 10
30.28635995947223
 20
-8.399999999999995
 30
0.0
 40
0.5
  1
4.8
100
AcDbAttributeDefinition
  3

  2
J
 70
     8
280
     0
  0
ATTDEF
  5
EA
330
D9
100
AcDbEntity
  8
AM_6
100
AcDbText
 10
30.28635995947223
 20
-8.899999999999995
 30
0.0
 40
0.5
  1
50.8
100
AcDbAttributeDefinition
  3

  2
L
 70
     8
280
     0
  0
ATTDEF
  5
EB
330
D9
100
AcDbEntity
  8
AM_6
100
AcDbText
 10
30.28635995947223
 20
-9.399999999999995
 30
0.0
 40
0.5
  1
10 - 32 x 1/4
100
AcDbAttributeDefinition
  3

  2
N
 70
     8
280
     0
  0
ATTDEF
  5
EC
330
D9
100
AcDbEntity
  8
AM_6
100
AcDbText
 10
30.28635995947223
 20
-9.899999999999995
 30
0.0
 40
0.5
  1
13.5
100
AcDbAttributeDefinition
  3

  2
W
 70
     8
280
     0
  0
ATTDEF
  5
ED
330
D9
100
AcDbEntity
  8
AM_6
100
AcDbText
 10
30.28635995947223
 20
-10.4
 30
0.0
 40
0.5
  1
26.2
100
AcDbAttributeDefinition
  3

  2
X
 70
     8
280
     0
  0
ATTDEF
  5
EE
330
D9
100
AcDbEntity
  8
AM_6
100
AcDbText
 10
30.28635995947223
 20
-10.9
 30
0.0
 40
0.5
  1
27.4
100
AcDbAttributeDefinition
  3

  2
Y
 70
     8
280
     0
  0
ATTDEF
  5
EF
330
D9
100
AcDbEntity
  8
AM_6
100
AcDbText
 10
30.28635995947223
 20
-11.4
 30
0.0
 40
0.5
  1
baldor
100
AcDbAttributeDefinition
  3

  2
COMPANY
 70
     8
280
     0
  0
LINE
  5
F0
330
D9
100
AcDbEntity
  8
AM_9
100
AcDbLine
 10
-24.9682
 20
-40.98119999999999
 30
0.0
 11
-19.4818
 21
-40.98119999999999
 31
0.0
  0
LINE
  5
F1
330
D9
100
AcDbEntity
  8
AM_9
100
AcDbLine
 10
-19.4818
 20
-37.01880000000001
 30
0.0
 11
-24.9682
 21
-37.01880000000001
 31
0.0
  0
LINE
  5
F2
330
D9
100
AcDbEntity
  8
AM_9
100
AcDbLine
 10
23.70666102220341
 20
-29.0
 30
0.0
 11
23.70666102220341
 21
-42.1
 31
0.0
  0
LINE
  5
F3
330
D9
100
AcDbEntity
  8
AM_9
100
AcDbLine
 10
-19.4818
 20
-40.98119999999999
 30
0.0
 11
-19.05
 21
-41.413
 31
0.0
  0
LINE
  5
F4
330
D9
100
AcDbEntity
  8
AM_9
100
AcDbLine
 10
-19.05
 20
-36.587
 30
0.0
 11
-19.4818
 21
-37.01880000000001
 31
0.0
  0
LINE
  5
F5
330
D9
100
AcDbEntity
  8
AM_9
100
AcDbLine
 10
-19.05
 20
-36.587
 30
0.0
 11
-19.05
 21
-41.413
 31
0.0
  0
LINE
  5
F6
330
D9
100
AcDbEntity
  8
AM_9
100
AcDbLine
 10
-19.4818
 20
-37.01880000000001
 30
0.0
 11
-19.4818
 21
-40.98119999999999
 31
0.0
  0
LINE
  5
F7
330
D9
100
AcDbEntity
  8
AM_9
100
AcDbLine
 10
-24.9682
 20
-37.01880000000001
 30
0.0
 11
-25.39626991627811
 21
-36.59073008372189
 31
0.0
  0
LINE
  5
F8
330
D9
100
AcDbEntity
  8
AM_9
100
AcDbLine
 10
-25.38349099216704
 20
-41.39649099216704
 30
0.0
 11
-24.9682
 21
-40.98119999999999
 31
0.0
  0
LINE
  5
F9
330
D9
100
AcDbEntity
  8
AM_9
100
AcDbLine
 10
-24.9682
 20
-37.01880000000001
 30
0.0
 11
-24.9682
 21
-40.98119999999999
 31
0.0
  0
LINE
  5
FA
330
D9
100
AcDbEntity
  8
AM_9
100
AcDbLine
 10
15.0
 20
-43.3
 30
0.0
 11
15.0
 21
-2.399999999999999
 31
0.0
  0
LINE
  5
FB
330
D9
100
AcDbEntity
  8
AM_9
100
AcDbLine
 10
-15.0
 20
-2.399999999999999
 30
0.0
 11
-15.0
 21
-43.3
 31
0.0
  0
LINE
  5
FC
330
D9
100
AcDbEntity
  8
AM_9
100
AcDbLine
 10
18.94920634920636
 20
-35.55
 30
0.0
 11
18.94920634920636
 21
-25.72499999999954
 31
0.0
  0
LINE
  5
FD
330
D9
100
AcDbEntity
  8
AM_9
100
AcDbLine
 10
-18.94920634920636
 20
-25.72499999999954
 30
0.0
 11
-18.94920634920636
 21
-35.55
 31
0.0
  0
LINE
  5
FE
330
D9
100
AcDbEntity
  8
AM_9
100
AcDbLine
 10
1.250000000000002
 20
-2.399999999999996
 30
0.0
 11
1.250000000000002
 21
-42.1
 31
0.0
  0
LINE
  5
FF
330
D9
100
AcDbEntity
  8
AM_9
100
AcDbLine
 10
-1.249999999999998
 20
-2.399999999999996
 30
0.0
 11
-1.249999999999999
 21
-42.1
 31
0.0
  0
LINE
  5
100
330
D9
100
AcDbEntity
  8
AM_9
100
AcDbLine
 10
18.94920634920636
 20
-25.72499999999954
 30
0.0
 11
19.76373329760136
 21
-2.399999999999998
 31
0.0
  0
LINE
  5
101
330
D9
100
AcDbEntity
  8
AM_9
100
AcDbLine
 10
-19.76373329760136
 20
-2.399999999999998
 30
0.0
 11
-18.94920634920636
 21
-25.72499999999954
 31
0.0
  0
LINE
  5
102
330
D9
100
AcDbEntity
  8
AM_9
100
AcDbLine
 10
-18.94920634920636
 20
-25.72499999999954
 30
0.0
 11
18.94920634920636
 21
-25.72499999999954
 31
0.0
  0
LINE
  5
103
330
D9
100
AcDbEntity
  8
AM_9
100
AcDbLine
 10
-19.76373329760136
 20
-2.399999999999998
 30
0.0
 11
19.76373329760136
 21
-2.399999999999998
 31
0.0
  0
LINE
  5
104
330
D9
100
AcDbEntity
  8
AM_9
100
AcDbLine
 10
20.76349206349207
 20
-32.275
 30
0.0
 11
20.76349206349207
 21
-29.0
 31
0.0
  0
LINE
  5
105
330
D9
100
AcDbEntity
  8
AM_9
100
AcDbLine
 10
-20.76349206349207
 20
-29.0
 30
0.0
 11
-20.76349206349207
 21
-32.275
 31
0.0
  0
LINE
  5
106
330
D9
100
AcDbEntity
  8
AM_9
100
AcDbLine
 10
-9.77486954201906
 20
-29.0
 30
0.0
 11
-9.77486954201906
 21
-42.1
 31
0.0
  0
LINE
  5
107
330
D9
100
AcDbEntity
  8
AM_9
100
AcDbLine
 10
-22.8317777777778
 20
-32.275
 30
0.0
 11
22.8317777777778
 21
-32.275
 31
0.0
  0
LINE
  5
108
330
D9
100
AcDbEntity
  8
AM_9
100
AcDbLine
 10
-22.8317777777778
 20
-35.55
 30
0.0
 11
22.8317777777778
 21
-35.55
 31
0.0
  0
LINE
  5
109
330
D9
100
AcDbEntity
  8
AM_9
100
AcDbLine
 10
22.8317777777778
 20
-35.55
 30
0.0
 11
22.8317777777778
 21
-32.275
 31
0.0
  0
LINE
  5
10A
330
D9
100
AcDbEntity
  8
AM_9
100
AcDbLine
 10
-22.8317777777778
 20
-32.275
 30
0.0
 11
-22.8317777777778
 21
-35.55
 31
0.0
  0
LINE
  5
10C
330
D9
100
AcDbEntity
  8
AM_5
100
AcDbLine
 10
-25.367
 20
-41.413
 30
0.0
 11
-19.05
 21
-41.413
 31
0.0
  0
LINE
  5
10D
330
D9
100
AcDbEntity
  8
AM_5
100
AcDbLine
 10
-23.46666666666667
 20
-36.587
 30
0.0
 11
-19.69523809523809
 21
-36.587
 31
0.0
  0
LINE
  5
110
330
D9
100
AcDbEntity
  8
AM_7
100
AcDbLine
 10
-18.7325
 20
-39.0
 30
0.0
 11
-25.7175
 21
-39.0
 31
0.0
  0
LINE
  5
111
330
D9
100
AcDbEntity
  8
AM_4
100
AcDbLine
 10
1.250000000000002
 20
-43.3
 30
0.0
 11
1.250000000000003
 21
-42.1
 31
0.0
  0
LINE
  5
112
330
D9
100
AcDbEntity
  8
AM_4
100
AcDbLine
 10
-1.249999999999998
 20
-43.3
 30
0.0
 11
-1.249999999999999
 21
-42.1
 31
0.0
  0
LINE
  5
113
330
D9
100
AcDbEntity
  8
AM_4
100
AcDbLine
 10
18.94920634920635
 20
-43.3
 30
0.0
 11
18.94920634920635
 21
-42.1
 31
0.0
  0
LINE
  5
114
330
D9
100
AcDbEntity
  8
AM_4
100
AcDbLine
 10
-18.94920634920635
 20
-42.1
 30
0.0
 11
-18.94920634920635
 21
-43.3
 31
0.0
  0
LINE
  5
115
330
D9
100
AcDbEntity
  8
AM_4
100
AcDbLine
 10
-18.94920634920635
 20
-43.3
 30
0.0
 11
18.94920634920635
 21
-43.3
 31
0.0
  0
LINE
  5
116
330
D9
100
AcDbEntity
  8
AM_4
100
AcDbLine
 10
-25.39715627272193
 20
-41.38
 30
0.0
 11
-25.3835
 21
-41.3965
 31
0.0
  0
LINE
  5
117
330
D9
100
AcDbEntity
  8
AM_4
100
AcDbLine
 10
-25.38350000000001
 20
-41.3965
 30
0.0
 11
-24.68
 21
-42.1
 31
0.0
  0
LINE
  5
118
330
D9
100
AcDbEntity
  8
AM_4
100
AcDbLine
 10
-24.68000000000002
 20
-29.0
 30
0.0
 11
-25.40000000000002
 21
-29.72
 31
0.0
  0
LINE
  5
119
330
D9
100
AcDbEntity
  8
AM_4
100
AcDbLine
 10
-25.39715627272193
 20
-41.38
 30
0.0
 11
-14.72164094881877
 21
-41.38
 31
0.0
  0
LINE
  5
11A
330
D9
100
AcDbEntity
  8
AM_4
100
AcDbLine
 10
-25.40000000000001
 20
-29.72
 30
0.0
 11
-25.40000000000001
 21
-36.59387054762544
 31
0.0
  0
LWPOLYLINE
  5
11B
330
D9
100
AcDbEntity
  8
AM_4
100
AcDbPolyline
 90
       21
 70
     0
 43
0.0
 10
-25.39999999999993
 20
-36.58700000000093
 10
-25.39977275043652
 20
-36.5896207520255
 10
-25.39564476302661
 20
-36.63772513786046
 10
-25.38643016692052
 20
-36.74875551175352
 10
-25.37356165741586
 20
-36.9135418222904
 10
-25.35777478450607
 20
-37.13524395681873
 10
-25.34092970714361
 20
-37.40510079046784
 10
-25.32445150031309
 20
-37.72268903237093
 10
-25.31030186287101
 20
-38.07852730063711
 10
-25.30004655404916
 20
-38.46845508350359
 10
-25.2952117028013
 20
-38.87519473374778
 10
-25.29652510271858
 20
-39.29679702248885
 10
-25.30391455630498
 20
-39.70440395654783
 10
-25.3169658276927
 20
-40.10340358834623
 10
-25.32983669602667
 20
-40.38906833223854
 10
-25.34440813130762
 20
-40.65420569840856
 10
-25.35972061793633
 20
-40.8934711380332
 10
-25.37437190210894
 20
-41.09721101120374
 10
-25.38764572870549
 20
-41.26619848226268
 10
-25.39673075894214
 20
-41.37502327836784
 10
-25.39715627272194
 20
-41.38000000000002
  0
LINE
  5
11C
330
D9
100
AcDbEntity
  8
AM_4
100
AcDbLine
 10
-25.40000000000001
 20
-29.72
 30
0.0
 11
-14.72164094881878
 21
-29.72
 31
0.0
  0
LINE
  5
11D
330
D9
100
AcDbEntity
  8
AM_4
100
AcDbLine
 10
-14.35997553366305
 20
-28.99999999999999
 30
0.0
 11
-14.72164094881878
 21
-29.72
 31
0.0
  0
LINE
  5
11E
330
D9
100
AcDbEntity
  8
AM_4
100
AcDbLine
 10
-14.72164094881878
 20
-29.72
 30
0.0
 11
-14.72164094881877
 21
-41.38
 31
0.0
  0
LINE
  5
11F
330
D9
100
AcDbEntity
  8
AM_4
100
AcDbLine
 10
-14.72164094881877
 20
-41.38
 30
0.0
 11
-14.35997553366304
 21
-42.1
 31
0.0
  0
LINE
  5
120
330
D9
100
AcDbEntity
  8
AM_4
100
AcDbLine
 10
-13.93179148018436
 20
-29.0
 30
0.0
 11
-13.93179148018436
 21
-42.1
 31
0.0
  0
LINE
  5
121
330
D9
100
AcDbEntity
  8
AM_4
100
AcDbLine
 10
25.28635995947222
 20
-41.38
 30
0.0
 11
24.56302912916076
 21
-42.1
 31
0.0
  0
LINE
  5
122
330
D9
100
AcDbEntity
  8
AM_4
100
AcDbLine
 10
-10.20305359549774
 20
-42.1
 30
0.0
 11
-10.56471901065347
 21
-41.38
 31
0.0
  0
LINE
  5
123
330
D9
100
AcDbEntity
  8
AM_4
100
AcDbLine
 10
-24.68
 20
-42.1
 30
0.0
 11
24.56302912916076
 21
-42.1
 31
0.0
  0
LINE
  5
124
330
D9
100
AcDbEntity
  8
AM_4
100
AcDbLine
 10
24.56302912916078
 20
-28.99999999999999
 30
0.0
 11
25.28635995947223
 21
-29.72
 31
0.0
  0
LINE
  5
125
330
D9
100
AcDbEntity
  8
AM_4
100
AcDbLine
 10
-24.68000000000002
 20
-29.0
 30
0.0
 11
24.56302912916078
 21
-28.99999999999999
 31
0.0
  0
LINE
  5
126
330
D9
100
AcDbEntity
  8
AM_4
100
AcDbLine
 10
-10.56471901065347
 20
-29.72
 30
0.0
 11
-10.20305359549775
 21
-28.99999999999999
 31
0.0
  0
LINE
  5
127
330
D9
100
AcDbEntity
  8
AM_4
100
AcDbLine
 10
25.28635995947223
 20
-29.72
 30
0.0
 11
25.28635995947222
 21
-41.38
 31
0.0
  0
LINE
  5
128
330
D9
100
AcDbEntity
  8
AM_4
100
AcDbLine
 10
-10.56471901065347
 20
-29.72
 30
0.0
 11
25.28635995947223
 21
-29.72
 31
0.0
  0
LINE
  5
129
330
D9
100
AcDbEntity
  8
AM_4
100
AcDbLine
 10
-10.56471901065347
 20
-41.38
 30
0.0
 11
-10.56471901065347
 21
-29.72
 31
0.0
  0
LINE
  5
12A
330
D9
100
AcDbEntity
  8
AM_4
100
AcDbLine
 10
-10.56471901065347
 20
-41.38
 30
0.0
 11
25.28635995947222
 21
-41.38
 31
0.0
  0
ENDBLK
  5
DC
330
D9
100
AcDbEntity
  8
0
100
AcDbBlockEnd
  0
BLOCK
  5
12D
330
12B
100
AcDbEntity
  8
0
100
AcDbBlockBegin
  2
4_129467_0_in_129670_4
 70
     2
 10
0.0
 20
0.0
 30
0.0
  3
4_129467_0_in_129670_4
  1

  0
ATTDEF
  5
12F
330
12B
100
AcDbEntity
  8
AM_6
100
AcDbText
 10
59.0
 20
1.35
 30
0.0
 40
0.5
  1
BODY
100
AcDbAttributeDefinition
  3

  2
NN
 70
     8
280
     0
  0
ATTDEF
  5
130
330
12B
100
AcDbEntity
  8
AM_6
100
AcDbText
 10
59.0
 20
0.8500000000000001
 30
0.0
 40
0.5
  1
Grip Tight Adapter Ball Berarings
100
AcDbAttributeDefinition
  3

  2
NT
 70
     8
280
     0
  0
ATTDEF
  5
131
330
12B
100
AcDbEntity
  8
AM_6
100
AcDbText
 10
59.0
 20
0.3500000000000001
 30
0.0
 40
0.5
  1
129467
100
AcDbAttributeDefinition
  3

  2
NB
 70
     8
280
     0
  0
ATTDEF
  5
132
330
12B
100
AcDbEntity
  8
AM_6
100
AcDbText
 10
59.0
 20
-0.1499999999999999
 30
0.0
 40
0.5
  1
$PN.$LUBE.
100
AcDbAttributeDefinition
  3

  2
NBSYN
 70
     8
280
     0
  0
ATTDEF
  5
133
330
12B
100
AcDbEntity
  8
AM_6
100
AcDbText
 10
59.0
 20
-0.6499999999999999
 30
0.0
 40
0.5
  1
129467
100
AcDbAttributeDefinition
  3

  2
LINA
 70
     8
280
     0
  0
ATTDEF
  5
134
330
12B
100
AcDbEntity
  8
AM_6
100
AcDbText
 10
59.0
 20
-1.15
 30
0.0
 40
0.5
  1
206
100
AcDbAttributeDefinition
  3

  2
SERIES
 70
     8
280
     0
  0
ATTDEF
  5
135
330
12B
100
AcDbEntity
  8
AM_6
100
AcDbText
 10
59.0
 20
-1.65
 30
0.0
 40
0.5
  1
129467
100
AcDbAttributeDefinition
  3

  2
PN
 70
     8
280
     0
  0
ATTDEF
  5
136
330
12B
100
AcDbEntity
  8
AM_6
100
AcDbText
 10
59.0
 20
-2.15
 30
0.0
 40
0.5
  1
F4B-GT-06
100
AcDbAttributeDefinition
  3

  2
DESCRIPTION
 70
     8
280
     0
  0
ATTDEF
  5
137
330
12B
100
AcDbEntity
  8
AM_6
100
AcDbText
 10
59.0
 20
-2.65
 30
0.0
 40
0.5
  1
With Lube
100
AcDbAttributeDefinition
  3

  2
LUBE
 70
     8
280
     0
  0
ATTDEF
  5
138
330
12B
100
AcDbEntity
  8
AM_6
100
AcDbText
 10
59.0
 20
-3.15
 30
0.0
 40
0.5
  1
1.7
100
AcDbAttributeDefinition
  3

  2
WEIGHT
 70
     8
280
     0
  0
ATTDEF
  5
139
330
12B
100
AcDbEntity
  8
AM_6
100
AcDbText
 10
59.0
 20
-3.65
 30
0.0
 40
0.5
  1
40.9
100
AcDbAttributeDefinition
  3

  2
A
 70
     8
280
     0
  0
ATTDEF
  5
13A
330
12B
100
AcDbEntity
  8
AM_6
100
AcDbText
 10
59.0
 20
-4.15
 30
0.0
 40
0.5
  1
108.0
100
AcDbAttributeDefinition
  3

  2
B
 70
     8
280
     0
  0
ATTDEF
  5
13B
330
12B
100
AcDbEntity
  8
AM_6
100
AcDbText
 10
59.0
 20
-4.65
 30
0.0
 40
0.5
  1
43.3
100
AcDbAttributeDefinition
  3

  2
C
 70
     8
280
     0
  0
ATTDEF
  5
13C
330
12B
100
AcDbEntity
  8
AM_6
100
AcDbText
 10
59.0
 20
-5.15
 30
0.0
 40
0.5
  1
M10
100
AcDbAttributeDefinition
  3

  2
F
 70
     8
280
     0
  0
ATTDEF
  5
13D
330
12B
100
AcDbEntity
  8
AM_6
100
AcDbText
 10
59.0
 20
-5.65
 30
0.0
 40
0.5
  1
12.7
100
AcDbAttributeDefinition
  3

  2
H
 70
     8
280
     0
  0
ATTDEF
  5
13E
330
12B
100
AcDbEntity
  8
AM_6
100
AcDbText
 10
59.0
 20
-6.15
 30
0.0
 40
0.5
  1
15.1
100
AcDbAttributeDefinition
  3

  2
J
 70
     8
280
     0
  0
ATTDEF
  5
13F
330
12B
100
AcDbEntity
  8
AM_6
100
AcDbText
 10
59.0
 20
-6.65
 30
0.0
 40
0.5
  1
50.8
100
AcDbAttributeDefinition
  3

  2
L
 70
     8
280
     0
  0
ATTDEF
  5
140
330
12B
100
AcDbEntity
  8
AM_6
100
AcDbText
 10
59.0
 20
-7.15
 30
0.0
 40
0.5
  1
55.6
100
AcDbAttributeDefinition
  3

  2
N
 70
     8
280
     0
  0
ATTDEF
  5
141
330
12B
100
AcDbEntity
  8
AM_6
100
AcDbText
 10
59.0
 20
-7.65
 30
0.0
 40
0.5
  1
42.1
100
AcDbAttributeDefinition
  3

  2
Z
 70
     8
280
     0
  0
ATTDEF
  5
142
330
12B
100
AcDbEntity
  8
AM_6
100
AcDbText
 10
59.0
 20
-8.15
 30
0.0
 40
0.5
  1
Infotext
100
AcDbAttributeDefinition
  3

  2
INFO
 70
     8
280
     0
  0
ATTDEF
  5
143
330
12B
100
AcDbEntity
  8
AM_6
100
AcDbText
 10
59.0
 20
-8.65
 30
0.0
 40
0.5
  1
baldor
100
AcDbAttributeDefinition
  3

  2
COMPANY
 70
     8
280
     0
  0
LINE
  5
144
330
12B
100
AcDbEntity
  8
AM_9
100
AcDbLine
 10
37.86177365697112
 20
-12.7
 30
0.0
 11
37.86177365697112
 21
-11.1125
 31
0.0
  0
LINE
  5
145
330
12B
100
AcDbEntity
  8
AM_9
100
AcDbLine
 10
4.23717262799869
 20
-11.1125
 30
0.0
 11
4.23717262799869
 21
-10.6125
 31
0.0
  0
LINE
  5
146
330
12B
100
AcDbEntity
  8
AM_9
100
AcDbLine
 10
-30.76110913250401
 20
-12.7
 30
0.0
 11
-30.76110913250401
 21
-11.1125
 31
0.0
  0
LINE
  5
147
330
12B
100
AcDbEntity
  8
AM_9
100
AcDbLine
 10
8.51321837612022
 20
-11.1125
 30
0.0
 11
8.51321837612022
 21
-10.6125
 31
0.0
  0
LINE
  5
148
330
12B
100
AcDbEntity
  8
AM_9
100
AcDbLine
 10
-5.09238155766042
 20
-11.1125
 30
0.0
 11
-5.09238155766042
 21
-10.6125
 31
0.0
  0
LINE
  5
149
330
12B
100
AcDbEntity
  8
AM_9
100
AcDbLine
 10
1.74929152807863
 20
-11.1125
 30
0.0
 11
1.74929152807863
 21
-10.6125
 31
0.0
  0
LINE
  5
14A
330
12B
100
AcDbEntity
  8
AM_9
100
AcDbLine
 10
2.37126187163949
 20
-11.1125
 30
0.0
 11
2.37126187163949
 21
-10.6125
 31
0.0
  0
LINE
  5
14B
330
12B
100
AcDbEntity
  8
AM_9
100
AcDbLine
 10
-5.71435203838155
 20
-11.1125
 30
0.0
 11
-5.71435203838155
 21
-10.6125
 31
0.0
  0
LINE
  5
14C
330
12B
100
AcDbEntity
  8
AM_9
100
AcDbLine
 10
-1.9825302538809
 20
-11.1125
 30
0.0
 11
-1.9825302538809
 21
-10.6125
 31
0.0
  0
LINE
  5
14D
330
12B
100
AcDbEntity
  8
AM_9
100
AcDbLine
 10
-6.18082948744046
 20
-11.1125
 30
0.0
 11
-6.18082948744046
 21
-10.6125
 31
0.0
  0
LINE
  5
14E
330
12B
100
AcDbEntity
  8
AM_9
100
AcDbLine
 10
-4.62590410860145
 20
-11.1125
 30
0.0
 11
-4.62590410860145
 21
-10.6125
 31
0.0
  0
LINE
  5
14F
330
12B
100
AcDbEntity
  8
AM_9
100
AcDbLine
 10
5.40336707233928
 20
-11.1125
 30
0.0
 11
5.40336707233928
 21
-10.6125
 31
0.0
  0
LINE
  5
150
330
12B
100
AcDbEntity
  8
AM_9
100
AcDbLine
 10
1.28281380723882
 20
-11.1125
 30
0.0
 11
1.28281380723882
 21
-10.6125
 31
0.0
  0
LINE
  5
151
330
12B
100
AcDbEntity
  8
AM_9
100
AcDbLine
 10
2.83773945785873
 20
-11.1125
 30
0.0
 11
2.83773945785873
 21
-10.6125
 31
0.0
  0
LINE
  5
152
330
12B
100
AcDbEntity
  8
AM_9
100
AcDbLine
 10
-2.44900797726041
 20
-11.1125
 30
0.0
 11
-2.44900797726041
 21
-10.6125
 31
0.0
  0
LINE
  5
153
330
12B
100
AcDbEntity
  8
AM_9
100
AcDbLine
 10
1.67154528783862
 20
-11.1125
 30
0.0
 11
1.67154528783862
 21
-10.6125
 31
0.0
  0
LINE
  5
154
330
12B
100
AcDbEntity
  8
AM_9
100
AcDbLine
 10
-2.06027649666055
 20
-11.1125
 30
0.0
 11
-2.06027649666055
 21
-10.6125
 31
0.0
  0
LINE
  5
155
330
12B
100
AcDbEntity
  8
AM_9
100
AcDbLine
 10
-5.79209828115978
 20
-11.1125
 30
0.0
 11
-5.79209828115978
 21
-10.6125
 31
0.0
  0
LINE
  5
156
330
12B
100
AcDbEntity
  8
AM_9
100
AcDbLine
 10
2.44900811441914
 20
-11.1125
 30
0.0
 11
2.44900811441914
 21
-10.6125
 31
0.0
  0
LINE
  5
157
330
12B
100
AcDbEntity
  8
AM_9
100
AcDbLine
 10
-5.01463531742041
 20
-11.1125
 30
0.0
 11
-5.01463531742041
 21
-10.6125
 31
0.0
  0
LINE
  5
158
330
12B
100
AcDbEntity
  8
AM_9
100
AcDbLine
 10
4.93688907463922
 20
-11.1125
 30
0.0
 11
4.93688907463922
 21
-10.6125
 31
0.0
  0
LINE
  5
159
330
12B
100
AcDbEntity
  8
AM_9
100
AcDbLine
 10
-4.3926648367007
 20
-11.1125
 30
0.0
 11
-4.3926648367007
 21
-10.6125
 31
0.0
  0
LINE
  5
15A
330
12B
100
AcDbEntity
  8
AM_9
100
AcDbLine
 10
1.51605266766018
 20
-11.1125
 30
0.0
 11
1.51605266766018
 21
-10.6125
 31
0.0
  0
LINE
  5
15B
330
12B
100
AcDbEntity
  8
AM_9
100
AcDbLine
 10
-5.94759076418086
 20
-11.1125
 30
0.0
 11
-5.94759076418086
 21
-10.6125
 31
0.0
  0
LINE
  5
15C
330
12B
100
AcDbEntity
  8
AM_9
100
AcDbLine
 10
2.604500734599068
 20
-11.1125
 30
0.0
 11
2.60450073459907
 21
-10.6125
 31
0.0
  0
LINE
  5
15D
330
12B
100
AcDbEntity
  8
AM_9
100
AcDbLine
 10
-6.414068213241251
 20
-11.1125
 30
0.0
 11
-6.414068213241251
 21
-10.6125
 31
0.0
  0
LINE
  5
15E
330
12B
100
AcDbEntity
  8
AM_9
100
AcDbLine
 10
-2.21576897968021
 20
-11.1125
 30
0.0
 11
-2.21576897968021
 21
-10.6125
 31
0.0
  0
LINE
  5
15F
330
12B
100
AcDbEntity
  8
AM_9
100
AcDbLine
 10
1.04957494427924
 20
-11.1125
 30
0.0
 11
1.04957494427924
 21
-10.6125
 31
0.0
  0
LINE
  5
160
330
12B
100
AcDbEntity
  8
AM_9
100
AcDbLine
 10
-2.68224670306114
 20
-11.1125
 30
0.0
 11
-2.68224670306114
 21
-10.6125
 31
0.0
  0
LINE
  5
161
330
12B
100
AcDbEntity
  8
AM_9
100
AcDbLine
 10
-4.85914283440076
 20
-11.1125
 30
0.0
 11
-4.85914283440076
 21
-10.6125
 31
0.0
  0
LINE
  5
162
330
12B
100
AcDbEntity
  8
AM_9
100
AcDbLine
 10
4.85914283439928
 20
-11.1125
 30
0.0
 11
4.85914283439928
 21
-10.6125
 31
0.0
  0
LINE
  5
163
330
12B
100
AcDbEntity
  8
AM_9
100
AcDbLine
 10
3.07097845544035
 20
-11.1125
 30
0.0
 11
3.07097845544035
 21
-10.6125
 31
0.0
  0
LINE
  5
164
330
12B
100
AcDbEntity
  8
AM_9
100
AcDbLine
 10
5.32562082955962
 20
-11.1125
 30
0.0
 11
5.32562082955962
 21
-10.6125
 31
0.0
  0
LINE
  5
165
330
12B
100
AcDbEntity
  8
AM_9
100
AcDbLine
 10
0.81633611687954
 20
-11.1125
 30
0.0
 11
0.81633611687954
 21
-10.6125
 31
0.0
  0
LINE
  5
166
330
12B
100
AcDbEntity
  8
AM_9
100
AcDbLine
 10
-4.1594261134411
 20
-11.1125
 30
0.0
 11
-4.1594261134411
 21
-10.6125
 31
0.0
  0
LINE
  5
167
330
12B
100
AcDbEntity
  8
AM_9
100
AcDbLine
 10
3.30421718123966
 20
-11.1125
 30
0.0
 11
3.30421718123966
 21
-10.6125
 31
0.0
  0
LINE
  5
168
330
12B
100
AcDbEntity
  8
AM_9
100
AcDbLine
 10
6.49181499957973
 20
-11.1125
 30
0.0
 11
6.49181499957973
 21
-10.6125
 31
0.0
  0
LINE
  5
169
330
12B
100
AcDbEntity
  8
AM_9
100
AcDbLine
 10
-0.894082189481651
 20
-11.1125
 30
0.0
 11
-0.894082189481651
 21
-10.6125
 31
0.0
  0
LINE
  5
16A
330
12B
100
AcDbEntity
  8
AM_9
100
AcDbLine
 10
-2.915485700639921
 20
-11.1125
 30
0.0
 11
-2.915485700639921
 21
-10.6125
 31
0.0
  0
LINE
  5
16B
330
12B
100
AcDbEntity
  8
AM_9
100
AcDbLine
 10
-8.35772534700066
 20
-11.1125
 30
0.0
 11
-8.35772534700066
 21
-10.6125
 31
0.0
  0
LINE
  5
16C
330
12B
100
AcDbEntity
  8
AM_9
100
AcDbLine
 10
-6.64730748514057
 20
-11.1125
 30
0.0
 11
-6.64730748514057
 21
-10.6125
 31
0.0
  0
LINE
  5
16D
330
12B
100
AcDbEntity
  8
AM_9
100
AcDbLine
 10
4.62590410859849
 20
-11.1125
 30
0.0
 11
4.62590410859849
 21
-10.6125
 31
0.0
  0
LINE
  5
16E
330
12B
100
AcDbEntity
  8
AM_9
100
AcDbLine
 10
-2.52675422004006
 20
-11.1125
 30
0.0
 11
-2.52675422004006
 21
-10.6125
 31
0.0
  0
LINE
  5
16F
330
12B
100
AcDbEntity
  8
AM_9
100
AcDbLine
 10
2.91548570063981
 20
-11.1125
 30
0.0
 11
2.91548570063981
 21
-10.6125
 31
0.0
  0
LINE
  5
170
330
12B
100
AcDbEntity
  8
AM_9
100
AcDbLine
 10
5.01463531741888
 20
-11.1125
 30
0.0
 11
5.01463531741888
 21
-10.6125
 31
0.0
  0
LINE
  5
171
330
12B
100
AcDbEntity
  8
AM_9
100
AcDbLine
 10
-6.25857573022017
 20
-11.1125
 30
0.0
 11
-6.25857573022017
 21
-10.6125
 31
0.0
  0
LINE
  5
172
330
12B
100
AcDbEntity
  8
AM_9
100
AcDbLine
 10
1.20506756445917
 20
-11.1125
 30
0.0
 11
1.20506756445917
 21
-10.6125
 31
0.0
  0
LINE
  5
173
330
12B
100
AcDbEntity
  8
AM_9
100
AcDbLine
 10
-4.5481578683615
 20
-11.1125
 30
0.0
 11
-4.5481578683615
 21
-10.6125
 31
0.0
  0
LINE
  5
174
330
12B
100
AcDbEntity
  8
AM_9
100
AcDbLine
 10
0.894082392679422
 20
-11.1125
 30
0.0
 11
0.894082392679422
 21
-10.6125
 31
0.0
  0
LINE
  5
175
330
12B
100
AcDbEntity
  8
AM_9
100
AcDbLine
 10
-6.56956124236086
 20
-11.1125
 30
0.0
 11
-6.56956124236086
 21
-10.6125
 31
0.0
  0
LINE
  5
176
330
12B
100
AcDbEntity
  8
AM_9
100
AcDbLine
 10
3.22647094099966
 20
-11.1125
 30
0.0
 11
3.22647094099966
 21
-10.6125
 31
0.0
  0
LINE
  5
177
330
12B
100
AcDbEntity
  8
AM_9
100
AcDbLine
 10
-4.23717235368105
 20
-11.1125
 30
0.0
 11
-4.23717235368105
 21
-10.6125
 31
0.0
  0
LINE
  5
178
330
12B
100
AcDbEntity
  8
AM_9
100
AcDbLine
 10
-2.8377391860808
 20
-11.1125
 30
0.0
 11
-2.8377391860808
 21
-10.6125
 31
0.0
  0
LINE
  5
179
330
12B
100
AcDbEntity
  8
AM_9
100
AcDbLine
 10
4.70365035137962
 20
-11.1125
 30
0.0
 11
4.70365035137962
 21
-10.6125
 31
0.0
  0
LINE
  5
17A
330
12B
100
AcDbEntity
  8
AM_9
100
AcDbLine
 10
5.40336707233928
 20
-10.6125
 30
0.0
 11
2.37126187163949
 21
-10.6125
 31
0.0
  0
LINE
  5
17B
330
12B
100
AcDbEntity
  8
AM_9
100
AcDbLine
 10
-6.95829245117983
 20
-11.1125
 30
0.0
 11
-6.95829245117983
 21
-10.6125
 31
0.0
  0
LINE
  5
17C
330
12B
100
AcDbEntity
  8
AM_9
100
AcDbLine
 10
-3.84844114740037
 20
-11.1125
 30
0.0
 11
-3.84844114740037
 21
-10.6125
 31
0.0
  0
LINE
  5
17D
330
12B
100
AcDbEntity
  8
AM_9
100
AcDbLine
 10
-3.22647066668065
 20
-11.1125
 30
0.0
 11
-3.22647066668065
 21
-10.6125
 31
0.0
  0
LINE
  5
17E
330
12B
100
AcDbEntity
  8
AM_9
100
AcDbLine
 10
3.61520242159952
 20
-11.1125
 30
0.0
 11
3.61520242159952
 21
-10.6125
 31
0.0
  0
LINE
  5
17F
330
12B
100
AcDbEntity
  8
AM_9
100
AcDbLine
 10
4.31491886823864
 20
-11.1125
 30
0.0
 11
4.31491886823864
 21
-10.6125
 31
0.0
  0
LINE
  5
180
330
12B
100
AcDbEntity
  8
AM_9
100
AcDbLine
 10
-1.9825302538809
 20
-10.6125
 30
0.0
 11
-5.09238155766042
 21
-10.6125
 31
0.0
  0
LINE
  5
181
330
12B
100
AcDbEntity
  8
AM_9
100
AcDbLine
 10
-1.36055991285969
 20
-11.1125
 30
0.0
 11
-1.36055991285969
 21
-10.6125
 31
0.0
  0
LINE
  5
182
330
12B
100
AcDbEntity
  8
AM_9
100
AcDbLine
 10
6.025337004419321
 20
-11.1125
 30
0.0
 11
6.025337004419321
 21
-10.6125
 31
0.0
  0
LINE
  5
183
330
12B
100
AcDbEntity
  8
AM_9
100
AcDbLine
 10
1.74929152807863
 20
-10.6125
 30
0.0
 11
-1.36055991285969
 21
-10.6125
 31
0.0
  0
LINE
  5
184
330
12B
100
AcDbEntity
  8
AM_9
100
AcDbLine
 10
0.5053509628790491
 20
-11.1125
 30
0.0
 11
0.5053509628790491
 21
-10.6125
 31
0.0
  0
LINE
  5
185
330
12B
100
AcDbEntity
  8
AM_9
100
AcDbLine
 10
-8.82420334215959
 20
-11.1125
 30
0.0
 11
-8.82420334215959
 21
-10.6125
 31
0.0
  0
LINE
  5
186
330
12B
100
AcDbEntity
  8
AM_9
100
AcDbLine
 10
-5.71435203838155
 20
-10.6125
 30
0.0
 11
-8.82420334215959
 21
-10.6125
 31
0.0
  0
LINE
  5
187
330
12B
100
AcDbEntity
  8
AM_9
100
AcDbLine
 10
8.82420334215954
 20
-11.1125
 30
0.0
 11
8.82420334215954
 21
-10.6125
 31
0.0
  0
LINE
  5
188
330
12B
100
AcDbEntity
  8
AM_9
100
AcDbLine
 10
8.82420334215954
 20
-10.6125
 30
0.0
 11
6.025337004419321
 21
-10.6125
 31
0.0
  0
LINE
  5
189
330
12B
100
AcDbEntity
  8
AM_9
100
AcDbLine
 10
48.6733192286038
 20
-12.7
 30
0.0
 11
48.6733192286038
 21
-11.1125
 31
0.0
  0
LINE
  5
18A
330
12B
100
AcDbEntity
  8
AM_9
100
AcDbLine
 10
-53.64525805493396
 20
-12.7
 30
0.0
 11
-53.64525805493396
 21
-11.1125
 31
0.0
  0
LINE
  5
18B
330
12B
100
AcDbEntity
  8
AM_9
100
AcDbLine
 10
42.9
 20
-12.7
 30
0.0
 11
42.9
 21
-11.1125
 31
0.0
  0
LINE
  5
18C
330
12B
100
AcDbEntity
  8
AM_9
100
AcDbLine
 10
-42.9
 20
-11.1125
 30
0.0
 11
-42.9
 21
-12.7
 31
0.0
  0
LINE
  5
18D
330
12B
100
AcDbEntity
  8
AM_9
100
AcDbLine
 10
40.05889418036716
 20
-12.7
 30
0.0
 11
40.05889418036716
 21
-11.1125
 31
0.0
  0
LINE
  5
18E
330
12B
100
AcDbEntity
  8
AM_9
100
AcDbLine
 10
39.78402909321623
 20
-12.7
 30
0.0
 11
39.78402909321623
 21
-11.1125
 31
0.0
  0
LINE
  5
18F
330
12B
100
AcDbEntity
  8
AM_9
100
AcDbLine
 10
39.59954037286121
 20
-11.1125
 30
0.0
 11
39.59954037286121
 21
-12.76748400150223
 31
0.0
  0
LINE
  5
190
330
12B
100
AcDbEntity
  8
AM_9
100
AcDbLine
 10
-40.05889418036716
 20
-12.7
 30
0.0
 11
-40.05889418036716
 21
-11.1125
 31
0.0
  0
LINE
  5
191
330
12B
100
AcDbEntity
  8
AM_9
100
AcDbLine
 10
-39.78402909321623
 20
-12.7
 30
0.0
 11
-39.78402909321623
 21
-11.1125
 31
0.0
  0
LINE
  5
192
330
12B
100
AcDbEntity
  8
AM_9
100
AcDbLine
 10
-39.5995403728612
 20
-12.7667849355348
 30
0.0
 11
-39.5995403728612
 21
-11.1125
 31
0.0
  0
LINE
  5
193
330
12B
100
AcDbEntity
  8
AM_9
100
AcDbLine
 10
-39.65000000000001
 20
-11.1125
 30
0.0
 11
-54.0
 21
-11.11249999999999
 31
0.0
  0
LINE
  5
194
330
12B
100
AcDbEntity
  8
AM_9
100
AcDbLine
 10
-48.6733192286038
 20
-12.7
 30
0.0
 11
-48.6733192286038
 21
-11.11249999999999
 31
0.0
  0
LINE
  5
195
330
12B
100
AcDbEntity
  8
AM_9
100
AcDbLine
 10
31.0
 20
-27.0
 30
0.0
 11
31.0
 21
0.0
 31
0.0
  0
LINE
  5
196
330
12B
100
AcDbEntity
  8
AM_9
100
AcDbLine
 10
-31.0
 20
0.0
 30
0.0
 11
-31.0
 21
-27.0
 31
0.0
  0
LINE
  5
197
330
12B
100
AcDbEntity
  8
AM_9
100
AcDbLine
 10
53.64525805493395
 20
-12.7
 30
0.0
 11
53.64525805493395
 21
-11.11249999999999
 31
0.0
  0
LINE
  5
198
330
12B
100
AcDbEntity
  8
AM_9
100
AcDbLine
 10
39.64999999999993
 20
-11.1125
 30
0.0
 11
54.0
 21
-11.11249999999999
 31
0.0
  0
LINE
  5
199
330
12B
100
AcDbEntity
  8
AM_9
100
AcDbLine
 10
7.999390827019639
 20
-26.0348994967025
 30
0.0
 11
-7.999390827019096
 21
-26.0348994967025
 31
0.0
  0
LINE
  5
19A
330
12B
100
AcDbEntity
  8
AM_9
100
AcDbLine
 10
-39.60565090068113
 20
-12.74083434644738
 30
0.0
 11
-39.59954038246594
 21
-12.76639622569545
 31
0.0
  0
LINE
  5
19B
330
12B
100
AcDbEntity
  8
AM_9
100
AcDbLine
 10
-7.999999999999996
 20
-12.86694407184906
 30
0.0
 11
8.000000000000002
 21
-12.86694407184906
 31
0.0
  0
LINE
  5
19C
330
12B
100
AcDbEntity
  8
AM_9
100
AcDbLine
 10
39.60109559735677
 20
-12.77993820589814
 30
0.0
 11
39.59954037386206
 21
-12.76635199594169
 31
0.0
  0
LINE
  5
19D
330
12B
100
AcDbEntity
  8
AM_9
100
AcDbLine
 10
7.999999999999998
 20
-13.6651005032975
 30
0.0
 11
-8.000000000000002
 21
-13.6651005032975
 31
0.0
  0
LINE
  5
19E
330
12B
100
AcDbEntity
  8
AM_9
100
AcDbLine
 10
-36.00000000000001
 20
-12.7
 30
0.0
 11
-36.00000000000001
 21
0.0000000000000035
 31
0.0
  0
LINE
  5
19F
330
12B
100
AcDbEntity
  8
AM_9
100
AcDbLine
 10
-46.5
 20
0.0000000000000035
 30
0.0
 11
-46.5
 21
-12.7
 31
0.0
  0
LINE
  5
1A0
330
12B
100
AcDbEntity
  8
AM_9
100
AcDbLine
 10
46.5
 20
-12.7
 30
0.0
 11
46.5
 21
0.0000000000000035
 31
0.0
  0
LINE
  5
1A1
330
12B
100
AcDbEntity
  8
AM_9
100
AcDbLine
 10
36.00000000000001
 20
0.0000000000000035
 30
0.0
 11
36.00000000000001
 21
-12.7
 31
0.0
  0
CIRCLE
  5
1A2
330
12B
100
AcDbEntity
  8
AM_9
100
AcDbCircle
 10
0.0
 20
-20.0
 30
0.0
 40
1.999999999999998
  0
CIRCLE
  5
1A3
330
12B
100
AcDbEntity
  8
AM_9
100
AcDbCircle
 10
0.0
 20
-20.0
 30
0.0
 40
2.547965866167404
  0
LINE
  5
1A4
330
12B
100
AcDbEntity
  8
AM_7
100
AcDbLine
 10
0.0000000000000017
 20
-45.345
 30
0.0
 11
0.0
 21
1.35
 31
0.0
  0
LINE
  5
1A5
330
12B
100
AcDbEntity
  8
AM_7
100
AcDbLine
 10
-41.25
 20
0.6984999999999976
 30
0.0
 11
-41.25
 21
-14.6685
 31
0.0
  0
LINE
  5
1A6
330
12B
100
AcDbEntity
  8
AM_7
100
AcDbLine
 10
41.25
 20
0.6984999999999976
 30
0.0
 11
41.25
 21
-14.6685
 31
0.0
  0
LINE
  5
1A7
330
12B
100
AcDbEntity
  8
AM_7
100
AcDbLine
 10
-4.199999999999999
 20
-19.99999999999999
 30
0.0
 11
4.199999999999994
 21
-19.99999999999999
 31
0.0
  0
LINE
  5
1A8
330
12B
100
AcDbEntity
  8
AM_4
100
AcDbLine
 10
42.9
 20
-12.86694407184888
 30
0.0
 11
42.9
 21
-12.7
 31
0.0
  0
LINE
  5
1A9
330
12B
100
AcDbEntity
  8
AM_4
100
AcDbLine
 10
-42.9
 20
-12.7
 30
0.0
 11
-42.9
 21
-12.86694407184882
 31
0.0
  0
LINE
  5
1AA
330
12B
100
AcDbEntity
  8
AM_4
100
AcDbLine
 10
39.78402909321623
 20
-12.86694407184889
 30
0.0
 11
39.78402909321623
 21
-12.7
 31
0.0
  0
LWPOLYLINE
  5
1AB
330
12B
100
AcDbEntity
  8
AM_4
100
AcDbPolyline
 90
        4
 70
     0
 43
0.0
 10
39.59954038246594
 20
-12.76639622569544
 10
39.60703043373753
 20
-12.79615044562039
 10
39.67748351148789
 20
-12.85117658688923
 10
39.78402909321623
 20
-12.86694407184905
  0
LINE
  5
1AC
330
12B
100
AcDbEntity
  8
AM_4
100
AcDbLine
 10
-39.78402909321623
 20
-12.86694407184904
 30
0.0
 11
-39.78402909321623
 21
-12.7
 31
0.0
  0
LINE
  5
1AD
330
12B
100
AcDbEntity
  8
AM_4
100
AcDbLine
 10
-39.65344424166084
 20
-12.70510674445962
 30
0.0
 11
-39.69258137140322
 21
-12.7
 31
0.0
  0
LWPOLYLINE
  5
1AE
330
12B
100
AcDbEntity
  8
AM_4
100
AcDbPolyline
 90
        4
 70
     0
 43
0.0
 10
-39.59954037386206
 20
-12.76635199594169
 10
-39.60291344588529
 20
-12.74711486342103
 10
-39.651506222952
 20
-12.7056852993834
 10
-39.65344424166084
 20
-12.70510674445962
  0
LINE
  5
1AF
330
12B
100
AcDbEntity
  8
AM_4
100
AcDbLine
 10
-41.02244422146094
 20
-27.0
 30
0.0
 11
41.02244422146094
 21
-27.0
 31
0.0
  0
ARC
  5
1B0
330
12B
100
AcDbEntity
  8
AM_4
100
AcDbCircle
 10
41.02244422146093
 20
-25.99999999999999
 30
0.0
 40
1.000000000000007
100
AcDbArc
 50
270.0
 51
357.9999999999995
  0
ARC
  5
1B1
330
12B
100
AcDbEntity
  8
AM_4
100
AcDbCircle
 10
-41.02244422146093
 20
-25.99999999999999
 30
0.0
 40
1.00000000000001
100
AcDbArc
 50
182.0000000000005
 51
270.0
  0
LINE
  5
1B2
330
12B
100
AcDbEntity
  8
AM_4
100
AcDbLine
 10
7.999390827019639
 20
-26.03489949668696
 30
0.0
 11
42.02183504848004
 21
-26.0348994967025
 31
0.0
  0
LINE
  5
1B3
330
12B
100
AcDbEntity
  8
AM_4
100
AcDbLine
 10
42.02183504848004
 20
-26.0348994967025
 30
0.0
 11
42.45379794778798
 21
-13.6651005032975
 31
0.0
  0
LINE
  5
1B4
330
12B
100
AcDbEntity
  8
AM_4
100
AcDbLine
 10
-42.45379794778798
 20
-13.6651005032975
 30
0.0
 11
-42.02183504848004
 21
-26.0348994967025
 31
0.0
  0
LINE
  5
1B5
330
12B
100
AcDbEntity
  8
AM_4
100
AcDbLine
 10
-42.02183504848004
 20
-26.0348994967025
 30
0.0
 11
-7.999390827019096
 21
-26.03489949670249
 31
0.0
  0
LINE
  5
1B6
330
12B
100
AcDbEntity
  8
AM_4
100
AcDbLine
 10
-16.0512002389268
 20
-12.86694407184878
 30
0.0
 11
-16.0512002389268
 21
-11.11249999999999
 31
0.0
  0
LINE
  5
1B7
330
12B
100
AcDbEntity
  8
AM_4
100
AcDbLine
 10
16.05120023892682
 20
-12.86694407184905
 30
0.0
 11
16.05120023892682
 21
-11.11249999999999
 31
0.0
  0
LINE
  5
1B8
330
12B
100
AcDbEntity
  8
AM_4
100
AcDbLine
 10
7.999999999999998
 20
-13.6651005032975
 30
0.0
 11
42.45379794778798
 21
-13.6651005032975
 31
0.0
  0
LINE
  5
1B9
330
12B
100
AcDbEntity
  8
AM_4
100
AcDbLine
 10
-7.999999999999996
 20
-12.86694407184886
 30
0.0
 11
-16.0512002389268
 21
-12.86694407184878
 31
0.0
  0
LWPOLYLINE
  5
1BA
330
12B
100
AcDbEntity
  8
AM_4
100
AcDbPolyline
 90
        5
 70
     0
 43
0.0
 10
-17.682720344267
 20
-12.7
 10
-17.22863910567962
 20
-12.73406882942825
 10
-16.80663204364913
 20
-12.79615044562039
 10
-16.37715050071148
 20
-12.85117658688923
 10
-16.0512002389268
 20
-12.86694407184878
  0
LWPOLYLINE
  5
1BB
330
12B
100
AcDbEntity
  8
AM_4
100
AcDbPolyline
 90
        4
 70
     0
 43
0.0
 10
-39.78402909321623
 20
-12.86694407184905
 10
-39.67290002799231
 20
-12.84945624595249
 10
-39.61107939059256
 20
-12.80319547147138
 10
-39.59954037386206
 20
-12.76635199594169
  0
LINE
  5
1BC
330
12B
100
AcDbEntity
  8
AM_4
100
AcDbLine
 10
-39.78402909321623
 20
-12.86694407184904
 30
0.0
 11
-42.90000000000033
 21
-12.86694407184882
 31
0.0
  0
LWPOLYLINE
  5
1BD
330
12B
100
AcDbEntity
  8
AM_4
100
AcDbPolyline
 90
        3
 70
     0
 43
0.0
 10
39.63710067806358
 20
-12.71136005415999
 10
39.60971211734884
 20
-12.73406882942825
 10
39.59954038246594
 20
-12.76639622569544
  0
LINE
  5
1BE
330
12B
100
AcDbEntity
  8
AM_4
100
AcDbLine
 10
39.69258137140323
 20
-12.7
 30
0.0
 11
39.63710067806358
 21
-12.71136005415999
 31
0.0
  0
LWPOLYLINE
  5
1BF
330
12B
100
AcDbEntity
  8
AM_4
100
AcDbPolyline
 90
        6
 70
     0
 43
0.0
 10
16.05120023892682
 20
-12.86694407184905
 10
16.39551025711963
 20
-12.84945624595249
 10
16.75971417410831
 20
-12.80319547147138
 10
17.13240908793518
 20
-12.74711486342103
 10
17.51271251232989
 20
-12.7056852993834
 10
17.682720344267
 20
-12.7
  0
LINE
  5
1C0
330
12B
100
AcDbEntity
  8
AM_4
100
AcDbLine
 10
16.05120023892682
 20
-12.86694407184905
 30
0.0
 11
8.000000000000002
 21
-12.86694407184904
 31
0.0
  0
ARC
  5
1C1
330
12B
100
AcDbEntity
  8
AM_4
100
AcDbCircle
 10
43.45318877480711
 20
-13.70000000000002
 30
0.0
 40
1.000000000000038
100
AcDbArc
 50
123.5860524867148
 51
177.9999999999988
  0
ARC
  5
1C2
330
12B
100
AcDbEntity
  8
AM_4
100
AcDbCircle
 10
-43.45318877480708
 20
-13.70000000000001
 30
0.0
 40
1.00000000000001
100
AcDbArc
 50
2.000000000000494
 51
56.41394751329153
  0
LINE
  5
1C3
330
12B
100
AcDbEntity
  8
AM_4
100
AcDbLine
 10
-42.45379794778798
 20
-13.6651005032975
 30
0.0
 11
-8.000000000000002
 21
-13.6651005032975
 31
0.0
  0
LINE
  5
1C4
330
12B
100
AcDbEntity
  8
AM_4
100
AcDbLine
 10
42.90000000000025
 20
-12.86694407184888
 30
0.0
 11
39.78402909321623
 21
-12.86694407184889
 31
0.0
  0
LINE
  5
1C5
330
12B
100
AcDbEntity
  8
AM_4
100
AcDbLine
 10
8.0
 20
-26.0
 30
0.0
 11
7.999999999999998
 21
-11.11249999999999
 31
0.0
  0
LINE
  5
1C6
330
12B
100
AcDbEntity
  8
AM_4
100
AcDbLine
 10
-8.000000000000002
 20
-11.11249999999999
 30
0.0
 11
-8.0
 21
-26.0
 31
0.0
  0
ARC
  5
1C7
330
12B
100
AcDbEntity
  8
AM_4
100
AcDbCircle
 10
-6.999999999999996
 20
-25.99999999999999
 30
0.0
 40
1.000000000000004
100
AcDbArc
 50
180.0
 51
270.0
  0
ARC
  5
1C8
330
12B
100
AcDbEntity
  8
AM_4
100
AcDbCircle
 10
6.999999999999996
 20
-25.99999999999999
 30
0.0
 40
1.000000000000004
100
AcDbArc
 50
270.0
 51
0.0
  0
LINE
  5
1C9
330
12B
100
AcDbEntity
  8
AM_4
100
AcDbLine
 10
18.4584351706355
 20
-12.7
 30
0.0
 11
18.4584351706355
 21
-11.11249999999999
 31
0.0
  0
LINE
  5
1CA
330
12B
100
AcDbEntity
  8
AM_4
100
AcDbLine
 10
-2.309401076758504
 20
-24.0
 30
0.0
 11
-4.618802153517007
 21
-20.0
 31
0.0
  0
LINE
  5
1CB
330
12B
100
AcDbEntity
  8
AM_4
100
AcDbLine
 10
-4.618802153517007
 20
-20.0
 30
0.0
 11
-2.309401076758504
 21
-16.0
 31
0.0
  0
LINE
  5
1CC
330
12B
100
AcDbEntity
  8
AM_4
100
AcDbLine
 10
-2.309401076758504
 20
-16.0
 30
0.0
 11
2.309401076758504
 21
-16.0
 31
0.0
  0
LINE
  5
1CD
330
12B
100
AcDbEntity
  8
AM_4
100
AcDbLine
 10
2.309401076758504
 20
-16.0
 30
0.0
 11
4.618802153517007
 21
-20.0
 31
0.0
  0
LINE
  5
1CE
330
12B
100
AcDbEntity
  8
AM_4
100
AcDbLine
 10
2.309401076758504
 20
-24.0
 30
0.0
 11
-2.309401076758504
 21
-24.0
 31
0.0
  0
LINE
  5
1CF
330
12B
100
AcDbEntity
  8
AM_4
100
AcDbLine
 10
4.618802153517007
 20
-20.0
 30
0.0
 11
2.309401076758504
 21
-24.0
 31
0.0
  0
CIRCLE
  5
1D0
330
12B
100
AcDbEntity
  8
AM_4
100
AcDbCircle
 10
0.0
 20
-20.0
 30
0.0
 40
2.800000000000003
  0
LINE
  5
1D1
330
12B
100
AcDbEntity
  8
AM_4
100
AcDbLine
 10
-18.45843517063549
 20
-12.7
 30
0.0
 11
-18.45843517063549
 21
-11.11249999999999
 31
0.0
  0
CIRCLE
  5
1D2
330
12B
100
AcDbEntity
  8
AM_4
100
AcDbCircle
 10
0.0
 20
-20.0
 30
0.0
 40
2.699651919085715
  0
LINE
  5
1D3
330
12B
100
AcDbEntity
  8
AM_4
100
AcDbLine
 10
39.64999999999993
 20
-11.11249999999999
 30
0.0
 11
-39.65000000000001
 21
-11.11249999999999
 31
0.0
  0
LINE
  5
1D4
330
12B
100
AcDbEntity
  8
AM_4
100
AcDbLine
 10
-54.0
 20
-12.7
 30
0.0
 11
-17.682720344267
 21
-12.7
 31
0.0
  0
LINE
  5
1D5
330
12B
100
AcDbEntity
  8
AM_4
100
AcDbLine
 10
-37.86177365697112
 20
-12.7
 30
0.0
 11
-37.86177365697112
 21
-11.11249999999999
 31
0.0
  0
LINE
  5
1D6
330
12B
100
AcDbEntity
  8
AM_4
100
AcDbLine
 10
-39.65000000000001
 20
-12.7
 30
0.0
 11
-39.65000000000001
 21
-11.11249999999999
 31
0.0
  0
LINE
  5
1D7
330
12B
100
AcDbEntity
  8
AM_4
100
AcDbLine
 10
41.25000000000001
 20
-12.7
 30
0.0
 11
41.25000000000001
 21
0.0
 31
0.0
  0
LINE
  5
1D8
330
12B
100
AcDbEntity
  8
AM_4
100
AcDbLine
 10
17.682720344267
 20
-12.7
 30
0.0
 11
54.0
 21
-12.7
 31
0.0
  0
LINE
  5
1D9
330
12B
100
AcDbEntity
  8
AM_4
100
AcDbLine
 10
54.0
 20
-12.7
 30
0.0
 11
54.0
 21
0.0
 31
0.0
  0
LINE
  5
1DA
330
12B
100
AcDbEntity
  8
AM_4
100
AcDbLine
 10
39.64999999999993
 20
-11.11249999999999
 30
0.0
 11
39.64999999999993
 21
-12.7
 31
0.0
  0
LINE
  5
1DB
330
12B
100
AcDbEntity
  8
AM_4
100
AcDbLine
 10
30.761109132504
 20
-12.7
 30
0.0
 11
30.761109132504
 21
-11.11249999999999
 31
0.0
  0
LINE
  5
1DC
330
12B
100
AcDbEntity
  8
AM_4
100
AcDbLine
 10
54.0
 20
0.0
 30
0.0
 11
-54.0
 21
0.0
 31
0.0
  0
LINE
  5
1DD
330
12B
100
AcDbEntity
  8
AM_4
100
AcDbLine
 10
-54.0
 20
-12.7
 30
0.0
 11
-54.0
 21
0.0
 31
0.0
  0
LINE
  5
1DE
330
12B
100
AcDbEntity
  8
AM_4
100
AcDbLine
 10
-41.25
 20
-12.7
 30
0.0
 11
-41.25
 21
0.0
 31
0.0
  0
CIRCLE
  5
1DF
330
12B
100
AcDbEntity
  8
AM_4
100
AcDbCircle
 10
0.0
 20
-20.0
 30
0.0
 40
2.663890264528341
  0
CIRCLE
  5
1E0
330
12B
100
AcDbEntity
  8
AM_4
100
AcDbCircle
 10
0.0
 20
-20.0
 30
0.0
 40
1.661483519286549
  0
CIRCLE
  5
1E1
330
12B
100
AcDbEntity
  8
AM_4
100
AcDbCircle
 10
0.0
 20
-20.0
 30
0.0
 40
2.12572186472918
  0
CIRCLE
  5
1E2
330
12B
100
AcDbEntity
  8
AM_4
100
AcDbCircle
 10
0.0000000000000018
 20
-20.00000000000001
 30
0.0
 40
3.999999999999989
  0
ENDBLK
  5
12E
330
12B
100
AcDbEntity
  8
0
100
AcDbBlockEnd
  0
ENDSEC
  0
SECTION
  2
ENTITIES
  0
INSERT
  5
6F
330
1F
100
AcDbEntity
  8
0
100
AcDbBlockReference
  2
1_129670_4
 10
0.0
 20
0.0
 30
0.0
  0
POINT
  5
1E4
330
1F
100
AcDbEntity
  8
ConnectionPoints
100
AcDbPoint
 10
0.0000000000000017
 20
-15.9
 30
0.000000000000001
  0
POINT
  5
1E5
330
1F
100
AcDbEntity
  8
ConnectionPoints
100
AcDbPoint
 10
0.0000000000000017
 20
-2.399999999999999
 30
0.0000000000000001
  0
POINT
  5
1E6
330
1F
100
AcDbEntity
  8
ConnectionPoints
100
AcDbPoint
 10
0.0
 20
-2.399999999999999
 30
0.0000000000000001
  0
ENDSEC
  0
SECTION
  2
OBJECTS
  0
DICTIONARY
  5
C
330
0
100
AcDbDictionary
281
     1
  3
ACAD_DETAILVIEWSTYLE
350
1EE
  3
ACAD_GROUP
350
D
  3
ACAD_LAYOUT
350
1A
  3
ACAD_MATERIAL
350
43
  3
ACAD_MLEADERSTYLE
350
6B
  3
ACAD_MLINESTYLE
350
17
  3
ACAD_PLOTSETTINGS
350
19
  3
ACAD_PLOTSTYLENAME
350
E
  3
ACAD_SCALELIST
350
47
  3
ACAD_SECTIONVIEWSTYLE
350
1EF
  3
ACAD_TABLESTYLE
350
69
  3
ACAD_VISUALSTYLE
350
2A
  3
ACDB_RECOMPOSE_DATA
350
1EB
  3
AcDbVariableDictionary
350
1E7
  0
SUN
  5
6D
330
29
100
AcDbSun
 90
        1
290
     0
 63
     7
421
 16777215
 40
1.0
291
     1
 91
  2455826
 92
 54000000
292
     0
 70
     2
 71
   256
280
     1
  0
DICTIONARY
  5
1EE
102
{ACAD_REACTORS
330
C
102
}
330
C
100
AcDbDictionary
281
     1
  0
DICTIONARY
  5
D
102
{ACAD_REACTORS
330
C
102
}
330
C
100
AcDbDictionary
281
     1
  0
DICTIONARY
  5
1A
102
{ACAD_REACTORS
330
C
102
}
330
C
100
AcDbDictionary
281
     1
  3
Layout1
350
1E
  3
Layout2
350
26
  3
Model
350
22
  0
DICTIONARY
  5
43
102
{ACAD_REACTORS
330
C
102
}
330
C
100
AcDbDictionary
281
     1
  3
ByBlock
350
45
  3
ByLayer
350
44
  3
Global
350
46
  0
DICTIONARY
  5
6B
102
{ACAD_REACTORS
330
C
102
}
330
C
100
AcDbDictionary
281
     1
  3
Standard
350
6C
  0
DICTIONARY
  5
17
102
{ACAD_REACTORS
330
C
102
}
330
C
100
AcDbDictionary
281
     1
  3
Standard
350
18
  0
DICTIONARY
  5
19
102
{ACAD_REACTORS
330
C
102
}
330
C
100
AcDbDictionary
281
     1
  0
ACDBDICTIONARYWDFLT
  5
E
102
{ACAD_REACTORS
330
C
102
}
330
C
100
AcDbDictionary
281
     1
  3
Normal
350
F
100
AcDbDictionaryWithDefault
340
F
  0
DICTIONARY
  5
47
102
{ACAD_REACTORS
330
C
102
}
330
C
100
AcDbDictionary
281
     1
  3
A0
350
48
  3
A1
350
49
  3
A2
350
4A
  3
A3
350
4B
  3
A4
350
4C
  3
A5
350
4D
  3
A6
350
4E
  3
A7
350
4F
  3
A8
350
50
  3
A9
350
51
  3
B0
350
52
  3
B1
350
53
  3
B2
350
54
  3
B3
350
55
  3
B4
350
56
  3
B5
350
57
  3
B6
350
58
  3
B7
350
59
  3
B8
350
5A
  3
B9
350
5B
  3
C0
350
5C
  3
C1
350
5D
  3
C2
350
5E
  3
C3
350
5F
  3
C4
350
60
  3
C5
350
61
  3
C6
350
62
  3
C7
350
63
  3
C8
350
64
  3
C9
350
65
  3
D0
350
66
  3
D1
350
67
  3
D2
350
68
  0
DICTIONARY
  5
1EF
102
{ACAD_REACTORS
330
C
102
}
330
C
100
AcDbDictionary
281
     1
  0
DICTIONARY
  5
69
102
{ACAD_REACTORS
330
C
102
}
330
C
100
AcDbDictionary
281
     1
  3
Standard
350
6A
  0
DICTIONARY
  5
2A
102
{ACAD_REACTORS
330
C
102
}
330
C
100
AcDbDictionary
281
     1
  3
2dWireframe
350
2F
  3
Basic
350
32
  3
Brighten
350
36
  3
ColorChange
350
3A
  3
Conceptual
350
34
  3
Dim
350
35
  3
EdgeColorOff
350
3D
  3
Facepattern
350
39
  3
Flat
350
2B
  3
FlatWithEdges
350
2C
  3
Gouraud
350
2D
  3
GouraudWithEdges
350
2E
  3
Hidden
350
31
  3
JitterOff
350
3B
  3
Linepattern
350
38
  3
OverhangOff
350
3C
  3
Realistic
350
33
  3
Shaded
350
42
  3
Shaded with edges
350
41
  3
Shades of Gray
350
3E
  3
Sketchy
350
3F
  3
Thicken
350
37
  3
Wireframe
350
30
  3
X-Ray
350
40
  0
XRECORD
  5
1EB
102
{ACAD_REACTORS
330
C
102
}
330
C
100
AcDbXrecord
280
     1
 90
        1
330
6A
  0
DICTIONARY
  5
1E7
102
{ACAD_REACTORS
330
C
102
}
330
C
100
AcDbDictionary
281
     1
  3
CANNOSCALE
350
1E8
  3
CMLEADERSTYLE
350
1ED
  3
CTABLESTYLE
350
1EC
  0
LAYOUT
  5
1E
102
{ACAD_REACTORS
330
1A
102
}
330
1A
100
AcDbPlotSettings
  1

  2
none_device
  4

  6

 40
0.0
 41
0.0
 42
0.0
 43
0.0
 44
0.0
 45
0.0
 46
0.0
 47
0.0
 48
0.0
 49
0.0
140
0.0
141
0.0
142
1.0
143
1.0
 70
   688
 72
     1
 73
     0
 74
     5
  7

 75
    16
 76
     0
 77
     2
 78
   300
147
1.0
148
0.0
149
0.0
100
AcDbLayout
  1
Layout1
 70
     1
 71
     1
 10
0.0
 20
0.0
 11
420.0
 21
297.0
 12
0.0
 22
0.0
 32
0.0
 14
1.000000000000000E+20
 24
1.000000000000000E+20
 34
1.000000000000000E+20
 15
-1.000000000000000E+20
 25
-1.000000000000000E+20
 35
-1.000000000000000E+20
146
0.0
 13
0.0
 23
0.0
 33
0.0
 16
1.0
 26
0.0
 36
0.0
 17
0.0
 27
1.0
 37
0.0
 76
     0
330
1B
  0
LAYOUT
  5
26
102
{ACAD_REACTORS
330
1A
102
}
330
1A
100
AcDbPlotSettings
  1

  2
none_device
  4

  6

 40
0.0
 41
0.0
 42
0.0
 43
0.0
 44
0.0
 45
0.0
 46
0.0
 47
0.0
 48
0.0
 49
0.0
140
0.0
141
0.0
142
1.0
143
1.0
 70
   688
 72
     1
 73
     0
 74
     5
  7

 75
    16
 76
     0
 77
     2
 78
   300
147
1.0
148
0.0
149
0.0
100
AcDbLayout
  1
Layout2
 70
     1
 71
     2
 10
0.0
 20
0.0
 11
0.0
 21
0.0
 12
0.0
 22
0.0
 32
0.0
 14
0.0
 24
0.0
 34
0.0
 15
0.0
 25
0.0
 35
0.0
146
0.0
 13
0.0
 23
0.0
 33
0.0
 16
1.0
 26
0.0
 36
0.0
 17
0.0
 27
1.0
 37
0.0
 76
     0
330
23
  0
LAYOUT
  5
22
102
{ACAD_REACTORS
330
1A
102
}
330
1A
100
AcDbPlotSettings
  1

  2
none_device
  4
Letter_(8.50_x_11.00_Inches)
  6

 40
6.35
 41
6.35
 42
6.35000508
 43
6.35000508
 44
215.9
 45
279.4
 46
0.0
 47
0.0
 48
0.0
 49
0.0
140
0.0
141
0.0
142
1.0
143
1.0
 70
  1712
 72
     1
 73
     0
 74
     0
  7

 75
     0
 76
     0
 77
     2
 78
   300
147
1.0
148
0.0
149
0.0
100
AcDbLayout
  1
Model
 70
     1
 71
     0
 10
0.0
 20
0.0
 11
420.0
 21
297.0
 12
0.0
 22
0.0
 32
0.0
 14
1.000000000000000E+20
 24
1.000000000000000E+20
 34
1.000000000000000E+20
 15
-1.000000000000000E+20
 25
-1.000000000000000E+20
 35
-1.000000000000000E+20
146
0.0
 13
0.0
 23
0.0
 33
0.0
 16
1.0
 26
0.0
 36
0.0
 17
0.0
 27
1.0
 37
0.0
 76
     0
330
1F
331
29
  0
MATERIAL
  5
45
102
{ACAD_REACTORS
330
43
102
}
330
43
100
AcDbMaterial
  1
ByBlock
 72
     1
 94
      127
  0
MATERIAL
  5
44
102
{ACAD_REACTORS
330
43
102
}
330
43
100
AcDbMaterial
  1
ByLayer
 72
     1
 94
      127
  0
MATERIAL
  5
46
102
{ACAD_REACTORS
330
43
102
}
330
43
100
AcDbMaterial
  1
Global
 72
     1
 94
      127
  0
MLEADERSTYLE
  5
6C
102
{ACAD_REACTORS
330
6B
102
}
330
6B
100
AcDbMLeaderStyle
179
     2
170
     2
171
     1
172
     0
 90
        2
 40
0.0
 41
0.0
173
     1
 91
-1056964608
340
14
 92
       -2
290
     1
 42
2.0
291
     1
 43
8.0
  3
Standard
341
0
 44
4.0
300

342
11
174
     1
178
     6
175
     1
176
     0
 93
-1056964608
 45
4.0
292
     0
297
     0
 46
4.0
343
0
 94
-1056964608
 47
1.0
 49
1.0
140
1.0
293
     1
141
0.0
294
     1
177
     0
142
1.0
295
     0
296
     0
143
3.75
271
     0
272
     9
273
     9
298
     0
  0
MLINESTYLE
  5
18
102
{ACAD_REACTORS
330
17
102
}
330
17
100
AcDbMlineStyle
  2
Standard
 70
     0
  3

 62
   256
 51
90.0
 52
90.0
 71
     2
 49
0.5
 62
   256
  6
BYLAYER
 49
-0.5
 62
   256
  6
BYLAYER
  0
ACDBPLACEHOLDER
  5
F
102
{ACAD_REACTORS
330
E
102
}
330
E
  0
SCALE
  5
48
102
{ACAD_REACTORS
330
47
102
}
330
47
100
AcDbScale
 70
     0
300
1:1
140
1.0
141
1.0
290
     1
  0
SCALE
  5
49
102
{ACAD_REACTORS
330
47
102
}
330
47
100
AcDbScale
 70
     0
300
1:2
140
1.0
141
2.0
290
     0
  0
SCALE
  5
4A
102
{ACAD_REACTORS
330
47
102
}
330
47
100
AcDbScale
 70
     0
300
1:4
140
1.0
141
4.0
290
     0
  0
SCALE
  5
4B
102
{ACAD_REACTORS
330
47
102
}
330
47
100
AcDbScale
 70
     0
300
1:5
140
1.0
141
5.0
290
     0
  0
SCALE
  5
4C
102
{ACAD_REACTORS
330
47
102
}
330
47
100
AcDbScale
 70
     0
300
1:8
140
1.0
141
8.0
290
     0
  0
SCALE
  5
4D
102
{ACAD_REACTORS
330
47
102
}
330
47
100
AcDbScale
 70
     0
300
1:10
140
1.0
141
10.0
290
     0
  0
SCALE
  5
4E
102
{ACAD_REACTORS
330
47
102
}
330
47
100
AcDbScale
 70
     0
300
1:16
140
1.0
141
16.0
290
     0
  0
SCALE
  5
4F
102
{ACAD_REACTORS
330
47
102
}
330
47
100
AcDbScale
 70
     0
300
1:20
140
1.0
141
20.0
290
     0
  0
SCALE
  5
50
102
{ACAD_REACTORS
330
47
102
}
330
47
100
AcDbScale
 70
     0
300
1:30
140
1.0
141
30.0
290
     0
  0
SCALE
  5
51
102
{ACAD_REACTORS
330
47
102
}
330
47
100
AcDbScale
 70
     0
300
1:40
140
1.0
141
40.0
290
     0
  0
SCALE
  5
52
102
{ACAD_REACTORS
330
47
102
}
330
47
100
AcDbScale
 70
     0
300
1:50
140
1.0
141
50.0
290
     0
  0
SCALE
  5
53
102
{ACAD_REACTORS
330
47
102
}
330
47
100
AcDbScale
 70
     0
300
1:100
140
1.0
141
100.0
290
     0
  0
SCALE
  5
54
102
{ACAD_REACTORS
330
47
102
}
330
47
100
AcDbScale
 70
     0
300
2:1
140
2.0
141
1.0
290
     0
  0
SCALE
  5
55
102
{ACAD_REACTORS
330
47
102
}
330
47
100
AcDbScale
 70
     0
300
4:1
140
4.0
141
1.0
290
     0
  0
SCALE
  5
56
102
{ACAD_REACTORS
330
47
102
}
330
47
100
AcDbScale
 70
     0
300
8:1
140
8.0
141
1.0
290
     0
  0
SCALE
  5
57
102
{ACAD_REACTORS
330
47
102
}
330
47
100
AcDbScale
 70
     0
300
10:1
140
10.0
141
1.0
290
     0
  0
SCALE
  5
58
102
{ACAD_REACTORS
330
47
102
}
330
47
100
AcDbScale
 70
     0
300
100:1
140
100.0
141
1.0
290
     0
  0
SCALE
  5
59
102
{ACAD_REACTORS
330
47
102
}
330
47
100
AcDbScale
 70
     0
300
1/128" = 1'-0"
140
0.0078125
141
12.0
290
     0
  0
SCALE
  5
5A
102
{ACAD_REACTORS
330
47
102
}
330
47
100
AcDbScale
 70
     0
300
1/64" = 1'-0"
140
0.015625
141
12.0
290
     0
  0
SCALE
  5
5B
102
{ACAD_REACTORS
330
47
102
}
330
47
100
AcDbScale
 70
     0
300
1/32" = 1'-0"
140
0.03125
141
12.0
290
     0
  0
SCALE
  5
5C
102
{ACAD_REACTORS
330
47
102
}
330
47
100
AcDbScale
 70
     0
300
1/16" = 1'-0"
140
0.0625
141
12.0
290
     0
  0
SCALE
  5
5D
102
{ACAD_REACTORS
330
47
102
}
330
47
100
AcDbScale
 70
     0
300
3/32" = 1'-0"
140
0.09375
141
12.0
290
     0
  0
SCALE
  5
5E
102
{ACAD_REACTORS
330
47
102
}
330
47
100
AcDbScale
 70
     0
300
1/8" = 1'-0"
140
0.125
141
12.0
290
     0
  0
SCALE
  5
5F
102
{ACAD_REACTORS
330
47
102
}
330
47
100
AcDbScale
 70
     0
300
3/16" = 1'-0"
140
0.1875
141
12.0
290
     0
  0
SCALE
  5
60
102
{ACAD_REACTORS
330
47
102
}
330
47
100
AcDbScale
 70
     0
300
1/4" = 1'-0"
140
0.25
141
12.0
290
     0
  0
SCALE
  5
61
102
{ACAD_REACTORS
330
47
102
}
330
47
100
AcDbScale
 70
     0
300
3/8" = 1'-0"
140
0.375
141
12.0
290
     0
  0
SCALE
  5
62
102
{ACAD_REACTORS
330
47
102
}
330
47
100
AcDbScale
 70
     0
300
1/2" = 1'-0"
140
0.5
141
12.0
290
     0
  0
SCALE
  5
63
102
{ACAD_REACTORS
330
47
102
}
330
47
100
AcDbScale
 70
     0
300
3/4" = 1'-0"
140
0.75
141
12.0
290
     0
  0
SCALE
  5
64
102
{ACAD_REACTORS
330
47
102
}
330
47
100
AcDbScale
 70
     0
300
1" = 1'-0"
140
1.0
141
12.0
290
     0
  0
SCALE
  5
65
102
{ACAD_REACTORS
330
47
102
}
330
47
100
AcDbScale
 70
     0
300
1-1/2" = 1'-0"
140
1.5
141
12.0
290
     0
  0
SCALE
  5
66
102
{ACAD_REACTORS
330
47
102
}
330
47
100
AcDbScale
 70
     0
300
3" = 1'-0"
140
3.0
141
12.0
290
     0
  0
SCALE
  5
67
102
{ACAD_REACTORS
330
47
102
}
330
47
100
AcDbScale
 70
     0
300
6" = 1'-0"
140
6.0
141
12.0
290
     0
  0
SCALE
  5
68
102
{ACAD_REACTORS
330
47
102
}
330
47
100
AcDbScale
 70
     0
300
1'-0" = 1'-0"
140
12.0
141
12.0
290
     0
  0
TABLESTYLE
  5
6A
102
{ACAD_REACTORS
330
69
102
}
102
{ACAD_XDICTIONARY
360
1E9
102
}
330
69
100
AcDbTableStyle
  3
Standard
 70
     0
 71
     0
 40
0.06
 41
0.06
280
     0
281
     0
  7
Standard
140
4.5
170
     2
 62
     0
 63
   257
283
     0
 90
        4
 91
        0
  1

274
    -2
284
     1
 64
     0
275
    -2
285
     1
 65
     0
276
    -2
286
     1
 66
     0
277
    -2
287
     1
 67
     0
278
    -2
288
     1
 68
     0
279
    -2
289
     1
 69
     0
  7
Standard
140
6.0
170
     5
 62
     0
 63
   257
283
     0
 90
        4
 91
        0
  1

274
    -2
284
     1
 64
     0
275
    -2
285
     1
 65
     0
276
    -2
286
     1
 66
     0
277
    -2
287
     1
 67
     0
278
    -2
288
     1
 68
     0
279
    -2
289
     1
 69
     0
  7
Standard
140
4.5
170
     5
 62
     0
 63
   257
283
     0
 90
        4
 91
        0
  1

274
    -2
284
     1
 64
     0
275
    -2
285
     1
 65
     0
276
    -2
286
     1
 66
     0
277
    -2
287
     1
 67
     0
278
    -2
288
     1
 68
     0
279
    -2
289
     1
 69
     0
  0
VISUALSTYLE
  5
2F
102
{ACAD_REACTORS
330
2A
102
}
330
2A
100
AcDbVisualStyle
  2
2dWireframe
 70
     4
177
     3
291
     0
 70
    58
 90
        0
176
     1
 90
        2
176
     1
 90
        0
176
     1
 90
        0
176
     1
 40
0.6
176
     1
 40
30.0
176
     1
 62
     7
420
 16777215
176
     1
 90
        1
176
     1
 90
        4
176
     1
 62
     7
176
     1
 62
   257
176
     1
 90
        1
176
     1
 90
        1
176
     1
 40
1.0
176
     1
 90
        0
176
     1
 62
   257
176
     1
 40
1.0
176
     1
 90
        1
176
     1
 90
        6
176
     1
 90
        2
176
     1
 62
     7
176
     1
 90
        5
176
     1
 90
        0
176
     1
 90
        0
176
     1
290
     0
176
     1
 90
        1
176
     1
 40
0.0
176
     1
 90
        0
176
     1
290
     1
176
     1
290
     1
176
     1
290
     0
176
     1
290
     0
176
     1
290
     0
176
     1
290
     0
176
     1
290
     0
176
     1
290
     0
176
     1
290
     0
176
     1
 90
       50
176
     1
 40
0.0
176
     1
 40
1.0
176
     1
 90
        0
176
     1
 62
    18
420
        0
176
     1
 90
       50
176
     1
 90
        3
176
     1
 62
     5
420
      255
176
     1
290
     0
176
     1
 90
       50
176
     1
 90
       50
176
     1
 90
       50
176
     1
290
     0
176
     1
 90
       50
176
     1
 62
   256
176
     0
 40
1.0
176
     0
 90
        2
176
     1
  1
strokes_ogs.tif
176
     1
290
     0
176
     1
 40
1.0
176
     1
 40
1.0
176
     1
  0
VISUALSTYLE
  5
32
102
{ACAD_REACTORS
330
2A
102
}
330
2A
100
AcDbVisualStyle
  2
Basic
 70
     7
177
     3
291
     1
 70
    58
 90
        1
176
     1
 90
        0
176
     1
 90
        1
176
     1
 90
        0
176
     1
 40
0.6
176
     1
 40
30.0
176
     1
 62
     7
420
 16777215
176
     1
 90
        0
176
     1
 90
        4
176
     1
 62
     7
176
     1
 62
   257
176
     1
 90
        1
176
     1
 90
        1
176
     1
 40
1.0
176
     1
 90
        8
176
     1
 62
     7
176
     1
 40
1.0
176
     1
 90
        1
176
     1
 90
        6
176
     1
 90
        2
176
     1
 62
     7
176
     1
 90
        5
176
     1
 90
        0
176
     1
 90
        0
176
     1
290
     0
176
     1
 90
        1
176
     1
 40
0.0
176
     1
 90
        0
176
     1
290
     0
176
     1
290
     1
176
     1
290
     1
176
     1
290
     0
176
     1
290
     0
176
     1
290
     0
176
     1
290
     0
176
     1
290
     0
176
     1
290
     0
176
     1
 90
       50
176
     1
 40
0.0
176
     1
 40
1.0
176
     1
 90
        0
176
     1
 62
    18
420
        0
176
     1
 90
       50
176
     1
 90
        3
176
     1
 62
     5
420
      255
176
     1
290
     0
176
     1
 90
       50
176
     1
 90
       50
176
     1
 90
       50
176
     1
290
     0
176
     1
 90
       50
176
     1
 62
   256
176
     0
 40
1.0
176
     0
 90
        2
176
     1
  1
strokes_ogs.tif
176
     1
290
     0
176
     1
 40
1.0
176
     1
 40
1.0
176
     1
  0
VISUALSTYLE
  5
36
102
{ACAD_REACTORS
330
2A
102
}
330
2A
100
AcDbVisualStyle
  2
Brighten
 70
    12
177
     3
291
     1
 70
    58
 90
        2
176
     1
 90
        2
176
     1
 90
        0
176
     1
 90
        0
176
     1
 40
0.6
176
     1
 40
30.0
176
     1
 62
     7
420
 16777215
176
     1
 90
        1
176
     1
 90
        4
176
     1
 62
     7
176
     1
 62
   257
176
     1
 90
        1
176
     1
 90
        1
176
     1
 40
1.0
176
     1
 90
        8
176
     1
 62
     7
176
     1
 40
1.0
176
     1
 90
        1
176
     1
 90
        6
176
     1
 90
        2
176
     1
 62
     7
176
     1
 90
        5
176
     1
 90
        0
176
     1
 90
        0
176
     1
290
     0
176
     1
 90
        1
176
     1
 40
50.0
176
     1
 90
        0
176
     1
290
     0
176
     1
290
     1
176
     1
290
     1
176
     1
290
     0
176
     1
290
     0
176
     1
290
     0
176
     1
290
     0
176
     1
290
     0
176
     1
290
     0
176
     1
 90
       50
176
     1
 40
0.0
176
     1
 40
1.0
176
     1
 90
        0
176
     1
 62
    18
420
        0
176
     1
 90
       50
176
     1
 90
        3
176
     1
 62
     5
420
      255
176
     1
290
     0
176
     1
 90
       50
176
     1
 90
       50
176
     1
 90
       50
176
     1
290
     0
176
     1
 90
       50
176
     1
 62
   256
176
     0
 40
1.0
176
     0
 90
        2
176
     1
  1
strokes_ogs.tif
176
     1
290
     0
176
     1
 40
1.0
176
     1
 40
1.0
176
     1
  0
VISUALSTYLE
  5
3A
102
{ACAD_REACTORS
330
2A
102
}
330
2A
100
AcDbVisualStyle
  2
ColorChange
 70
    16
177
     3
291
     1
 70
    58
 90
        2
176
     1
 90
        2
176
     1
 90
        3
176
     1
 90
        0
176
     1
 40
0.6
176
     1
 40
30.0
176
     1
 62
     8
420
  8421504
176
     1
 90
        1
176
     1
 90
        4
176
     1
 62
     7
176
     1
 62
   257
176
     1
 90
        1
176
     1
 90
        1
176
     1
 40
1.0
176
     1
 90
        8
176
     1
 62
     8
420
  8421504
176
     1
 40
1.0
176
     1
 90
        1
176
     1
 90
        6
176
     1
 90
        2
176
     1
 62
     7
176
     1
 90
        5
176
     1
 90
        0
176
     1
 90
        0
176
     1
290
     0
176
     1
 90
        1
176
     1
 40
0.0
176
     1
 90
        0
176
     1
290
     0
176
     1
290
     1
176
     1
290
     1
176
     1
290
     0
176
     1
290
     0
176
     1
290
     0
176
     1
290
     0
176
     1
290
     0
176
     1
290
     0
176
     1
 90
       50
176
     1
 40
0.0
176
     1
 40
1.0
176
     1
 90
        0
176
     1
 62
    18
420
        0
176
     1
 90
       50
176
     1
 90
        3
176
     1
 62
     5
420
      255
176
     1
290
     0
176
     1
 90
       50
176
     1
 90
       50
176
     1
 90
       50
176
     1
290
     0
176
     1
 90
       50
176
     1
 62
   256
176
     0
 40
1.0
176
     0
 90
        2
176
     1
  1
strokes_ogs.tif
176
     1
290
     0
176
     1
 40
1.0
176
     1
 40
1.0
176
     1
  0
VISUALSTYLE
  5
34
102
{ACAD_REACTORS
330
2A
102
}
330
2A
100
AcDbVisualStyle
  2
Conceptual
 70
     9
177
     3
291
     0
 70
    58
 90
        3
176
     1
 90
        2
176
     1
 90
        0
176
     1
 90
        0
176
     1
 40
0.6
176
     1
 40
30.0
176
     1
 62
     7
420
 16777215
176
     1
 90
        2
176
     1
 90
        2
176
     1
 62
     7
176
     1
 62
   257
176
     1
 90
        1
176
     1
 90
        1
176
     1
 40
179.0
176
     1
 90
        8
176
     1
 62
     7
176
     1
 40
1.0
176
     1
 90
        1
176
     1
 90
        6
176
     1
 90
        2
176
     1
 62
     7
176
     1
 90
        3
176
     1
 90
        0
176
     1
 90
        0
176
     1
290
     0
176
     1
 90
        1
176
     1
 40
0.0
176
     1
 90
        0
176
     1
290
     0
176
     1
290
     1
176
     1
290
     1
176
     1
290
     0
176
     1
290
     0
176
     1
290
     0
176
     1
290
     0
176
     1
290
     0
176
     1
290
     0
176
     1
 90
       50
176
     1
 40
0.0
176
     1
 40
1.0
176
     1
 90
        0
176
     1
 62
    18
420
        0
176
     1
 90
       50
176
     1
 90
        3
176
     1
 62
     5
420
      255
176
     1
290
     0
176
     1
 90
       50
176
     1
 90
       50
176
     1
 90
       50
176
     1
290
     0
176
     1
 90
       50
176
     1
 62
   256
176
     0
 40
1.0
176
     0
 90
        2
176
     1
  1
strokes_ogs.tif
176
     1
290
     0
176
     1
 40
1.0
176
     1
 40
1.0
176
     1
  0
VISUALSTYLE
  5
35
102
{ACAD_REACTORS
330
2A
102
}
330
2A
100
AcDbVisualStyle
  2
Dim
 70
    11
177
     3
291
     1
 70
    58
 90
        2
176
     1
 90
        2
176
     1
 90
        0
176
     1
 90
        0
176
     1
 40
0.6
176
     1
 40
30.0
176
     1
 62
     7
420
 16777215
176
     1
 90
        1
176
     1
 90
        4
176
     1
 62
     7
176
     1
 62
   257
176
     1
 90
        1
176
     1
 90
        1
176
     1
 40
1.0
176
     1
 90
        8
176
     1
 62
     7
176
     1
 40
1.0
176
     1
 90
        1
176
     1
 90
        6
176
     1
 90
        2
176
     1
 62
     7
176
     1
 90
        5
176
     1
 90
        0
176
     1
 90
        0
176
     1
290
     0
176
     1
 90
        1
176
     1
 40
-50.0
176
     1
 90
        0
176
     1
290
     0
176
     1
290
     1
176
     1
290
     1
176
     1
290
     0
176
     1
290
     0
176
     1
290
     0
176
     1
290
     0
176
     1
290
     0
176
     1
290
     0
176
     1
 90
       50
176
     1
 40
0.0
176
     1
 40
1.0
176
     1
 90
        0
176
     1
 62
    18
420
        0
176
     1
 90
       50
176
     1
 90
        3
176
     1
 62
     5
420
      255
176
     1
290
     0
176
     1
 90
       50
176
     1
 90
       50
176
     1
 90
       50
176
     1
290
     0
176
     1
 90
       50
176
     1
 62
   256
176
     0
 40
1.0
176
     0
 90
        2
176
     1
  1
strokes_ogs.tif
176
     1
290
     0
176
     1
 40
1.0
176
     1
 40
1.0
176
     1
  0
VISUALSTYLE
  5
3D
102
{ACAD_REACTORS
330
2A
102
}
330
2A
100
AcDbVisualStyle
  2
EdgeColorOff
 70
    22
177
     3
291
     1
 70
    58
 90
        2
176
     0
 90
        2
176
     0
 90
        0
176
     0
 90
        0
176
     0
 40
0.6
176
     0
 40
30.0
176
     0
 62
     7
420
 16777215
176
     0
 90
        1
176
     0
 90
        4
176
     0
 62
     7
176
     0
 62
   257
176
     0
 90
        1
176
     0
 90
        1
176
     0
 40
1.0
176
     0
 90
        8
176
     2
 62
     7
176
     0
 40
1.0
176
     0
 90
        1
176
     0
 90
        6
176
     0
 90
        2
176
     0
 62
     7
176
     0
 90
        5
176
     0
 90
        0
176
     0
 90
        0
176
     0
290
     0
176
     0
 90
        1
176
     0
 40
0.0
176
     0
 90
        0
176
     0
290
     0
176
     0
290
     1
176
     0
290
     1
176
     0
290
     0
176
     0
290
     0
176
     0
290
     0
176
     0
290
     0
176
     0
290
     0
176
     0
290
     0
176
     0
 90
       50
176
     0
 40
0.0
176
     0
 40
1.0
176
     0
 90
        0
176
     0
 62
    18
420
        0
176
     0
 90
       50
176
     0
 90
        3
176
     0
 62
     5
420
      255
176
     0
290
     0
176
     0
 90
       50
176
     0
 90
       50
176
     0
 90
       50
176
     0
290
     0
176
     0
 90
       50
176
     0
 62
   256
176
     0
 40
1.0
176
     0
 90
        2
176
     0
  1
strokes_ogs.tif
176
     0
290
     0
176
     0
 40
1.0
176
     0
 40
1.0
176
     0
  0
VISUALSTYLE
  5
39
102
{ACAD_REACTORS
330
2A
102
}
330
2A
100
AcDbVisualStyle
  2
Facepattern
 70
    15
177
     3
291
     1
 70
    58
 90
        2
176
     1
 90
        2
176
     1
 90
        0
176
     1
 90
        0
176
     1
 40
0.6
176
     1
 40
30.0
176
     1
 62
     7
420
 16777215
176
     1
 90
        1
176
     1
 90
        4
176
     1
 62
     7
176
     1
 62
   257
176
     1
 90
        1
176
     1
 90
        1
176
     1
 40
1.0
176
     1
 90
        8
176
     1
 62
     7
176
     1
 40
1.0
176
     1
 90
        1
176
     1
 90
        6
176
     1
 90
        2
176
     1
 62
     7
176
     1
 90
        5
176
     1
 90
        0
176
     1
 90
        0
176
     1
290
     0
176
     1
 90
        1
176
     1
 40
0.0
176
     1
 90
        0
176
     1
290
     0
176
     1
290
     1
176
     1
290
     1
176
     1
290
     0
176
     1
290
     0
176
     1
290
     0
176
     1
290
     0
176
     1
290
     0
176
     1
290
     0
176
     1
 90
       50
176
     1
 40
0.0
176
     1
 40
1.0
176
     1
 90
        0
176
     1
 62
    18
420
        0
176
     1
 90
       50
176
     1
 90
        3
176
     1
 62
     5
420
      255
176
     1
290
     0
176
     1
 90
       50
176
     1
 90
       50
176
     1
 90
       50
176
     1
290
     0
176
     1
 90
       50
176
     1
 62
   256
176
     0
 40
1.0
176
     0
 90
        2
176
     1
  1
strokes_ogs.tif
176
     1
290
     0
176
     1
 40
1.0
176
     1
 40
1.0
176
     1
  0
VISUALSTYLE
  5
2B
102
{ACAD_REACTORS
330
2A
102
}
330
2A
100
AcDbVisualStyle
  2
Flat
 70
     0
177
     3
291
     1
 70
    58
 90
        2
176
     1
 90
        1
176
     1
 90
        1
176
     1
 90
        2
176
     1
 40
0.6
176
     1
 40
30.0
176
     1
 62
     7
420
 16777215
176
     1
 90
        0
176
     1
 90
        0
176
     1
 62
     7
176
     1
 62
   257
176
     1
 90
        1
176
     1
 90
        1
176
     1
 40
1.0
176
     1
 90
        8
176
     1
 62
     7
176
     1
 40
1.0
176
     1
 90
        1
176
     1
 90
        6
176
     1
 90
        2
176
     1
 62
     7
176
     1
 90
        5
176
     1
 90
        0
176
     1
 90
        0
176
     1
290
     0
176
     1
 90
       13
176
     1
 40
0.0
176
     1
 90
        0
176
     1
290
     0
176
     1
290
     1
176
     1
290
     1
176
     1
290
     0
176
     1
290
     0
176
     1
290
     0
176
     1
290
     0
176
     1
290
     0
176
     1
290
     0
176
     1
 90
       50
176
     1
 40
0.0
176
     1
 40
1.0
176
     1
 90
        0
176
     1
 62
    18
420
        0
176
     1
 90
       50
176
     1
 90
        3
176
     1
 62
     5
420
      255
176
     1
290
     0
176
     1
 90
       50
176
     1
 90
       50
176
     1
 90
       50
176
     1
290
     0
176
     1
 90
       50
176
     1
 62
   256
176
     0
 40
1.0
176
     0
 90
        2
176
     1
  1
strokes_ogs.tif
176
     1
290
     0
176
     1
 40
1.0
176
     1
 40
1.0
176
     1
  0
VISUALSTYLE
  5
2C
102
{ACAD_REACTORS
330
2A
102
}
330
2A
100
AcDbVisualStyle
  2
FlatWithEdges
 70
     1
177
     3
291
     1
 70
    58
 90
        2
176
     1
 90
        1
176
     1
 90
        1
176
     1
 90
        2
176
     1
 40
0.6
176
     1
 40
30.0
176
     1
 62
     7
420
 16777215
176
     1
 90
        1
176
     1
 90
        0
176
     1
 62
     7
176
     1
 62
   257
176
     1
 90
        1
176
     1
 90
        1
176
     1
 40
1.0
176
     1
 90
        0
176
     1
 62
   257
176
     1
 40
1.0
176
     1
 90
        1
176
     1
 90
        6
176
     1
 90
        2
176
     1
 62
     7
176
     1
 90
        5
176
     1
 90
        0
176
     1
 90
        0
176
     1
290
     0
176
     1
 90
       13
176
     1
 40
0.0
176
     1
 90
        0
176
     1
290
     0
176
     1
290
     1
176
     1
290
     1
176
     1
290
     0
176
     1
290
     0
176
     1
290
     0
176
     1
290
     0
176
     1
290
     0
176
     1
290
     0
176
     1
 90
       50
176
     1
 40
0.0
176
     1
 40
1.0
176
     1
 90
        0
176
     1
 62
    18
420
        0
176
     1
 90
       50
176
     1
 90
        3
176
     1
 62
     5
420
      255
176
     1
290
     0
176
     1
 90
       50
176
     1
 90
       50
176
     1
 90
       50
176
     1
290
     0
176
     1
 90
       50
176
     1
 62
   256
176
     0
 40
1.0
176
     0
 90
        2
176
     1
  1
strokes_ogs.tif
176
     1
290
     0
176
     1
 40
1.0
176
     1
 40
1.0
176
     1
  0
VISUALSTYLE
  5
2D
102
{ACAD_REACTORS
330
2A
102
}
330
2A
100
AcDbVisualStyle
  2
Gouraud
 70
     2
177
     3
291
     1
 70
    58
 90
        2
176
     1
 90
        2
176
     1
 90
        1
176
     1
 90
        2
176
     1
 40
0.6
176
     1
 40
30.0
176
     1
 62
     7
420
 16777215
176
     1
 90
        0
176
     1
 90
        0
176
     1
 62
     7
176
     1
 62
   257
176
     1
 90
        1
176
     1
 90
        1
176
     1
 40
1.0
176
     1
 90
        0
176
     1
 62
     7
176
     1
 40
1.0
176
     1
 90
        1
176
     1
 90
        6
176
     1
 90
        2
176
     1
 62
     7
176
     1
 90
        5
176
     1
 90
        0
176
     1
 90
        0
176
     1
290
     0
176
     1
 90
       13
176
     1
 40
0.0
176
     1
 90
        0
176
     1
290
     0
176
     1
290
     1
176
     1
290
     1
176
     1
290
     0
176
     1
290
     0
176
     1
290
     0
176
     1
290
     0
176
     1
290
     0
176
     1
290
     0
176
     1
 90
       50
176
     1
 40
0.0
176
     1
 40
1.0
176
     1
 90
        0
176
     1
 62
    18
420
        0
176
     1
 90
       50
176
     1
 90
        3
176
     1
 62
     5
420
      255
176
     1
290
     0
176
     1
 90
       50
176
     1
 90
       50
176
     1
 90
       50
176
     1
290
     0
176
     1
 90
       50
176
     1
 62
   256
176
     0
 40
1.0
176
     0
 90
        2
176
     1
  1
strokes_ogs.tif
176
     1
290
     0
176
     1
 40
1.0
176
     1
 40
1.0
176
     1
  0
VISUALSTYLE
  5
2E
102
{ACAD_REACTORS
330
2A
102
}
330
2A
100
AcDbVisualStyle
  2
GouraudWithEdges
 70
     3
177
     3
291
     1
 70
    58
 90
        2
176
     1
 90
        2
176
     1
 90
        1
176
     1
 90
        2
176
     1
 40
0.6
176
     1
 40
30.0
176
     1
 62
     7
420
 16777215
176
     1
 90
        1
176
     1
 90
        0
176
     1
 62
     7
176
     1
 62
   257
176
     1
 90
        1
176
     1
 90
        1
176
     1
 40
1.0
176
     1
 90
        0
176
     1
 62
   257
176
     1
 40
1.0
176
     1
 90
        1
176
     1
 90
        6
176
     1
 90
        2
176
     1
 62
     7
176
     1
 90
        5
176
     1
 90
        0
176
     1
 90
        0
176
     1
290
     0
176
     1
 90
       13
176
     1
 40
0.0
176
     1
 90
        0
176
     1
290
     0
176
     1
290
     1
176
     1
290
     1
176
     1
290
     0
176
     1
290
     0
176
     1
290
     0
176
     1
290
     0
176
     1
290
     0
176
     1
290
     0
176
     1
 90
       50
176
     1
 40
0.0
176
     1
 40
1.0
176
     1
 90
        0
176
     1
 62
    18
420
        0
176
     1
 90
       50
176
     1
 90
        3
176
     1
 62
     5
420
      255
176
     1
290
     0
176
     1
 90
       50
176
     1
 90
       50
176
     1
 90
       50
176
     1
290
     0
176
     1
 90
       50
176
     1
 62
   256
176
     0
 40
1.0
176
     0
 90
        2
176
     1
  1
strokes_ogs.tif
176
     1
290
     0
176
     1
 40
1.0
176
     1
 40
1.0
176
     1
  0
VISUALSTYLE
  5
31
102
{ACAD_REACTORS
330
2A
102
}
330
2A
100
AcDbVisualStyle
  2
Hidden
 70
     6
177
     3
291
     0
 70
    58
 90
        1
176
     1
 90
        2
176
     1
 90
        2
176
     1
 90
        0
176
     1
 40
0.6
176
     1
 40
30.0
176
     1
 62
     7
420
 16777215
176
     1
 90
        2
176
     1
 90
        2
176
     1
 62
     7
176
     1
 62
   257
176
     1
 90
        2
176
     1
 90
        1
176
     1
 40
40.0
176
     1
 90
        0
176
     1
 62
   257
176
     1
 40
1.0
176
     1
 90
        1
176
     1
 90
        6
176
     1
 90
        2
176
     1
 62
     7
176
     1
 90
        3
176
     1
 90
        0
176
     1
 90
        0
176
     1
290
     0
176
     1
 90
        1
176
     1
 40
0.0
176
     1
 90
        0
176
     1
290
     0
176
     1
290
     1
176
     1
290
     1
176
     1
290
     0
176
     1
290
     0
176
     1
290
     0
176
     1
290
     0
176
     1
290
     0
176
     1
290
     0
176
     1
 90
       50
176
     1
 40
0.0
176
     1
 40
1.0
176
     1
 90
        0
176
     1
 62
    18
420
        0
176
     1
 90
       50
176
     1
 90
        3
176
     1
 62
     5
420
      255
176
     1
290
     0
176
     1
 90
       50
176
     1
 90
       50
176
     1
 90
       50
176
     1
290
     0
176
     1
 90
       50
176
     1
 62
   256
176
     0
 40
1.0
176
     0
 90
        2
176
     1
  1
strokes_ogs.tif
176
     1
290
     0
176
     1
 40
1.0
176
     1
 40
1.0
176
     1
  0
VISUALSTYLE
  5
3B
102
{ACAD_REACTORS
330
2A
102
}
330
2A
100
AcDbVisualStyle
  2
JitterOff
 70
    20
177
     3
291
     1
 70
    58
 90
        2
176
     0
 90
        2
176
     0
 90
        0
176
     0
 90
        0
176
     0
 40
0.6
176
     0
 40
30.0
176
     0
 62
     7
420
 16777215
176
     0
 90
        1
176
     0
 90
        4
176
     0
 62
     7
176
     0
 62
   257
176
     0
 90
        1
176
     0
 90
        1
176
     0
 40
1.0
176
     0
 90
       10
176
     2
 62
     7
176
     0
 40
1.0
176
     0
 90
        1
176
     0
 90
        6
176
     0
 90
        2
176
     0
 62
     7
176
     0
 90
        5
176
     0
 90
        0
176
     0
 90
        0
176
     0
290
     0
176
     0
 90
        1
176
     0
 40
0.0
176
     0
 90
        0
176
     0
290
     0
176
     0
290
     1
176
     0
290
     1
176
     0
290
     0
176
     0
290
     0
176
     0
290
     0
176
     0
290
     0
176
     0
290
     0
176
     0
290
     0
176
     0
 90
       50
176
     0
 40
0.0
176
     0
 40
1.0
176
     0
 90
        0
176
     0
 62
    18
420
        0
176
     0
 90
       50
176
     0
 90
        3
176
     0
 62
     5
420
      255
176
     0
290
     0
176
     0
 90
       50
176
     0
 90
       50
176
     0
 90
       50
176
     0
290
     0
176
     0
 90
       50
176
     0
 62
   256
176
     0
 40
1.0
176
     0
 90
        2
176
     0
  1
strokes_ogs.tif
176
     0
290
     0
176
     0
 40
1.0
176
     0
 40
1.0
176
     0
  0
VISUALSTYLE
  5
38
102
{ACAD_REACTORS
330
2A
102
}
330
2A
100
AcDbVisualStyle
  2
Linepattern
 70
    14
177
     3
291
     1
 70
    58
 90
        2
176
     1
 90
        2
176
     1
 90
        0
176
     1
 90
        0
176
     1
 40
0.6
176
     1
 40
30.0
176
     1
 62
     7
420
 16777215
176
     1
 90
        1
176
     1
 90
        4
176
     1
 62
     7
176
     1
 62
   257
176
     1
 90
        7
176
     1
 90
        7
176
     1
 40
1.0
176
     1
 90
        8
176
     1
 62
     7
176
     1
 40
1.0
176
     1
 90
        1
176
     1
 90
        6
176
     1
 90
        2
176
     1
 62
     7
176
     1
 90
        5
176
     1
 90
        0
176
     1
 90
        0
176
     1
290
     0
176
     1
 90
        1
176
     1
 40
0.0
176
     1
 90
        0
176
     1
290
     0
176
     1
290
     1
176
     1
290
     1
176
     1
290
     0
176
     1
290
     0
176
     1
290
     0
176
     1
290
     0
176
     1
290
     0
176
     1
290
     0
176
     1
 90
       50
176
     1
 40
0.0
176
     1
 40
1.0
176
     1
 90
        0
176
     1
 62
    18
420
        0
176
     1
 90
       50
176
     1
 90
        3
176
     1
 62
     5
420
      255
176
     1
290
     0
176
     1
 90
       50
176
     1
 90
       50
176
     1
 90
       50
176
     1
290
     0
176
     1
 90
       50
176
     1
 62
   256
176
     0
 40
1.0
176
     0
 90
        2
176
     1
  1
strokes_ogs.tif
176
     1
290
     0
176
     1
 40
1.0
176
     1
 40
1.0
176
     1
  0
VISUALSTYLE
  5
3C
102
{ACAD_REACTORS
330
2A
102
}
330
2A
100
AcDbVisualStyle
  2
OverhangOff
 70
    21
177
     3
291
     1
 70
    58
 90
        2
176
     0
 90
        2
176
     0
 90
        0
176
     0
 90
        0
176
     0
 40
0.6
176
     0
 40
30.0
176
     0
 62
     7
420
 16777215
176
     0
 90
        1
176
     0
 90
        4
176
     0
 62
     7
176
     0
 62
   257
176
     0
 90
        1
176
     0
 90
        1
176
     0
 40
1.0
176
     0
 90
        9
176
     2
 62
     7
176
     0
 40
1.0
176
     0
 90
        1
176
     0
 90
        6
176
     0
 90
        2
176
     0
 62
     7
176
     0
 90
        5
176
     0
 90
        0
176
     0
 90
        0
176
     0
290
     0
176
     0
 90
        1
176
     0
 40
0.0
176
     0
 90
        0
176
     0
290
     0
176
     0
290
     1
176
     0
290
     1
176
     0
290
     0
176
     0
290
     0
176
     0
290
     0
176
     0
290
     0
176
     0
290
     0
176
     0
290
     0
176
     0
 90
       50
176
     0
 40
0.0
176
     0
 40
1.0
176
     0
 90
        0
176
     0
 62
    18
420
        0
176
     0
 90
       50
176
     0
 90
        3
176
     0
 62
     5
420
      255
176
     0
290
     0
176
     0
 90
       50
176
     0
 90
       50
176
     0
 90
       50
176
     0
290
     0
176
     0
 90
       50
176
     0
 62
   256
176
     0
 40
1.0
176
     0
 90
        2
176
     0
  1
strokes_ogs.tif
176
     0
290
     0
176
     0
 40
1.0
176
     0
 40
1.0
176
     0
  0
VISUALSTYLE
  5
33
102
{ACAD_REACTORS
330
2A
102
}
330
2A
100
AcDbVisualStyle
  2
Realistic
 70
     8
177
     3
291
     0
 70
    58
 90
        2
176
     1
 90
        3
176
     1
 90
        0
176
     1
 90
        2
176
     1
 40
0.6
176
     1
 40
30.0
176
     1
 62
     7
420
 16777215
176
     1
 90
        0
176
     1
 90
        0
176
     1
 62
     7
176
     1
 62
   257
176
     1
 90
        1
176
     1
 90
        1
176
     1
 40
1.0
176
     1
 90
        8
176
     1
 62
   257
176
     1
 40
1.0
176
     1
 90
        1
176
     1
 90
        6
176
     1
 90
        2
176
     1
 62
     7
176
     1
 90
        3
176
     1
 90
        0
176
     1
 90
        0
176
     1
290
     0
176
     1
 90
       13
176
     1
 40
0.0
176
     1
 90
        0
176
     1
290
     0
176
     1
290
     1
176
     1
290
     1
176
     1
290
     0
176
     1
290
     0
176
     1
290
     0
176
     1
290
     0
176
     1
290
     0
176
     1
290
     0
176
     1
 90
       50
176
     1
 40
0.0
176
     1
 40
1.0
176
     1
 90
        0
176
     1
 62
    18
420
        0
176
     1
 90
       50
176
     1
 90
        3
176
     1
 62
     5
420
      255
176
     1
290
     0
176
     1
 90
       50
176
     1
 90
       50
176
     1
 90
       50
176
     1
290
     0
176
     1
 90
       50
176
     1
 62
   256
176
     0
 40
1.0
176
     0
 90
        2
176
     1
  1
strokes_ogs.tif
176
     1
290
     0
176
     1
 40
1.0
176
     1
 40
1.0
176
     1
  0
VISUALSTYLE
  5
42
102
{ACAD_REACTORS
330
2A
102
}
330
2A
100
AcDbVisualStyle
  2
Shaded
 70
    27
177
     3
291
     0
 70
    58
 90
        2
176
     1
 90
        2
176
     1
 90
        1
176
     1
 90
        2
176
     1
 40
0.6
176
     1
 40
30.0
176
     1
 62
     7
420
 16777215
176
     1
 90
        0
176
     1
 90
        4
176
     1
 62
     7
176
     1
 62
   257
176
     1
 90
        1
176
     1
 90
        1
176
     1
 40
1.0
176
     1
 90
        8
176
     1
 62
   257
176
     1
 40
1.0
176
     1
 90
        1
176
     1
 90
        6
176
     1
 90
        2
176
     1
 62
     8
420
  7895160
176
     1
 90
        3
176
     1
 90
        0
176
     1
 90
        0
176
     1
290
     0
176
     1
 90
        5
176
     1
 40
0.0
176
     1
 90
        0
176
     1
290
     0
176
     1
290
     1
176
     1
290
     1
176
     1
290
     0
176
     1
290
     0
176
     1
290
     0
176
     1
290
     0
176
     1
290
     0
176
     1
290
     0
176
     1
 90
       50
176
     1
 40
0.0
176
     1
 40
1.0
176
     1
 90
        0
176
     1
 62
    18
420
        0
176
     1
 90
       50
176
     1
 90
        3
176
     1
 62
     5
420
      255
176
     1
290
     0
176
     1
 90
       50
176
     1
 90
       50
176
     1
 90
       50
176
     1
290
     0
176
     1
 90
       50
176
     1
 62
   256
176
     0
 40
1.0
176
     0
 90
        2
176
     1
  1
strokes_ogs.tif
176
     1
290
     0
176
     1
 40
1.0
176
     1
 40
1.0
176
     1
  0
VISUALSTYLE
  5
41
102
{ACAD_REACTORS
330
2A
102
}
330
2A
100
AcDbVisualStyle
  2
Shaded with edges
 70
    26
177
     3
291
     0
 70
    58
 90
        2
176
     1
 90
        2
176
     1
 90
        1
176
     1
 90
        2
176
     1
 40
0.6
176
     1
 40
30.0
176
     1
 62
     7
420
 16777215
176
     1
 90
        1
176
     1
 90
       10
176
     1
 62
     7
176
     1
 62
   257
176
     1
 90
        2
176
     1
 90
        1
176
     1
 40
1.0
176
     1
 90
        8
176
     1
 62
   257
176
     1
 40
1.0
176
     1
 90
        1
176
     1
 90
        6
176
     1
 90
        2
176
     1
 62
     7
176
     1
 90
        3
176
     1
 90
        0
176
     1
 90
        0
176
     1
290
     0
176
     1
 90
        5
176
     1
 40
0.0
176
     1
 90
        0
176
     1
290
     0
176
     1
290
     1
176
     1
290
     1
176
     1
290
     0
176
     1
290
     0
176
     1
290
     0
176
     1
290
     0
176
     1
290
     0
176
     1
290
     0
176
     1
 90
       50
176
     1
 40
0.0
176
     1
 40
1.0
176
     1
 90
        0
176
     1
 62
    18
420
        0
176
     1
 90
       50
176
     1
 90
        3
176
     1
 62
     5
420
      255
176
     1
290
     0
176
     1
 90
       50
176
     1
 90
       50
176
     1
 90
       50
176
     1
290
     0
176
     1
 90
       50
176
     1
 62
   256
176
     0
 40
1.0
176
     0
 90
        2
176
     1
  1
strokes_ogs.tif
176
     1
290
     0
176
     1
 40
1.0
176
     1
 40
1.0
176
     1
  0
VISUALSTYLE
  5
3E
102
{ACAD_REACTORS
330
2A
102
}
330
2A
100
AcDbVisualStyle
  2
Shades of Gray
 70
    23
177
     3
291
     0
 70
    58
 90
        2
176
     1
 90
        2
176
     1
 90
        3
176
     1
 90
        0
176
     1
 40
0.6
176
     1
 40
30.0
176
     1
 62
     7
420
 16777215
176
     1
 90
        2
176
     1
 90
        2
176
     1
 62
     7
176
     1
 62
     7
176
     1
 90
        1
176
     1
 90
        1
176
     1
 40
40.0
176
     1
 90
        8
176
     1
 62
     7
176
     1
 40
1.0
176
     1
 90
        1
176
     1
 90
        6
176
     1
 90
        2
176
     1
 62
     7
176
     1
 90
        3
176
     1
 90
        0
176
     1
 90
        0
176
     1
290
     0
176
     1
 90
        1
176
     1
 40
0.0
176
     1
 90
        0
176
     1
290
     0
176
     1
290
     1
176
     1
290
     1
176
     1
290
     0
176
     1
290
     0
176
     1
290
     0
176
     1
290
     0
176
     1
290
     0
176
     1
290
     0
176
     1
 90
       50
176
     1
 40
0.0
176
     1
 40
1.0
176
     1
 90
        0
176
     1
 62
    18
420
        0
176
     1
 90
       50
176
     1
 90
        3
176
     1
 62
     5
420
      255
176
     1
290
     0
176
     1
 90
       50
176
     1
 90
       50
176
     1
 90
       50
176
     1
290
     0
176
     1
 90
       50
176
     1
 62
   256
176
     0
 40
1.0
176
     0
 90
        2
176
     1
  1
strokes_ogs.tif
176
     1
290
     0
176
     1
 40
1.0
176
     1
 40
1.0
176
     1
  0
VISUALSTYLE
  5
3F
102
{ACAD_REACTORS
330
2A
102
}
330
2A
100
AcDbVisualStyle
  2
Sketchy
 70
    24
177
     3
291
     0
 70
    58
 90
        1
176
     1
 90
        2
176
     1
 90
        2
176
     1
 90
        0
176
     1
 40
0.6
176
     1
 40
30.0
176
     1
 62
     7
420
 16777215
176
     1
 90
        2
176
     1
 90
        2
176
     1
 62
     7
176
     1
 62
     7
176
     1
 90
        1
176
     1
 90
        1
176
     1
 40
40.0
176
     1
 90
       11
176
     1
 62
     7
176
     1
 40
1.0
176
     1
 90
        1
176
     1
 90
        6
176
     1
 90
        2
176
     1
 62
     7
176
     1
 90
        6
176
     1
 90
        0
176
     1
 90
        0
176
     1
290
     0
176
     1
 90
        1
176
     1
 40
0.0
176
     1
 90
        0
176
     1
290
     0
176
     1
290
     1
176
     1
290
     1
176
     1
290
     0
176
     1
290
     0
176
     1
290
     0
176
     1
290
     0
176
     1
290
     0
176
     1
290
     0
176
     1
 90
       50
176
     1
 40
0.0
176
     1
 40
1.0
176
     1
 90
        0
176
     1
 62
    18
420
        0
176
     1
 90
       50
176
     1
 90
        3
176
     1
 62
     5
420
      255
176
     1
290
     0
176
     1
 90
       50
176
     1
 90
       50
176
     1
 90
       50
176
     1
290
     0
176
     1
 90
       50
176
     1
 62
   256
176
     0
 40
1.0
176
     0
 90
        2
176
     1
  1
strokes_ogs.tif
176
     1
290
     0
176
     1
 40
1.0
176
     1
 40
1.0
176
     1
  0
VISUALSTYLE
  5
37
102
{ACAD_REACTORS
330
2A
102
}
330
2A
100
AcDbVisualStyle
  2
Thicken
 70
    13
177
     3
291
     1
 70
    58
 90
        2
176
     1
 90
        2
176
     1
 90
        0
176
     1
 90
        0
176
     1
 40
0.6
176
     1
 40
30.0
176
     1
 62
     7
420
 16777215
176
     1
 90
        1
176
     1
 90
        4
176
     1
 62
     7
176
     1
 62
   257
176
     1
 90
        1
176
     1
 90
        1
176
     1
 40
1.0
176
     1
 90
       12
176
     1
 62
     7
176
     1
 40
1.0
176
     1
 90
        1
176
     1
 90
        6
176
     1
 90
        2
176
     1
 62
     7
176
     1
 90
        5
176
     1
 90
        0
176
     1
 90
        0
176
     1
290
     0
176
     1
 90
        1
176
     1
 40
0.0
176
     1
 90
        0
176
     1
290
     0
176
     1
290
     1
176
     1
290
     1
176
     1
290
     0
176
     1
290
     0
176
     1
290
     0
176
     1
290
     0
176
     1
290
     0
176
     1
290
     0
176
     1
 90
       50
176
     1
 40
0.0
176
     1
 40
1.0
176
     1
 90
        0
176
     1
 62
    18
420
        0
176
     1
 90
       50
176
     1
 90
        3
176
     1
 62
     5
420
      255
176
     1
290
     0
176
     1
 90
       50
176
     1
 90
       50
176
     1
 90
       50
176
     1
290
     0
176
     1
 90
       50
176
     1
 62
   256
176
     0
 40
1.0
176
     0
 90
        2
176
     1
  1
strokes_ogs.tif
176
     1
290
     0
176
     1
 40
1.0
176
     1
 40
1.0
176
     1
  0
VISUALSTYLE
  5
30
102
{ACAD_REACTORS
330
2A
102
}
330
2A
100
AcDbVisualStyle
  2
Wireframe
 70
     5
177
     3
291
     0
 70
    58
 90
        0
176
     1
 90
        2
176
     1
 90
        0
176
     1
 90
        0
176
     1
 40
0.6
176
     1
 40
30.0
176
     1
 62
     7
420
 16777215
176
     1
 90
        1
176
     1
 90
        4
176
     1
 62
     7
176
     1
 62
   257
176
     1
 90
        1
176
     1
 90
        1
176
     1
 40
1.0
176
     1
 90
        0
176
     1
 62
   257
176
     1
 40
1.0
176
     1
 90
        1
176
     1
 90
        6
176
     1
 90
        2
176
     1
 62
     7
176
     1
 90
        3
176
     1
 90
        0
176
     1
 90
        0
176
     1
290
     0
176
     1
 90
        1
176
     1
 40
0.0
176
     1
 90
        0
176
     1
290
     0
176
     1
290
     1
176
     1
290
     1
176
     1
290
     0
176
     1
290
     0
176
     1
290
     0
176
     1
290
     0
176
     1
290
     0
176
     1
290
     0
176
     1
 90
       50
176
     1
 40
0.0
176
     1
 40
1.0
176
     1
 90
        0
176
     1
 62
    18
420
        0
176
     1
 90
       50
176
     1
 90
        3
176
     1
 62
     5
420
      255
176
     1
290
     0
176
     1
 90
       50
176
     1
 90
       50
176
     1
 90
       50
176
     1
290
     0
176
     1
 90
       50
176
     1
 62
   256
176
     0
 40
1.0
176
     0
 90
        2
176
     1
  1
strokes_ogs.tif
176
     1
290
     0
176
     1
 40
1.0
176
     1
 40
1.0
176
     1
  0
VISUALSTYLE
  5
40
102
{ACAD_REACTORS
330
2A
102
}
330
2A
100
AcDbVisualStyle
  2
X-Ray
 70
    25
177
     3
291
     0
 70
    58
 90
        2
176
     1
 90
        2
176
     1
 90
        1
176
     1
 90
        1
176
     1
 40
0.5
176
     1
 40
30.0
176
     1
 62
     7
420
 16777215
176
     1
 90
        1
176
     1
 90
        0
176
     1
 62
     7
176
     1
 62
   257
176
     1
 90
        1
176
     1
 90
        1
176
     1
 40
1.0
176
     1
 90
        8
176
     1
 62
     7
176
     1
 40
1.0
176
     1
 90
        1
176
     1
 90
        6
176
     1
 90
        2
176
     1
 62
     7
176
     1
 90
        3
176
     1
 90
        0
176
     1
 90
        0
176
     1
290
     0
176
     1
 90
       13
176
     1
 40
0.0
176
     1
 90
        0
176
     1
290
     0
176
     1
290
     1
176
     1
290
     1
176
     1
290
     0
176
     1
290
     0
176
     1
290
     0
176
     1
290
     0
176
     1
290
     0
176
     1
290
     0
176
     1
 90
       50
176
     1
 40
0.0
176
     1
 40
1.0
176
     1
 90
        0
176
     1
 62
    18
420
        0
176
     1
 90
       50
176
     1
 90
        3
176
     1
 62
     5
420
      255
176
     1
290
     0
176
     1
 90
       50
176
     1
 90
       50
176
     1
 90
       50
176
     1
290
     0
176
     1
 90
       50
176
     1
 62
   256
176
     0
 40
1.0
176
     0
 90
        2
176
     1
  1
strokes_ogs.tif
176
     1
290
     0
176
     1
 40
1.0
176
     1
 40
1.0
176
     1
  0
DICTIONARYVAR
  5
1E8
102
{ACAD_REACTORS
330
1E7
102
}
330
1E7
100
DictionaryVariables
280
     0
  1
1:1
  0
DICTIONARYVAR
  5
1ED
102
{ACAD_REACTORS
330
1E7
102
}
330
1E7
100
DictionaryVariables
280
     0
  1
Standard
  0
DICTIONARYVAR
  5
1EC
102
{ACAD_REACTORS
330
1E7
102
}
330
1E7
100
DictionaryVariables
280
     0
  1
Standard
  0
DICTIONARY
  5
1E9
330
6A
100
AcDbDictionary
280
     1
281
     1
  3
ACAD_ROUNDTRIP_2008_TABLESTYLE_CELLSTYLEMAP
360
1EA
  0
CELLSTYLEMAP
  5
1EA
102
{ACAD_REACTORS
330
1E9
102
}
330
1E9
100
AcDbCellStyleMap
 90
        3
300
CELLSTYLE
  1
TABLEFORMAT_BEGIN
 90
        5
170
     1
 91
        0
 92
    32768
 62
   257
 93
        1
300
CONTENTFORMAT
  1
CONTENTFORMAT_BEGIN
 90
        0
 91
        0
 92
        4
 93
        0
300

 40
0.0
140
1.0
 94
        5
 62
     0
340
11
144
6.0
309
CONTENTFORMAT_END
171
     1
301
MARGIN
  1
CELLMARGIN_BEGIN
 40
1.5
 40
1.5
 40
1.5
 40
1.5
 40
1.5
 40
1.5
309
CELLMARGIN_END
 94
        6
 95
        1
302
GRIDFORMAT
  1
GRIDFORMAT_BEGIN
 90
        0
 91
        1
 62
     0
 92
       -2
340
14
 93
        0
 40
0.045
309
GRIDFORMAT_END
 95
        2
302
GRIDFORMAT
  1
GRIDFORMAT_BEGIN
 90
        0
 91
        1
 62
     0
 92
       -2
340
14
 93
        0
 40
0.045
309
GRIDFORMAT_END
 95
        4
302
GRIDFORMAT
  1
GRIDFORMAT_BEGIN
 90
        0
 91
        1
 62
     0
 92
       -2
340
14
 93
        0
 40
0.045
309
GRIDFORMAT_END
 95
        8
302
GRIDFORMAT
  1
GRIDFORMAT_BEGIN
 90
        0
 91
        1
 62
     0
 92
       -2
340
14
 93
        0
 40
0.045
309
GRIDFORMAT_END
 95
       16
302
GRIDFORMAT
  1
GRIDFORMAT_BEGIN
 90
        0
 91
        1
 62
     0
 92
       -2
340
14
 93
        0
 40
0.045
309
GRIDFORMAT_END
 95
       32
302
GRIDFORMAT
  1
GRIDFORMAT_BEGIN
 90
        0
 91
        1
 62
     0
 92
       -2
340
14
 93
        0
 40
0.045
309
GRIDFORMAT_END
309
TABLEFORMAT_END
  1
CELLSTYLE_BEGIN
 90
        1
 91
        1
300
_TITLE
309
CELLSTYLE_END
300
CELLSTYLE
  1
TABLEFORMAT_BEGIN
 90
        5
170
     1
 91
        0
 92
        0
 62
   257
 93
        1
300
CONTENTFORMAT
  1
CONTENTFORMAT_BEGIN
 90
        0
 91
        0
 92
        4
 93
        0
300

 40
0.0
140
1.0
 94
        5
 62
     0
340
11
144
4.5
309
CONTENTFORMAT_END
171
     1
301
MARGIN
  1
CELLMARGIN_BEGIN
 40
1.5
 40
1.5
 40
1.5
 40
1.5
 40
1.5
 40
1.5
309
CELLMARGIN_END
 94
        6
 95
        1
302
GRIDFORMAT
  1
GRIDFORMAT_BEGIN
 90
        0
 91
        1
 62
     0
 92
       -2
340
14
 93
        0
 40
0.045
309
GRIDFORMAT_END
 95
        2
302
GRIDFORMAT
  1
GRIDFORMAT_BEGIN
 90
        0
 91
        1
 62
     0
 92
       -2
340
14
 93
        0
 40
0.045
309
GRIDFORMAT_END
 95
        4
302
GRIDFORMAT
  1
GRIDFORMAT_BEGIN
 90
        0
 91
        1
 62
     0
 92
       -2
340
14
 93
        0
 40
0.045
309
GRIDFORMAT_END
 95
        8
302
GRIDFORMAT
  1
GRIDFORMAT_BEGIN
 90
        0
 91
        1
 62
     0
 92
       -2
340
14
 93
        0
 40
0.045
309
GRIDFORMAT_END
 95
       16
302
GRIDFORMAT
  1
GRIDFORMAT_BEGIN
 90
        0
 91
        1
 62
     0
 92
       -2
340
14
 93
        0
 40
0.045
309
GRIDFORMAT_END
 95
       32
302
GRIDFORMAT
  1
GRIDFORMAT_BEGIN
 90
        0
 91
        1
 62
     0
 92
       -2
340
14
 93
        0
 40
0.045
309
GRIDFORMAT_END
309
TABLEFORMAT_END
  1
CELLSTYLE_BEGIN
 90
        2
 91
        1
300
_HEADER
309
CELLSTYLE_END
300
CELLSTYLE
  1
TABLEFORMAT_BEGIN
 90
        5
170
     1
 91
        0
 92
        0
 62
   257
 93
        1
300
CONTENTFORMAT
  1
CONTENTFORMAT_BEGIN
 90
        0
 91
        0
 92
        4
 93
        0
300

 40
0.0
140
1.0
 94
        2
 62
     0
340
11
144
4.5
309
CONTENTFORMAT_END
171
     1
301
MARGIN
  1
CELLMARGIN_BEGIN
 40
1.5
 40
1.5
 40
1.5
 40
1.5
 40
1.5
 40
1.5
309
CELLMARGIN_END
 94
        6
 95
        1
302
GRIDFORMAT
  1
GRIDFORMAT_BEGIN
 90
        0
 91
        1
 62
     0
 92
       -2
340
14
 93
        0
 40
0.045
309
GRIDFORMAT_END
 95
        2
302
GRIDFORMAT
  1
GRIDFORMAT_BEGIN
 90
        0
 91
        1
 62
     0
 92
       -2
340
14
 93
        0
 40
0.045
309
GRIDFORMAT_END
 95
        4
302
GRIDFORMAT
  1
GRIDFORMAT_BEGIN
 90
        0
 91
        1
 62
     0
 92
       -2
340
14
 93
        0
 40
0.045
309
GRIDFORMAT_END
 95
        8
302
GRIDFORMAT
  1
GRIDFORMAT_BEGIN
 90
        0
 91
        1
 62
     0
 92
       -2
340
14
 93
        0
 40
0.045
309
GRIDFORMAT_END
 95
       16
302
GRIDFORMAT
  1
GRIDFORMAT_BEGIN
 90
        0
 91
        1
 62
     0
 92
       -2
340
14
 93
        0
 40
0.045
309
GRIDFORMAT_END
 95
       32
302
GRIDFORMAT
  1
GRIDFORMAT_BEGIN
 90
        0
 91
        1
 62
     0
 92
       -2
340
14
 93
        0
 40
0.045
309
GRIDFORMAT_END
309
TABLEFORMAT_END
  1
CELLSTYLE_BEGIN
 90
        3
 91
        2
300
_DATA
309
CELLSTYLE_END
  0
ENDSEC
  0
EOF