0
SECTION
  2
HEADER
  9
$ACADVER
  1
AC1027
  9
$ACADMAINTVER
 70
     8
  9
$DWGCODEPAGE
  3
ANSI_1252
  9
$REQUIREDVERSIONS
160
                 0
  9
$COMMENTS
  1
File was created by Cadenas
  9
$CUSTOMPROPERTYTAG
  1
NN
  9
$CUSTOMPROPERTY
  1
Grip Tight Four-Bolt Flange Metric Bore
  9
$CUSTOMPROPERTYTAG
  1
NT
  9
$CUSTOMPROPERTY
  1
GT Normal Duty 4 Bolt Flange Bearings
  9
$CUSTOMPROPERTYTAG
  1
NB
  9
$CUSTOMPROPERTY
  1
129669
  9
$CUSTOMPROPERTYTAG
  1
NBSYN
  9
$CUSTOMPROPERTY
  1
$PN.$LUBE.
  9
$CUSTOMPROPERTYTAG
  1
LINA
  9
$CUSTOMPROPERTY
  1
129669
  9
$CUSTOMPROPERTYTAG
  1
SERIES
  9
$CUSTOMPROPERTY
  1
205
  9
$CUSTOMPROPERTYTAG
  1
SS
  9
$CUSTOMPROPERTY
  1
25
  9
$CUSTOMPROPERTYTAG
  1
PN
  9
$CUSTOMPROPERTY
  1
129669
  9
$CUSTOMPROPERTYTAG
  1
DESCRIPTION
  9
$CUSTOMPROPERTY
  1
F4B-GT-25M
  9
$CUSTOMPROPERTYTAG
  1
A
  9
$CUSTOMPROPERTY
  1
36.9
  9
$CUSTOMPROPERTYTAG
  1
B
  9
$CUSTOMPROPERTY
  1
95.3
  9
$CUSTOMPROPERTYTAG
  1
C
  9
$CUSTOMPROPERTY
  1
39.3
  9
$CUSTOMPROPERTYTAG
  1
D
  9
$CUSTOMPROPERTY
  1
70.0
  9
$CUSTOMPROPERTYTAG
  1
F
  9
$CUSTOMPROPERTY
  1
M10
  9
$CUSTOMPROPERTYTAG
  1
H
  9
$CUSTOMPROPERTY
  1
12.7
  9
$CUSTOMPROPERTYTAG
  1
J
  9
$CUSTOMPROPERTY
  1
15.1
  9
$CUSTOMPROPERTYTAG
  1
L
  9
$CUSTOMPROPERTY
  1
45.6
  9
$CUSTOMPROPERTYTAG
  1
N
  9
$CUSTOMPROPERTY
  1
52.4
  9
$CUSTOMPROPERTYTAG
  1
Z
  9
$CUSTOMPROPERTY
  1
39.3
  9
$CUSTOMPROPERTYTAG
  1
COMPANY
  9
$CUSTOMPROPERTY
  1
baldor
  9
$INSBASE
 10
0.0
 20
0.0
 30
0.0
  9
$EXTMIN
 10
1.000000000000000E+20
 20
1.000000000000000E+20
 30
1.000000000000000E+20
  9
$EXTMAX
 10
-1.000000000000000E+20
 20
-1.000000000000000E+20
 30
-1.000000000000000E+20
  9
$LIMMIN
 10
0.0
 20
0.0
  9
$LIMMAX
 10
420.0
 20
297.0
  9
$ORTHOMODE
 70
     0
  9
$REGENMODE
 70
     1
  9
$FILLMODE
 70
     1
  9
$QTEXTMODE
 70
     0
  9
$MIRRTEXT
 70
     1
  9
$LTSCALE
 40
1.0
  9
$ATTMODE
 70
     1
  9
$TEXTSIZE
 40
2.5
  9
$TRACEWID
 40
1.0
  9
$TEXTSTYLE
  7
Standard
  9
$CLAYER
  8
0
  9
$CELTYPE
  6
ByLayer
  9
$CECOLOR
 62
   256
  9
$CELTSCALE
 40
1.0
  9
$DISPSILH
 70
     0
  9
$DIMSCALE
 40
1.0
  9
$DIMASZ
 40
2.5
  9
$DIMEXO
 40
0.625
  9
$DIMDLI
 40
3.75
  9
$DIMRND
 40
0.0
  9
$DIMDLE
 40
0.0
  9
$DIMEXE
 40
1.25
  9
$DIMTP
 40
0.0
  9
$DIMTM
 40
0.0
  9
$DIMTXT
 40
2.5
  9
$DIMCEN
 40
2.5
  9
$DIMTSZ
 40
0.0
  9
$DIMTOL
 70
     0
  9
$DIMLIM
 70
     0
  9
$DIMTIH
 70
     0
  9
$DIMTOH
 70
     0
  9
$DIMSE1
 70
     0
  9
$DIMSE2
 70
     0
  9
$DIMTAD
 70
     1
  9
$DIMZIN
 70
     8
  9
$DIMBLK
  1

  9
$DIMASO
 70
     1
  9
$DIMSHO
 70
     1
  9
$DIMPOST
  1

  9
$DIMAPOST
  1

  9
$DIMALT
 70
     0
  9
$DIMALTD
 70
     3
  9
$DIMALTF
 40
0.03937007874016
  9
$DIMLFAC
 40
1.0
  9
$DIMTOFL
 70
     1
  9
$DIMTVP
 40
0.0
  9
$DIMTIX
 70
     0
  9
$DIMSOXD
 70
     0
  9
$DIMSAH
 70
     0
  9
$DIMBLK1
  1

  9
$DIMBLK2
  1

  9
$DIMSTYLE
  2
ISO-25
  9
$DIMCLRD
 70
     0
  9
$DIMCLRE
 70
     0
  9
$DIMCLRT
 70
     0
  9
$DIMTFAC
 40
1.0
  9
$DIMGAP
 40
0.625
  9
$DIMJUST
 70
     0
  9
$DIMSD1
 70
     0
  9
$DIMSD2
 70
     0
  9
$DIMTOLJ
 70
     0
  9
$DIMTZIN
 70
     8
  9
$DIMALTZ
 70
     0
  9
$DIMALTTZ
 70
     0
  9
$DIMUPT
 70
     0
  9
$DIMDEC
 70
     2
  9
$DIMTDEC
 70
     2
  9
$DIMALTU
 70
     2
  9
$DIMALTTD
 70
     3
  9
$DIMTXSTY
  7
Standard
  9
$DIMAUNIT
 70
     0
  9
$DIMADEC
 70
     0
  9
$DIMALTRND
 40
0.0
  9
$DIMAZIN
 70
     0
  9
$DIMDSEP
 70
    44
  9
$DIMATFIT
 70
     3
  9
$DIMFRAC
 70
     0
  9
$DIMLDRBLK
  1

  9
$DIMLUNIT
 70
     2
  9
$DIMLWD
 70
    -2
  9
$DIMLWE
 70
    -2
  9
$DIMTMOVE
 70
     0
  9
$DIMFXL
 40
1.0
  9
$DIMFXLON
 70
     0
  9
$DIMJOGANG
 40
0.7853981633974483
  9
$DIMTFILL
 70
     0
  9
$DIMTFILLCLR
 70
     0
  9
$DIMARCSYM
 70
     0
  9
$DIMLTYPE
  6

  9
$DIMLTEX1
  6

  9
$DIMLTEX2
  6

  9
$DIMTXTDIRECTION
 70
     0
  9
$LUNITS
 70
     2
  9
$LUPREC
 70
     4
  9
$SKETCHINC
 40
1.0
  9
$FILLETRAD
 40
10.0
  9
$AUNITS
 70
     0
  9
$AUPREC
 70
     0
  9
$MENU
  1
.
  9
$ELEVATION
 40
0.0
  9
$PELEVATION
 40
0.0
  9
$THICKNESS
 40
0.0
  9
$LIMCHECK
 70
     0
  9
$CHAMFERA
 40
0.0
  9
$CHAMFERB
 40
0.0
  9
$CHAMFERC
 40
0.0
  9
$CHAMFERD
 40
0.0
  9
$SKPOLY
 70
     0
  9
$TDCREATE
 40
2458168.994994757
  9
$TDUCREATE
 40
2458168.95332809
  9
$TDUPDATE
 40
2458168.99499493
  9
$TDUUPDATE
 40
2458168.953328264
  9
$TDINDWG
 40
0.0000000116
  9
$TDUSRTIMER
 40
0.0000000116
  9
$USRTIMER
 70
     1
  9
$ANGBASE
 50
0.0
  9
$ANGDIR
 70
     0
  9
$PDMODE
 70
     0
  9
$PDSIZE
 40
0.0
  9
$PLINEWID
 40
0.0
  9
$SPLFRAME
 70
     0
  9
$SPLINETYPE
 70
     6
  9
$SPLINESEGS
 70
     8
  9
$HANDSEED
  5
228
  9
$SURFTAB1
 70
     6
  9
$SURFTAB2
 70
     6
  9
$SURFTYPE
 70
     6
  9
$SURFU
 70
     6
  9
$SURFV
 70
     6
  9
$UCSBASE
  2

  9
$UCSNAME
  2

  9
$UCSORG
 10
0.0
 20
0.0
 30
0.0
  9
$UCSXDIR
 10
1.0
 20
0.0
 30
0.0
  9
$UCSYDIR
 10
0.0
 20
1.0
 30
0.0
  9
$UCSORTHOREF
  2

  9
$UCSORTHOVIEW
 70
     0
  9
$UCSORGTOP
 10
0.0
 20
0.0
 30
0.0
  9
$UCSORGBOTTOM
 10
0.0
 20
0.0
 30
0.0
  9
$UCSORGLEFT
 10
0.0
 20
0.0
 30
0.0
  9
$UCSORGRIGHT
 10
0.0
 20
0.0
 30
0.0
  9
$UCSORGFRONT
 10
0.0
 20
0.0
 30
0.0
  9
$UCSORGBACK
 10
0.0
 20
0.0
 30
0.0
  9
$PUCSBASE
  2

  9
$PUCSNAME
  2

  9
$PUCSORG
 10
0.0
 20
0.0
 30
0.0
  9
$PUCSXDIR
 10
1.0
 20
0.0
 30
0.0
  9
$PUCSYDIR
 10
0.0
 20
1.0
 30
0.0
  9
$PUCSORTHOREF
  2

  9
$PUCSORTHOVIEW
 70
     0
  9
$PUCSORGTOP
 10
0.0
 20
0.0
 30
0.0
  9
$PUCSORGBOTTOM
 10
0.0
 20
0.0
 30
0.0
  9
$PUCSORGLEFT
 10
0.0
 20
0.0
 30
0.0
  9
$PUCSORGRIGHT
 10
0.0
 20
0.0
 30
0.0
  9
$PUCSORGFRONT
 10
0.0
 20
0.0
 30
0.0
  9
$PUCSORGBACK
 10
0.0
 20
0.0
 30
0.0
  9
$USERI1
 70
     0
  9
$USERI2
 70
     0
  9
$USERI3
 70
     0
  9
$USERI4
 70
     0
  9
$USERI5
 70
     0
  9
$USERR1
 40
0.0
  9
$USERR2
 40
0.0
  9
$USERR3
 40
0.0
  9
$USERR4
 40
0.0
  9
$USERR5
 40
0.0
  9
$WORLDVIEW
 70
     1
  9
$SHADEDGE
 70
     3
  9
$SHADEDIF
 70
    70
  9
$TILEMODE
 70
     1
  9
$MAXACTVP
 70
    64
  9
$PINSBASE
 10
0.0
 20
0.0
 30
0.0
  9
$PLIMCHECK
 70
     0
  9
$PEXTMIN
 10
1.000000000000000E+20
 20
1.000000000000000E+20
 30
1.000000000000000E+20
  9
$PEXTMAX
 10
-1.000000000000000E+20
 20
-1.000000000000000E+20
 30
-1.000000000000000E+20
  9
$PLIMMIN
 10
0.0
 20
0.0
  9
$PLIMMAX
 10
420.0
 20
297.0
  9
$UNITMODE
 70
     0
  9
$VISRETAIN
 70
     1
  9
$PLINEGEN
 70
     0
  9
$PSLTSCALE
 70
     1
  9
$TREEDEPTH
 70
  3020
  9
$CMLSTYLE
  2
Standard
  9
$CMLJUST
 70
     0
  9
$CMLSCALE
 40
20.0
  9
$PROXYGRAPHICS
 70
     1
  9
$MEASUREMENT
 70
     1
  9
$CELWEIGHT
370
    -1
  9
$ENDCAPS
280
     0
  9
$JOINSTYLE
280
     0
  9
$LWDISPLAY
290
     0
  9
$INSUNITS
 70
     4
  9
$HYPERLINKBASE
  1

  9
$STYLESHEET
  1

  9
$XEDIT
290
     1
  9
$CEPSNTYPE
380
     0
  9
$PSTYLEMODE
290
     1
  9
$FINGERPRINTGUID
  2
{D6B5EEB1-32D2-4B36-8DDF-7C4C07A877B1}
  9
$VERSIONGUID
  2
{FAEB1C32-E019-11D5-929B-00C0DF256EC4}
  9
$EXTNAMES
290
     1
  9
$PSVPSCALE
 40
0.0
  9
$OLESTARTUP
290
     0
  9
$SORTENTS
280
   127
  9
$INDEXCTL
280
     0
  9
$HIDETEXT
280
     1
  9
$XCLIPFRAME
280
     2
  9
$HALOGAP
280
     0
  9
$OBSCOLOR
 70
   257
  9
$OBSLTYPE
280
     0
  9
$INTERSECTIONDISPLAY
280
     0
  9
$INTERSECTIONCOLOR
 70
   257
  9
$DIMASSOC
280
     2
  9
$PROJECTNAME
  1

  9
$CAMERADISPLAY
290
     0
  9
$LENSLENGTH
 40
50.0
  9
$CAMERAHEIGHT
 40
0.0
  9
$STEPSPERSEC
 40
2.0
  9
$STEPSIZE
 40
6.0
  9
$3DDWFPREC
 40
2.0
  9
$PSOLWIDTH
 40
5.0
  9
$PSOLHEIGHT
 40
80.0
  9
$LOFTANG1
 40
1.570796326794897
  9
$LOFTANG2
 40
1.570796326794897
  9
$LOFTMAG1
 40
0.0
  9
$LOFTMAG2
 40
0.0
  9
$LOFTPARAM
 70
     7
  9
$LOFTNORMALS
280
     1
  9
$LATITUDE
 40
37.795
  9
$LONGITUDE
 40
-122.394
  9
$NORTHDIRECTION
 40
0.0
  9
$TIMEZONE
 70
 -8000
  9
$LIGHTGLYPHDISPLAY
280
     1
  9
$TILEMODELIGHTSYNCH
280
     1
  9
$CMATERIAL
347
44
  9
$SOLIDHIST
280
     0
  9
$SHOWHIST
280
     1
  9
$DWFFRAME
280
     2
  9
$DGNFRAME
280
     2
  9
$REALWORLDSCALE
290
     1
  9
$INTERFERECOLOR
 62
   256
  9
$CSHADOW
280
     0
  9
$SHADOWPLANELOCATION
 40
0.0
  0
ENDSEC
  0
SECTION
  2
CLASSES
  0
CLASS
  1
ACDBDICTIONARYWDFLT
  2
AcDbDictionaryWithDefault
  3
ObjectDBX Classes
 90
        0
 91
        4
280
     0
281
     0
  0
CLASS
  1
VISUALSTYLE
  2
AcDbVisualStyle
  3
ObjectDBX Classes
 90
     4095
 91
        4
280
     0
281
     0
  0
CLASS
  1
MATERIAL
  2
AcDbMaterial
  3
ObjectDBX Classes
 90
     1153
 91
        4
280
     0
281
     0
  0
CLASS
  1
SCALE
  2
AcDbScale
  3
ObjectDBX Classes
 90
     1153
 91
        4
280
     0
281
     0
  0
CLASS
  1
TABLESTYLE
  2
AcDbTableStyle
  3
ObjectDBX Classes
 90
     4095
 91
        4
280
     0
281
     0
  0
CLASS
  1
MLEADERSTYLE
  2
AcDbMLeaderStyle
  3
ACDB_MLEADERSTYLE_CLASS
 90
     4095
 91
        4
280
     0
281
     0
  0
CLASS
  1
SUN
  2
AcDbSun
  3
SCENEOE
 90
     1153
 91
        4
280
     0
281
     0
  0
CLASS
  1
DICTIONARYVAR
  2
AcDbDictionaryVar
  3
ObjectDBX Classes
 90
        0
 91
        4
280
     0
281
     0
  0
CLASS
  1
CELLSTYLEMAP
  2
AcDbCellStyleMap
  3
ObjectDBX Classes
 90
     1152
 91
        4
280
     0
281
     0
  0
ENDSEC
  0
SECTION
  2
TABLES
  0
TABLE
  2
VPORT
  5
8
330
0
100
AcDbSymbolTable
 70
     1
  0
VPORT
  5
29
330
8
100
AcDbSymbolTableRecord
100
AcDbViewportTableRecord
  2
*Active
 70
     0
 10
0.0
 20
0.0
 11
1.0
 21
1.0
 12
0.0
 22
2.647649999999999
 13
0.0
 23
0.0
 14
10.0
 24
10.0
 15
10.0
 25
10.0
 16
0.0
 26
0.0
 36
1.0
 17
0.0
 27
0.0
 37
0.0
 40
102.607206
 41
0.9473603637545698
 42
50.0
 43
0.0
 44
0.0
 50
0.0
 51
0.0
 71
     0
 72
   100
 73
     1
 74
     3
 75
     0
 76
     0
 77
     0
 78
     0
281
     0
 65
     1
110
0.0
120
0.0
130
0.0
111
1.0
121
0.0
131
0.0
112
0.0
122
1.0
132
0.0
 79
     0
146
0.0
348
2F
 60
     3
 61
     5
292
     1
282
     1
141
0.0
142
0.0
 63
   250
361
6D
  0
ENDTAB
  0
TABLE
  2
LTYPE
  5
5
330
0
100
AcDbSymbolTable
 70
     3
  0
LTYPE
  5
14
330
5
100
AcDbSymbolTableRecord
100
AcDbLinetypeTableRecord
  2
ByBlock
 70
     0
  3

 72
    65
 73
     0
 40
0.0
  0
LTYPE
  5
15
330
5
100
AcDbSymbolTableRecord
100
AcDbLinetypeTableRecord
  2
ByLayer
 70
     0
  3

 72
    65
 73
     0
 40
0.0
  0
LTYPE
  5
16
330
5
100
AcDbSymbolTableRecord
100
AcDbLinetypeTableRecord
  2
Continuous
 70
     0
  3
Solid line
 72
    65
 73
     0
 40
0.0
  0
LTYPE
  5
9D
330
5
100
AcDbSymbolTableRecord
100
AcDbLinetypeTableRecord
  2
Dashed
 70
     0
  3

 72
    65
 73
     2
 40
2.0
 49
1.0
 74
     0
 49
-1.0
 74
     0
  0
LTYPE
  5
10C
330
5
100
AcDbSymbolTableRecord
100
AcDbLinetypeTableRecord
  2
Center
 70
     0
  3

 72
    65
 73
     4
 40
1.5
 49
0.45
 74
     0
 49
-0.5
 74
     0
 49
0.05
 74
     0
 49
-0.5
 74
     0
  0
ENDTAB
  0
TABLE
  2
LAYER
  5
2
330
0
100
AcDbSymbolTable
 70
     7
  0
LAYER
  5
10
330
2
100
AcDbSymbolTableRecord
100
AcDbLayerTableRecord
  2
0
 70
     0
 62
     7
  6
Continuous
370
    -3
390
F
347
46
348
0
  0
LAYER
  5
72
330
2
100
AcDbSymbolTableRecord
100
AcDbLayerTableRecord
  2
AM_6
 70
     0
 62
    -2
  6
Continuous
370
    35
390
F
347
46
348
0
  0
LAYER
  5
9E
330
2
100
AcDbSymbolTableRecord
100
AcDbLayerTableRecord
  2
AM_9
 70
     0
 62
     6
  6
Dashed
370
    25
390
F
347
46
348
0
  0
LAYER
  5
A7
330
2
100
AcDbSymbolTableRecord
100
AcDbLayerTableRecord
  2
AM_4
 70
     0
 62
     3
  6
Continuous
370
    25
390
F
347
46
348
0
  0
LAYER
  5
DA
330
2
100
AcDbSymbolTableRecord
100
AcDbLayerTableRecord
  2
AM_5
 70
     0
 62
     3
  6
Continuous
370
    25
390
F
347
46
348
0
  0
LAYER
  5
10D
330
2
100
AcDbSymbolTableRecord
100
AcDbLayerTableRecord
  2
AM_7
 70
     0
 62
     7
  6
Center
370
    25
390
F
347
46
348
0
  0
LAYER
  5
21B
330
2
100
AcDbSymbolTableRecord
100
AcDbLayerTableRecord
  2
ConnectionPoints
 70
     0
 62
     7
  6
Continuous
370
    50
390
F
347
46
348
0
  0
ENDTAB
  0
TABLE
  2
STYLE
  5
3
330
0
100
AcDbSymbolTable
 70
     1
  0
STYLE
  5
11
330
3
100
AcDbSymbolTableRecord
100
AcDbTextStyleTableRecord
  2
Standard
 70
     0
 40
0.0
 41
1.0
 50
0.0
 71
     0
 42
2.5
  3
txt
  4

  0
ENDTAB
  0
TABLE
  2
VIEW
  5
6
330
0
100
AcDbSymbolTable
 70
     0
  0
ENDTAB
  0
TABLE
  2
UCS
  5
7
330
0
100
AcDbSymbolTable
 70
     0
  0
ENDTAB
  0
TABLE
  2
APPID
  5
9
330
0
100
AcDbSymbolTable
 70
     1
  0
APPID
  5
12
330
9
100
AcDbSymbolTableRecord
100
AcDbRegAppTableRecord
  2
ACAD
 70
     0
  0
ENDTAB
  0
TABLE
  2
DIMSTYLE
  5
A
330
0
100
AcDbSymbolTable
 70
     1
100
AcDbDimStyleTable
  0
DIMSTYLE
105
27
330
A
100
AcDbSymbolTableRecord
100
AcDbDimStyleTableRecord
  2
ISO-25
 70
     0
 41
2.5
 42
0.625
 43
3.75
 44
1.25
 73
     0
 74
     0
 77
     1
 78
     8
140
2.5
141
2.5
143
0.03937007874016
147
0.625
171
     3
172
     1
178
     0
271
     2
272
     2
274
     3
278
    44
283
     0
284
     8
340
11
  0
ENDTAB
  0
TABLE
  2
BLOCK_RECORD
  5
1
330
0
100
AcDbSymbolTable
 70
     5
  0
BLOCK_RECORD
  5
1F
330
1
100
AcDbSymbolTableRecord
100
AcDbBlockTableRecord
  2
*Model_Space
340
22
 70
     0
280
     1
281
     0
  0
BLOCK_RECORD
  5
1B
330
1
100
AcDbSymbolTableRecord
100
AcDbBlockTableRecord
  2
*Paper_Space
340
1E
 70
     0
280
     1
281
     0
  0
BLOCK_RECORD
  5
23
330
1
100
AcDbSymbolTableRecord
100
AcDbBlockTableRecord
  2
*Paper_Space0
340
26
 70
     0
280
     1
281
     0
  0
BLOCK_RECORD
  5
6E
330
1
100
AcDbSymbolTableRecord
100
AcDbBlockTableRecord
  2
1_129669_0
340
0
102
{BLKREFS
331
6F
102
}
 70
     0
280
     1
281
     0
  0
BLOCK_RECORD
  5
87
330
1
100
AcDbSymbolTableRecord
100
AcDbBlockTableRecord
  2
2_129518_0_in_129669_0
340
0
102
{BLKREFS
331
88
102
}
 70
     0
280
     1
281
     0
  0
BLOCK_RECORD
  5
B0
330
1
100
AcDbSymbolTableRecord
100
AcDbBlockTableRecord
  2
3_129944_0_in_129669_0
340
0
102
{BLKREFS
331
B1
102
}
 70
     0
280
     1
281
     0
  0
BLOCK_RECORD
  5
F2
330
1
100
AcDbSymbolTableRecord
100
AcDbBlockTableRecord
  2
4_129466_0_in_129669_0
340
0
102
{BLKREFS
331
F3
102
}
 70
     0
280
     1
281
     0
  0
ENDTAB
  0
ENDSEC
  0
SECTION
  2
BLOCKS
  0
BLOCK
  5
20
330
1F
100
AcDbEntity
  8
0
100
AcDbBlockBegin
  2
*Model_Space
 70
     0
 10
0.0
 20
0.0
 30
0.0
  3
*Model_Space
  1

  0
ENDBLK
  5
21
330
1F
100
AcDbEntity
  8
0
100
AcDbBlockEnd
  0
BLOCK
  5
1C
330
1B
100
AcDbEntity
 67
     1
  8
0
100
AcDbBlockBegin
  2
*Paper_Space
 70
     0
 10
0.0
 20
0.0
 30
0.0
  3
*Paper_Space
  1

  0
ENDBLK
  5
1D
330
1B
100
AcDbEntity
 67
     1
  8
0
100
AcDbBlockEnd
  0
BLOCK
  5
24
330
23
100
AcDbEntity
  8
0
100
AcDbBlockBegin
  2
*Paper_Space0
 70
     0
 10
0.0
 20
0.0
 30
0.0
  3
*Paper_Space0
  1

  0
ENDBLK
  5
25
330
23
100
AcDbEntity
  8
0
100
AcDbBlockEnd
  0
BLOCK
  5
70
330
6E
100
AcDbEntity
  8
0
100
AcDbBlockBegin
  2
1_129669_0
 70
     2
 10
0.0
 20
0.0
 30
0.0
  3
1_129669_0
  1

  0
ATTDEF
  5
73
330
6E
100
AcDbEntity
  8
AM_6
100
AcDbText
 10
52.65
 20
52.94530000000001
 30
0.0
 40
0.5
  1
Grip Tight Four-Bolt Flange Metric Bore
100
AcDbAttributeDefinition
  3

  2
NN
 70
     8
280
     0
  0
ATTDEF
  5
74
330
6E
100
AcDbEntity
  8
AM_6
100
AcDbText
 10
52.65
 20
52.44530000000001
 30
0.0
 40
0.5
  1
GT Normal Duty 4 Bolt Flange Bearings
100
AcDbAttributeDefinition
  3

  2
NT
 70
     8
280
     0
  0
ATTDEF
  5
75
330
6E
100
AcDbEntity
  8
AM_6
100
AcDbText
 10
52.65
 20
51.94530000000001
 30
0.0
 40
0.5
  1
129669
100
AcDbAttributeDefinition
  3

  2
NB
 70
     8
280
     0
  0
ATTDEF
  5
76
330
6E
100
AcDbEntity
  8
AM_6
100
AcDbText
 10
52.65
 20
51.44530000000001
 30
0.0
 40
0.5
  1
$PN.$LUBE.
100
AcDbAttributeDefinition
  3

  2
NBSYN
 70
     8
280
     0
  0
ATTDEF
  5
77
330
6E
100
AcDbEntity
  8
AM_6
100
AcDbText
 10
52.65
 20
50.94530000000001
 30
0.0
 40
0.5
  1
129669
100
AcDbAttributeDefinition
  3

  2
LINA
 70
     8
280
     0
  0
ATTDEF
  5
78
330
6E
100
AcDbEntity
  8
AM_6
100
AcDbText
 10
52.65
 20
50.44530000000001
 30
0.0
 40
0.5
  1
205
100
AcDbAttributeDefinition
  3

  2
SERIES
 70
     8
280
     0
  0
ATTDEF
  5
79
330
6E
100
AcDbEntity
  8
AM_6
100
AcDbText
 10
52.65
 20
49.94530000000001
 30
0.0
 40
0.5
  1
25
100
AcDbAttributeDefinition
  3

  2
SS
 70
     8
280
     0
  0
ATTDEF
  5
7A
330
6E
100
AcDbEntity
  8
AM_6
100
AcDbText
 10
52.65
 20
49.44530000000001
 30
0.0
 40
0.5
  1
129669
100
AcDbAttributeDefinition
  3

  2
PN
 70
     8
280
     0
  0
ATTDEF
  5
7B
330
6E
100
AcDbEntity
  8
AM_6
100
AcDbText
 10
52.65
 20
48.94530000000001
 30
0.0
 40
0.5
  1
F4B-GT-25M
100
AcDbAttributeDefinition
  3

  2
DESCRIPTION
 70
     8
280
     0
  0
ATTDEF
  5
7C
330
6E
100
AcDbEntity
  8
AM_6
100
AcDbText
 10
52.65
 20
48.44530000000001
 30
0.0
 40
0.5
  1
36.9
100
AcDbAttributeDefinition
  3

  2
A
 70
     8
280
     0
  0
ATTDEF
  5
7D
330
6E
100
AcDbEntity
  8
AM_6
100
AcDbText
 10
52.65
 20
47.94530000000001
 30
0.0
 40
0.5
  1
95.3
100
AcDbAttributeDefinition
  3

  2
B
 70
     8
280
     0
  0
ATTDEF
  5
7E
330
6E
100
AcDbEntity
  8
AM_6
100
AcDbText
 10
52.65
 20
47.44530000000001
 30
0.0
 40
0.5
  1
39.3
100
AcDbAttributeDefinition
  3

  2
C
 70
     8
280
     0
  0
ATTDEF
  5
7F
330
6E
100
AcDbEntity
  8
AM_6
100
AcDbText
 10
52.65
 20
46.94530000000001
 30
0.0
 40
0.5
  1
70.0
100
AcDbAttributeDefinition
  3

  2
D
 70
     8
280
     0
  0
ATTDEF
  5
80
330
6E
100
AcDbEntity
  8
AM_6
100
AcDbText
 10
52.65
 20
46.44530000000001
 30
0.0
 40
0.5
  1
M10
100
AcDbAttributeDefinition
  3

  2
F
 70
     8
280
     0
  0
ATTDEF
  5
81
330
6E
100
AcDbEntity
  8
AM_6
100
AcDbText
 10
52.65
 20
45.94530000000001
 30
0.0
 40
0.5
  1
12.7
100
AcDbAttributeDefinition
  3

  2
H
 70
     8
280
     0
  0
ATTDEF
  5
82
330
6E
100
AcDbEntity
  8
AM_6
100
AcDbText
 10
52.65
 20
45.44530000000001
 30
0.0
 40
0.5
  1
15.1
100
AcDbAttributeDefinition
  3

  2
J
 70
     8
280
     0
  0
ATTDEF
  5
83
330
6E
100
AcDbEntity
  8
AM_6
100
AcDbText
 10
52.65
 20
44.94530000000001
 30
0.0
 40
0.5
  1
45.6
100
AcDbAttributeDefinition
  3

  2
L
 70
     8
280
     0
  0
ATTDEF
  5
84
330
6E
100
AcDbEntity
  8
AM_6
100
AcDbText
 10
52.65
 20
44.44530000000001
 30
0.0
 40
0.5
  1
52.4
100
AcDbAttributeDefinition
  3

  2
N
 70
     8
280
     0
  0
ATTDEF
  5
85
330
6E
100
AcDbEntity
  8
AM_6
100
AcDbText
 10
52.65
 20
43.94530000000001
 30
0.0
 40
0.5
  1
39.3
100
AcDbAttributeDefinition
  3

  2
Z
 70
     8
280
     0
  0
ATTDEF
  5
86
330
6E
100
AcDbEntity
  8
AM_6
100
AcDbText
 10
52.65
 20
43.44530000000001
 30
0.0
 40
0.5
  1
baldor
100
AcDbAttributeDefinition
  3

  2
COMPANY
 70
     8
280
     0
  0
INSERT
  5
88
330
6E
100
AcDbEntity
  8
0
100
AcDbBlockReference
  2
2_129518_0_in_129669_0
 10
0.0
 20
0.0
 30
0.0
  0
INSERT
  5
B1
330
6E
100
AcDbEntity
  8
0
100
AcDbBlockReference
  2
3_129944_0_in_129669_0
 10
0.0
 20
0.0
 30
0.0
  0
INSERT
  5
F3
330
6E
100
AcDbEntity
  8
0
100
AcDbBlockReference
  2
4_129466_0_in_129669_0
 10
0.0
 20
0.0
 30
0.0
  0
ENDBLK
  5
71
330
6E
100
AcDbEntity
  8
0
100
AcDbBlockEnd
  0
BLOCK
  5
89
330
87
100
AcDbEntity
  8
0
100
AcDbBlockBegin
  2
2_129518_0_in_129669_0
 70
     2
 10
0.0
 20
0.0
 30
0.0
  3
2_129518_0_in_129669_0
  1

  0
ATTDEF
  5
8B
330
87
100
AcDbEntity
  8
AM_6
100
AcDbText
 10
30.74319680967675
 20
25.74319680967675
 30
0.0
 40
0.5
  1
INS-GT-M B
100
AcDbAttributeDefinition
  3

  2
NN
 70
     8
280
     0
  0
ATTDEF
  5
8C
330
87
100
AcDbEntity
  8
AM_6
100
AcDbText
 10
30.74319680967675
 20
25.24319680967675
 30
0.0
 40
0.5
  1
GT Normal Duty Bearing Inserts
100
AcDbAttributeDefinition
  3

  2
NT
 70
     8
280
     0
  0
ATTDEF
  5
8D
330
87
100
AcDbEntity
  8
AM_6
100
AcDbText
 10
30.74319680967675
 20
24.74319680967675
 30
0.0
 40
0.5
  1
129518
100
AcDbAttributeDefinition
  3

  2
NB
 70
     8
280
     0
  0
ATTDEF
  5
8E
330
87
100
AcDbEntity
  8
AM_6
100
AcDbText
 10
30.74319680967675
 20
24.24319680967675
 30
0.0
 40
0.5
  1
$PN.
100
AcDbAttributeDefinition
  3

  2
NBSYN
 70
     8
280
     0
  0
ATTDEF
  5
8F
330
87
100
AcDbEntity
  8
AM_6
100
AcDbText
 10
30.74319680967675
 20
23.74319680967675
 30
0.0
 40
0.5
  1
129518
100
AcDbAttributeDefinition
  3

  2
LINA
 70
     8
280
     0
  0
ATTDEF
  5
90
330
87
100
AcDbEntity
  8
AM_6
100
AcDbText
 10
30.74319680967675
 20
23.24319680967675
 30
0.0
 40
0.5
  1
205
100
AcDbAttributeDefinition
  3

  2
SERIES
 70
     8
280
     0
  0
ATTDEF
  5
91
330
87
100
AcDbEntity
  8
AM_6
100
AcDbText
 10
30.74319680967675
 20
22.74319680967675
 30
0.0
 40
0.5
  1
129518
100
AcDbAttributeDefinition
  3

  2
PN
 70
     8
280
     0
  0
ATTDEF
  5
92
330
87
100
AcDbEntity
  8
AM_6
100
AcDbText
 10
30.74319680967675
 20
22.24319680967675
 30
0.0
 40
0.5
  1
INS-GT-05
100
AcDbAttributeDefinition
  3

  2
DESCRIPTION
 70
     8
280
     0
  0
ATTDEF
  5
93
330
87
100
AcDbEntity
  8
AM_6
100
AcDbText
 10
30.74319680967675
 20
21.74319680967675
 30
0.0
 40
0.5
  1
37.1
100
AcDbAttributeDefinition
  3

  2
A
 70
     8
280
     0
  0
ATTDEF
  5
94
330
87
100
AcDbEntity
  8
AM_6
100
AcDbText
 10
30.74319680967675
 20
21.24319680967675
 30
0.0
 40
0.5
  1
15.0
100
AcDbAttributeDefinition
  3

  2
C
 70
     8
280
     0
  0
ATTDEF
  5
95
330
87
100
AcDbEntity
  8
AM_6
100
AcDbText
 10
30.74319680967675
 20
20.74319680967675
 30
0.0
 40
0.5
  1
52.0
100
AcDbAttributeDefinition
  3

  2
D
 70
     8
280
     0
  0
ATTDEF
  5
96
330
87
100
AcDbEntity
  8
AM_6
100
AcDbText
 10
30.74319680967675
 20
20.24319680967675
 30
0.0
 40
0.5
  1
4.1
100
AcDbAttributeDefinition
  3

  2
J
 70
     8
280
     0
  0
ATTDEF
  5
97
330
87
100
AcDbEntity
  8
AM_6
100
AcDbText
 10
30.74319680967675
 20
19.74319680967675
 30
0.0
 40
0.5
  1
45.7
100
AcDbAttributeDefinition
  3

  2
L
 70
     8
280
     0
  0
ATTDEF
  5
98
330
87
100
AcDbEntity
  8
AM_6
100
AcDbText
 10
30.74319680967675
 20
19.24319680967675
 30
0.0
 40
0.5
  1
#10 - 32 x 1/4
100
AcDbAttributeDefinition
  3

  2
N
 70
     8
280
     0
  0
ATTDEF
  5
99
330
87
100
AcDbEntity
  8
AM_6
100
AcDbText
 10
30.74319680967675
 20
18.74319680967675
 30
0.0
 40
0.5
  1
12.2
100
AcDbAttributeDefinition
  3

  2
W
 70
     8
280
     0
  0
ATTDEF
  5
9A
330
87
100
AcDbEntity
  8
AM_6
100
AcDbText
 10
30.74319680967675
 20
18.24319680967675
 30
0.0
 40
0.5
  1
25.4
100
AcDbAttributeDefinition
  3

  2
X
 70
     8
280
     0
  0
ATTDEF
  5
9B
330
87
100
AcDbEntity
  8
AM_6
100
AcDbText
 10
30.74319680967675
 20
17.74319680967675
 30
0.0
 40
0.5
  1
24.9
100
AcDbAttributeDefinition
  3

  2
Y
 70
     8
280
     0
  0
ATTDEF
  5
9C
330
87
100
AcDbEntity
  8
AM_6
100
AcDbText
 10
30.74319680967675
 20
17.24319680967675
 30
0.0
 40
0.5
  1
baldor
100
AcDbAttributeDefinition
  3

  2
COMPANY
 70
     8
280
     0
  0
CIRCLE
  5
9F
330
87
100
AcDbEntity
  8
AM_9
100
AcDbCircle
 10
0.0000000000000016
 20
0.0
 30
0.0
 40
17.76287577525369
  0
CIRCLE
  5
A0
330
87
100
AcDbEntity
  8
AM_9
100
AcDbCircle
 10
0.0000000000000016
 20
0.0
 30
0.0
 40
24.5
  0
CIRCLE
  5
A1
330
87
100
AcDbEntity
  8
AM_9
100
AcDbCircle
 10
0.0000000000000016
 20
0.0
 30
0.0
 40
25.1739818999591
  0
CIRCLE
  5
A2
330
87
100
AcDbEntity
  8
AM_9
100
AcDbCircle
 10
0.0000000000000016
 20
0.0
 30
0.0
 40
18.67896825396826
  0
CIRCLE
  5
A3
330
87
100
AcDbEntity
  8
AM_9
100
AcDbCircle
 10
0.0000000000000016
 20
0.0
 30
0.0
 40
20.31111111111111
  0
ARC
  5
A4
330
87
100
AcDbEntity
  8
AM_9
100
AcDbCircle
 10
0.0000000000000018
 20
0.0000000000010019
 30
0.0
 40
17.0468253968244
100
AcDbArc
 50
86.20895661104946
 51
93.79104338895054
  0
ARC
  5
A5
330
87
100
AcDbEntity
  8
AM_9
100
AcDbCircle
 10
0.0000000000000072
 20
-0.0000000000000006
 30
0.0
 40
17.0468253968254
100
AcDbArc
 50
94.21311022328742
 51
85.7869768496703
  0
CIRCLE
  5
A6
330
87
100
AcDbEntity
  8
AM_9
100
AcDbCircle
 10
0.0000000000000016
 20
0.0
 30
0.0
 40
19.71111111111111
  0
CIRCLE
  5
A8
330
87
100
AcDbEntity
  8
AM_4
100
AcDbCircle
 10
0.0000000000000016
 20
0.0
 30
0.0
 40
25.59517216471259
  0
CIRCLE
  5
A9
330
87
100
AcDbEntity
  8
AM_4
100
AcDbCircle
 10
0.0000000000000016
 20
0.0
 30
0.0
 40
25.74319680967675
  0
CIRCLE
  5
AA
330
87
100
AcDbEntity
  8
AM_4
100
AcDbCircle
 10
0.0000000000000016
 20
0.0
 30
0.0
 40
25.3239818999591
  0
CIRCLE
  5
AB
330
87
100
AcDbEntity
  8
AM_4
100
AcDbCircle
 10
0.0000000000000016
 20
0.0
 30
0.0
 40
25.31874145475914
  0
CIRCLE
  5
AC
330
87
100
AcDbEntity
  8
AM_4
100
AcDbCircle
 10
0.0000000000000016
 20
0.0
 30
0.0
 40
24.09545395833822
  0
CIRCLE
  5
AD
330
87
100
AcDbEntity
  8
AM_4
100
AcDbCircle
 10
0.0000000000000016
 20
0.0
 30
0.0
 40
24.65403979828546
  0
ARC
  5
AE
330
87
100
AcDbEntity
  8
AM_4
100
AcDbCircle
 10
-0.0000000000168716
 20
0.0000000002384049
 30
0.0
 40
17.0468253965864
100
AcDbArc
 50
93.7910433889467
 51
94.21311022328972
  0
ARC
  5
AF
330
87
100
AcDbEntity
  8
AM_4
100
AcDbCircle
 10
-0.0000000000109639
 20
-0.0000000001605791
 30
0.0
 40
17.04682539698635
100
AcDbArc
 50
85.78697684967317
 51
86.20895661104858
  0
ENDBLK
  5
8A
330
87
100
AcDbEntity
  8
0
100
AcDbBlockEnd
  0
BLOCK
  5
B2
330
B0
100
AcDbEntity
  8
0
100
AcDbBlockBegin
  2
3_129944_0_in_129669_0
 70
     2
 10
0.0
 20
0.0
 30
0.0
  3
3_129944_0_in_129669_0
  1

  0
ATTDEF
  5
B4
330
B0
100
AcDbEntity
  8
AM_6
100
AcDbText
 10
27.71645879092954
 20
22.7954877204193
 30
0.0
 40
0.5
  1
Grip Tight Normal Duty Adapter and Nut Metric Bore
100
AcDbAttributeDefinition
  3

  2
NN
 70
     8
280
     0
  0
ATTDEF
  5
B5
330
B0
100
AcDbEntity
  8
AM_6
100
AcDbText
 10
27.71645879092954
 20
22.2954877204193
 30
0.0
 40
0.5
  1
GT and GTM Adapter & Lock Nut Assemblies
100
AcDbAttributeDefinition
  3

  2
NT
 70
     8
280
     0
  0
ATTDEF
  5
B6
330
B0
100
AcDbEntity
  8
AM_6
100
AcDbText
 10
27.71645879092954
 20
21.7954877204193
 30
0.0
 40
0.5
  1
129944
100
AcDbAttributeDefinition
  3

  2
NB
 70
     8
280
     0
  0
ATTDEF
  5
B7
330
B0
100
AcDbEntity
  8
AM_6
100
AcDbText
 10
27.71645879092954
 20
21.2954877204193
 30
0.0
 40
0.5
  1
$PN.
100
AcDbAttributeDefinition
  3

  2
NBSYN
 70
     8
280
     0
  0
ATTDEF
  5
B8
330
B0
100
AcDbEntity
  8
AM_6
100
AcDbText
 10
27.71645879092954
 20
20.7954877204193
 30
0.0
 40
0.5
  1
129944
100
AcDbAttributeDefinition
  3

  2
LINA
 70
     8
280
     0
  0
ATTDEF
  5
B9
330
B0
100
AcDbEntity
  8
AM_6
100
AcDbText
 10
27.71645879092954
 20
20.2954877204193
 30
0.0
 40
0.5
  1
205
100
AcDbAttributeDefinition
  3

  2
SERIES
 70
     8
280
     0
  0
ATTDEF
  5
BA
330
B0
100
AcDbEntity
  8
AM_6
100
AcDbText
 10
27.71645879092954
 20
19.7954877204193
 30
0.0
 40
0.5
  1
25
100
AcDbAttributeDefinition
  3

  2
SS
 70
     8
280
     0
  0
ATTDEF
  5
BB
330
B0
100
AcDbEntity
  8
AM_6
100
AcDbText
 10
27.71645879092954
 20
19.2954877204193
 30
0.0
 40
0.5
  1
129944
100
AcDbAttributeDefinition
  3

  2
PN
 70
     8
280
     0
  0
ATTDEF
  5
BC
330
B0
100
AcDbEntity
  8
AM_6
100
AcDbText
 10
27.71645879092954
 20
18.7954877204193
 30
0.0
 40
0.5
  1
AN-GT-05-25M
100
AcDbAttributeDefinition
  3

  2
DESCRIPTION
 70
     8
280
     0
  0
ATTDEF
  5
BD
330
B0
100
AcDbEntity
  8
AM_6
100
AcDbText
 10
27.71645879092954
 20
18.2954877204193
 30
0.0
 40
0.5
  1
36.9
100
AcDbAttributeDefinition
  3

  2
A
 70
     8
280
     0
  0
ATTDEF
  5
BE
330
B0
100
AcDbEntity
  8
AM_6
100
AcDbText
 10
27.71645879092954
 20
17.7954877204193
 30
0.0
 40
0.5
  1
15.0
100
AcDbAttributeDefinition
  3

  2
C
 70
     8
280
     0
  0
ATTDEF
  5
BF
330
B0
100
AcDbEntity
  8
AM_6
100
AcDbText
 10
27.71645879092954
 20
17.2954877204193
 30
0.0
 40
0.5
  1
52.0
100
AcDbAttributeDefinition
  3

  2
D
 70
     8
280
     0
  0
ATTDEF
  5
C0
330
B0
100
AcDbEntity
  8
AM_6
100
AcDbText
 10
27.71645879092954
 20
16.7954877204193
 30
0.0
 40
0.5
  1
3.9
100
AcDbAttributeDefinition
  3

  2
J
 70
     8
280
     0
  0
ATTDEF
  5
C1
330
B0
100
AcDbEntity
  8
AM_6
100
AcDbText
 10
27.71645879092954
 20
16.2954877204193
 30
0.0
 40
0.5
  1
45.6
100
AcDbAttributeDefinition
  3

  2
L
 70
     8
280
     0
  0
ATTDEF
  5
C2
330
B0
100
AcDbEntity
  8
AM_6
100
AcDbText
 10
27.71645879092954
 20
15.7954877204193
 30
0.0
 40
0.5
  1
10 - 32 x 1/4
100
AcDbAttributeDefinition
  3

  2
N
 70
     8
280
     0
  0
ATTDEF
  5
C3
330
B0
100
AcDbEntity
  8
AM_6
100
AcDbText
 10
27.71645879092954
 20
15.2954877204193
 30
0.0
 40
0.5
  1
12.7
100
AcDbAttributeDefinition
  3

  2
W
 70
     8
280
     0
  0
ATTDEF
  5
C4
330
B0
100
AcDbEntity
  8
AM_6
100
AcDbText
 10
27.71645879092954
 20
14.7954877204193
 30
0.0
 40
0.5
  1
24.2
100
AcDbAttributeDefinition
  3

  2
X
 70
     8
280
     0
  0
ATTDEF
  5
C5
330
B0
100
AcDbEntity
  8
AM_6
100
AcDbText
 10
27.71645879092954
 20
14.2954877204193
 30
0.0
 40
0.5
  1
24.2
100
AcDbAttributeDefinition
  3

  2
Y
 70
     8
280
     0
  0
ATTDEF
  5
C6
330
B0
100
AcDbEntity
  8
AM_6
100
AcDbText
 10
27.71645879092954
 20
13.7954877204193
 30
0.0
 40
0.5
  1
baldor
100
AcDbAttributeDefinition
  3

  2
COMPANY
 70
     8
280
     0
  0
LINE
  5
C7
330
B0
100
AcDbEntity
  8
AM_9
100
AcDbLine
 10
1.250000000000002
 20
17.00977505789123
 30
0.0
 11
1.250000000000002
 21
17.72590430734876
 31
0.0
  0
LINE
  5
C8
330
B0
100
AcDbEntity
  8
AM_9
100
AcDbLine
 10
-1.249999999999998
 20
17.00977505789123
 30
0.0
 11
-1.249999999999998
 21
17.72590430734876
 31
0.0
  0
ARC
  5
C9
330
B0
100
AcDbEntity
  8
AM_9
100
AcDbCircle
 10
0.0000000000000017
 20
-0.0000000000000006
 30
0.0
 40
17.76992356520662
100
AcDbArc
 50
94.03372141977252
 51
85.96627858022747
  0
CIRCLE
  5
CA
330
B0
100
AcDbEntity
  8
AM_9
100
AcDbCircle
 10
0.0000000000000016
 20
0.0
 30
0.0
 40
18.63809523809523
  0
ARC
  5
CB
330
B0
100
AcDbEntity
  8
AM_9
100
AcDbCircle
 10
0.0000000000000016
 20
-0.0000000000000013
 30
0.0
 40
17.0095238095238
100
AcDbArc
 50
94.21436521923737
 51
85.78563478076265
  0
CIRCLE
  5
CC
330
B0
100
AcDbEntity
  8
AM_9
100
AcDbCircle
 10
0.0000000000000016
 20
0.0
 30
0.0
 40
20.49466666666667
  0
LINE
  5
CD
330
B0
100
AcDbEntity
  8
AM_9
100
AcDbLine
 10
-22.3682
 20
-1.981200000000003
 30
0.0
 11
-17.5318
 21
-1.981200000000003
 31
0.0
  0
LINE
  5
CE
330
B0
100
AcDbEntity
  8
AM_9
100
AcDbLine
 10
-17.5318
 20
1.981200000000003
 30
0.0
 11
-22.3682
 21
1.981200000000003
 31
0.0
  0
LINE
  5
CF
330
B0
100
AcDbEntity
  8
AM_9
100
AcDbLine
 10
-17.5318
 20
-1.981200000000003
 30
0.0
 11
-17.1
 21
-2.413000000000002
 31
0.0
  0
LINE
  5
D0
330
B0
100
AcDbEntity
  8
AM_9
100
AcDbLine
 10
-17.1
 20
2.413000000000002
 30
0.0
 11
-17.5318
 21
1.981200000000003
 31
0.0
  0
LINE
  5
D1
330
B0
100
AcDbEntity
  8
AM_9
100
AcDbLine
 10
-17.1
 20
2.413000000000002
 30
0.0
 11
-17.1
 21
-2.413000000000002
 31
0.0
  0
LINE
  5
D2
330
B0
100
AcDbEntity
  8
AM_9
100
AcDbLine
 10
-17.5318
 20
1.981200000000003
 30
0.0
 11
-17.5318
 21
-1.981200000000003
 31
0.0
  0
LINE
  5
D3
330
B0
100
AcDbEntity
  8
AM_9
100
AcDbLine
 10
-22.3682
 20
1.981200000000003
 30
0.0
 11
-22.67124077524283
 21
2.284240775242837
 31
0.0
  0
LINE
  5
D4
330
B0
100
AcDbEntity
  8
AM_9
100
AcDbLine
 10
-22.66915691966663
 20
-2.282156919666629
 30
0.0
 11
-22.3682
 21
-1.981200000000003
 31
0.0
  0
LINE
  5
D5
330
B0
100
AcDbEntity
  8
AM_9
100
AcDbLine
 10
-22.3682
 20
1.981200000000003
 30
0.0
 11
-22.3682
 21
-1.981200000000003
 31
0.0
  0
LWPOLYLINE
  5
D6
330
B0
100
AcDbEntity
  8
AM_9
100
AcDbPolyline
 90
        6
 70
     0
 43
0.0
 10
-22.79069551997696
 20
0.6513046258872325
 10
-22.78638550387028
 20
0.7878043342166127
 10
-22.75566320576637
 20
1.421193887451867
 10
-22.7189042142356
 20
1.921299379167071
 10
-22.69083308501306
 20
2.228473447918336
 10
-22.6839987273438
 20
2.296998419212505
  0
LINE
  5
D7
330
B0
100
AcDbEntity
  8
AM_9
100
AcDbLine
 10
-22.79225609442105
 20
0.5941903115389884
 30
0.0
 11
-22.79069551997696
 21
0.6513046258872325
 31
0.0
  0
LINE
  5
D8
330
B0
100
AcDbEntity
  8
AM_9
100
AcDbLine
 10
-22.7900980888471
 20
-0.6718847376804685
 30
0.0
 11
-22.79202363056469
 21
-0.6030413118361753
 31
0.0
  0
LWPOLYLINE
  5
D9
330
B0
100
AcDbEntity
  8
AM_9
100
AcDbPolyline
 90
        6
 70
     0
 43
0.0
 10
-22.68399871090377
 20
-2.296998581565943
 10
-22.6892597434212
 20
-2.244435852406184
 10
-22.71768182998211
 20
-1.935699427003276
 10
-22.73705293566594
 20
-1.693051623762492
 10
-22.757780624798
 20
-1.386874555815604
 10
-22.78330431046708
 20
-0.8723787575658224
  0
LINE
  5
DB
330
B0
100
AcDbEntity
  8
AM_5
100
AcDbLine
 10
-22.67195251847533
 20
-2.413000000000002
 30
0.0
 11
-17.1
 21
-2.413000000000002
 31
0.0
  0
LINE
  5
DC
330
B0
100
AcDbEntity
  8
AM_5
100
AcDbLine
 10
-22.67195251847533
 20
2.412999999999998
 30
0.0
 11
-17.1
 21
2.412999999999998
 31
0.0
  0
LINE
  5
DD
330
B0
100
AcDbEntity
  8
AM_4
100
AcDbLine
 10
-8.951247929278574
 20
19.40401620465618
 30
0.0
 11
-9.669479858085126
 21
20.64803039696731
 31
0.0
  0
LINE
  5
DE
330
B0
100
AcDbEntity
  8
AM_4
100
AcDbLine
 10
22.71645879092954
 20
1.95
 30
0.0
 11
21.27999493331645
 21
1.95
 31
0.0
  0
ARC
  5
DF
330
B0
100
AcDbEntity
  8
AM_4
100
AcDbCircle
 10
-0.0000000000000036
 20
-0.0000000000000071
 30
0.0
 40
22.8
100
AcDbArc
 50
4.906290757642225
 51
115.0937092423578
  0
LINE
  5
E0
330
B0
100
AcDbEntity
  8
AM_4
100
AcDbLine
 10
-8.951247929278562
 20
-19.40401620465618
 30
0.0
 11
-12.32874700403787
 21
-17.45401620465618
 31
0.0
  0
LINE
  5
E1
330
B0
100
AcDbEntity
  8
AM_4
100
AcDbLine
 10
-9.66947985808511
 20
-20.64803039696732
 30
0.0
 11
-8.951247929278562
 21
-19.40401620465618
 31
0.0
  0
LINE
  5
E2
330
B0
100
AcDbEntity
  8
AM_4
100
AcDbLine
 10
-13.04697893284443
 20
18.69803039696732
 30
0.0
 11
-12.32874700403788
 21
17.45401620465617
 31
0.0
  0
LINE
  5
E3
330
B0
100
AcDbEntity
  8
AM_4
100
AcDbLine
 10
-12.32874700403788
 20
17.45401620465617
 30
0.0
 11
-8.951247929278574
 21
19.40401620465618
 31
0.0
  0
LINE
  5
E4
330
B0
100
AcDbEntity
  8
AM_4
100
AcDbLine
 10
21.27999493331644
 20
-1.95
 30
0.0
 11
22.71645879092954
 21
-1.95
 31
0.0
  0
LINE
  5
E5
330
B0
100
AcDbEntity
  8
AM_4
100
AcDbLine
 10
21.27999493331645
 20
1.95
 30
0.0
 11
21.27999493331644
 21
-1.95
 31
0.0
  0
LINE
  5
E6
330
B0
100
AcDbEntity
  8
AM_4
100
AcDbLine
 10
-12.32874700403787
 20
-17.45401620465618
 30
0.0
 11
-13.04697893284442
 21
-18.69803039696732
 31
0.0
  0
ARC
  5
E7
330
B0
100
AcDbEntity
  8
AM_4
100
AcDbCircle
 10
0.0000000000000016
 20
0.000000000000001
 30
0.0
 40
12.5
100
AcDbArc
 50
95.7391704772668
 51
84.26082952273322
  0
LINE
  5
E8
330
B0
100
AcDbEntity
  8
AM_4
100
AcDbLine
 10
1.250000000000002
 20
17.00952380952381
 30
0.0
 11
1.250000000000002
 21
12.43734296383275
 31
0.0
  0
LINE
  5
E9
330
B0
100
AcDbEntity
  8
AM_4
100
AcDbLine
 10
-1.249999999999998
 20
17.00952380952381
 30
0.0
 11
-1.249999999999998
 21
12.43734296383275
 31
0.0
  0
LINE
  5
EA
330
B0
100
AcDbEntity
  8
AM_4
100
AcDbLine
 10
1.250000000000002
 20
17.00952380952381
 30
0.0
 11
-1.249999999999998
 21
17.00952380952381
 31
0.0
  0
ARC
  5
EB
330
B0
100
AcDbEntity
  8
AM_4
100
AcDbCircle
 10
0.0
 20
-0.0000000000000018
 30
0.0
 40
22.2
100
AcDbArc
 50
5.039231631771522
 51
114.9607683682285
  0
ARC
  5
EC
330
B0
100
AcDbEntity
  8
AM_4
100
AcDbCircle
 10
0.0000000000000017
 20
-0.0000000000000071
 30
0.0
 40
22.8
100
AcDbArc
 50
244.9062907576422
 51
355.0937092423576
  0
ARC
  5
ED
330
B0
100
AcDbEntity
  8
AM_4
100
AcDbCircle
 10
0.0000000000000017
 20
-0.0000000000000071
 30
0.0
 40
22.2
100
AcDbArc
 50
245.0392316317715
 51
354.9607683682285
  0
ARC
  5
EE
330
B0
100
AcDbEntity
  8
AM_4
100
AcDbCircle
 10
0.0000000000000142
 20
-0.0000000000000053
 30
0.0
 40
22.80000000000001
100
AcDbArc
 50
124.9062907576423
 51
178.4566437385238
  0
LWPOLYLINE
  5
EF
330
B0
100
AcDbEntity
  8
AM_4
100
AcDbPolyline
 90
        3
 70
     0
 43
0.0
 10
-22.79172885369209
 20
0.6140813136545675
 10
-22.75601037937264
 20
0.0104777792177353
 10
-22.7917288536921
 20
-0.6140813136542685
  0
ARC
  5
F0
330
B0
100
AcDbEntity
  8
AM_4
100
AcDbCircle
 10
0.0000000000000746
 20
0.0000000000000515
 30
0.0
 40
22.80000000000009
100
AcDbArc
 50
181.5433562614753
 51
235.0937092423576
  0
ARC
  5
F1
330
B0
100
AcDbEntity
  8
AM_4
100
AcDbCircle
 10
0.0
 20
-0.0000000000000018
 30
0.0
 40
22.2
100
AcDbArc
 50
125.0392316317715
 51
234.9607683682285
  0
ENDBLK
  5
B3
330
B0
100
AcDbEntity
  8
0
100
AcDbBlockEnd
  0
BLOCK
  5
F4
330
F2
100
AcDbEntity
  8
0
100
AcDbBlockBegin
  2
4_129466_0_in_129669_0
 70
     2
 10
0.0
 20
0.0
 30
0.0
  3
4_129466_0_in_129669_0
  1

  0
ATTDEF
  5
F6
330
F2
100
AcDbEntity
  8
AM_6
100
AcDbText
 10
52.65
 20
52.94530000000001
 30
0.0
 40
0.5
  1
BODY
100
AcDbAttributeDefinition
  3

  2
NN
 70
     8
280
     0
  0
ATTDEF
  5
F7
330
F2
100
AcDbEntity
  8
AM_6
100
AcDbText
 10
52.65
 20
52.44530000000001
 30
0.0
 40
0.5
  1
Grip Tight Adapter Ball Berarings
100
AcDbAttributeDefinition
  3

  2
NT
 70
     8
280
     0
  0
ATTDEF
  5
F8
330
F2
100
AcDbEntity
  8
AM_6
100
AcDbText
 10
52.65
 20
51.94530000000001
 30
0.0
 40
0.5
  1
129466
100
AcDbAttributeDefinition
  3

  2
NB
 70
     8
280
     0
  0
ATTDEF
  5
F9
330
F2
100
AcDbEntity
  8
AM_6
100
AcDbText
 10
52.65
 20
51.44530000000001
 30
0.0
 40
0.5
  1
$PN.$LUBE.
100
AcDbAttributeDefinition
  3

  2
NBSYN
 70
     8
280
     0
  0
ATTDEF
  5
FA
330
F2
100
AcDbEntity
  8
AM_6
100
AcDbText
 10
52.65
 20
50.94530000000001
 30
0.0
 40
0.5
  1
129466
100
AcDbAttributeDefinition
  3

  2
LINA
 70
     8
280
     0
  0
ATTDEF
  5
FB
330
F2
100
AcDbEntity
  8
AM_6
100
AcDbText
 10
52.65
 20
50.44530000000001
 30
0.0
 40
0.5
  1
205
100
AcDbAttributeDefinition
  3

  2
SERIES
 70
     8
280
     0
  0
ATTDEF
  5
FC
330
F2
100
AcDbEntity
  8
AM_6
100
AcDbText
 10
52.65
 20
49.94530000000001
 30
0.0
 40
0.5
  1
129466
100
AcDbAttributeDefinition
  3

  2
PN
 70
     8
280
     0
  0
ATTDEF
  5
FD
330
F2
100
AcDbEntity
  8
AM_6
100
AcDbText
 10
52.65
 20
49.44530000000001
 30
0.0
 40
0.5
  1
F4B-GT-05
100
AcDbAttributeDefinition
  3

  2
DESCRIPTION
 70
     8
280
     0
  0
ATTDEF
  5
FE
330
F2
100
AcDbEntity
  8
AM_6
100
AcDbText
 10
52.65
 20
48.94530000000001
 30
0.0
 40
0.5
  1
With Lube
100
AcDbAttributeDefinition
  3

  2
LUBE
 70
     8
280
     0
  0
ATTDEF
  5
FF
330
F2
100
AcDbEntity
  8
AM_6
100
AcDbText
 10
52.65
 20
48.44530000000001
 30
0.0
 40
0.5
  1
1.0
100
AcDbAttributeDefinition
  3

  2
WEIGHT
 70
     8
280
     0
  0
ATTDEF
  5
100
330
F2
100
AcDbEntity
  8
AM_6
100
AcDbText
 10
52.65
 20
47.94530000000001
 30
0.0
 40
0.5
  1
36.9
100
AcDbAttributeDefinition
  3

  2
A
 70
     8
280
     0
  0
ATTDEF
  5
101
330
F2
100
AcDbEntity
  8
AM_6
100
AcDbText
 10
52.65
 20
47.44530000000001
 30
0.0
 40
0.5
  1
95.3
100
AcDbAttributeDefinition
  3

  2
B
 70
     8
280
     0
  0
ATTDEF
  5
102
330
F2
100
AcDbEntity
  8
AM_6
100
AcDbText
 10
52.65
 20
46.94530000000001
 30
0.0
 40
0.5
  1
39.3
100
AcDbAttributeDefinition
  3

  2
C
 70
     8
280
     0
  0
ATTDEF
  5
103
330
F2
100
AcDbEntity
  8
AM_6
100
AcDbText
 10
52.65
 20
46.44530000000001
 30
0.0
 40
0.5
  1
M10
100
AcDbAttributeDefinition
  3

  2
F
 70
     8
280
     0
  0
ATTDEF
  5
104
330
F2
100
AcDbEntity
  8
AM_6
100
AcDbText
 10
52.65
 20
45.94530000000001
 30
0.0
 40
0.5
  1
12.7
100
AcDbAttributeDefinition
  3

  2
H
 70
     8
280
     0
  0
ATTDEF
  5
105
330
F2
100
AcDbEntity
  8
AM_6
100
AcDbText
 10
52.65
 20
45.44530000000001
 30
0.0
 40
0.5
  1
15.1
100
AcDbAttributeDefinition
  3

  2
J
 70
     8
280
     0
  0
ATTDEF
  5
106
330
F2
100
AcDbEntity
  8
AM_6
100
AcDbText
 10
52.65
 20
44.94530000000001
 30
0.0
 40
0.5
  1
45.6
100
AcDbAttributeDefinition
  3

  2
L
 70
     8
280
     0
  0
ATTDEF
  5
107
330
F2
100
AcDbEntity
  8
AM_6
100
AcDbText
 10
52.65
 20
44.44530000000001
 30
0.0
 40
0.5
  1
52.4
100
AcDbAttributeDefinition
  3

  2
N
 70
     8
280
     0
  0
ATTDEF
  5
108
330
F2
100
AcDbEntity
  8
AM_6
100
AcDbText
 10
52.65
 20
43.94530000000001
 30
0.0
 40
0.5
  1
39.3
100
AcDbAttributeDefinition
  3

  2
Z
 70
     8
280
     0
  0
ATTDEF
  5
109
330
F2
100
AcDbEntity
  8
AM_6
100
AcDbText
 10
52.65
 20
43.44530000000001
 30
0.0
 40
0.5
  1
Infotext
100
AcDbAttributeDefinition
  3

  2
INFO
 70
     8
280
     0
  0
ATTDEF
  5
10A
330
F2
100
AcDbEntity
  8
AM_6
100
AcDbText
 10
52.65
 20
42.94530000000001
 30
0.0
 40
0.5
  1
baldor
100
AcDbAttributeDefinition
  3

  2
COMPANY
 70
     8
280
     0
  0
LINE
  5
10B
330
F2
100
AcDbEntity
  8
AM_9
100
AcDbLine
 10
2.502394539260592
 20
47.65
 30
0.0
 11
-2.502394539260592
 21
47.65
 31
0.0
  0
LINE
  5
10E
330
F2
100
AcDbEntity
  8
AM_7
100
AcDbLine
 10
-40.5125
 20
-35.0
 30
0.0
 11
-29.4875
 21
-35.0
 31
0.0
  0
LINE
  5
10F
330
F2
100
AcDbEntity
  8
AM_7
100
AcDbLine
 10
-35.0
 20
-40.5125
 30
0.0
 11
-35.0
 21
-29.4875
 31
0.0
  0
LINE
  5
110
330
F2
100
AcDbEntity
  8
AM_7
100
AcDbLine
 10
29.4875
 20
35.0
 30
0.0
 11
40.5125
 21
35.0
 31
0.0
  0
LINE
  5
111
330
F2
100
AcDbEntity
  8
AM_7
100
AcDbLine
 10
35.0
 20
29.4875
 30
0.0
 11
35.0
 21
40.5125
 31
0.0
  0
LINE
  5
112
330
F2
100
AcDbEntity
  8
AM_7
100
AcDbLine
 10
-40.5125
 20
35.0
 30
0.0
 11
-29.4875
 21
35.0
 31
0.0
  0
LINE
  5
113
330
F2
100
AcDbEntity
  8
AM_7
100
AcDbLine
 10
-35.0
 20
29.4875
 30
0.0
 11
-35.0
 21
40.5125
 31
0.0
  0
LINE
  5
114
330
F2
100
AcDbEntity
  8
AM_7
100
AcDbLine
 10
29.4875
 20
-35.0
 30
0.0
 11
40.5125
 21
-35.0
 31
0.0
  0
LINE
  5
115
330
F2
100
AcDbEntity
  8
AM_7
100
AcDbLine
 10
35.0
 20
-40.5125
 30
0.0
 11
35.0
 21
-29.4875
 31
0.0
  0
LINE
  5
116
330
F2
100
AcDbEntity
  8
AM_7
100
AcDbLine
 10
-27.3
 20
0.0
 30
0.0
 11
27.3
 21
0.0
 31
0.0
  0
LINE
  5
117
330
F2
100
AcDbEntity
  8
AM_7
100
AcDbLine
 10
0.0
 20
-27.3
 30
0.0
 11
0.0
 21
27.3
 31
0.0
  0
LINE
  5
118
330
F2
100
AcDbEntity
  8
AM_7
100
AcDbLine
 10
0.0
 20
52.94530000000001
 30
0.0
 11
0.0
 21
40.94870000000002
 31
0.0
  0
LINE
  5
119
330
F2
100
AcDbEntity
  8
AM_4
100
AcDbLine
 10
-7.000000000000004
 20
47.65
 30
0.0
 11
-7.0
 21
33.96897454168017
 31
0.0
  0
LINE
  5
11A
330
F2
100
AcDbEntity
  8
AM_4
100
AcDbLine
 10
7.000000000000001
 20
47.65
 30
0.0
 11
7.0
 21
33.96897454168017
 31
0.0
  0
LINE
  5
11B
330
F2
100
AcDbEntity
  8
AM_4
100
AcDbLine
 10
-6.18082948744046
 20
-42.09498783849973
 30
0.0
 11
-6.18082948744046
 21
-43.2050122326201
 31
0.0
  0
LINE
  5
11C
330
F2
100
AcDbEntity
  8
AM_4
100
AcDbLine
 10
-6.414068213241251
 20
-43.72302357911972
 30
0.0
 11
-6.64730748514057
 21
-43.87102690769955
 31
0.0
  0
LINE
  5
11D
330
F2
100
AcDbEntity
  8
AM_4
100
AcDbLine
 10
-8.35772534700066
 20
-43.94502854023981
 30
0.0
 11
-8.35772534700066
 21
-41.35497159691975
 31
0.0
  0
LINE
  5
11E
330
F2
100
AcDbEntity
  8
AM_4
100
AcDbLine
 10
-8.35772534700066
 20
-41.35497159691975
 30
0.0
 11
-6.95829245117983
 21
-41.35497159691975
 31
0.0
  0
LINE
  5
11F
330
F2
100
AcDbEntity
  8
AM_4
100
AcDbLine
 10
-6.95829245117983
 20
-41.35497159691975
 30
0.0
 11
-6.64730748514057
 21
-41.42897322946001
 31
0.0
  0
LINE
  5
120
330
F2
100
AcDbEntity
  8
AM_4
100
AcDbLine
 10
-6.64730748514057
 20
-41.42897322946001
 30
0.0
 11
-6.414068213241251
 21
-41.57697648945971
 31
0.0
  0
LINE
  5
121
330
F2
100
AcDbEntity
  8
AM_4
100
AcDbLine
 10
-6.414068213241251
 20
-41.57697648945971
 30
0.0
 11
-6.25857573022017
 21
-41.79898138199966
 31
0.0
  0
LINE
  5
122
330
F2
100
AcDbEntity
  8
AM_4
100
AcDbLine
 10
-6.25857573022017
 20
-41.79898138199966
 30
0.0
 11
-6.18082948744046
 21
-42.09498783849973
 31
0.0
  0
LINE
  5
123
330
F2
100
AcDbEntity
  8
AM_4
100
AcDbLine
 10
-6.18082948744046
 20
-43.2050122326201
 30
0.0
 11
-6.25857573022017
 21
-43.5010187551599
 31
0.0
  0
LINE
  5
124
330
F2
100
AcDbEntity
  8
AM_4
100
AcDbLine
 10
-6.25857573022017
 20
-43.5010187551599
 30
0.0
 11
-6.414068213241251
 21
-43.72302357911972
 31
0.0
  0
LINE
  5
125
330
F2
100
AcDbEntity
  8
AM_4
100
AcDbLine
 10
-6.64730748514057
 20
-43.87102690769955
 30
0.0
 11
-6.95829245117983
 21
-43.94502854023981
 31
0.0
  0
LINE
  5
126
330
F2
100
AcDbEntity
  8
AM_4
100
AcDbLine
 10
-6.95829245117983
 20
-43.94502854023981
 30
0.0
 11
-8.35772534700066
 21
-43.94502854023981
 31
0.0
  0
LINE
  5
127
330
F2
100
AcDbEntity
  8
AM_4
100
AcDbLine
 10
-0.894082189481651
 20
-43.94502854023981
 30
0.0
 11
-0.894082189481651
 21
-41.35497159691975
 31
0.0
  0
LINE
  5
128
330
F2
100
AcDbEntity
  8
AM_4
100
AcDbLine
 10
-0.894082189481651
 20
-41.35497159691975
 30
0.0
 11
0.5053509628790489
 21
-41.35497159691975
 31
0.0
  0
LINE
  5
129
330
F2
100
AcDbEntity
  8
AM_4
100
AcDbLine
 10
0.5053509628790489
 20
-41.35497159691975
 30
0.0
 11
0.81633611687954
 21
-41.42897322946001
 31
0.0
  0
LINE
  5
12A
330
F2
100
AcDbEntity
  8
AM_4
100
AcDbLine
 10
0.81633611687954
 20
-41.42897322946001
 30
0.0
 11
1.04957494427924
 21
-41.57697648945971
 31
0.0
  0
LINE
  5
12B
330
F2
100
AcDbEntity
  8
AM_4
100
AcDbLine
 10
1.04957494427924
 20
-41.57697648945971
 30
0.0
 11
1.20506756445917
 21
-41.79898138199966
 31
0.0
  0
LINE
  5
12C
330
F2
100
AcDbEntity
  8
AM_4
100
AcDbLine
 10
1.20506756445917
 20
-41.79898138199966
 30
0.0
 11
1.28281380723882
 21
-42.09498783849973
 31
0.0
  0
LINE
  5
12D
330
F2
100
AcDbEntity
  8
AM_4
100
AcDbLine
 10
1.28281380723882
 20
-42.09498783849973
 30
0.0
 11
1.28281380723882
 21
-43.2050122326201
 31
0.0
  0
LINE
  5
12E
330
F2
100
AcDbEntity
  8
AM_4
100
AcDbLine
 10
1.28281380723882
 20
-43.2050122326201
 30
0.0
 11
1.20506756445917
 21
-43.5010187551599
 31
0.0
  0
LINE
  5
12F
330
F2
100
AcDbEntity
  8
AM_4
100
AcDbLine
 10
1.20506756445917
 20
-43.5010187551599
 30
0.0
 11
1.04957494427924
 21
-43.72302357911972
 31
0.0
  0
LINE
  5
130
330
F2
100
AcDbEntity
  8
AM_4
100
AcDbLine
 10
1.04957494427924
 20
-43.72302357911972
 30
0.0
 11
0.81633611687954
 21
-43.87102690769955
 31
0.0
  0
LINE
  5
131
330
F2
100
AcDbEntity
  8
AM_4
100
AcDbLine
 10
0.81633611687954
 20
-43.87102690769955
 30
0.0
 11
0.505350962879049
 21
-43.94502854023981
 31
0.0
  0
LINE
  5
132
330
F2
100
AcDbEntity
  8
AM_4
100
AcDbLine
 10
0.505350962879049
 20
-43.94502854023981
 30
0.0
 11
-0.894082189481651
 21
-43.94502854023981
 31
0.0
  0
LINE
  5
133
330
F2
100
AcDbEntity
  8
AM_4
100
AcDbLine
 10
-4.62590410860145
 20
-42.09498783849973
 30
0.0
 11
-4.5481578683615
 21
-41.79898138199966
 31
0.0
  0
LINE
  5
134
330
F2
100
AcDbEntity
  8
AM_4
100
AcDbLine
 10
-4.5481578683615
 20
-41.79898138199966
 30
0.0
 11
-4.3926648367007
 21
-41.57697648945971
 31
0.0
  0
LINE
  5
135
330
F2
100
AcDbEntity
  8
AM_4
100
AcDbLine
 10
-4.1594261134411
 20
-43.87102690769955
 30
0.0
 11
-4.3926648367007
 21
-43.72302357911972
 31
0.0
  0
LINE
  5
136
330
F2
100
AcDbEntity
  8
AM_4
100
AcDbLine
 10
-4.3926648367007
 20
-43.72302357911972
 30
0.0
 11
-4.5481578683615
 21
-43.5010187551599
 31
0.0
  0
LINE
  5
137
330
F2
100
AcDbEntity
  8
AM_4
100
AcDbLine
 10
-4.5481578683615
 20
-43.5010187551599
 30
0.0
 11
-4.62590410860145
 21
-43.2050122326201
 31
0.0
  0
LINE
  5
138
330
F2
100
AcDbEntity
  8
AM_4
100
AcDbLine
 10
-4.62590410860145
 20
-43.2050122326201
 30
0.0
 11
-4.62590410860145
 21
-42.09498783849973
 31
0.0
  0
LINE
  5
139
330
F2
100
AcDbEntity
  8
AM_4
100
AcDbLine
 10
-3.84844114740037
 20
-43.94502854023981
 30
0.0
 11
-4.1594261134411
 21
-43.87102690769955
 31
0.0
  0
LINE
  5
13A
330
F2
100
AcDbEntity
  8
AM_4
100
AcDbLine
 10
-3.22647066668065
 20
-43.94502854023981
 30
0.0
 11
-3.84844114740037
 21
-43.94502854023981
 31
0.0
  0
LINE
  5
13B
330
F2
100
AcDbEntity
  8
AM_4
100
AcDbLine
 10
-2.915485700639921
 20
-43.87102690769955
 30
0.0
 11
-3.22647066668065
 21
-43.94502854023981
 31
0.0
  0
LINE
  5
13C
330
F2
100
AcDbEntity
  8
AM_4
100
AcDbLine
 10
-2.68224670306114
 20
-43.72302357911972
 30
0.0
 11
-2.915485700639921
 21
-43.87102690769955
 31
0.0
  0
LINE
  5
13D
330
F2
100
AcDbEntity
  8
AM_4
100
AcDbLine
 10
-2.52675422004006
 20
-43.5010187551599
 30
0.0
 11
-2.68224670306114
 21
-43.72302357911972
 31
0.0
  0
LINE
  5
13E
330
F2
100
AcDbEntity
  8
AM_4
100
AcDbLine
 10
-2.44900797726041
 20
-43.2050122326201
 30
0.0
 11
-2.52675422004006
 21
-43.5010187551599
 31
0.0
  0
LINE
  5
13F
330
F2
100
AcDbEntity
  8
AM_4
100
AcDbLine
 10
-2.44900797726041
 20
-42.09498783849973
 30
0.0
 11
-2.44900797726041
 21
-43.2050122326201
 31
0.0
  0
LINE
  5
140
330
F2
100
AcDbEntity
  8
AM_4
100
AcDbLine
 10
-2.52675422004006
 20
-41.79898138199966
 30
0.0
 11
-2.44900797726041
 21
-42.09498783849973
 31
0.0
  0
LINE
  5
141
330
F2
100
AcDbEntity
  8
AM_4
100
AcDbLine
 10
-2.68224670306114
 20
-41.57697648945971
 30
0.0
 11
-2.52675422004006
 21
-41.79898138199966
 31
0.0
  0
LINE
  5
142
330
F2
100
AcDbEntity
  8
AM_4
100
AcDbLine
 10
-2.915485700639921
 20
-41.42897322946001
 30
0.0
 11
-2.68224670306114
 21
-41.57697648945971
 31
0.0
  0
LINE
  5
143
330
F2
100
AcDbEntity
  8
AM_4
100
AcDbLine
 10
-3.22647066668065
 20
-41.35497159691975
 30
0.0
 11
-2.915485700639921
 21
-41.42897322946001
 31
0.0
  0
LINE
  5
144
330
F2
100
AcDbEntity
  8
AM_4
100
AcDbLine
 10
-3.84844114740037
 20
-41.35497159691975
 30
0.0
 11
-3.22647066668065
 21
-41.35497159691975
 31
0.0
  0
LINE
  5
145
330
F2
100
AcDbEntity
  8
AM_4
100
AcDbLine
 10
-4.1594261134411
 20
-41.42897322946001
 30
0.0
 11
-3.84844114740037
 21
-41.35497159691975
 31
0.0
  0
LINE
  5
146
330
F2
100
AcDbEntity
  8
AM_4
100
AcDbLine
 10
-4.3926648367007
 20
-41.57697648945971
 30
0.0
 11
-4.1594261134411
 21
-41.42897322946001
 31
0.0
  0
LINE
  5
147
330
F2
100
AcDbEntity
  8
AM_4
100
AcDbLine
 10
3.61520242159952
 20
-44.38903818816016
 30
0.0
 11
3.22647094099966
 21
-44.31503655816032
 31
0.0
  0
LINE
  5
148
330
F2
100
AcDbEntity
  8
AM_4
100
AcDbLine
 10
-6.25857573022017
 20
-44.16703329562021
 30
0.0
 11
-6.56956124236086
 21
-44.31503655816032
 31
0.0
  0
LINE
  5
149
330
F2
100
AcDbEntity
  8
AM_4
100
AcDbLine
 10
-4.23717235368105
 20
-40.9849634443801
 30
0.0
 11
-3.84844114740037
 21
-40.91096181183984
 31
0.0
  0
LINE
  5
14A
330
F2
100
AcDbEntity
  8
AM_4
100
AcDbLine
 10
-4.859142834400757
 20
-41.42897322946001
 30
0.0
 11
-4.5481578683615
 21
-41.13296670437979
 31
0.0
  0
LINE
  5
14B
330
F2
100
AcDbEntity
  8
AM_4
100
AcDbLine
 10
-4.5481578683615
 20
-41.13296670437979
 30
0.0
 11
-4.23717235368105
 21
-40.9849634443801
 31
0.0
  0
LINE
  5
14C
330
F2
100
AcDbEntity
  8
AM_4
100
AcDbLine
 10
-8.82420334215959
 20
-40.91096181183984
 30
0.0
 11
-6.95829245117983
 21
-40.91096181183984
 31
0.0
  0
LINE
  5
14D
330
F2
100
AcDbEntity
  8
AM_4
100
AcDbLine
 10
-8.82420334215959
 20
-44.38903818816016
 30
0.0
 11
-8.82420334215959
 21
-40.91096181183984
 31
0.0
  0
LINE
  5
14E
330
F2
100
AcDbEntity
  8
AM_4
100
AcDbLine
 10
-6.95829245117983
 20
-44.38903818816016
 30
0.0
 11
-8.82420334215959
 21
-44.38903818816016
 31
0.0
  0
LINE
  5
14F
330
F2
100
AcDbEntity
  8
AM_4
100
AcDbLine
 10
-6.56956124236086
 20
-44.31503655816032
 30
0.0
 11
-6.95829245117983
 21
-44.38903818816016
 31
0.0
  0
LINE
  5
150
330
F2
100
AcDbEntity
  8
AM_4
100
AcDbLine
 10
3.61520242159952
 20
-40.91096181183984
 30
0.0
 11
4.31491886823864
 21
-40.91096181183984
 31
0.0
  0
LINE
  5
151
330
F2
100
AcDbEntity
  8
AM_4
100
AcDbLine
 10
3.22647094099966
 20
-40.9849634443801
 30
0.0
 11
3.61520242159952
 21
-40.91096181183984
 31
0.0
  0
LINE
  5
152
330
F2
100
AcDbEntity
  8
AM_4
100
AcDbLine
 10
2.91548570063981
 20
-41.13296670437979
 30
0.0
 11
3.22647094099966
 21
-40.9849634443801
 31
0.0
  0
LINE
  5
153
330
F2
100
AcDbEntity
  8
AM_4
100
AcDbLine
 10
-6.95829245117983
 20
-40.91096181183984
 30
0.0
 11
-6.56956124236086
 21
-40.9849634443801
 31
0.0
  0
LINE
  5
154
330
F2
100
AcDbEntity
  8
AM_4
100
AcDbLine
 10
-6.56956124236086
 20
-40.9849634443801
 30
0.0
 11
-6.25857573022017
 21
-41.13296670437979
 31
0.0
  0
LINE
  5
155
330
F2
100
AcDbEntity
  8
AM_4
100
AcDbLine
 10
-6.25857573022017
 20
-41.13296670437979
 30
0.0
 11
-5.94759076418086
 21
-41.42897322946001
 31
0.0
  0
LINE
  5
156
330
F2
100
AcDbEntity
  8
AM_4
100
AcDbLine
 10
-5.94759076418086
 20
-41.42897322946001
 30
0.0
 11
-5.79209828115978
 21
-41.7249797519998
 31
0.0
  0
LINE
  5
157
330
F2
100
AcDbEntity
  8
AM_4
100
AcDbLine
 10
-5.79209828115978
 20
-41.7249797519998
 30
0.0
 11
-5.71435203838155
 21
-42.09498783849973
 31
0.0
  0
LINE
  5
158
330
F2
100
AcDbEntity
  8
AM_4
100
AcDbLine
 10
-5.71435203838155
 20
-42.09498783849973
 30
0.0
 11
-5.71435203838155
 21
-43.2050122326201
 31
0.0
  0
LINE
  5
159
330
F2
100
AcDbEntity
  8
AM_4
100
AcDbLine
 10
-5.71435203838155
 20
-43.2050122326201
 30
0.0
 11
-5.79209828115978
 21
-43.57502038515976
 31
0.0
  0
LINE
  5
15A
330
F2
100
AcDbEntity
  8
AM_4
100
AcDbLine
 10
-5.79209828115978
 20
-43.57502038515976
 30
0.0
 11
-5.94759076418086
 21
-43.87102690769955
 31
0.0
  0
LINE
  5
15B
330
F2
100
AcDbEntity
  8
AM_4
100
AcDbLine
 10
-5.94759076418086
 20
-43.87102690769955
 30
0.0
 11
-6.25857573022017
 21
-44.16703329562021
 31
0.0
  0
LINE
  5
15C
330
F2
100
AcDbEntity
  8
AM_4
100
AcDbLine
 10
-5.09238155766042
 20
-43.2050122326201
 30
0.0
 11
-5.09238155766042
 21
-42.09498783849973
 31
0.0
  0
LINE
  5
15D
330
F2
100
AcDbEntity
  8
AM_4
100
AcDbLine
 10
-5.09238155766042
 20
-42.09498783849973
 30
0.0
 11
-5.01463531742041
 21
-41.7249797519998
 31
0.0
  0
LINE
  5
15E
330
F2
100
AcDbEntity
  8
AM_4
100
AcDbLine
 10
-5.01463531742041
 20
-41.7249797519998
 30
0.0
 11
-4.859142834400757
 21
-41.42897322946001
 31
0.0
  0
LINE
  5
15F
330
F2
100
AcDbEntity
  8
AM_4
100
AcDbLine
 10
-3.84844114740037
 20
-40.91096181183984
 30
0.0
 11
-3.22647066668065
 21
-40.91096181183984
 31
0.0
  0
LINE
  5
160
330
F2
100
AcDbEntity
  8
AM_4
100
AcDbLine
 10
-3.22647066668065
 20
-40.91096181183984
 30
0.0
 11
-2.8377391860808
 21
-40.9849634443801
 31
0.0
  0
LINE
  5
161
330
F2
100
AcDbEntity
  8
AM_4
100
AcDbLine
 10
-2.8377391860808
 20
-40.9849634443801
 30
0.0
 11
-2.52675422004006
 21
-41.13296670437979
 31
0.0
  0
LINE
  5
162
330
F2
100
AcDbEntity
  8
AM_4
100
AcDbLine
 10
-2.52675422004006
 20
-41.13296670437979
 30
0.0
 11
-2.21576897968021
 21
-41.42897322946001
 31
0.0
  0
LINE
  5
163
330
F2
100
AcDbEntity
  8
AM_4
100
AcDbLine
 10
-2.21576897968021
 20
-41.42897322946001
 30
0.0
 11
-2.06027649666055
 21
-41.7249797519998
 31
0.0
  0
LINE
  5
164
330
F2
100
AcDbEntity
  8
AM_4
100
AcDbLine
 10
-2.06027649666055
 20
-41.7249797519998
 30
0.0
 11
-1.9825302538809
 21
-42.09498783849973
 31
0.0
  0
LINE
  5
165
330
F2
100
AcDbEntity
  8
AM_4
100
AcDbLine
 10
-1.9825302538809
 20
-42.09498783849973
 30
0.0
 11
-1.9825302538809
 21
-43.2050122326201
 31
0.0
  0
LINE
  5
166
330
F2
100
AcDbEntity
  8
AM_4
100
AcDbLine
 10
-1.9825302538809
 20
-43.2050122326201
 30
0.0
 11
-2.06027649666055
 21
-43.57502038515976
 31
0.0
  0
LINE
  5
167
330
F2
100
AcDbEntity
  8
AM_4
100
AcDbLine
 10
-2.06027649666055
 20
-43.57502038515976
 30
0.0
 11
-2.21576897968021
 21
-43.87102690769955
 31
0.0
  0
LINE
  5
168
330
F2
100
AcDbEntity
  8
AM_4
100
AcDbLine
 10
-2.21576897968021
 20
-43.87102690769955
 30
0.0
 11
-2.52675422004006
 21
-44.16703329562021
 31
0.0
  0
LINE
  5
169
330
F2
100
AcDbEntity
  8
AM_4
100
AcDbLine
 10
-2.52675422004006
 20
-44.16703329562021
 30
0.0
 11
-2.8377391860808
 21
-44.31503655816032
 31
0.0
  0
LINE
  5
16A
330
F2
100
AcDbEntity
  8
AM_4
100
AcDbLine
 10
-2.8377391860808
 20
-44.31503655816032
 30
0.0
 11
-3.22647066668065
 21
-44.38903818816016
 31
0.0
  0
LINE
  5
16B
330
F2
100
AcDbEntity
  8
AM_4
100
AcDbLine
 10
-3.22647066668065
 20
-44.38903818816016
 30
0.0
 11
-3.84844114740037
 21
-44.38903818816016
 31
0.0
  0
LINE
  5
16C
330
F2
100
AcDbEntity
  8
AM_4
100
AcDbLine
 10
-3.84844114740037
 20
-44.38903818816016
 30
0.0
 11
-4.23717235368105
 21
-44.31503655816032
 31
0.0
  0
LINE
  5
16D
330
F2
100
AcDbEntity
  8
AM_4
100
AcDbLine
 10
-4.23717235368105
 20
-44.31503655816032
 30
0.0
 11
-4.5481578683615
 21
-44.16703329562021
 31
0.0
  0
LINE
  5
16E
330
F2
100
AcDbEntity
  8
AM_4
100
AcDbLine
 10
-4.5481578683615
 20
-44.16703329562021
 30
0.0
 11
-4.85914283440076
 21
-43.87102690769955
 31
0.0
  0
LINE
  5
16F
330
F2
100
AcDbEntity
  8
AM_4
100
AcDbLine
 10
-4.85914283440076
 20
-43.87102690769955
 30
0.0
 11
-5.01463531742041
 21
-43.57502038515976
 31
0.0
  0
LINE
  5
170
330
F2
100
AcDbEntity
  8
AM_4
100
AcDbLine
 10
-5.01463531742041
 20
-43.57502038515976
 30
0.0
 11
-5.09238155766042
 21
-43.2050122326201
 31
0.0
  0
LINE
  5
171
330
F2
100
AcDbEntity
  8
AM_4
100
AcDbLine
 10
0.5053509628790489
 20
-44.38903818816016
 30
0.0
 11
-1.36055991285969
 21
-44.38903818816016
 31
0.0
  0
LINE
  5
172
330
F2
100
AcDbEntity
  8
AM_4
100
AcDbLine
 10
-1.36055991285969
 20
-44.38903818816016
 30
0.0
 11
-1.36055991285969
 21
-40.91096181183984
 31
0.0
  0
LINE
  5
173
330
F2
100
AcDbEntity
  8
AM_4
100
AcDbLine
 10
-1.36055991285969
 20
-40.91096181183984
 30
0.0
 11
0.5053509628790491
 21
-40.91096181183984
 31
0.0
  0
LINE
  5
174
330
F2
100
AcDbEntity
  8
AM_4
100
AcDbLine
 10
0.5053509628790491
 20
-40.91096181183984
 30
0.0
 11
0.894082392679422
 21
-40.9849634443801
 31
0.0
  0
LINE
  5
175
330
F2
100
AcDbEntity
  8
AM_4
100
AcDbLine
 10
0.894082392679422
 20
-40.9849634443801
 30
0.0
 11
1.20506756445917
 21
-41.13296670437979
 31
0.0
  0
LINE
  5
176
330
F2
100
AcDbEntity
  8
AM_4
100
AcDbLine
 10
1.20506756445917
 20
-41.13296670437979
 30
0.0
 11
1.51605266766018
 21
-41.42897322946001
 31
0.0
  0
LINE
  5
177
330
F2
100
AcDbEntity
  8
AM_4
100
AcDbLine
 10
1.51605266766018
 20
-41.42897322946001
 30
0.0
 11
1.67154528783862
 21
-41.7249797519998
 31
0.0
  0
LINE
  5
178
330
F2
100
AcDbEntity
  8
AM_4
100
AcDbLine
 10
1.67154528783862
 20
-41.7249797519998
 30
0.0
 11
1.74929152807863
 21
-42.09498783849973
 31
0.0
  0
LINE
  5
179
330
F2
100
AcDbEntity
  8
AM_4
100
AcDbLine
 10
1.74929152807863
 20
-42.09498783849973
 30
0.0
 11
1.74929152807863
 21
-43.2050122326201
 31
0.0
  0
LINE
  5
17A
330
F2
100
AcDbEntity
  8
AM_4
100
AcDbLine
 10
1.74929152807863
 20
-43.2050122326201
 30
0.0
 11
1.67154528783862
 21
-43.57502038515976
 31
0.0
  0
LINE
  5
17B
330
F2
100
AcDbEntity
  8
AM_4
100
AcDbLine
 10
1.67154528783862
 20
-43.57502038515976
 30
0.0
 11
1.51605266766018
 21
-43.87102690769955
 31
0.0
  0
LINE
  5
17C
330
F2
100
AcDbEntity
  8
AM_4
100
AcDbLine
 10
1.51605266766018
 20
-43.87102690769955
 30
0.0
 11
1.20506756445917
 21
-44.16703329562021
 31
0.0
  0
LINE
  5
17D
330
F2
100
AcDbEntity
  8
AM_4
100
AcDbLine
 10
1.20506756445917
 20
-44.16703329562021
 30
0.0
 11
0.894082392679422
 21
-44.31503655816032
 31
0.0
  0
LINE
  5
17E
330
F2
100
AcDbEntity
  8
AM_4
100
AcDbLine
 10
0.894082392679422
 20
-44.31503655816032
 30
0.0
 11
0.5053509628790489
 21
-44.38903818816016
 31
0.0
  0
LINE
  5
17F
330
F2
100
AcDbEntity
  8
AM_4
100
AcDbLine
 10
2.37126187163949
 20
-43.2050122326201
 30
0.0
 11
2.37126187163949
 21
-42.09498783849973
 31
0.0
  0
LINE
  5
180
330
F2
100
AcDbEntity
  8
AM_4
100
AcDbLine
 10
2.37126187163949
 20
-42.09498783849973
 30
0.0
 11
2.44900811441914
 21
-41.7249797519998
 31
0.0
  0
LINE
  5
181
330
F2
100
AcDbEntity
  8
AM_4
100
AcDbLine
 10
2.44900811441914
 20
-41.7249797519998
 30
0.0
 11
2.604500734599072
 21
-41.42897322946
 31
0.0
  0
LINE
  5
182
330
F2
100
AcDbEntity
  8
AM_4
100
AcDbLine
 10
2.604500734599072
 20
-41.42897322946
 30
0.0
 11
2.91548570063981
 21
-41.13296670437979
 31
0.0
  0
LINE
  5
183
330
F2
100
AcDbEntity
  8
AM_4
100
AcDbLine
 10
4.31491886823864
 20
-40.91096181183984
 30
0.0
 11
4.70365035137962
 21
-40.9849634443801
 31
0.0
  0
LINE
  5
184
330
F2
100
AcDbEntity
  8
AM_4
100
AcDbLine
 10
4.70365035137962
 20
-40.9849634443801
 30
0.0
 11
5.01463531741888
 21
-41.13296670437979
 31
0.0
  0
LINE
  5
185
330
F2
100
AcDbEntity
  8
AM_4
100
AcDbLine
 10
5.01463531741888
 20
-41.13296670437979
 30
0.0
 11
5.32562082955962
 21
-41.42897322946001
 31
0.0
  0
LINE
  5
186
330
F2
100
AcDbEntity
  8
AM_4
100
AcDbLine
 10
5.32562082955962
 20
-41.42897322946001
 30
0.0
 11
5.40336707233928
 21
-41.79898138199966
 31
0.0
  0
LINE
  5
187
330
F2
100
AcDbEntity
  8
AM_4
100
AcDbLine
 10
5.40336707233928
 20
-41.79898138199966
 30
0.0
 11
4.93688907463922
 21
-41.79898138199966
 31
0.0
  0
LINE
  5
188
330
F2
100
AcDbEntity
  8
AM_4
100
AcDbLine
 10
4.93688907463922
 20
-41.79898138199966
 30
0.0
 11
4.85914283439928
 21
-41.57697648945971
 31
0.0
  0
LINE
  5
189
330
F2
100
AcDbEntity
  8
AM_4
100
AcDbLine
 10
4.85914283439928
 20
-41.57697648945971
 30
0.0
 11
4.62590410859849
 21
-41.42897322946001
 31
0.0
  0
LINE
  5
18A
330
F2
100
AcDbEntity
  8
AM_4
100
AcDbLine
 10
4.62590410859849
 20
-41.42897322946001
 30
0.0
 11
4.31491886823864
 21
-41.35497159691975
 31
0.0
  0
LINE
  5
18B
330
F2
100
AcDbEntity
  8
AM_4
100
AcDbLine
 10
4.31491886823864
 20
-41.35497159691975
 30
0.0
 11
3.61520242159952
 21
-41.35497159691975
 31
0.0
  0
LINE
  5
18C
330
F2
100
AcDbEntity
  8
AM_4
100
AcDbLine
 10
3.61520242159952
 20
-41.35497159691975
 30
0.0
 11
3.30421718123966
 21
-41.42897322946001
 31
0.0
  0
LINE
  5
18D
330
F2
100
AcDbEntity
  8
AM_4
100
AcDbLine
 10
3.30421718123966
 20
-41.42897322946001
 30
0.0
 11
3.07097845544035
 21
-41.57697648945971
 31
0.0
  0
LINE
  5
18E
330
F2
100
AcDbEntity
  8
AM_4
100
AcDbLine
 10
3.07097845544035
 20
-41.57697648945971
 30
0.0
 11
2.91548570063981
 21
-41.79898138199966
 31
0.0
  0
LINE
  5
18F
330
F2
100
AcDbEntity
  8
AM_4
100
AcDbLine
 10
2.91548570063981
 20
-41.79898138199966
 30
0.0
 11
2.83773945785873
 21
-42.09498783849973
 31
0.0
  0
LINE
  5
190
330
F2
100
AcDbEntity
  8
AM_4
100
AcDbLine
 10
2.83773945785873
 20
-42.09498783849973
 30
0.0
 11
2.83773945785873
 21
-43.2050122326201
 31
0.0
  0
LINE
  5
191
330
F2
100
AcDbEntity
  8
AM_4
100
AcDbLine
 10
2.83773945785873
 20
-43.2050122326201
 30
0.0
 11
2.91548570063981
 21
-43.5010187551599
 31
0.0
  0
LINE
  5
192
330
F2
100
AcDbEntity
  8
AM_4
100
AcDbLine
 10
2.91548570063981
 20
-43.5010187551599
 30
0.0
 11
3.07097845544035
 21
-43.72302357911972
 31
0.0
  0
LINE
  5
193
330
F2
100
AcDbEntity
  8
AM_4
100
AcDbLine
 10
3.07097845544035
 20
-43.72302357911972
 30
0.0
 11
3.30421718123966
 21
-43.87102690769955
 31
0.0
  0
LINE
  5
194
330
F2
100
AcDbEntity
  8
AM_4
100
AcDbLine
 10
3.30421718123966
 20
-43.87102690769955
 30
0.0
 11
3.61520242159952
 21
-43.94502854023981
 31
0.0
  0
LINE
  5
195
330
F2
100
AcDbEntity
  8
AM_4
100
AcDbLine
 10
3.61520242159952
 20
-43.94502854023981
 30
0.0
 11
4.31491886823864
 21
-43.94502854023981
 31
0.0
  0
LINE
  5
196
330
F2
100
AcDbEntity
  8
AM_4
100
AcDbLine
 10
4.31491886823864
 20
-43.94502854023981
 30
0.0
 11
4.62590410859849
 21
-43.87102690769955
 31
0.0
  0
LINE
  5
197
330
F2
100
AcDbEntity
  8
AM_4
100
AcDbLine
 10
4.62590410859849
 20
-43.87102690769955
 30
0.0
 11
4.85914283439928
 21
-43.72302357911972
 31
0.0
  0
LINE
  5
198
330
F2
100
AcDbEntity
  8
AM_4
100
AcDbLine
 10
4.85914283439928
 20
-43.72302357911972
 30
0.0
 11
4.93688907463922
 21
-43.5010187551599
 31
0.0
  0
LINE
  5
199
330
F2
100
AcDbEntity
  8
AM_4
100
AcDbLine
 10
4.93688907463922
 20
-43.5010187551599
 30
0.0
 11
4.93688907463922
 21
-42.90900572531984
 31
0.0
  0
LINE
  5
19A
330
F2
100
AcDbEntity
  8
AM_4
100
AcDbLine
 10
4.93688907463922
 20
-42.90900572531984
 30
0.0
 11
4.23717262799869
 21
-42.90900572531984
 31
0.0
  0
LINE
  5
19B
330
F2
100
AcDbEntity
  8
AM_4
100
AcDbLine
 10
4.23717262799869
 20
-42.90900572531984
 30
0.0
 11
4.23717262799869
 21
-42.46499597326015
 31
0.0
  0
LINE
  5
19C
330
F2
100
AcDbEntity
  8
AM_4
100
AcDbLine
 10
4.23717262799869
 20
-42.46499597326015
 30
0.0
 11
5.40336707233928
 21
-42.46499597326015
 31
0.0
  0
LINE
  5
19D
330
F2
100
AcDbEntity
  8
AM_4
100
AcDbLine
 10
5.40336707233928
 20
-42.46499597326015
 30
0.0
 11
5.40336707233928
 21
-43.57502038515976
 31
0.0
  0
LINE
  5
19E
330
F2
100
AcDbEntity
  8
AM_4
100
AcDbLine
 10
5.40336707233928
 20
-43.57502038515976
 30
0.0
 11
5.32562082955962
 21
-43.87102690769955
 31
0.0
  0
LINE
  5
19F
330
F2
100
AcDbEntity
  8
AM_4
100
AcDbLine
 10
5.32562082955962
 20
-43.87102690769955
 30
0.0
 11
5.01463531741888
 21
-44.16703329562021
 31
0.0
  0
LINE
  5
1A0
330
F2
100
AcDbEntity
  8
AM_4
100
AcDbLine
 10
5.01463531741888
 20
-44.16703329562021
 30
0.0
 11
4.70365035137962
 21
-44.31503655816032
 31
0.0
  0
LINE
  5
1A1
330
F2
100
AcDbEntity
  8
AM_4
100
AcDbLine
 10
4.70365035137962
 20
-44.31503655816032
 30
0.0
 11
4.31491886823864
 21
-44.38903818816016
 31
0.0
  0
LINE
  5
1A2
330
F2
100
AcDbEntity
  8
AM_4
100
AcDbLine
 10
4.31491886823864
 20
-44.38903818816016
 30
0.0
 11
3.61520242159952
 21
-44.38903818816016
 31
0.0
  0
LINE
  5
1A3
330
F2
100
AcDbEntity
  8
AM_4
100
AcDbLine
 10
3.22647094099966
 20
-44.31503655816032
 30
0.0
 11
2.91548570063981
 21
-44.16703329562021
 31
0.0
  0
LINE
  5
1A4
330
F2
100
AcDbEntity
  8
AM_4
100
AcDbLine
 10
2.91548570063981
 20
-44.16703329562021
 30
0.0
 11
2.60450073459907
 21
-43.87102690769955
 31
0.0
  0
LINE
  5
1A5
330
F2
100
AcDbEntity
  8
AM_4
100
AcDbLine
 10
2.60450073459907
 20
-43.87102690769955
 30
0.0
 11
2.44900811441914
 21
-43.57502038515976
 31
0.0
  0
LINE
  5
1A6
330
F2
100
AcDbEntity
  8
AM_4
100
AcDbLine
 10
2.44900811441914
 20
-43.57502038515976
 30
0.0
 11
2.37126187163949
 21
-43.2050122326201
 31
0.0
  0
LINE
  5
1A7
330
F2
100
AcDbEntity
  8
AM_4
100
AcDbLine
 10
8.82420334215954
 20
-44.38903818816016
 30
0.0
 11
6.02533700441932
 21
-44.38903818816016
 31
0.0
  0
LINE
  5
1A8
330
F2
100
AcDbEntity
  8
AM_4
100
AcDbLine
 10
6.02533700441932
 20
-44.38903818816016
 30
0.0
 11
6.025337004419321
 21
-40.91096181183984
 31
0.0
  0
LINE
  5
1A9
330
F2
100
AcDbEntity
  8
AM_4
100
AcDbLine
 10
6.025337004419321
 20
-40.91096181183984
 30
0.0
 11
8.82420334215954
 21
-40.91096181183984
 31
0.0
  0
LINE
  5
1AA
330
F2
100
AcDbEntity
  8
AM_4
100
AcDbLine
 10
8.82420334215954
 20
-40.91096181183984
 30
0.0
 11
8.82420334215954
 21
-41.35497159691975
 31
0.0
  0
LINE
  5
1AB
330
F2
100
AcDbEntity
  8
AM_4
100
AcDbLine
 10
8.82420334215954
 20
-41.35497159691975
 30
0.0
 11
6.49181499957973
 21
-41.35497159691975
 31
0.0
  0
LINE
  5
1AC
330
F2
100
AcDbEntity
  8
AM_4
100
AcDbLine
 10
6.49181499957973
 20
-41.35497159691975
 30
0.0
 11
6.49181499957973
 21
-42.31699273104041
 31
0.0
  0
LINE
  5
1AD
330
F2
100
AcDbEntity
  8
AM_4
100
AcDbLine
 10
6.49181499957973
 20
-42.31699273104041
 30
0.0
 11
8.51321837612022
 21
-42.31699273104041
 31
0.0
  0
LINE
  5
1AE
330
F2
100
AcDbEntity
  8
AM_4
100
AcDbLine
 10
8.51321837612022
 20
-42.31699273104041
 30
0.0
 11
8.51321837612022
 21
-42.76100248056041
 31
0.0
  0
LINE
  5
1AF
330
F2
100
AcDbEntity
  8
AM_4
100
AcDbLine
 10
8.51321837612022
 20
-42.76100248056041
 30
0.0
 11
6.49181499957973
 21
-42.76100248056041
 31
0.0
  0
LINE
  5
1B0
330
F2
100
AcDbEntity
  8
AM_4
100
AcDbLine
 10
6.49181499957973
 20
-42.76100248056041
 30
0.0
 11
6.49181499957973
 21
-43.94502854023981
 31
0.0
  0
LINE
  5
1B1
330
F2
100
AcDbEntity
  8
AM_4
100
AcDbLine
 10
6.49181499957973
 20
-43.94502854023981
 30
0.0
 11
8.82420334215954
 21
-43.94502854023981
 31
0.0
  0
LINE
  5
1B2
330
F2
100
AcDbEntity
  8
AM_4
100
AcDbLine
 10
8.82420334215954
 20
-43.94502854023981
 30
0.0
 11
8.82420334215954
 21
-44.38903818816016
 31
0.0
  0
LINE
  5
1B3
330
F2
100
AcDbEntity
  8
AM_4
100
AcDbLine
 10
7.999999999999998
 20
47.65
 30
0.0
 11
8.0
 21
34.77499355768332
 31
0.0
  0
LINE
  5
1B4
330
F2
100
AcDbEntity
  8
AM_4
100
AcDbLine
 10
-8.0
 20
34.77499355768332
 30
0.0
 11
-8.000000000000002
 21
47.65
 31
0.0
  0
ARC
  5
1B5
330
F2
100
AcDbEntity
  8
AM_4
100
AcDbCircle
 10
-37.08406589398363
 20
-11.8783692808238
 30
0.0
 40
2.540000000018479
100
AcDbArc
 50
325.0000000000247
 51
338.2493209046282
  0
ARC
  5
1B6
330
F2
100
AcDbEntity
  8
AM_4
100
AcDbCircle
 10
-11.87836928083346
 20
-37.08406589396792
 30
0.0
 40
2.54000000000007
100
AcDbArc
 50
111.7506790953063
 51
125.0000000000001
  0
ARC
  5
1B7
330
F2
100
AcDbEntity
  8
AM_4
100
AcDbCircle
 10
-34.9999999999997
 20
-35.00000000000008
 30
0.0
 40
12.7500000000003
100
AcDbArc
 50
157.8801748917435
 51
172.8192997250161
  0
ARC
  5
1B8
330
F2
100
AcDbEntity
  8
AM_4
100
AcDbCircle
 10
-35.00000000000001
 20
-34.99999999999996
 30
0.0
 40
12.75000000000005
100
AcDbArc
 50
277.180700274984
 51
317.8801748917433
  0
LINE
  5
1B9
330
F2
100
AcDbEntity
  8
AM_4
100
AcDbLine
 10
-13.33525342916516
 20
-35.00341970147382
 30
0.0
 11
-25.54276629550246
 21
-43.55121223327524
 31
0.0
  0
LINE
  5
1BA
330
F2
100
AcDbEntity
  8
AM_4
100
AcDbLine
 10
-46.8115795587971
 20
-30.19905339269364
 30
0.0
 11
-35.00341970147382
 21
-13.33525342916516
 31
0.0
  0
ARC
  5
1BB
330
F2
100
AcDbEntity
  8
AM_4
100
AcDbCircle
 10
-35.00000000000001
 20
-35.0
 30
0.0
 40
12.64999999999999
100
AcDbArc
 50
180.0
 51
270.0
  0
LINE
  5
1BC
330
F2
100
AcDbEntity
  8
AM_4
100
AcDbLine
 10
-47.65
 20
-35.00000000000002
 30
0.0
 11
-47.65
 21
35.00000000000001
 31
0.0
  0
CIRCLE
  5
1BD
330
F2
100
AcDbEntity
  8
AM_4
100
AcDbCircle
 10
-35.0
 20
-35.0
 30
0.0
 40
5.25
  0
ARC
  5
1BE
330
F2
100
AcDbEntity
  8
AM_4
100
AcDbCircle
 10
37.08406589398363
 20
11.8783692808238
 30
0.0
 40
2.540000000018479
100
AcDbArc
 50
145.0000000000247
 51
158.2493209046283
  0
ARC
  5
1BF
330
F2
100
AcDbEntity
  8
AM_4
100
AcDbCircle
 10
11.87836928083345
 20
37.08406589396793
 30
0.0
 40
2.540000000000085
100
AcDbArc
 50
291.7506790953063
 51
305.0
  0
ARC
  5
1C0
330
F2
100
AcDbEntity
  8
AM_4
100
AcDbCircle
 10
34.9999999999998
 20
35.00000000000005
 30
0.0
 40
12.7500000000002
100
AcDbArc
 50
337.8801748917436
 51
352.8192997250162
  0
ARC
  5
1C1
330
F2
100
AcDbEntity
  8
AM_4
100
AcDbCircle
 10
34.99999999999994
 20
35.00000000000011
 30
0.0
 40
12.74999999999988
100
AcDbArc
 50
97.1807002749834
 51
137.8801748917436
  0
LINE
  5
1C2
330
F2
100
AcDbEntity
  8
AM_4
100
AcDbLine
 10
13.33525342916516
 20
35.00341970147382
 30
0.0
 11
25.54276629550249
 21
43.55121223327524
 31
0.0
  0
LINE
  5
1C3
330
F2
100
AcDbEntity
  8
AM_4
100
AcDbLine
 10
46.81157955879711
 20
30.19905339269367
 30
0.0
 11
35.00341970147382
 21
13.33525342916517
 31
0.0
  0
LINE
  5
1C4
330
F2
100
AcDbEntity
  8
AM_4
100
AcDbLine
 10
47.65
 20
34.99999999999999
 30
0.0
 11
47.65
 21
-35.00000000000001
 31
0.0
  0
CIRCLE
  5
1C5
330
F2
100
AcDbEntity
  8
AM_4
100
AcDbCircle
 10
35.0
 20
35.0
 30
0.0
 40
5.25
  0
ARC
  5
1C6
330
F2
100
AcDbEntity
  8
AM_4
100
AcDbCircle
 10
35.00000000000001
 20
35.00000000000001
 30
0.0
 40
12.64999999999999
100
AcDbArc
 50
0.0
 51
90.0
  0
LINE
  5
1C7
330
F2
100
AcDbEntity
  8
AM_4
100
AcDbLine
 10
2.502394539260592
 20
47.65
 30
0.0
 11
35.00000000000002
 21
47.65
 31
0.0
  0
ARC
  5
1C8
330
F2
100
AcDbEntity
  8
AM_4
100
AcDbCircle
 10
-11.8783692808239
 20
37.08406589398346
 30
0.0
 40
2.540000000018287
100
AcDbArc
 50
235.0000000000244
 51
248.2493209046292
  0
ARC
  5
1C9
330
F2
100
AcDbEntity
  8
AM_4
100
AcDbCircle
 10
-37.08406589396792
 20
11.87836928083346
 30
0.0
 40
2.54000000000007
100
AcDbArc
 50
21.75067909530627
 51
35.00000000000009
  0
LINE
  5
1CA
330
F2
100
AcDbEntity
  8
AM_4
100
AcDbLine
 10
-30.19905339269365
 20
46.81157955879711
 30
0.0
 11
-13.33525342916516
 21
35.00341970147382
 31
0.0
  0
ARC
  5
1CB
330
F2
100
AcDbEntity
  8
AM_4
100
AcDbCircle
 10
-35.00000000000004
 20
34.99999999999998
 30
0.0
 40
12.74999999999995
100
AcDbArc
 50
187.1807002749834
 51
227.8801748917435
  0
ARC
  5
1CC
330
F2
100
AcDbEntity
  8
AM_4
100
AcDbCircle
 10
-35.00000000000011
 20
34.99999999999952
 30
0.0
 40
12.75000000000049
100
AcDbArc
 50
67.88017489174372
 51
82.81929972501611
  0
LINE
  5
1CD
330
F2
100
AcDbEntity
  8
AM_4
100
AcDbLine
 10
-35.00341970147382
 20
13.33525342916516
 30
0.0
 11
-43.55121223327522
 21
25.54276629550248
 31
0.0
  0
CIRCLE
  5
1CE
330
F2
100
AcDbEntity
  8
AM_4
100
AcDbCircle
 10
-35.0
 20
35.0
 30
0.0
 40
5.25
  0
LINE
  5
1CF
330
F2
100
AcDbEntity
  8
AM_4
100
AcDbLine
 10
-35.0
 20
47.65
 30
0.0
 11
-2.502394539260592
 21
47.65
 31
0.0
  0
ARC
  5
1D0
330
F2
100
AcDbEntity
  8
AM_4
100
AcDbCircle
 10
-35.00000000000001
 20
35.00000000000001
 30
0.0
 40
12.64999999999998
100
AcDbArc
 50
90.0
 51
180.0
  0
ARC
  5
1D1
330
F2
100
AcDbEntity
  8
AM_4
100
AcDbCircle
 10
11.8783692808238
 20
-37.08406589398363
 30
0.0
 40
2.54000000001848
100
AcDbArc
 50
55.00000000002463
 51
68.24932090462828
  0
ARC
  5
1D2
330
F2
100
AcDbEntity
  8
AM_4
100
AcDbCircle
 10
37.08406589396776
 20
-11.87836928083355
 30
0.0
 40
2.539999999999886
100
AcDbArc
 50
201.7506790953054
 51
215.0000000000004
  0
ARC
  5
1D3
330
F2
100
AcDbEntity
  8
AM_4
100
AcDbCircle
 10
34.99999999999996
 20
-34.99999999999999
 30
0.0
 40
12.75000000000001
100
AcDbArc
 50
7.180700274982747
 51
47.88017489174333
  0
LINE
  5
1D4
330
F2
100
AcDbEntity
  8
AM_4
100
AcDbLine
 10
30.19905339269364
 20
-46.8115795587971
 30
0.0
 11
13.33525342916516
 21
-35.00341970147382
 31
0.0
  0
LINE
  5
1D5
330
F2
100
AcDbEntity
  8
AM_4
100
AcDbLine
 10
35.00341970147382
 20
-13.33525342916516
 30
0.0
 11
43.55121223327522
 21
-25.54276629550247
 31
0.0
  0
ARC
  5
1D6
330
F2
100
AcDbEntity
  8
AM_4
100
AcDbCircle
 10
35.00000000000016
 20
-34.99999999999923
 30
0.0
 40
12.75000000000077
100
AcDbArc
 50
247.8801748917439
 51
262.8192997250163
  0
ARC
  5
1D7
330
F2
100
AcDbEntity
  8
AM_4
100
AcDbCircle
 10
35.00000000000001
 20
-35.00000000000001
 30
0.0
 40
12.64999999999998
100
AcDbArc
 50
270.0
 51
0.0
  0
CIRCLE
  5
1D8
330
F2
100
AcDbEntity
  8
AM_4
100
AcDbCircle
 10
35.0
 20
-35.0
 30
0.0
 40
5.25
  0
LINE
  5
1D9
330
F2
100
AcDbEntity
  8
AM_4
100
AcDbLine
 10
35.0
 20
-47.65
 30
0.0
 11
-35.00000000000002
 21
-47.65
 31
0.0
  0
ARC
  5
1DA
330
F2
100
AcDbEntity
  8
AM_4
100
AcDbCircle
 10
-0.0000000002269669
 20
0.0000000008332179
 30
0.0
 40
36.39999999913726
100
AcDbArc
 50
102.6961245772433
 51
107.7607429673221
  0
LWPOLYLINE
  5
1DB
330
F2
100
AcDbEntity
  8
AM_4
100
AcDbPolyline
 90
        5
 70
     0
 43
0.0
 10
-12.81961313405863
 20
34.72490078555194
 10
-12.30660712990803
 20
34.58042607470072
 10
-11.88499858957529
 20
34.54407454511141
 10
-11.44950903610053
 20
34.5805326126856
 10
-11.10356039605391
 20
34.66512579713484
  0
ARC
  5
1DC
330
F2
100
AcDbEntity
  8
AM_4
100
AcDbCircle
 10
-0.0000000000015739
 20
0.0000000000009877
 30
0.0
 40
37.01568877480528
100
AcDbArc
 50
110.2629549749255
 51
159.7370450250733
  0
LWPOLYLINE
  5
1DD
330
F2
100
AcDbEntity
  8
AM_4
100
AcDbPolyline
 90
        4
 70
     0
 43
0.0
 10
-34.66512579713483
 20
11.10356039605391
 10
-34.54574509704144
 20
11.78602464433073
 10
-34.6202945360249
 20
12.49597003842687
 10
-34.72490078555225
 20
12.81961313405878
  0
ARC
  5
1DE
330
F2
100
AcDbEntity
  8
AM_4
100
AcDbCircle
 10
-0.0000000000023448
 20
-0.000000000000008
 30
0.0
 40
36.39999999999777
100
AcDbArc
 50
162.2392570327366
 51
197.7607429672634
  0
LWPOLYLINE
  5
1DF
330
F2
100
AcDbEntity
  8
AM_4
100
AcDbPolyline
 90
        5
 70
     0
 43
0.0
 10
-34.72490078555194
 20
-12.81961313405864
 10
-34.58042607470072
 20
-12.30660712990803
 10
-34.54407454511141
 20
-11.8849985895753
 10
-34.58053261268559
 20
-11.44950903610053
 10
-34.66512579713484
 20
-11.10356039605391
  0
ARC
  5
1E0
330
F2
100
AcDbEntity
  8
AM_4
100
AcDbCircle
 10
-0.0000000000010836
 20
-0.0000000000016627
 30
0.0
 40
37.01568877480516
100
AcDbArc
 50
200.2629549749253
 51
249.7370450250734
  0
LWPOLYLINE
  5
1E1
330
F2
100
AcDbEntity
  8
AM_4
100
AcDbPolyline
 90
        4
 70
     0
 43
0.0
 10
-11.10356039605392
 20
-34.66512579713483
 10
-11.78602464433073
 20
-34.54574509704145
 10
-12.49597003842688
 20
-34.6202945360249
 10
-12.81961313405878
 20
-34.72490078555225
  0
ARC
  5
1E2
330
F2
100
AcDbEntity
  8
AM_4
100
AcDbCircle
 10
0.0
 20
-0.0000000000060822
 30
0.0
 40
36.39999999999421
100
AcDbArc
 50
252.2392570327348
 51
287.7607429672652
  0
LWPOLYLINE
  5
1E3
330
F2
100
AcDbEntity
  8
AM_4
100
AcDbPolyline
 90
        5
 70
     0
 43
0.0
 10
12.81961313405864
 20
-34.72490078555194
 10
12.30660712990803
 20
-34.58042607470072
 10
11.88499858957529
 20
-34.54407454511142
 10
11.44950903610052
 20
-34.5805326126856
 10
11.10356039605394
 20
-34.66512579713483
  0
ARC
  5
1E4
330
F2
100
AcDbEntity
  8
AM_4
100
AcDbCircle
 10
0.0000000000015987
 20
-0.0000000000010232
 30
0.0
 40
37.01568877480523
100
AcDbArc
 50
290.2629549749255
 51
339.7370450250733
  0
LWPOLYLINE
  5
1E5
330
F2
100
AcDbEntity
  8
AM_4
100
AcDbPolyline
 90
        4
 70
     0
 43
0.0
 10
34.66512579713483
 20
-11.10356039605392
 10
34.54574509704145
 20
-11.78602464433075
 10
34.62029453602492
 20
-12.49597003842693
 10
34.72490078555225
 20
-12.81961313405877
  0
ARC
  5
1E6
330
F2
100
AcDbEntity
  8
AM_4
100
AcDbCircle
 10
0.0000000000039861
 20
-0.0000000000000018
 30
0.0
 40
36.3999999999962
100
AcDbArc
 50
342.2392570327357
 51
17.76074296726423
  0
LWPOLYLINE
  5
1E7
330
F2
100
AcDbEntity
  8
AM_4
100
AcDbPolyline
 90
        5
 70
     0
 43
0.0
 10
34.72490078555194
 20
12.81961313405864
 10
34.58042607470072
 20
12.30660712990802
 10
34.54407454511141
 20
11.88499858957529
 10
34.5805326126856
 20
11.44950903610053
 10
34.66512579713483
 20
11.10356039605391
  0
ARC
  5
1E8
330
F2
100
AcDbEntity
  8
AM_4
100
AcDbCircle
 10
0.0000000000010125
 20
0.0000000000015916
 30
0.0
 40
37.01568877480526
100
AcDbArc
 50
20.26295497492548
 51
69.73704502507334
  0
LWPOLYLINE
  5
1E9
330
F2
100
AcDbEntity
  8
AM_4
100
AcDbPolyline
 90
        4
 70
     0
 43
0.0
 10
11.10356039605391
 20
34.66512579713483
 10
11.78602464433073
 20
34.54574509704145
 10
12.49597003842688
 20
34.6202945360249
 10
12.81961313405878
 20
34.72490078555225
  0
ARC
  5
1EA
330
F2
100
AcDbEntity
  8
AM_4
100
AcDbCircle
 10
0.0000000001019913
 20
0.000000000374321
 30
0.0
 40
36.39999999961241
100
AcDbArc
 50
72.23925703271088
 51
77.30387542272358
  0
LINE
  5
1EB
330
F2
100
AcDbEntity
  8
AM_4
100
AcDbLine
 10
4.0
 20
43.90000000000001
 30
0.0
 11
-4.0
 21
43.90000000000001
 31
0.0
  0
LINE
  5
1EC
330
F2
100
AcDbEntity
  8
AM_4
100
AcDbLine
 10
-4.618802153517007
 20
44.06580753730954
 30
0.0
 11
-4.0
 21
43.90000000000001
 31
0.0
  0
LINE
  5
1ED
330
F2
100
AcDbEntity
  8
AM_4
100
AcDbLine
 10
3.999999999999999
 20
46.90000000000001
 30
0.0
 11
-3.999999999999999
 21
46.90000000000001
 31
0.0
  0
LINE
  5
1EE
330
F2
100
AcDbEntity
  8
AM_4
100
AcDbLine
 10
-3.999999999999999
 20
46.90000000000001
 30
0.0
 11
-4.618802153517007
 21
46.73419246269048
 31
0.0
  0
LINE
  5
1EF
330
F2
100
AcDbEntity
  8
AM_4
100
AcDbLine
 10
4.0
 20
43.90000000000001
 30
0.0
 11
4.618802153517007
 21
44.06580753730954
 31
0.0
  0
LINE
  5
1F0
330
F2
100
AcDbEntity
  8
AM_4
100
AcDbLine
 10
4.618802153517007
 20
46.73419246269048
 30
0.0
 11
3.999999999999999
 21
46.90000000000001
 31
0.0
  0
LINE
  5
1F1
330
F2
100
AcDbEntity
  8
AM_4
100
AcDbLine
 10
1.661483519286549
 20
52.40000000000001
 30
0.0
 11
-1.661483519286549
 21
52.40000000000001
 31
0.0
  0
ARC
  5
1F2
330
F2
100
AcDbEntity
  8
AM_4
100
AcDbCircle
 10
-1.661483519286555
 20
51.90000000000002
 30
0.0
 40
0.4999999999999929
100
AcDbArc
 50
90.0
 51
158.1985905136493
  0
ARC
  5
1F3
330
F2
100
AcDbEntity
  8
AM_4
100
AcDbCircle
 10
1.661483519286555
 20
51.90000000000002
 30
0.0
 40
0.4999999999999954
100
AcDbArc
 50
21.80140948635068
 51
90.0
  0
LINE
  5
1F4
330
F2
100
AcDbEntity
  8
AM_4
100
AcDbLine
 10
-2.125721864729184
 20
52.08569533817706
 30
0.0
 11
-2.663890264528336
 21
50.74027433867912
 31
0.0
  0
LINE
  5
1F5
330
F2
100
AcDbEntity
  8
AM_4
100
AcDbLine
 10
2.663890264528336
 20
50.74027433867912
 30
0.0
 11
2.125721864729184
 21
52.08569533817706
 31
0.0
  0
LINE
  5
1F6
330
F2
100
AcDbEntity
  8
AM_4
100
AcDbLine
 10
2.125721864729184
 20
52.08569533817706
 30
0.0
 11
-2.125721864729184
 21
52.08569533817706
 31
0.0
  0
ARC
  5
1F7
330
F2
100
AcDbEntity
  8
AM_4
100
AcDbCircle
 10
-2.199651919085693
 20
50.55457900050208
 30
0.0
 40
0.500000000000009
100
AcDbArc
 50
158.1985905136499
 51
225.8429033931328
  0
ARC
  5
1F8
330
F2
100
AcDbEntity
  8
AM_4
100
AcDbCircle
 10
2.199651919085693
 20
50.55457900050208
 30
0.0
 40
0.5000000000000092
100
AcDbArc
 50
314.1570966068671
 51
21.80140948635003
  0
LINE
  5
1F9
330
F2
100
AcDbEntity
  8
AM_4
100
AcDbLine
 10
2.663890264528336
 20
50.74027433867912
 30
0.0
 11
-2.663890264528336
 21
50.74027433867912
 31
0.0
  0
ARC
  5
1FA
330
F2
100
AcDbEntity
  8
AM_4
100
AcDbCircle
 10
-3.806249999999989
 20
48.90000000000001
 30
0.0
 40
1.806249999999994
100
AcDbArc
 50
303.8550261282938
 51
45.84292243112858
  0
ARC
  5
1FB
330
F2
100
AcDbEntity
  8
AM_4
100
AcDbCircle
 10
3.806249999999989
 20
48.90000000000001
 30
0.0
 40
1.806249999999994
100
AcDbArc
 50
134.1570775688714
 51
236.1449738717062
  0
LINE
  5
1FC
330
F2
100
AcDbEntity
  8
AM_4
100
AcDbLine
 10
2.54796595951886
 20
50.19586277667448
 30
0.0
 11
-2.54796595951886
 21
50.19586277667448
 31
0.0
  0
LINE
  5
1FD
330
F2
100
AcDbEntity
  8
AM_4
100
AcDbLine
 10
-2.800000000000001
 20
43.90000000000001
 30
0.0
 11
-2.800000000000001
 21
43.4
 31
0.0
  0
LINE
  5
1FE
330
F2
100
AcDbEntity
  8
AM_4
100
AcDbLine
 10
2.800000000000001
 20
43.4
 30
0.0
 11
2.800000000000001
 21
43.90000000000001
 31
0.0
  0
LINE
  5
1FF
330
F2
100
AcDbEntity
  8
AM_4
100
AcDbLine
 10
-2.800000000000001
 20
47.40000000000001
 30
0.0
 11
-2.800000000000001
 21
46.90000000000001
 31
0.0
  0
LINE
  5
200
330
F2
100
AcDbEntity
  8
AM_4
100
AcDbLine
 10
2.800000000000001
 20
46.90000000000001
 30
0.0
 11
2.800000000000001
 21
47.40000000000001
 31
0.0
  0
LINE
  5
201
330
F2
100
AcDbEntity
  8
AM_4
100
AcDbLine
 10
2.800000000000001
 20
47.40000000000001
 30
0.0
 11
-2.800000000000001
 21
47.40000000000001
 31
0.0
  0
LWPOLYLINE
  5
202
330
F2
100
AcDbEntity
  8
AM_4
100
AcDbPolyline
 90
        3
 70
     0
 43
0.0
 10
-3.464101615137755
 20
46.90000000000001
 10
-4.041451884327381
 20
46.85623532278795
 10
-4.618802153517007
 20
46.73419246269048
  0
LINE
  5
203
330
F2
100
AcDbEntity
  8
AM_4
100
AcDbLine
 10
-4.618802153517007
 20
44.06580753730954
 30
0.0
 11
-4.618802153517007
 21
46.73419246269048
 31
0.0
  0
LWPOLYLINE
  5
204
330
F2
100
AcDbEntity
  8
AM_4
100
AcDbPolyline
 90
        3
 70
     0
 43
0.0
 10
-4.618802153517007
 20
44.06580753730954
 10
-4.044047806602318
 20
43.94415131336449
 10
-3.464101615137755
 20
43.90000000000001
  0
LWPOLYLINE
  5
205
330
F2
100
AcDbEntity
  8
AM_4
100
AcDbPolyline
 90
        3
 70
     0
 43
0.0
 10
-2.309401076758504
 20
46.73419246269048
 10
-2.884155423673191
 20
46.85584868663553
 10
-3.464101615137755
 20
46.90000000000001
  0
LWPOLYLINE
  5
206
330
F2
100
AcDbEntity
  8
AM_4
100
AcDbPolyline
 90
        3
 70
     0
 43
0.0
 10
-3.464101615137755
 20
43.90000000000001
 10
-2.88675134594813
 20
43.94376467721207
 10
-2.309401076758504
 20
44.06580753730954
  0
LWPOLYLINE
  5
207
330
F2
100
AcDbEntity
  8
AM_4
100
AcDbPolyline
 90
        3
 70
     0
 43
0.0
 10
4.618802153517007
 20
46.73419246269048
 10
4.04404780660232
 20
46.85584868663553
 10
3.464101615137754
 20
46.90000000000001
  0
LWPOLYLINE
  5
208
330
F2
100
AcDbEntity
  8
AM_4
100
AcDbPolyline
 90
        3
 70
     0
 43
0.0
 10
2.309401076758504
 20
44.06580753730954
 10
2.884155423673191
 20
43.94415131336449
 10
3.464101615137756
 20
43.90000000000001
  0
LWPOLYLINE
  5
209
330
F2
100
AcDbEntity
  8
AM_4
100
AcDbPolyline
 90
        3
 70
     0
 43
0.0
 10
3.464101615137756
 20
43.90000000000001
 10
4.041451884327381
 20
43.94376467721207
 10
4.618802153517007
 20
44.06580753730954
  0
LINE
  5
20A
330
F2
100
AcDbEntity
  8
AM_4
100
AcDbLine
 10
4.618802153517007
 20
44.06580753730954
 30
0.0
 11
4.618802153517007
 21
46.73419246269048
 31
0.0
  0
LWPOLYLINE
  5
20B
330
F2
100
AcDbEntity
  8
AM_4
100
AcDbPolyline
 90
        3
 70
     0
 43
0.0
 10
0.0
 20
46.90000000000001
 10
-1.750135008458433
 20
46.80189940231102
 10
-2.309401076758504
 20
46.73419246269048
  0
LINE
  5
20C
330
F2
100
AcDbEntity
  8
AM_4
100
AcDbLine
 10
-2.309401076758504
 20
44.06580753730954
 30
0.0
 11
-2.309401076758504
 21
46.73419246269048
 31
0.0
  0
LWPOLYLINE
  5
20D
330
F2
100
AcDbEntity
  8
AM_4
100
AcDbPolyline
 90
        3
 70
     0
 43
0.0
 10
-2.309401076758504
 20
44.06580753730954
 10
-1.750135008458431
 20
43.998100597689
 10
0.0
 20
43.90000000000001
  0
LWPOLYLINE
  5
20E
330
F2
100
AcDbEntity
  8
AM_4
100
AcDbPolyline
 90
        3
 70
     0
 43
0.0
 10
0.0
 20
43.90000000000001
 10
1.154700538379252
 20
43.94376467721207
 10
2.309401076758504
 20
44.06580753730954
  0
LINE
  5
20F
330
F2
100
AcDbEntity
  8
AM_4
100
AcDbLine
 10
2.309401076758504
 20
44.06580753730954
 30
0.0
 11
2.309401076758504
 21
46.73419246269048
 31
0.0
  0
LWPOLYLINE
  5
210
330
F2
100
AcDbEntity
  8
AM_4
100
AcDbPolyline
 90
        3
 70
     0
 43
0.0
 10
2.309401076758504
 20
46.73419246269048
 10
1.159892382929129
 20
46.85584868663553
 10
0.0
 20
46.90000000000001
  0
LWPOLYLINE
  5
211
330
F2
100
AcDbEntity
  8
AM_4
100
AcDbPolyline
 90
        3
 70
     0
 43
0.0
 10
3.464101615137754
 20
46.90000000000001
 10
2.886751345948129
 20
46.85623532278795
 10
2.309401076758504
 20
46.73419246269048
  0
ARC
  5
212
330
F2
100
AcDbEntity
  8
AM_4
100
AcDbCircle
 10
-0.0000000000000315
 20
0.0000000000000039
 30
0.0
 40
36.01629794778798
100
AcDbArc
 50
102.8336791072443
 51
77.16632089275564
  0
CIRCLE
  5
213
330
F2
100
AcDbEntity
  8
AM_4
100
AcDbCircle
 10
0.0
 20
0.0
 30
0.0
 40
26.0
  0
ARC
  5
214
330
F2
100
AcDbEntity
  8
AM_4
100
AcDbCircle
 10
0.0000000000019922
 20
0.0000000000002221
 30
0.0
 40
35.68211320305716
100
AcDbArc
 50
102.9549517388588
 51
77.04504826114633
  0
ARC
  5
215
330
F2
100
AcDbEntity
  8
AM_4
100
AcDbCircle
 10
0.0000000000000004
 20
0.0000000000000016
 30
0.0
 40
34.68272237603783
100
AcDbArc
 50
101.6439695152722
 51
78.35603048472778
  0
LINE
  5
216
330
F2
100
AcDbEntity
  8
AM_4
100
AcDbLine
 10
-8.0
 20
34.77499355768332
 30
0.0
 11
-7.999390827019096
 21
34.77388314572263
 31
0.0
  0
LINE
  5
217
330
F2
100
AcDbEntity
  8
AM_4
100
AcDbLine
 10
-7.999390827019096
 20
34.77388314572263
 30
0.0
 11
-7.0
 21
33.96897454168017
 31
0.0
  0
LINE
  5
218
330
F2
100
AcDbEntity
  8
AM_4
100
AcDbLine
 10
7.0
 20
33.96897454168017
 30
0.0
 11
7.999390827019989
 21
34.77388314572333
 31
0.0
  0
LINE
  5
219
330
F2
100
AcDbEntity
  8
AM_4
100
AcDbLine
 10
7.999390827019989
 20
34.77388314572333
 30
0.0
 11
8.0
 21
34.77499355768332
 31
0.0
  0
LINE
  5
21A
330
F2
100
AcDbEntity
  8
AM_4
100
AcDbLine
 10
-8.0
 20
43.4
 30
0.0
 11
8.0
 21
43.4
 31
0.0
  0
ENDBLK
  5
F5
330
F2
100
AcDbEntity
  8
0
100
AcDbBlockEnd
  0
ENDSEC
  0
SECTION
  2
ENTITIES
  0
INSERT
  5
6F
330
1F
100
AcDbEntity
  8
0
100
AcDbBlockReference
  2
1_129669_0
 10
0.0
 20
0.0
 30
0.0
  0
POINT
  5
21C
330
1F
100
AcDbEntity
  8
ConnectionPoints
100
AcDbPoint
 10
0.0000000000000016
 20
0.0
 30
15.1
  0
POINT
  5
21D
330
1F
100
AcDbEntity
  8
ConnectionPoints
100
AcDbPoint
 10
0.0000000000000016
 20
0.0
 30
2.399999999999999
  0
POINT
  5
21E
330
1F
100
AcDbEntity
  8
ConnectionPoints
100
AcDbPoint
 10
0.0
 20
0.0
 30
2.399999999999999
  0
ENDSEC
  0
SECTION
  2
OBJECTS
  0
DICTIONARY
  5
C
330
0
100
AcDbDictionary
281
     1
  3
ACAD_DETAILVIEWSTYLE
350
226
  3
ACAD_GROUP
350
D
  3
ACAD_LAYOUT
350
1A
  3
ACAD_MATERIAL
350
43
  3
ACAD_MLEADERSTYLE
350
6B
  3
ACAD_MLINESTYLE
350
17
  3
ACAD_PLOTSETTINGS
350
19
  3
ACAD_PLOTSTYLENAME
350
E
  3
ACAD_SCALELIST
350
47
  3
ACAD_SECTIONVIEWSTYLE
350
227
  3
ACAD_TABLESTYLE
350
69
  3
ACAD_VISUALSTYLE
350
2A
  3
ACDB_RECOMPOSE_DATA
350
223
  3
AcDbVariableDictionary
350
21F
  0
SUN
  5
6D
330
29
100
AcDbSun
 90
        1
290
     0
 63
     7
421
 16777215
 40
1.0
291
     1
 91
  2455826
 92
 54000000
292
     0
 70
     2
 71
   256
280
     1
  0
DICTIONARY
  5
226
102
{ACAD_REACTORS
330
C
102
}
330
C
100
AcDbDictionary
281
     1
  0
DICTIONARY
  5
D
102
{ACAD_REACTORS
330
C
102
}
330
C
100
AcDbDictionary
281
     1
  0
DICTIONARY
  5
1A
102
{ACAD_REACTORS
330
C
102
}
330
C
100
AcDbDictionary
281
     1
  3
Layout1
350
1E
  3
Layout2
350
26
  3
Model
350
22
  0
DICTIONARY
  5
43
102
{ACAD_REACTORS
330
C
102
}
330
C
100
AcDbDictionary
281
     1
  3
ByBlock
350
45
  3
ByLayer
350
44
  3
Global
350
46
  0
DICTIONARY
  5
6B
102
{ACAD_REACTORS
330
C
102
}
330
C
100
AcDbDictionary
281
     1
  3
Standard
350
6C
  0
DICTIONARY
  5
17
102
{ACAD_REACTORS
330
C
102
}
330
C
100
AcDbDictionary
281
     1
  3
Standard
350
18
  0
DICTIONARY
  5
19
102
{ACAD_REACTORS
330
C
102
}
330
C
100
AcDbDictionary
281
     1
  0
ACDBDICTIONARYWDFLT
  5
E
102
{ACAD_REACTORS
330
C
102
}
330
C
100
AcDbDictionary
281
     1
  3
Normal
350
F
100
AcDbDictionaryWithDefault
340
F
  0
DICTIONARY
  5
47
102
{ACAD_REACTORS
330
C
102
}
330
C
100
AcDbDictionary
281
     1
  3
A0
350
48
  3
A1
350
49
  3
A2
350
4A
  3
A3
350
4B
  3
A4
350
4C
  3
A5
350
4D
  3
A6
350
4E
  3
A7
350
4F
  3
A8
350
50
  3
A9
350
51
  3
B0
350
52
  3
B1
350
53
  3
B2
350
54
  3
B3
350
55
  3
B4
350
56
  3
B5
350
57
  3
B6
350
58
  3
B7
350
59
  3
B8
350
5A
  3
B9
350
5B
  3
C0
350
5C
  3
C1
350
5D
  3
C2
350
5E
  3
C3
350
5F
  3
C4
350
60
  3
C5
350
61
  3
C6
350
62
  3
C7
350
63
  3
C8
350
64
  3
C9
350
65
  3
D0
350
66
  3
D1
350
67
  3
D2
350
68
  0
DICTIONARY
  5
227
102
{ACAD_REACTORS
330
C
102
}
330
C
100
AcDbDictionary
281
     1
  0
DICTIONARY
  5
69
102
{ACAD_REACTORS
330
C
102
}
330
C
100
AcDbDictionary
281
     1
  3
Standard
350
6A
  0
DICTIONARY
  5
2A
102
{ACAD_REACTORS
330
C
102
}
330
C
100
AcDbDictionary
281
     1
  3
2dWireframe
350
2F
  3
Basic
350
32
  3
Brighten
350
36
  3
ColorChange
350
3A
  3
Conceptual
350
34
  3
Dim
350
35
  3
EdgeColorOff
350
3D
  3
Facepattern
350
39
  3
Flat
350
2B
  3
FlatWithEdges
350
2C
  3
Gouraud
350
2D
  3
GouraudWithEdges
350
2E
  3
Hidden
350
31
  3
JitterOff
350
3B
  3
Linepattern
350
38
  3
OverhangOff
350
3C
  3
Realistic
350
33
  3
Shaded
350
42
  3
Shaded with edges
350
41
  3
Shades of Gray
350
3E
  3
Sketchy
350
3F
  3
Thicken
350
37
  3
Wireframe
350
30
  3
X-Ray
350
40
  0
XRECORD
  5
223
102
{ACAD_REACTORS
330
C
102
}
330
C
100
AcDbXrecord
280
     1
 90
        1
330
6A
  0
DICTIONARY
  5
21F
102
{ACAD_REACTORS
330
C
102
}
330
C
100
AcDbDictionary
281
     1
  3
CANNOSCALE
350
220
  3
CMLEADERSTYLE
350
225
  3
CTABLESTYLE
350
224
  0
LAYOUT
  5
1E
102
{ACAD_REACTORS
330
1A
102
}
330
1A
100
AcDbPlotSettings
  1

  2
none_device
  4

  6

 40
0.0
 41
0.0
 42
0.0
 43
0.0
 44
0.0
 45
0.0
 46
0.0
 47
0.0
 48
0.0
 49
0.0
140
0.0
141
0.0
142
1.0
143
1.0
 70
   688
 72
     1
 73
     0
 74
     5
  7

 75
    16
 76
     0
 77
     2
 78
   300
147
1.0
148
0.0
149
0.0
100
AcDbLayout
  1
Layout1
 70
     1
 71
     1
 10
0.0
 20
0.0
 11
420.0
 21
297.0
 12
0.0
 22
0.0
 32
0.0
 14
1.000000000000000E+20
 24
1.000000000000000E+20
 34
1.000000000000000E+20
 15
-1.000000000000000E+20
 25
-1.000000000000000E+20
 35
-1.000000000000000E+20
146
0.0
 13
0.0
 23
0.0
 33
0.0
 16
1.0
 26
0.0
 36
0.0
 17
0.0
 27
1.0
 37
0.0
 76
     0
330
1B
  0
LAYOUT
  5
26
102
{ACAD_REACTORS
330
1A
102
}
330
1A
100
AcDbPlotSettings
  1

  2
none_device
  4

  6

 40
0.0
 41
0.0
 42
0.0
 43
0.0
 44
0.0
 45
0.0
 46
0.0
 47
0.0
 48
0.0
 49
0.0
140
0.0
141
0.0
142
1.0
143
1.0
 70
   688
 72
     1
 73
     0
 74
     5
  7

 75
    16
 76
     0
 77
     2
 78
   300
147
1.0
148
0.0
149
0.0
100
AcDbLayout
  1
Layout2
 70
     1
 71
     2
 10
0.0
 20
0.0
 11
0.0
 21
0.0
 12
0.0
 22
0.0
 32
0.0
 14
0.0
 24
0.0
 34
0.0
 15
0.0
 25
0.0
 35
0.0
146
0.0
 13
0.0
 23
0.0
 33
0.0
 16
1.0
 26
0.0
 36
0.0
 17
0.0
 27
1.0
 37
0.0
 76
     0
330
23
  0
LAYOUT
  5
22
102
{ACAD_REACTORS
330
1A
102
}
330
1A
100
AcDbPlotSettings
  1

  2
none_device
  4
Letter_(8.50_x_11.00_Inches)
  6

 40
6.35
 41
6.35
 42
6.35000508
 43
6.35000508
 44
215.9
 45
279.4
 46
0.0
 47
0.0
 48
0.0
 49
0.0
140
0.0
141
0.0
142
1.0
143
1.0
 70
  1712
 72
     1
 73
     0
 74
     0
  7

 75
     0
 76
     0
 77
     2
 78
   300
147
1.0
148
0.0
149
0.0
100
AcDbLayout
  1
Model
 70
     1
 71
     0
 10
0.0
 20
0.0
 11
420.0
 21
297.0
 12
0.0
 22
0.0
 32
0.0
 14
1.000000000000000E+20
 24
1.000000000000000E+20
 34
1.000000000000000E+20
 15
-1.000000000000000E+20
 25
-1.000000000000000E+20
 35
-1.000000000000000E+20
146
0.0
 13
0.0
 23
0.0
 33
0.0
 16
1.0
 26
0.0
 36
0.0
 17
0.0
 27
1.0
 37
0.0
 76
     0
330
1F
331
29
  0
MATERIAL
  5
45
102
{ACAD_REACTORS
330
43
102
}
330
43
100
AcDbMaterial
  1
ByBlock
 72
     1
 94
      127
  0
MATERIAL
  5
44
102
{ACAD_REACTORS
330
43
102
}
330
43
100
AcDbMaterial
  1
ByLayer
 72
     1
 94
      127
  0
MATERIAL
  5
46
102
{ACAD_REACTORS
330
43
102
}
330
43
100
AcDbMaterial
  1
Global
 72
     1
 94
      127
  0
MLEADERSTYLE
  5
6C
102
{ACAD_REACTORS
330
6B
102
}
330
6B
100
AcDbMLeaderStyle
179
     2
170
     2
171
     1
172
     0
 90
        2
 40
0.0
 41
0.0
173
     1
 91
-1056964608
340
14
 92
       -2
290
     1
 42
2.0
291
     1
 43
8.0
  3
Standard
341
0
 44
4.0
300

342
11
174
     1
178
     6
175
     1
176
     0
 93
-1056964608
 45
4.0
292
     0
297
     0
 46
4.0
343
0
 94
-1056964608
 47
1.0
 49
1.0
140
1.0
293
     1
141
0.0
294
     1
177
     0
142
1.0
295
     0
296
     0
143
3.75
271
     0
272
     9
273
     9
298
     0
  0
MLINESTYLE
  5
18
102
{ACAD_REACTORS
330
17
102
}
330
17
100
AcDbMlineStyle
  2
Standard
 70
     0
  3

 62
   256
 51
90.0
 52
90.0
 71
     2
 49
0.5
 62
   256
  6
BYLAYER
 49
-0.5
 62
   256
  6
BYLAYER
  0
ACDBPLACEHOLDER
  5
F
102
{ACAD_REACTORS
330
E
102
}
330
E
  0
SCALE
  5
48
102
{ACAD_REACTORS
330
47
102
}
330
47
100
AcDbScale
 70
     0
300
1:1
140
1.0
141
1.0
290
     1
  0
SCALE
  5
49
102
{ACAD_REACTORS
330
47
102
}
330
47
100
AcDbScale
 70
     0
300
1:2
140
1.0
141
2.0
290
     0
  0
SCALE
  5
4A
102
{ACAD_REACTORS
330
47
102
}
330
47
100
AcDbScale
 70
     0
300
1:4
140
1.0
141
4.0
290
     0
  0
SCALE
  5
4B
102
{ACAD_REACTORS
330
47
102
}
330
47
100
AcDbScale
 70
     0
300
1:5
140
1.0
141
5.0
290
     0
  0
SCALE
  5
4C
102
{ACAD_REACTORS
330
47
102
}
330
47
100
AcDbScale
 70
     0
300
1:8
140
1.0
141
8.0
290
     0
  0
SCALE
  5
4D
102
{ACAD_REACTORS
330
47
102
}
330
47
100
AcDbScale
 70
     0
300
1:10
140
1.0
141
10.0
290
     0
  0
SCALE
  5
4E
102
{ACAD_REACTORS
330
47
102
}
330
47
100
AcDbScale
 70
     0
300
1:16
140
1.0
141
16.0
290
     0
  0
SCALE
  5
4F
102
{ACAD_REACTORS
330
47
102
}
330
47
100
AcDbScale
 70
     0
300
1:20
140
1.0
141
20.0
290
     0
  0
SCALE
  5
50
102
{ACAD_REACTORS
330
47
102
}
330
47
100
AcDbScale
 70
     0
300
1:30
140
1.0
141
30.0
290
     0
  0
SCALE
  5
51
102
{ACAD_REACTORS
330
47
102
}
330
47
100
AcDbScale
 70
     0
300
1:40
140
1.0
141
40.0
290
     0
  0
SCALE
  5
52
102
{ACAD_REACTORS
330
47
102
}
330
47
100
AcDbScale
 70
     0
300
1:50
140
1.0
141
50.0
290
     0
  0
SCALE
  5
53
102
{ACAD_REACTORS
330
47
102
}
330
47
100
AcDbScale
 70
     0
300
1:100
140
1.0
141
100.0
290
     0
  0
SCALE
  5
54
102
{ACAD_REACTORS
330
47
102
}
330
47
100
AcDbScale
 70
     0
300
2:1
140
2.0
141
1.0
290
     0
  0
SCALE
  5
55
102
{ACAD_REACTORS
330
47
102
}
330
47
100
AcDbScale
 70
     0
300
4:1
140
4.0
141
1.0
290
     0
  0
SCALE
  5
56
102
{ACAD_REACTORS
330
47
102
}
330
47
100
AcDbScale
 70
     0
300
8:1
140
8.0
141
1.0
290
     0
  0
SCALE
  5
57
102
{ACAD_REACTORS
330
47
102
}
330
47
100
AcDbScale
 70
     0
300
10:1
140
10.0
141
1.0
290
     0
  0
SCALE
  5
58
102
{ACAD_REACTORS
330
47
102
}
330
47
100
AcDbScale
 70
     0
300
100:1
140
100.0
141
1.0
290
     0
  0
SCALE
  5
59
102
{ACAD_REACTORS
330
47
102
}
330
47
100
AcDbScale
 70
     0
300
1/128" = 1'-0"
140
0.0078125
141
12.0
290
     0
  0
SCALE
  5
5A
102
{ACAD_REACTORS
330
47
102
}
330
47
100
AcDbScale
 70
     0
300
1/64" = 1'-0"
140
0.015625
141
12.0
290
     0
  0
SCALE
  5
5B
102
{ACAD_REACTORS
330
47
102
}
330
47
100
AcDbScale
 70
     0
300
1/32" = 1'-0"
140
0.03125
141
12.0
290
     0
  0
SCALE
  5
5C
102
{ACAD_REACTORS
330
47
102
}
330
47
100
AcDbScale
 70
     0
300
1/16" = 1'-0"
140
0.0625
141
12.0
290
     0
  0
SCALE
  5
5D
102
{ACAD_REACTORS
330
47
102
}
330
47
100
AcDbScale
 70
     0
300
3/32" = 1'-0"
140
0.09375
141
12.0
290
     0
  0
SCALE
  5
5E
102
{ACAD_REACTORS
330
47
102
}
330
47
100
AcDbScale
 70
     0
300
1/8" = 1'-0"
140
0.125
141
12.0
290
     0
  0
SCALE
  5
5F
102
{ACAD_REACTORS
330
47
102
}
330
47
100
AcDbScale
 70
     0
300
3/16" = 1'-0"
140
0.1875
141
12.0
290
     0
  0
SCALE
  5
60
102
{ACAD_REACTORS
330
47
102
}
330
47
100
AcDbScale
 70
     0
300
1/4" = 1'-0"
140
0.25
141
12.0
290
     0
  0
SCALE
  5
61
102
{ACAD_REACTORS
330
47
102
}
330
47
100
AcDbScale
 70
     0
300
3/8" = 1'-0"
140
0.375
141
12.0
290
     0
  0
SCALE
  5
62
102
{ACAD_REACTORS
330
47
102
}
330
47
100
AcDbScale
 70
     0
300
1/2" = 1'-0"
140
0.5
141
12.0
290
     0
  0
SCALE
  5
63
102
{ACAD_REACTORS
330
47
102
}
330
47
100
AcDbScale
 70
     0
300
3/4" = 1'-0"
140
0.75
141
12.0
290
     0
  0
SCALE
  5
64
102
{ACAD_REACTORS
330
47
102
}
330
47
100
AcDbScale
 70
     0
300
1" = 1'-0"
140
1.0
141
12.0
290
     0
  0
SCALE
  5
65
102
{ACAD_REACTORS
330
47
102
}
330
47
100
AcDbScale
 70
     0
300
1-1/2" = 1'-0"
140
1.5
141
12.0
290
     0
  0
SCALE
  5
66
102
{ACAD_REACTORS
330
47
102
}
330
47
100
AcDbScale
 70
     0
300
3" = 1'-0"
140
3.0
141
12.0
290
     0
  0
SCALE
  5
67
102
{ACAD_REACTORS
330
47
102
}
330
47
100
AcDbScale
 70
     0
300
6" = 1'-0"
140
6.0
141
12.0
290
     0
  0
SCALE
  5
68
102
{ACAD_REACTORS
330
47
102
}
330
47
100
AcDbScale
 70
     0
300
1'-0" = 1'-0"
140
12.0
141
12.0
290
     0
  0
TABLESTYLE
  5
6A
102
{ACAD_REACTORS
330
69
102
}
102
{ACAD_XDICTIONARY
360
221
102
}
330
69
100
AcDbTableStyle
  3
Standard
 70
     0
 71
     0
 40
0.06
 41
0.06
280
     0
281
     0
  7
Standard
140
4.5
170
     2
 62
     0
 63
   257
283
     0
 90
        4
 91
        0
  1

274
    -2
284
     1
 64
     0
275
    -2
285
     1
 65
     0
276
    -2
286
     1
 66
     0
277
    -2
287
     1
 67
     0
278
    -2
288
     1
 68
     0
279
    -2
289
     1
 69
     0
  7
Standard
140
6.0
170
     5
 62
     0
 63
   257
283
     0
 90
        4
 91
        0
  1

274
    -2
284
     1
 64
     0
275
    -2
285
     1
 65
     0
276
    -2
286
     1
 66
     0
277
    -2
287
     1
 67
     0
278
    -2
288
     1
 68
     0
279
    -2
289
     1
 69
     0
  7
Standard
140
4.5
170
     5
 62
     0
 63
   257
283
     0
 90
        4
 91
        0
  1

274
    -2
284
     1
 64
     0
275
    -2
285
     1
 65
     0
276
    -2
286
     1
 66
     0
277
    -2
287
     1
 67
     0
278
    -2
288
     1
 68
     0
279
    -2
289
     1
 69
     0
  0
VISUALSTYLE
  5
2F
102
{ACAD_REACTORS
330
2A
102
}
330
2A
100
AcDbVisualStyle
  2
2dWireframe
 70
     4
177
     3
291
     0
 70
    58
 90
        0
176
     1
 90
        2
176
     1
 90
        0
176
     1
 90
        0
176
     1
 40
0.6
176
     1
 40
30.0
176
     1
 62
     7
420
 16777215
176
     1
 90
        1
176
     1
 90
        4
176
     1
 62
     7
176
     1
 62
   257
176
     1
 90
        1
176
     1
 90
        1
176
     1
 40
1.0
176
     1
 90
        0
176
     1
 62
   257
176
     1
 40
1.0
176
     1
 90
        1
176
     1
 90
        6
176
     1
 90
        2
176
     1
 62
     7
176
     1
 90
        5
176
     1
 90
        0
176
     1
 90
        0
176
     1
290
     0
176
     1
 90
        1
176
     1
 40
0.0
176
     1
 90
        0
176
     1
290
     1
176
     1
290
     1
176
     1
290
     0
176
     1
290
     0
176
     1
290
     0
176
     1
290
     0
176
     1
290
     0
176
     1
290
     0
176
     1
290
     0
176
     1
 90
       50
176
     1
 40
0.0
176
     1
 40
1.0
176
     1
 90
        0
176
     1
 62
    18
420
        0
176
     1
 90
       50
176
     1
 90
        3
176
     1
 62
     5
420
      255
176
     1
290
     0
176
     1
 90
       50
176
     1
 90
       50
176
     1
 90
       50
176
     1
290
     0
176
     1
 90
       50
176
     1
 62
   256
176
     0
 40
1.0
176
     0
 90
        2
176
     1
  1
strokes_ogs.tif
176
     1
290
     0
176
     1
 40
1.0
176
     1
 40
1.0
176
     1
  0
VISUALSTYLE
  5
32
102
{ACAD_REACTORS
330
2A
102
}
330
2A
100
AcDbVisualStyle
  2
Basic
 70
     7
177
     3
291
     1
 70
    58
 90
        1
176
     1
 90
        0
176
     1
 90
        1
176
     1
 90
        0
176
     1
 40
0.6
176
     1
 40
30.0
176
     1
 62
     7
420
 16777215
176
     1
 90
        0
176
     1
 90
        4
176
     1
 62
     7
176
     1
 62
   257
176
     1
 90
        1
176
     1
 90
        1
176
     1
 40
1.0
176
     1
 90
        8
176
     1
 62
     7
176
     1
 40
1.0
176
     1
 90
        1
176
     1
 90
        6
176
     1
 90
        2
176
     1
 62
     7
176
     1
 90
        5
176
     1
 90
        0
176
     1
 90
        0
176
     1
290
     0
176
     1
 90
        1
176
     1
 40
0.0
176
     1
 90
        0
176
     1
290
     0
176
     1
290
     1
176
     1
290
     1
176
     1
290
     0
176
     1
290
     0
176
     1
290
     0
176
     1
290
     0
176
     1
290
     0
176
     1
290
     0
176
     1
 90
       50
176
     1
 40
0.0
176
     1
 40
1.0
176
     1
 90
        0
176
     1
 62
    18
420
        0
176
     1
 90
       50
176
     1
 90
        3
176
     1
 62
     5
420
      255
176
     1
290
     0
176
     1
 90
       50
176
     1
 90
       50
176
     1
 90
       50
176
     1
290
     0
176
     1
 90
       50
176
     1
 62
   256
176
     0
 40
1.0
176
     0
 90
        2
176
     1
  1
strokes_ogs.tif
176
     1
290
     0
176
     1
 40
1.0
176
     1
 40
1.0
176
     1
  0
VISUALSTYLE
  5
36
102
{ACAD_REACTORS
330
2A
102
}
330
2A
100
AcDbVisualStyle
  2
Brighten
 70
    12
177
     3
291
     1
 70
    58
 90
        2
176
     1
 90
        2
176
     1
 90
        0
176
     1
 90
        0
176
     1
 40
0.6
176
     1
 40
30.0
176
     1
 62
     7
420
 16777215
176
     1
 90
        1
176
     1
 90
        4
176
     1
 62
     7
176
     1
 62
   257
176
     1
 90
        1
176
     1
 90
        1
176
     1
 40
1.0
176
     1
 90
        8
176
     1
 62
     7
176
     1
 40
1.0
176
     1
 90
        1
176
     1
 90
        6
176
     1
 90
        2
176
     1
 62
     7
176
     1
 90
        5
176
     1
 90
        0
176
     1
 90
        0
176
     1
290
     0
176
     1
 90
        1
176
     1
 40
50.0
176
     1
 90
        0
176
     1
290
     0
176
     1
290
     1
176
     1
290
     1
176
     1
290
     0
176
     1
290
     0
176
     1
290
     0
176
     1
290
     0
176
     1
290
     0
176
     1
290
     0
176
     1
 90
       50
176
     1
 40
0.0
176
     1
 40
1.0
176
     1
 90
        0
176
     1
 62
    18
420
        0
176
     1
 90
       50
176
     1
 90
        3
176
     1
 62
     5
420
      255
176
     1
290
     0
176
     1
 90
       50
176
     1
 90
       50
176
     1
 90
       50
176
     1
290
     0
176
     1
 90
       50
176
     1
 62
   256
176
     0
 40
1.0
176
     0
 90
        2
176
     1
  1
strokes_ogs.tif
176
     1
290
     0
176
     1
 40
1.0
176
     1
 40
1.0
176
     1
  0
VISUALSTYLE
  5
3A
102
{ACAD_REACTORS
330
2A
102
}
330
2A
100
AcDbVisualStyle
  2
ColorChange
 70
    16
177
     3
291
     1
 70
    58
 90
        2
176
     1
 90
        2
176
     1
 90
        3
176
     1
 90
        0
176
     1
 40
0.6
176
     1
 40
30.0
176
     1
 62
     8
420
  8421504
176
     1
 90
        1
176
     1
 90
        4
176
     1
 62
     7
176
     1
 62
   257
176
     1
 90
        1
176
     1
 90
        1
176
     1
 40
1.0
176
     1
 90
        8
176
     1
 62
     8
420
  8421504
176
     1
 40
1.0
176
     1
 90
        1
176
     1
 90
        6
176
     1
 90
        2
176
     1
 62
     7
176
     1
 90
        5
176
     1
 90
        0
176
     1
 90
        0
176
     1
290
     0
176
     1
 90
        1
176
     1
 40
0.0
176
     1
 90
        0
176
     1
290
     0
176
     1
290
     1
176
     1
290
     1
176
     1
290
     0
176
     1
290
     0
176
     1
290
     0
176
     1
290
     0
176
     1
290
     0
176
     1
290
     0
176
     1
 90
       50
176
     1
 40
0.0
176
     1
 40
1.0
176
     1
 90
        0
176
     1
 62
    18
420
        0
176
     1
 90
       50
176
     1
 90
        3
176
     1
 62
     5
420
      255
176
     1
290
     0
176
     1
 90
       50
176
     1
 90
       50
176
     1
 90
       50
176
     1
290
     0
176
     1
 90
       50
176
     1
 62
   256
176
     0
 40
1.0
176
     0
 90
        2
176
     1
  1
strokes_ogs.tif
176
     1
290
     0
176
     1
 40
1.0
176
     1
 40
1.0
176
     1
  0
VISUALSTYLE
  5
34
102
{ACAD_REACTORS
330
2A
102
}
330
2A
100
AcDbVisualStyle
  2
Conceptual
 70
     9
177
     3
291
     0
 70
    58
 90
        3
176
     1
 90
        2
176
     1
 90
        0
176
     1
 90
        0
176
     1
 40
0.6
176
     1
 40
30.0
176
     1
 62
     7
420
 16777215
176
     1
 90
        2
176
     1
 90
        2
176
     1
 62
     7
176
     1
 62
   257
176
     1
 90
        1
176
     1
 90
        1
176
     1
 40
179.0
176
     1
 90
        8
176
     1
 62
     7
176
     1
 40
1.0
176
     1
 90
        1
176
     1
 90
        6
176
     1
 90
        2
176
     1
 62
     7
176
     1
 90
        3
176
     1
 90
        0
176
     1
 90
        0
176
     1
290
     0
176
     1
 90
        1
176
     1
 40
0.0
176
     1
 90
        0
176
     1
290
     0
176
     1
290
     1
176
     1
290
     1
176
     1
290
     0
176
     1
290
     0
176
     1
290
     0
176
     1
290
     0
176
     1
290
     0
176
     1
290
     0
176
     1
 90
       50
176
     1
 40
0.0
176
     1
 40
1.0
176
     1
 90
        0
176
     1
 62
    18
420
        0
176
     1
 90
       50
176
     1
 90
        3
176
     1
 62
     5
420
      255
176
     1
290
     0
176
     1
 90
       50
176
     1
 90
       50
176
     1
 90
       50
176
     1
290
     0
176
     1
 90
       50
176
     1
 62
   256
176
     0
 40
1.0
176
     0
 90
        2
176
     1
  1
strokes_ogs.tif
176
     1
290
     0
176
     1
 40
1.0
176
     1
 40
1.0
176
     1
  0
VISUALSTYLE
  5
35
102
{ACAD_REACTORS
330
2A
102
}
330
2A
100
AcDbVisualStyle
  2
Dim
 70
    11
177
     3
291
     1
 70
    58
 90
        2
176
     1
 90
        2
176
     1
 90
        0
176
     1
 90
        0
176
     1
 40
0.6
176
     1
 40
30.0
176
     1
 62
     7
420
 16777215
176
     1
 90
        1
176
     1
 90
        4
176
     1
 62
     7
176
     1
 62
   257
176
     1
 90
        1
176
     1
 90
        1
176
     1
 40
1.0
176
     1
 90
        8
176
     1
 62
     7
176
     1
 40
1.0
176
     1
 90
        1
176
     1
 90
        6
176
     1
 90
        2
176
     1
 62
     7
176
     1
 90
        5
176
     1
 90
        0
176
     1
 90
        0
176
     1
290
     0
176
     1
 90
        1
176
     1
 40
-50.0
176
     1
 90
        0
176
     1
290
     0
176
     1
290
     1
176
     1
290
     1
176
     1
290
     0
176
     1
290
     0
176
     1
290
     0
176
     1
290
     0
176
     1
290
     0
176
     1
290
     0
176
     1
 90
       50
176
     1
 40
0.0
176
     1
 40
1.0
176
     1
 90
        0
176
     1
 62
    18
420
        0
176
     1
 90
       50
176
     1
 90
        3
176
     1
 62
     5
420
      255
176
     1
290
     0
176
     1
 90
       50
176
     1
 90
       50
176
     1
 90
       50
176
     1
290
     0
176
     1
 90
       50
176
     1
 62
   256
176
     0
 40
1.0
176
     0
 90
        2
176
     1
  1
strokes_ogs.tif
176
     1
290
     0
176
     1
 40
1.0
176
     1
 40
1.0
176
     1
  0
VISUALSTYLE
  5
3D
102
{ACAD_REACTORS
330
2A
102
}
330
2A
100
AcDbVisualStyle
  2
EdgeColorOff
 70
    22
177
     3
291
     1
 70
    58
 90
        2
176
     0
 90
        2
176
     0
 90
        0
176
     0
 90
        0
176
     0
 40
0.6
176
     0
 40
30.0
176
     0
 62
     7
420
 16777215
176
     0
 90
        1
176
     0
 90
        4
176
     0
 62
     7
176
     0
 62
   257
176
     0
 90
        1
176
     0
 90
        1
176
     0
 40
1.0
176
     0
 90
        8
176
     2
 62
     7
176
     0
 40
1.0
176
     0
 90
        1
176
     0
 90
        6
176
     0
 90
        2
176
     0
 62
     7
176
     0
 90
        5
176
     0
 90
        0
176
     0
 90
        0
176
     0
290
     0
176
     0
 90
        1
176
     0
 40
0.0
176
     0
 90
        0
176
     0
290
     0
176
     0
290
     1
176
     0
290
     1
176
     0
290
     0
176
     0
290
     0
176
     0
290
     0
176
     0
290
     0
176
     0
290
     0
176
     0
290
     0
176
     0
 90
       50
176
     0
 40
0.0
176
     0
 40
1.0
176
     0
 90
        0
176
     0
 62
    18
420
        0
176
     0
 90
       50
176
     0
 90
        3
176
     0
 62
     5
420
      255
176
     0
290
     0
176
     0
 90
       50
176
     0
 90
       50
176
     0
 90
       50
176
     0
290
     0
176
     0
 90
       50
176
     0
 62
   256
176
     0
 40
1.0
176
     0
 90
        2
176
     0
  1
strokes_ogs.tif
176
     0
290
     0
176
     0
 40
1.0
176
     0
 40
1.0
176
     0
  0
VISUALSTYLE
  5
39
102
{ACAD_REACTORS
330
2A
102
}
330
2A
100
AcDbVisualStyle
  2
Facepattern
 70
    15
177
     3
291
     1
 70
    58
 90
        2
176
     1
 90
        2
176
     1
 90
        0
176
     1
 90
        0
176
     1
 40
0.6
176
     1
 40
30.0
176
     1
 62
     7
420
 16777215
176
     1
 90
        1
176
     1
 90
        4
176
     1
 62
     7
176
     1
 62
   257
176
     1
 90
        1
176
     1
 90
        1
176
     1
 40
1.0
176
     1
 90
        8
176
     1
 62
     7
176
     1
 40
1.0
176
     1
 90
        1
176
     1
 90
        6
176
     1
 90
        2
176
     1
 62
     7
176
     1
 90
        5
176
     1
 90
        0
176
     1
 90
        0
176
     1
290
     0
176
     1
 90
        1
176
     1
 40
0.0
176
     1
 90
        0
176
     1
290
     0
176
     1
290
     1
176
     1
290
     1
176
     1
290
     0
176
     1
290
     0
176
     1
290
     0
176
     1
290
     0
176
     1
290
     0
176
     1
290
     0
176
     1
 90
       50
176
     1
 40
0.0
176
     1
 40
1.0
176
     1
 90
        0
176
     1
 62
    18
420
        0
176
     1
 90
       50
176
     1
 90
        3
176
     1
 62
     5
420
      255
176
     1
290
     0
176
     1
 90
       50
176
     1
 90
       50
176
     1
 90
       50
176
     1
290
     0
176
     1
 90
       50
176
     1
 62
   256
176
     0
 40
1.0
176
     0
 90
        2
176
     1
  1
strokes_ogs.tif
176
     1
290
     0
176
     1
 40
1.0
176
     1
 40
1.0
176
     1
  0
VISUALSTYLE
  5
2B
102
{ACAD_REACTORS
330
2A
102
}
330
2A
100
AcDbVisualStyle
  2
Flat
 70
     0
177
     3
291
     1
 70
    58
 90
        2
176
     1
 90
        1
176
     1
 90
        1
176
     1
 90
        2
176
     1
 40
0.6
176
     1
 40
30.0
176
     1
 62
     7
420
 16777215
176
     1
 90
        0
176
     1
 90
        0
176
     1
 62
     7
176
     1
 62
   257
176
     1
 90
        1
176
     1
 90
        1
176
     1
 40
1.0
176
     1
 90
        8
176
     1
 62
     7
176
     1
 40
1.0
176
     1
 90
        1
176
     1
 90
        6
176
     1
 90
        2
176
     1
 62
     7
176
     1
 90
        5
176
     1
 90
        0
176
     1
 90
        0
176
     1
290
     0
176
     1
 90
       13
176
     1
 40
0.0
176
     1
 90
        0
176
     1
290
     0
176
     1
290
     1
176
     1
290
     1
176
     1
290
     0
176
     1
290
     0
176
     1
290
     0
176
     1
290
     0
176
     1
290
     0
176
     1
290
     0
176
     1
 90
       50
176
     1
 40
0.0
176
     1
 40
1.0
176
     1
 90
        0
176
     1
 62
    18
420
        0
176
     1
 90
       50
176
     1
 90
        3
176
     1
 62
     5
420
      255
176
     1
290
     0
176
     1
 90
       50
176
     1
 90
       50
176
     1
 90
       50
176
     1
290
     0
176
     1
 90
       50
176
     1
 62
   256
176
     0
 40
1.0
176
     0
 90
        2
176
     1
  1
strokes_ogs.tif
176
     1
290
     0
176
     1
 40
1.0
176
     1
 40
1.0
176
     1
  0
VISUALSTYLE
  5
2C
102
{ACAD_REACTORS
330
2A
102
}
330
2A
100
AcDbVisualStyle
  2
FlatWithEdges
 70
     1
177
     3
291
     1
 70
    58
 90
        2
176
     1
 90
        1
176
     1
 90
        1
176
     1
 90
        2
176
     1
 40
0.6
176
     1
 40
30.0
176
     1
 62
     7
420
 16777215
176
     1
 90
        1
176
     1
 90
        0
176
     1
 62
     7
176
     1
 62
   257
176
     1
 90
        1
176
     1
 90
        1
176
     1
 40
1.0
176
     1
 90
        0
176
     1
 62
   257
176
     1
 40
1.0
176
     1
 90
        1
176
     1
 90
        6
176
     1
 90
        2
176
     1
 62
     7
176
     1
 90
        5
176
     1
 90
        0
176
     1
 90
        0
176
     1
290
     0
176
     1
 90
       13
176
     1
 40
0.0
176
     1
 90
        0
176
     1
290
     0
176
     1
290
     1
176
     1
290
     1
176
     1
290
     0
176
     1
290
     0
176
     1
290
     0
176
     1
290
     0
176
     1
290
     0
176
     1
290
     0
176
     1
 90
       50
176
     1
 40
0.0
176
     1
 40
1.0
176
     1
 90
        0
176
     1
 62
    18
420
        0
176
     1
 90
       50
176
     1
 90
        3
176
     1
 62
     5
420
      255
176
     1
290
     0
176
     1
 90
       50
176
     1
 90
       50
176
     1
 90
       50
176
     1
290
     0
176
     1
 90
       50
176
     1
 62
   256
176
     0
 40
1.0
176
     0
 90
        2
176
     1
  1
strokes_ogs.tif
176
     1
290
     0
176
     1
 40
1.0
176
     1
 40
1.0
176
     1
  0
VISUALSTYLE
  5
2D
102
{ACAD_REACTORS
330
2A
102
}
330
2A
100
AcDbVisualStyle
  2
Gouraud
 70
     2
177
     3
291
     1
 70
    58
 90
        2
176
     1
 90
        2
176
     1
 90
        1
176
     1
 90
        2
176
     1
 40
0.6
176
     1
 40
30.0
176
     1
 62
     7
420
 16777215
176
     1
 90
        0
176
     1
 90
        0
176
     1
 62
     7
176
     1
 62
   257
176
     1
 90
        1
176
     1
 90
        1
176
     1
 40
1.0
176
     1
 90
        0
176
     1
 62
     7
176
     1
 40
1.0
176
     1
 90
        1
176
     1
 90
        6
176
     1
 90
        2
176
     1
 62
     7
176
     1
 90
        5
176
     1
 90
        0
176
     1
 90
        0
176
     1
290
     0
176
     1
 90
       13
176
     1
 40
0.0
176
     1
 90
        0
176
     1
290
     0
176
     1
290
     1
176
     1
290
     1
176
     1
290
     0
176
     1
290
     0
176
     1
290
     0
176
     1
290
     0
176
     1
290
     0
176
     1
290
     0
176
     1
 90
       50
176
     1
 40
0.0
176
     1
 40
1.0
176
     1
 90
        0
176
     1
 62
    18
420
        0
176
     1
 90
       50
176
     1
 90
        3
176
     1
 62
     5
420
      255
176
     1
290
     0
176
     1
 90
       50
176
     1
 90
       50
176
     1
 90
       50
176
     1
290
     0
176
     1
 90
       50
176
     1
 62
   256
176
     0
 40
1.0
176
     0
 90
        2
176
     1
  1
strokes_ogs.tif
176
     1
290
     0
176
     1
 40
1.0
176
     1
 40
1.0
176
     1
  0
VISUALSTYLE
  5
2E
102
{ACAD_REACTORS
330
2A
102
}
330
2A
100
AcDbVisualStyle
  2
GouraudWithEdges
 70
     3
177
     3
291
     1
 70
    58
 90
        2
176
     1
 90
        2
176
     1
 90
        1
176
     1
 90
        2
176
     1
 40
0.6
176
     1
 40
30.0
176
     1
 62
     7
420
 16777215
176
     1
 90
        1
176
     1
 90
        0
176
     1
 62
     7
176
     1
 62
   257
176
     1
 90
        1
176
     1
 90
        1
176
     1
 40
1.0
176
     1
 90
        0
176
     1
 62
   257
176
     1
 40
1.0
176
     1
 90
        1
176
     1
 90
        6
176
     1
 90
        2
176
     1
 62
     7
176
     1
 90
        5
176
     1
 90
        0
176
     1
 90
        0
176
     1
290
     0
176
     1
 90
       13
176
     1
 40
0.0
176
     1
 90
        0
176
     1
290
     0
176
     1
290
     1
176
     1
290
     1
176
     1
290
     0
176
     1
290
     0
176
     1
290
     0
176
     1
290
     0
176
     1
290
     0
176
     1
290
     0
176
     1
 90
       50
176
     1
 40
0.0
176
     1
 40
1.0
176
     1
 90
        0
176
     1
 62
    18
420
        0
176
     1
 90
       50
176
     1
 90
        3
176
     1
 62
     5
420
      255
176
     1
290
     0
176
     1
 90
       50
176
     1
 90
       50
176
     1
 90
       50
176
     1
290
     0
176
     1
 90
       50
176
     1
 62
   256
176
     0
 40
1.0
176
     0
 90
        2
176
     1
  1
strokes_ogs.tif
176
     1
290
     0
176
     1
 40
1.0
176
     1
 40
1.0
176
     1
  0
VISUALSTYLE
  5
31
102
{ACAD_REACTORS
330
2A
102
}
330
2A
100
AcDbVisualStyle
  2
Hidden
 70
     6
177
     3
291
     0
 70
    58
 90
        1
176
     1
 90
        2
176
     1
 90
        2
176
     1
 90
        0
176
     1
 40
0.6
176
     1
 40
30.0
176
     1
 62
     7
420
 16777215
176
     1
 90
        2
176
     1
 90
        2
176
     1
 62
     7
176
     1
 62
   257
176
     1
 90
        2
176
     1
 90
        1
176
     1
 40
40.0
176
     1
 90
        0
176
     1
 62
   257
176
     1
 40
1.0
176
     1
 90
        1
176
     1
 90
        6
176
     1
 90
        2
176
     1
 62
     7
176
     1
 90
        3
176
     1
 90
        0
176
     1
 90
        0
176
     1
290
     0
176
     1
 90
        1
176
     1
 40
0.0
176
     1
 90
        0
176
     1
290
     0
176
     1
290
     1
176
     1
290
     1
176
     1
290
     0
176
     1
290
     0
176
     1
290
     0
176
     1
290
     0
176
     1
290
     0
176
     1
290
     0
176
     1
 90
       50
176
     1
 40
0.0
176
     1
 40
1.0
176
     1
 90
        0
176
     1
 62
    18
420
        0
176
     1
 90
       50
176
     1
 90
        3
176
     1
 62
     5
420
      255
176
     1
290
     0
176
     1
 90
       50
176
     1
 90
       50
176
     1
 90
       50
176
     1
290
     0
176
     1
 90
       50
176
     1
 62
   256
176
     0
 40
1.0
176
     0
 90
        2
176
     1
  1
strokes_ogs.tif
176
     1
290
     0
176
     1
 40
1.0
176
     1
 40
1.0
176
     1
  0
VISUALSTYLE
  5
3B
102
{ACAD_REACTORS
330
2A
102
}
330
2A
100
AcDbVisualStyle
  2
JitterOff
 70
    20
177
     3
291
     1
 70
    58
 90
        2
176
     0
 90
        2
176
     0
 90
        0
176
     0
 90
        0
176
     0
 40
0.6
176
     0
 40
30.0
176
     0
 62
     7
420
 16777215
176
     0
 90
        1
176
     0
 90
        4
176
     0
 62
     7
176
     0
 62
   257
176
     0
 90
        1
176
     0
 90
        1
176
     0
 40
1.0
176
     0
 90
       10
176
     2
 62
     7
176
     0
 40
1.0
176
     0
 90
        1
176
     0
 90
        6
176
     0
 90
        2
176
     0
 62
     7
176
     0
 90
        5
176
     0
 90
        0
176
     0
 90
        0
176
     0
290
     0
176
     0
 90
        1
176
     0
 40
0.0
176
     0
 90
        0
176
     0
290
     0
176
     0
290
     1
176
     0
290
     1
176
     0
290
     0
176
     0
290
     0
176
     0
290
     0
176
     0
290
     0
176
     0
290
     0
176
     0
290
     0
176
     0
 90
       50
176
     0
 40
0.0
176
     0
 40
1.0
176
     0
 90
        0
176
     0
 62
    18
420
        0
176
     0
 90
       50
176
     0
 90
        3
176
     0
 62
     5
420
      255
176
     0
290
     0
176
     0
 90
       50
176
     0
 90
       50
176
     0
 90
       50
176
     0
290
     0
176
     0
 90
       50
176
     0
 62
   256
176
     0
 40
1.0
176
     0
 90
        2
176
     0
  1
strokes_ogs.tif
176
     0
290
     0
176
     0
 40
1.0
176
     0
 40
1.0
176
     0
  0
VISUALSTYLE
  5
38
102
{ACAD_REACTORS
330
2A
102
}
330
2A
100
AcDbVisualStyle
  2
Linepattern
 70
    14
177
     3
291
     1
 70
    58
 90
        2
176
     1
 90
        2
176
     1
 90
        0
176
     1
 90
        0
176
     1
 40
0.6
176
     1
 40
30.0
176
     1
 62
     7
420
 16777215
176
     1
 90
        1
176
     1
 90
        4
176
     1
 62
     7
176
     1
 62
   257
176
     1
 90
        7
176
     1
 90
        7
176
     1
 40
1.0
176
     1
 90
        8
176
     1
 62
     7
176
     1
 40
1.0
176
     1
 90
        1
176
     1
 90
        6
176
     1
 90
        2
176
     1
 62
     7
176
     1
 90
        5
176
     1
 90
        0
176
     1
 90
        0
176
     1
290
     0
176
     1
 90
        1
176
     1
 40
0.0
176
     1
 90
        0
176
     1
290
     0
176
     1
290
     1
176
     1
290
     1
176
     1
290
     0
176
     1
290
     0
176
     1
290
     0
176
     1
290
     0
176
     1
290
     0
176
     1
290
     0
176
     1
 90
       50
176
     1
 40
0.0
176
     1
 40
1.0
176
     1
 90
        0
176
     1
 62
    18
420
        0
176
     1
 90
       50
176
     1
 90
        3
176
     1
 62
     5
420
      255
176
     1
290
     0
176
     1
 90
       50
176
     1
 90
       50
176
     1
 90
       50
176
     1
290
     0
176
     1
 90
       50
176
     1
 62
   256
176
     0
 40
1.0
176
     0
 90
        2
176
     1
  1
strokes_ogs.tif
176
     1
290
     0
176
     1
 40
1.0
176
     1
 40
1.0
176
     1
  0
VISUALSTYLE
  5
3C
102
{ACAD_REACTORS
330
2A
102
}
330
2A
100
AcDbVisualStyle
  2
OverhangOff
 70
    21
177
     3
291
     1
 70
    58
 90
        2
176
     0
 90
        2
176
     0
 90
        0
176
     0
 90
        0
176
     0
 40
0.6
176
     0
 40
30.0
176
     0
 62
     7
420
 16777215
176
     0
 90
        1
176
     0
 90
        4
176
     0
 62
     7
176
     0
 62
   257
176
     0
 90
        1
176
     0
 90
        1
176
     0
 40
1.0
176
     0
 90
        9
176
     2
 62
     7
176
     0
 40
1.0
176
     0
 90
        1
176
     0
 90
        6
176
     0
 90
        2
176
     0
 62
     7
176
     0
 90
        5
176
     0
 90
        0
176
     0
 90
        0
176
     0
290
     0
176
     0
 90
        1
176
     0
 40
0.0
176
     0
 90
        0
176
     0
290
     0
176
     0
290
     1
176
     0
290
     1
176
     0
290
     0
176
     0
290
     0
176
     0
290
     0
176
     0
290
     0
176
     0
290
     0
176
     0
290
     0
176
     0
 90
       50
176
     0
 40
0.0
176
     0
 40
1.0
176
     0
 90
        0
176
     0
 62
    18
420
        0
176
     0
 90
       50
176
     0
 90
        3
176
     0
 62
     5
420
      255
176
     0
290
     0
176
     0
 90
       50
176
     0
 90
       50
176
     0
 90
       50
176
     0
290
     0
176
     0
 90
       50
176
     0
 62
   256
176
     0
 40
1.0
176
     0
 90
        2
176
     0
  1
strokes_ogs.tif
176
     0
290
     0
176
     0
 40
1.0
176
     0
 40
1.0
176
     0
  0
VISUALSTYLE
  5
33
102
{ACAD_REACTORS
330
2A
102
}
330
2A
100
AcDbVisualStyle
  2
Realistic
 70
     8
177
     3
291
     0
 70
    58
 90
        2
176
     1
 90
        3
176
     1
 90
        0
176
     1
 90
        2
176
     1
 40
0.6
176
     1
 40
30.0
176
     1
 62
     7
420
 16777215
176
     1
 90
        0
176
     1
 90
        0
176
     1
 62
     7
176
     1
 62
   257
176
     1
 90
        1
176
     1
 90
        1
176
     1
 40
1.0
176
     1
 90
        8
176
     1
 62
   257
176
     1
 40
1.0
176
     1
 90
        1
176
     1
 90
        6
176
     1
 90
        2
176
     1
 62
     7
176
     1
 90
        3
176
     1
 90
        0
176
     1
 90
        0
176
     1
290
     0
176
     1
 90
       13
176
     1
 40
0.0
176
     1
 90
        0
176
     1
290
     0
176
     1
290
     1
176
     1
290
     1
176
     1
290
     0
176
     1
290
     0
176
     1
290
     0
176
     1
290
     0
176
     1
290
     0
176
     1
290
     0
176
     1
 90
       50
176
     1
 40
0.0
176
     1
 40
1.0
176
     1
 90
        0
176
     1
 62
    18
420
        0
176
     1
 90
       50
176
     1
 90
        3
176
     1
 62
     5
420
      255
176
     1
290
     0
176
     1
 90
       50
176
     1
 90
       50
176
     1
 90
       50
176
     1
290
     0
176
     1
 90
       50
176
     1
 62
   256
176
     0
 40
1.0
176
     0
 90
        2
176
     1
  1
strokes_ogs.tif
176
     1
290
     0
176
     1
 40
1.0
176
     1
 40
1.0
176
     1
  0
VISUALSTYLE
  5
42
102
{ACAD_REACTORS
330
2A
102
}
330
2A
100
AcDbVisualStyle
  2
Shaded
 70
    27
177
     3
291
     0
 70
    58
 90
        2
176
     1
 90
        2
176
     1
 90
        1
176
     1
 90
        2
176
     1
 40
0.6
176
     1
 40
30.0
176
     1
 62
     7
420
 16777215
176
     1
 90
        0
176
     1
 90
        4
176
     1
 62
     7
176
     1
 62
   257
176
     1
 90
        1
176
     1
 90
        1
176
     1
 40
1.0
176
     1
 90
        8
176
     1
 62
   257
176
     1
 40
1.0
176
     1
 90
        1
176
     1
 90
        6
176
     1
 90
        2
176
     1
 62
     8
420
  7895160
176
     1
 90
        3
176
     1
 90
        0
176
     1
 90
        0
176
     1
290
     0
176
     1
 90
        5
176
     1
 40
0.0
176
     1
 90
        0
176
     1
290
     0
176
     1
290
     1
176
     1
290
     1
176
     1
290
     0
176
     1
290
     0
176
     1
290
     0
176
     1
290
     0
176
     1
290
     0
176
     1
290
     0
176
     1
 90
       50
176
     1
 40
0.0
176
     1
 40
1.0
176
     1
 90
        0
176
     1
 62
    18
420
        0
176
     1
 90
       50
176
     1
 90
        3
176
     1
 62
     5
420
      255
176
     1
290
     0
176
     1
 90
       50
176
     1
 90
       50
176
     1
 90
       50
176
     1
290
     0
176
     1
 90
       50
176
     1
 62
   256
176
     0
 40
1.0
176
     0
 90
        2
176
     1
  1
strokes_ogs.tif
176
     1
290
     0
176
     1
 40
1.0
176
     1
 40
1.0
176
     1
  0
VISUALSTYLE
  5
41
102
{ACAD_REACTORS
330
2A
102
}
330
2A
100
AcDbVisualStyle
  2
Shaded with edges
 70
    26
177
     3
291
     0
 70
    58
 90
        2
176
     1
 90
        2
176
     1
 90
        1
176
     1
 90
        2
176
     1
 40
0.6
176
     1
 40
30.0
176
     1
 62
     7
420
 16777215
176
     1
 90
        1
176
     1
 90
       10
176
     1
 62
     7
176
     1
 62
   257
176
     1
 90
        2
176
     1
 90
        1
176
     1
 40
1.0
176
     1
 90
        8
176
     1
 62
   257
176
     1
 40
1.0
176
     1
 90
        1
176
     1
 90
        6
176
     1
 90
        2
176
     1
 62
     7
176
     1
 90
        3
176
     1
 90
        0
176
     1
 90
        0
176
     1
290
     0
176
     1
 90
        5
176
     1
 40
0.0
176
     1
 90
        0
176
     1
290
     0
176
     1
290
     1
176
     1
290
     1
176
     1
290
     0
176
     1
290
     0
176
     1
290
     0
176
     1
290
     0
176
     1
290
     0
176
     1
290
     0
176
     1
 90
       50
176
     1
 40
0.0
176
     1
 40
1.0
176
     1
 90
        0
176
     1
 62
    18
420
        0
176
     1
 90
       50
176
     1
 90
        3
176
     1
 62
     5
420
      255
176
     1
290
     0
176
     1
 90
       50
176
     1
 90
       50
176
     1
 90
       50
176
     1
290
     0
176
     1
 90
       50
176
     1
 62
   256
176
     0
 40
1.0
176
     0
 90
        2
176
     1
  1
strokes_ogs.tif
176
     1
290
     0
176
     1
 40
1.0
176
     1
 40
1.0
176
     1
  0
VISUALSTYLE
  5
3E
102
{ACAD_REACTORS
330
2A
102
}
330
2A
100
AcDbVisualStyle
  2
Shades of Gray
 70
    23
177
     3
291
     0
 70
    58
 90
        2
176
     1
 90
        2
176
     1
 90
        3
176
     1
 90
        0
176
     1
 40
0.6
176
     1
 40
30.0
176
     1
 62
     7
420
 16777215
176
     1
 90
        2
176
     1
 90
        2
176
     1
 62
     7
176
     1
 62
     7
176
     1
 90
        1
176
     1
 90
        1
176
     1
 40
40.0
176
     1
 90
        8
176
     1
 62
     7
176
     1
 40
1.0
176
     1
 90
        1
176
     1
 90
        6
176
     1
 90
        2
176
     1
 62
     7
176
     1
 90
        3
176
     1
 90
        0
176
     1
 90
        0
176
     1
290
     0
176
     1
 90
        1
176
     1
 40
0.0
176
     1
 90
        0
176
     1
290
     0
176
     1
290
     1
176
     1
290
     1
176
     1
290
     0
176
     1
290
     0
176
     1
290
     0
176
     1
290
     0
176
     1
290
     0
176
     1
290
     0
176
     1
 90
       50
176
     1
 40
0.0
176
     1
 40
1.0
176
     1
 90
        0
176
     1
 62
    18
420
        0
176
     1
 90
       50
176
     1
 90
        3
176
     1
 62
     5
420
      255
176
     1
290
     0
176
     1
 90
       50
176
     1
 90
       50
176
     1
 90
       50
176
     1
290
     0
176
     1
 90
       50
176
     1
 62
   256
176
     0
 40
1.0
176
     0
 90
        2
176
     1
  1
strokes_ogs.tif
176
     1
290
     0
176
     1
 40
1.0
176
     1
 40
1.0
176
     1
  0
VISUALSTYLE
  5
3F
102
{ACAD_REACTORS
330
2A
102
}
330
2A
100
AcDbVisualStyle
  2
Sketchy
 70
    24
177
     3
291
     0
 70
    58
 90
        1
176
     1
 90
        2
176
     1
 90
        2
176
     1
 90
        0
176
     1
 40
0.6
176
     1
 40
30.0
176
     1
 62
     7
420
 16777215
176
     1
 90
        2
176
     1
 90
        2
176
     1
 62
     7
176
     1
 62
     7
176
     1
 90
        1
176
     1
 90
        1
176
     1
 40
40.0
176
     1
 90
       11
176
     1
 62
     7
176
     1
 40
1.0
176
     1
 90
        1
176
     1
 90
        6
176
     1
 90
        2
176
     1
 62
     7
176
     1
 90
        6
176
     1
 90
        0
176
     1
 90
        0
176
     1
290
     0
176
     1
 90
        1
176
     1
 40
0.0
176
     1
 90
        0
176
     1
290
     0
176
     1
290
     1
176
     1
290
     1
176
     1
290
     0
176
     1
290
     0
176
     1
290
     0
176
     1
290
     0
176
     1
290
     0
176
     1
290
     0
176
     1
 90
       50
176
     1
 40
0.0
176
     1
 40
1.0
176
     1
 90
        0
176
     1
 62
    18
420
        0
176
     1
 90
       50
176
     1
 90
        3
176
     1
 62
     5
420
      255
176
     1
290
     0
176
     1
 90
       50
176
     1
 90
       50
176
     1
 90
       50
176
     1
290
     0
176
     1
 90
       50
176
     1
 62
   256
176
     0
 40
1.0
176
     0
 90
        2
176
     1
  1
strokes_ogs.tif
176
     1
290
     0
176
     1
 40
1.0
176
     1
 40
1.0
176
     1
  0
VISUALSTYLE
  5
37
102
{ACAD_REACTORS
330
2A
102
}
330
2A
100
AcDbVisualStyle
  2
Thicken
 70
    13
177
     3
291
     1
 70
    58
 90
        2
176
     1
 90
        2
176
     1
 90
        0
176
     1
 90
        0
176
     1
 40
0.6
176
     1
 40
30.0
176
     1
 62
     7
420
 16777215
176
     1
 90
        1
176
     1
 90
        4
176
     1
 62
     7
176
     1
 62
   257
176
     1
 90
        1
176
     1
 90
        1
176
     1
 40
1.0
176
     1
 90
       12
176
     1
 62
     7
176
     1
 40
1.0
176
     1
 90
        1
176
     1
 90
        6
176
     1
 90
        2
176
     1
 62
     7
176
     1
 90
        5
176
     1
 90
        0
176
     1
 90
        0
176
     1
290
     0
176
     1
 90
        1
176
     1
 40
0.0
176
     1
 90
        0
176
     1
290
     0
176
     1
290
     1
176
     1
290
     1
176
     1
290
     0
176
     1
290
     0
176
     1
290
     0
176
     1
290
     0
176
     1
290
     0
176
     1
290
     0
176
     1
 90
       50
176
     1
 40
0.0
176
     1
 40
1.0
176
     1
 90
        0
176
     1
 62
    18
420
        0
176
     1
 90
       50
176
     1
 90
        3
176
     1
 62
     5
420
      255
176
     1
290
     0
176
     1
 90
       50
176
     1
 90
       50
176
     1
 90
       50
176
     1
290
     0
176
     1
 90
       50
176
     1
 62
   256
176
     0
 40
1.0
176
     0
 90
        2
176
     1
  1
strokes_ogs.tif
176
     1
290
     0
176
     1
 40
1.0
176
     1
 40
1.0
176
     1
  0
VISUALSTYLE
  5
30
102
{ACAD_REACTORS
330
2A
102
}
330
2A
100
AcDbVisualStyle
  2
Wireframe
 70
     5
177
     3
291
     0
 70
    58
 90
        0
176
     1
 90
        2
176
     1
 90
        0
176
     1
 90
        0
176
     1
 40
0.6
176
     1
 40
30.0
176
     1
 62
     7
420
 16777215
176
     1
 90
        1
176
     1
 90
        4
176
     1
 62
     7
176
     1
 62
   257
176
     1
 90
        1
176
     1
 90
        1
176
     1
 40
1.0
176
     1
 90
        0
176
     1
 62
   257
176
     1
 40
1.0
176
     1
 90
        1
176
     1
 90
        6
176
     1
 90
        2
176
     1
 62
     7
176
     1
 90
        3
176
     1
 90
        0
176
     1
 90
        0
176
     1
290
     0
176
     1
 90
        1
176
     1
 40
0.0
176
     1
 90
        0
176
     1
290
     0
176
     1
290
     1
176
     1
290
     1
176
     1
290
     0
176
     1
290
     0
176
     1
290
     0
176
     1
290
     0
176
     1
290
     0
176
     1
290
     0
176
     1
 90
       50
176
     1
 40
0.0
176
     1
 40
1.0
176
     1
 90
        0
176
     1
 62
    18
420
        0
176
     1
 90
       50
176
     1
 90
        3
176
     1
 62
     5
420
      255
176
     1
290
     0
176
     1
 90
       50
176
     1
 90
       50
176
     1
 90
       50
176
     1
290
     0
176
     1
 90
       50
176
     1
 62
   256
176
     0
 40
1.0
176
     0
 90
        2
176
     1
  1
strokes_ogs.tif
176
     1
290
     0
176
     1
 40
1.0
176
     1
 40
1.0
176
     1
  0
VISUALSTYLE
  5
40
102
{ACAD_REACTORS
330
2A
102
}
330
2A
100
AcDbVisualStyle
  2
X-Ray
 70
    25
177
     3
291
     0
 70
    58
 90
        2
176
     1
 90
        2
176
     1
 90
        1
176
     1
 90
        1
176
     1
 40
0.5
176
     1
 40
30.0
176
     1
 62
     7
420
 16777215
176
     1
 90
        1
176
     1
 90
        0
176
     1
 62
     7
176
     1
 62
   257
176
     1
 90
        1
176
     1
 90
        1
176
     1
 40
1.0
176
     1
 90
        8
176
     1
 62
     7
176
     1
 40
1.0
176
     1
 90
        1
176
     1
 90
        6
176
     1
 90
        2
176
     1
 62
     7
176
     1
 90
        3
176
     1
 90
        0
176
     1
 90
        0
176
     1
290
     0
176
     1
 90
       13
176
     1
 40
0.0
176
     1
 90
        0
176
     1
290
     0
176
     1
290
     1
176
     1
290
     1
176
     1
290
     0
176
     1
290
     0
176
     1
290
     0
176
     1
290
     0
176
     1
290
     0
176
     1
290
     0
176
     1
 90
       50
176
     1
 40
0.0
176
     1
 40
1.0
176
     1
 90
        0
176
     1
 62
    18
420
        0
176
     1
 90
       50
176
     1
 90
        3
176
     1
 62
     5
420
      255
176
     1
290
     0
176
     1
 90
       50
176
     1
 90
       50
176
     1
 90
       50
176
     1
290
     0
176
     1
 90
       50
176
     1
 62
   256
176
     0
 40
1.0
176
     0
 90
        2
176
     1
  1
strokes_ogs.tif
176
     1
290
     0
176
     1
 40
1.0
176
     1
 40
1.0
176
     1
  0
DICTIONARYVAR
  5
220
102
{ACAD_REACTORS
330
21F
102
}
330
21F
100
DictionaryVariables
280
     0
  1
1:1
  0
DICTIONARYVAR
  5
225
102
{ACAD_REACTORS
330
21F
102
}
330
21F
100
DictionaryVariables
280
     0
  1
Standard
  0
DICTIONARYVAR
  5
224
102
{ACAD_REACTORS
330
21F
102
}
330
21F
100
DictionaryVariables
280
     0
  1
Standard
  0
DICTIONARY
  5
221
330
6A
100
AcDbDictionary
280
     1
281
     1
  3
ACAD_ROUNDTRIP_2008_TABLESTYLE_CELLSTYLEMAP
360
222
  0
CELLSTYLEMAP
  5
222
102
{ACAD_REACTORS
330
221
102
}
330
221
100
AcDbCellStyleMap
 90
        3
300
CELLSTYLE
  1
TABLEFORMAT_BEGIN
 90
        5
170
     1
 91
        0
 92
    32768
 62
   257
 93
        1
300
CONTENTFORMAT
  1
CONTENTFORMAT_BEGIN
 90
        0
 91
        0
 92
        4
 93
        0
300

 40
0.0
140
1.0
 94
        5
 62
     0
340
11
144
6.0
309
CONTENTFORMAT_END
171
     1
301
MARGIN
  1
CELLMARGIN_BEGIN
 40
1.5
 40
1.5
 40
1.5
 40
1.5
 40
1.5
 40
1.5
309
CELLMARGIN_END
 94
        6
 95
        1
302
GRIDFORMAT
  1
GRIDFORMAT_BEGIN
 90
        0
 91
        1
 62
     0
 92
       -2
340
14
 93
        0
 40
0.045
309
GRIDFORMAT_END
 95
        2
302
GRIDFORMAT
  1
GRIDFORMAT_BEGIN
 90
        0
 91
        1
 62
     0
 92
       -2
340
14
 93
        0
 40
0.045
309
GRIDFORMAT_END
 95
        4
302
GRIDFORMAT
  1
GRIDFORMAT_BEGIN
 90
        0
 91
        1
 62
     0
 92
       -2
340
14
 93
        0
 40
0.045
309
GRIDFORMAT_END
 95
        8
302
GRIDFORMAT
  1
GRIDFORMAT_BEGIN
 90
        0
 91
        1
 62
     0
 92
       -2
340
14
 93
        0
 40
0.045
309
GRIDFORMAT_END
 95
       16
302
GRIDFORMAT
  1
GRIDFORMAT_BEGIN
 90
        0
 91
        1
 62
     0
 92
       -2
340
14
 93
        0
 40
0.045
309
GRIDFORMAT_END
 95
       32
302
GRIDFORMAT
  1
GRIDFORMAT_BEGIN
 90
        0
 91
        1
 62
     0
 92
       -2
340
14
 93
        0
 40
0.045
309
GRIDFORMAT_END
309
TABLEFORMAT_END
  1
CELLSTYLE_BEGIN
 90
        1
 91
        1
300
_TITLE
309
CELLSTYLE_END
300
CELLSTYLE
  1
TABLEFORMAT_BEGIN
 90
        5
170
     1
 91
        0
 92
        0
 62
   257
 93
        1
300
CONTENTFORMAT
  1
CONTENTFORMAT_BEGIN
 90
        0
 91
        0
 92
        4
 93
        0
300

 40
0.0
140
1.0
 94
        5
 62
     0
340
11
144
4.5
309
CONTENTFORMAT_END
171
     1
301
MARGIN
  1
CELLMARGIN_BEGIN
 40
1.5
 40
1.5
 40
1.5
 40
1.5
 40
1.5
 40
1.5
309
CELLMARGIN_END
 94
        6
 95
        1
302
GRIDFORMAT
  1
GRIDFORMAT_BEGIN
 90
        0
 91
        1
 62
     0
 92
       -2
340
14
 93
        0
 40
0.045
309
GRIDFORMAT_END
 95
        2
302
GRIDFORMAT
  1
GRIDFORMAT_BEGIN
 90
        0
 91
        1
 62
     0
 92
       -2
340
14
 93
        0
 40
0.045
309
GRIDFORMAT_END
 95
        4
302
GRIDFORMAT
  1
GRIDFORMAT_BEGIN
 90
        0
 91
        1
 62
     0
 92
       -2
340
14
 93
        0
 40
0.045
309
GRIDFORMAT_END
 95
        8
302
GRIDFORMAT
  1
GRIDFORMAT_BEGIN
 90
        0
 91
        1
 62
     0
 92
       -2
340
14
 93
        0
 40
0.045
309
GRIDFORMAT_END
 95
       16
302
GRIDFORMAT
  1
GRIDFORMAT_BEGIN
 90
        0
 91
        1
 62
     0
 92
       -2
340
14
 93
        0
 40
0.045
309
GRIDFORMAT_END
 95
       32
302
GRIDFORMAT
  1
GRIDFORMAT_BEGIN
 90
        0
 91
        1
 62
     0
 92
       -2
340
14
 93
        0
 40
0.045
309
GRIDFORMAT_END
309
TABLEFORMAT_END
  1
CELLSTYLE_BEGIN
 90
        2
 91
        1
300
_HEADER
309
CELLSTYLE_END
300
CELLSTYLE
  1
TABLEFORMAT_BEGIN
 90
        5
170
     1
 91
        0
 92
        0
 62
   257
 93
        1
300
CONTENTFORMAT
  1
CONTENTFORMAT_BEGIN
 90
        0
 91
        0
 92
        4
 93
        0
300

 40
0.0
140
1.0
 94
        2
 62
     0
340
11
144
4.5
309
CONTENTFORMAT_END
171
     1
301
MARGIN
  1
CELLMARGIN_BEGIN
 40
1.5
 40
1.5
 40
1.5
 40
1.5
 40
1.5
 40
1.5
309
CELLMARGIN_END
 94
        6
 95
        1
302
GRIDFORMAT
  1
GRIDFORMAT_BEGIN
 90
        0
 91
        1
 62
     0
 92
       -2
340
14
 93
        0
 40
0.045
309
GRIDFORMAT_END
 95
        2
302
GRIDFORMAT
  1
GRIDFORMAT_BEGIN
 90
        0
 91
        1
 62
     0
 92
       -2
340
14
 93
        0
 40
0.045
309
GRIDFORMAT_END
 95
        4
302
GRIDFORMAT
  1
GRIDFORMAT_BEGIN
 90
        0
 91
        1
 62
     0
 92
       -2
340
14
 93
        0
 40
0.045
309
GRIDFORMAT_END
 95
        8
302
GRIDFORMAT
  1
GRIDFORMAT_BEGIN
 90
        0
 91
        1
 62
     0
 92
       -2
340
14
 93
        0
 40
0.045
309
GRIDFORMAT_END
 95
       16
302
GRIDFORMAT
  1
GRIDFORMAT_BEGIN
 90
        0
 91
        1
 62
     0
 92
       -2
340
14
 93
        0
 40
0.045
309
GRIDFORMAT_END
 95
       32
302
GRIDFORMAT
  1
GRIDFORMAT_BEGIN
 90
        0
 91
        1
 62
     0
 92
       -2
340
14
 93
        0
 40
0.045
309
GRIDFORMAT_END
309
TABLEFORMAT_END
  1
CELLSTYLE_BEGIN
 90
        3
 91
        2
300
_DATA
309
CELLSTYLE_END
  0
ENDSEC
  0
EOF