0
SECTION
  2
HEADER
  9
$ACADVER
  1
AC1027
  9
$ACADMAINTVER
 70
   105
  9
$DWGCODEPAGE
  3
ANSI_1252
  9
$REQUIREDVERSIONS
160
                 0
  9
$COMMENTS
  1
File was created by Cadenas
  9
$CUSTOMPROPERTYTAG
  1
NN
  9
$CUSTOMPROPERTY
  1
Grip Tight Air-handling Four-Bolt Flange
  9
$CUSTOMPROPERTYTAG
  1
NT
  9
$CUSTOMPROPERTY
  1
GTAH Air Handling Normal Duty 4 Bolt Flange Bearings
  9
$CUSTOMPROPERTYTAG
  1
NB
  9
$CUSTOMPROPERTY
  1
129666
  9
$CUSTOMPROPERTYTAG
  1
NBSYN
  9
$CUSTOMPROPERTY
  1
$PN.$LUBE.
  9
$CUSTOMPROPERTYTAG
  1
LINA
  9
$CUSTOMPROPERTY
  1
129666
  9
$CUSTOMPROPERTYTAG
  1
SERIES
  9
$CUSTOMPROPERTY
  1
215
  9
$CUSTOMPROPERTYTAG
  1
SS
  9
$CUSTOMPROPERTY
  1
2-15/16
  9
$CUSTOMPROPERTYTAG
  1
PN
  9
$CUSTOMPROPERTY
  1
129666
  9
$CUSTOMPROPERTYTAG
  1
DESCRIPTION
  9
$CUSTOMPROPERTY
  1
F4B-GTAH-215
  9
$CUSTOMPROPERTYTAG
  1
A
  9
$CUSTOMPROPERTY
  1
2-9/16
  9
$CUSTOMPROPERTYTAG
  1
B
  9
$CUSTOMPROPERTY
  1
7-3/4
  9
$CUSTOMPROPERTYTAG
  1
C
  9
$CUSTOMPROPERTY
  1
3-3/32
  9
$CUSTOMPROPERTYTAG
  1
D
  9
$CUSTOMPROPERTY
  1
6
  9
$CUSTOMPROPERTYTAG
  1
F
  9
$CUSTOMPROPERTY
  1
3/4
  9
$CUSTOMPROPERTYTAG
  1
H
  9
$CUSTOMPROPERTY
  1
1
  9
$CUSTOMPROPERTYTAG
  1
J
  9
$CUSTOMPROPERTY
  1
51/64
  9
$CUSTOMPROPERTYTAG
  1
L
  9
$CUSTOMPROPERTY
  1
4-1/4
  9
$CUSTOMPROPERTYTAG
  1
N
  9
$CUSTOMPROPERTY
  1
3-7/8
  9
$CUSTOMPROPERTYTAG
  1
Z
  9
$CUSTOMPROPERTY
  1
3-3/64
  9
$CUSTOMPROPERTYTAG
  1
COMPANY
  9
$CUSTOMPROPERTY
  1
baldor
  9
$INSBASE
 10
0.0
 20
0.0
 30
0.0
  9
$EXTMIN
 10
1.000000000000000E+20
 20
1.000000000000000E+20
 30
1.000000000000000E+20
  9
$EXTMAX
 10
-1.000000000000000E+20
 20
-1.000000000000000E+20
 30
-1.000000000000000E+20
  9
$LIMMIN
 10
0.0
 20
0.0
  9
$LIMMAX
 10
12.0
 20
9.0
  9
$ORTHOMODE
 70
     0
  9
$REGENMODE
 70
     1
  9
$FILLMODE
 70
     1
  9
$QTEXTMODE
 70
     0
  9
$MIRRTEXT
 70
     1
  9
$LTSCALE
 40
1.0
  9
$ATTMODE
 70
     1
  9
$TEXTSIZE
 40
0.2
  9
$TRACEWID
 40
0.05
  9
$TEXTSTYLE
  7
Standard
  9
$CLAYER
  8
0
  9
$CELTYPE
  6
ByLayer
  9
$CECOLOR
 62
   256
  9
$CELTSCALE
 40
1.0
  9
$DISPSILH
 70
     0
  9
$DIMSCALE
 40
1.0
  9
$DIMASZ
 40
0.18
  9
$DIMEXO
 40
0.0625
  9
$DIMDLI
 40
0.38
  9
$DIMRND
 40
0.0
  9
$DIMDLE
 40
0.0
  9
$DIMEXE
 40
0.18
  9
$DIMTP
 40
0.0
  9
$DIMTM
 40
0.0
  9
$DIMTXT
 40
0.18
  9
$DIMCEN
 40
0.09
  9
$DIMTSZ
 40
0.0
  9
$DIMTOL
 70
     0
  9
$DIMLIM
 70
     0
  9
$DIMTIH
 70
     1
  9
$DIMTOH
 70
     1
  9
$DIMSE1
 70
     0
  9
$DIMSE2
 70
     0
  9
$DIMTAD
 70
     0
  9
$DIMZIN
 70
     0
  9
$DIMBLK
  1

  9
$DIMASO
 70
     1
  9
$DIMSHO
 70
     1
  9
$DIMPOST
  1

  9
$DIMAPOST
  1

  9
$DIMALT
 70
     0
  9
$DIMALTD
 70
     2
  9
$DIMALTF
 40
25.4
  9
$DIMLFAC
 40
1.0
  9
$DIMTOFL
 70
     0
  9
$DIMTVP
 40
0.0
  9
$DIMTIX
 70
     0
  9
$DIMSOXD
 70
     0
  9
$DIMSAH
 70
     0
  9
$DIMBLK1
  1

  9
$DIMBLK2
  1

  9
$DIMSTYLE
  2
Standard
  9
$DIMCLRD
 70
     0
  9
$DIMCLRE
 70
     0
  9
$DIMCLRT
 70
     0
  9
$DIMTFAC
 40
1.0
  9
$DIMGAP
 40
0.09
  9
$DIMJUST
 70
     0
  9
$DIMSD1
 70
     0
  9
$DIMSD2
 70
     0
  9
$DIMTOLJ
 70
     1
  9
$DIMTZIN
 70
     0
  9
$DIMALTZ
 70
     0
  9
$DIMALTTZ
 70
     0
  9
$DIMUPT
 70
     0
  9
$DIMDEC
 70
     4
  9
$DIMTDEC
 70
     4
  9
$DIMALTU
 70
     2
  9
$DIMALTTD
 70
     2
  9
$DIMTXSTY
  7
Standard
  9
$DIMAUNIT
 70
     0
  9
$DIMADEC
 70
     0
  9
$DIMALTRND
 40
0.0
  9
$DIMAZIN
 70
     0
  9
$DIMDSEP
 70
    46
  9
$DIMATFIT
 70
     3
  9
$DIMFRAC
 70
     0
  9
$DIMLDRBLK
  1

  9
$DIMLUNIT
 70
     2
  9
$DIMLWD
 70
    -2
  9
$DIMLWE
 70
    -2
  9
$DIMTMOVE
 70
     0
  9
$DIMFXL
 40
1.0
  9
$DIMFXLON
 70
     0
  9
$DIMJOGANG
 40
0.7853981633974483
  9
$DIMTFILL
 70
     0
  9
$DIMTFILLCLR
 70
     0
  9
$DIMARCSYM
 70
     0
  9
$DIMLTYPE
  6

  9
$DIMLTEX1
  6

  9
$DIMLTEX2
  6

  9
$DIMTXTDIRECTION
 70
     0
  9
$LUNITS
 70
     2
  9
$LUPREC
 70
     4
  9
$SKETCHINC
 40
0.1
  9
$FILLETRAD
 40
0.5
  9
$AUNITS
 70
     0
  9
$AUPREC
 70
     0
  9
$MENU
  1
.
  9
$ELEVATION
 40
0.0
  9
$PELEVATION
 40
0.0
  9
$THICKNESS
 40
0.0
  9
$LIMCHECK
 70
     0
  9
$CHAMFERA
 40
0.0
  9
$CHAMFERB
 40
0.0
  9
$CHAMFERC
 40
0.0
  9
$CHAMFERD
 40
0.0
  9
$SKPOLY
 70
     0
  9
$TDCREATE
 40
2458168.964640474
  9
$TDUCREATE
 40
2458168.922973808
  9
$TDUPDATE
 40
2458168.96464066
  9
$TDUUPDATE
 40
2458168.922973993
  9
$TDINDWG
 40
0.0000000116
  9
$TDUSRTIMER
 40
0.0000000116
  9
$USRTIMER
 70
     1
  9
$ANGBASE
 50
0.0
  9
$ANGDIR
 70
     0
  9
$PDMODE
 70
     0
  9
$PDSIZE
 40
0.0
  9
$PLINEWID
 40
0.0
  9
$SPLFRAME
 70
     0
  9
$SPLINETYPE
 70
     6
  9
$SPLINESEGS
 70
     8
  9
$HANDSEED
  5
1F2
  9
$SURFTAB1
 70
     6
  9
$SURFTAB2
 70
     6
  9
$SURFTYPE
 70
     6
  9
$SURFU
 70
     6
  9
$SURFV
 70
     6
  9
$UCSBASE
  2

  9
$UCSNAME
  2

  9
$UCSORG
 10
0.0
 20
0.0
 30
0.0
  9
$UCSXDIR
 10
1.0
 20
0.0
 30
0.0
  9
$UCSYDIR
 10
0.0
 20
1.0
 30
0.0
  9
$UCSORTHOREF
  2

  9
$UCSORTHOVIEW
 70
     0
  9
$UCSORGTOP
 10
0.0
 20
0.0
 30
0.0
  9
$UCSORGBOTTOM
 10
0.0
 20
0.0
 30
0.0
  9
$UCSORGLEFT
 10
0.0
 20
0.0
 30
0.0
  9
$UCSORGRIGHT
 10
0.0
 20
0.0
 30
0.0
  9
$UCSORGFRONT
 10
0.0
 20
0.0
 30
0.0
  9
$UCSORGBACK
 10
0.0
 20
0.0
 30
0.0
  9
$PUCSBASE
  2

  9
$PUCSNAME
  2

  9
$PUCSORG
 10
0.0
 20
0.0
 30
0.0
  9
$PUCSXDIR
 10
1.0
 20
0.0
 30
0.0
  9
$PUCSYDIR
 10
0.0
 20
1.0
 30
0.0
  9
$PUCSORTHOREF
  2

  9
$PUCSORTHOVIEW
 70
     0
  9
$PUCSORGTOP
 10
0.0
 20
0.0
 30
0.0
  9
$PUCSORGBOTTOM
 10
0.0
 20
0.0
 30
0.0
  9
$PUCSORGLEFT
 10
0.0
 20
0.0
 30
0.0
  9
$PUCSORGRIGHT
 10
0.0
 20
0.0
 30
0.0
  9
$PUCSORGFRONT
 10
0.0
 20
0.0
 30
0.0
  9
$PUCSORGBACK
 10
0.0
 20
0.0
 30
0.0
  9
$USERI1
 70
     0
  9
$USERI2
 70
     0
  9
$USERI3
 70
     0
  9
$USERI4
 70
     0
  9
$USERI5
 70
     0
  9
$USERR1
 40
0.0
  9
$USERR2
 40
0.0
  9
$USERR3
 40
0.0
  9
$USERR4
 40
0.0
  9
$USERR5
 40
0.0
  9
$WORLDVIEW
 70
     1
  9
$SHADEDGE
 70
     3
  9
$SHADEDIF
 70
    70
  9
$TILEMODE
 70
     1
  9
$MAXACTVP
 70
    64
  9
$PINSBASE
 10
0.0
 20
0.0
 30
0.0
  9
$PLIMCHECK
 70
     0
  9
$PEXTMIN
 10
1.000000000000000E+20
 20
1.000000000000000E+20
 30
1.000000000000000E+20
  9
$PEXTMAX
 10
-1.000000000000000E+20
 20
-1.000000000000000E+20
 30
-1.000000000000000E+20
  9
$PLIMMIN
 10
0.0
 20
0.0
  9
$PLIMMAX
 10
12.0
 20
9.0
  9
$UNITMODE
 70
     0
  9
$VISRETAIN
 70
     1
  9
$PLINEGEN
 70
     0
  9
$PSLTSCALE
 70
     1
  9
$TREEDEPTH
 70
  3020
  9
$CMLSTYLE
  2
Standard
  9
$CMLJUST
 70
     0
  9
$CMLSCALE
 40
1.0
  9
$PROXYGRAPHICS
 70
     1
  9
$MEASUREMENT
 70
     0
  9
$CELWEIGHT
370
    -1
  9
$ENDCAPS
280
     0
  9
$JOINSTYLE
280
     0
  9
$LWDISPLAY
290
     0
  9
$INSUNITS
 70
     1
  9
$HYPERLINKBASE
  1

  9
$STYLESHEET
  1

  9
$XEDIT
290
     1
  9
$CEPSNTYPE
380
     0
  9
$PSTYLEMODE
290
     1
  9
$FINGERPRINTGUID
  2
{0A8D6160-6AEF-4DC9-9FC5-E7A6573FF9CF}
  9
$VERSIONGUID
  2
{FAEB1C32-E019-11D5-929B-00C0DF256EC4}
  9
$EXTNAMES
290
     1
  9
$PSVPSCALE
 40
0.0
  9
$OLESTARTUP
290
     0
  9
$SORTENTS
280
   127
  9
$INDEXCTL
280
     0
  9
$HIDETEXT
280
     1
  9
$XCLIPFRAME
280
     2
  9
$HALOGAP
280
     0
  9
$OBSCOLOR
 70
   257
  9
$OBSLTYPE
280
     0
  9
$INTERSECTIONDISPLAY
280
     0
  9
$INTERSECTIONCOLOR
 70
   257
  9
$DIMASSOC
280
     2
  9
$PROJECTNAME
  1

  9
$CAMERADISPLAY
290
     0
  9
$LENSLENGTH
 40
50.0
  9
$CAMERAHEIGHT
 40
0.0
  9
$STEPSPERSEC
 40
2.0
  9
$STEPSIZE
 40
6.0
  9
$3DDWFPREC
 40
2.0
  9
$PSOLWIDTH
 40
0.25
  9
$PSOLHEIGHT
 40
4.0
  9
$LOFTANG1
 40
1.570796326794897
  9
$LOFTANG2
 40
1.570796326794897
  9
$LOFTMAG1
 40
0.0
  9
$LOFTMAG2
 40
0.0
  9
$LOFTPARAM
 70
     7
  9
$LOFTNORMALS
280
     1
  9
$LATITUDE
 40
37.795
  9
$LONGITUDE
 40
-122.394
  9
$NORTHDIRECTION
 40
0.0
  9
$TIMEZONE
 70
 -8000
  9
$LIGHTGLYPHDISPLAY
280
     1
  9
$TILEMODELIGHTSYNCH
280
     1
  9
$CMATERIAL
347
44
  9
$SOLIDHIST
280
     0
  9
$SHOWHIST
280
     1
  9
$DWFFRAME
280
     2
  9
$DGNFRAME
280
     2
  9
$REALWORLDSCALE
290
     1
  9
$INTERFERECOLOR
 62
   256
  9
$CSHADOW
280
     0
  9
$SHADOWPLANELOCATION
 40
0.0
  0
ENDSEC
  0
SECTION
  2
CLASSES
  0
CLASS
  1
ACDBDICTIONARYWDFLT
  2
AcDbDictionaryWithDefault
  3
ObjectDBX Classes
 90
        0
 91
        4
280
     0
281
     0
  0
CLASS
  1
VISUALSTYLE
  2
AcDbVisualStyle
  3
ObjectDBX Classes
 90
     4095
 91
        4
280
     0
281
     0
  0
CLASS
  1
MATERIAL
  2
AcDbMaterial
  3
ObjectDBX Classes
 90
     1153
 91
        4
280
     0
281
     0
  0
CLASS
  1
SCALE
  2
AcDbScale
  3
ObjectDBX Classes
 90
     1153
 91
        4
280
     0
281
     0
  0
CLASS
  1
TABLESTYLE
  2
AcDbTableStyle
  3
ObjectDBX Classes
 90
     4095
 91
        4
280
     0
281
     0
  0
CLASS
  1
MLEADERSTYLE
  2
AcDbMLeaderStyle
  3
ACDB_MLEADERSTYLE_CLASS
 90
     4095
 91
        4
280
     0
281
     0
  0
CLASS
  1
SUN
  2
AcDbSun
  3
SCENEOE
 90
     1153
 91
        4
280
     0
281
     0
  0
CLASS
  1
DICTIONARYVAR
  2
AcDbDictionaryVar
  3
ObjectDBX Classes
 90
        0
 91
        4
280
     0
281
     0
  0
CLASS
  1
CELLSTYLEMAP
  2
AcDbCellStyleMap
  3
ObjectDBX Classes
 90
     1152
 91
        4
280
     0
281
     0
  0
ENDSEC
  0
SECTION
  2
TABLES
  0
TABLE
  2
VPORT
  5
8
330
0
100
AcDbSymbolTable
 70
     1
  0
VPORT
  5
29
330
8
100
AcDbSymbolTableRecord
100
AcDbViewportTableRecord
  2
*Active
 70
     0
 10
0.0
 20
0.0
 11
1.0
 21
1.0
 12
4.821428571428571
 22
-2.137500000000001
 13
0.0
 23
0.0
 14
0.5
 24
0.5
 15
0.5
 25
0.5
 16
0.0
 26
0.0
 36
1.0
 17
0.0
 27
0.0
 37
0.0
 40
10.2
 41
1.739285714285715
 42
50.0
 43
0.0
 44
0.0
 50
0.0
 51
0.0
 71
     0
 72
   100
 73
     1
 74
     3
 75
     0
 76
     0
 77
     0
 78
     0
281
     0
 65
     1
110
0.0
120
0.0
130
0.0
111
1.0
121
0.0
131
0.0
112
0.0
122
1.0
132
0.0
 79
     0
146
0.0
348
2F
 60
     3
 61
     5
292
     1
282
     1
141
0.0
142
0.0
 63
   250
361
6D
  0
ENDTAB
  0
TABLE
  2
LTYPE
  5
5
330
0
100
AcDbSymbolTable
 70
     3
  0
LTYPE
  5
14
330
5
100
AcDbSymbolTableRecord
100
AcDbLinetypeTableRecord
  2
ByBlock
 70
     0
  3

 72
    65
 73
     0
 40
0.0
  0
LTYPE
  5
15
330
5
100
AcDbSymbolTableRecord
100
AcDbLinetypeTableRecord
  2
ByLayer
 70
     0
  3

 72
    65
 73
     0
 40
0.0
  0
LTYPE
  5
16
330
5
100
AcDbSymbolTableRecord
100
AcDbLinetypeTableRecord
  2
Continuous
 70
     0
  3
Solid line
 72
    65
 73
     0
 40
0.0
  0
LTYPE
  5
99
330
5
100
AcDbSymbolTableRecord
100
AcDbLinetypeTableRecord
  2
Dashed
 70
     0
  3

 72
    65
 73
     2
 40
2.0
 49
1.0
 74
     0
 49
-1.0
 74
     0
  0
LTYPE
  5
10A
330
5
100
AcDbSymbolTableRecord
100
AcDbLinetypeTableRecord
  2
Center
 70
     0
  3

 72
    65
 73
     4
 40
1.5
 49
0.45
 74
     0
 49
-0.5
 74
     0
 49
0.05
 74
     0
 49
-0.5
 74
     0
  0
ENDTAB
  0
TABLE
  2
LAYER
  5
2
330
0
100
AcDbSymbolTable
 70
     8
  0
LAYER
  5
10
330
2
100
AcDbSymbolTableRecord
100
AcDbLayerTableRecord
  2
0
 70
     0
 62
     7
  6
Continuous
370
    -3
390
F
347
46
348
0
  0
LAYER
  5
6E
330
2
100
AcDbSymbolTableRecord
100
AcDbLayerTableRecord
  2
AM_6
 70
     0
 62
    -2
  6
Continuous
370
    35
390
F
347
46
348
0
  0
LAYER
  5
9A
330
2
100
AcDbSymbolTableRecord
100
AcDbLayerTableRecord
  2
AM_9
 70
     0
 62
     6
  6
Dashed
370
    25
390
F
347
46
348
0
  0
LAYER
  5
107
330
2
100
AcDbSymbolTableRecord
100
AcDbLayerTableRecord
  2
AM_5
 70
     0
 62
     3
  6
Continuous
370
    25
390
F
347
46
348
0
  0
LAYER
  5
10B
330
2
100
AcDbSymbolTableRecord
100
AcDbLayerTableRecord
  2
AM_7
 70
     0
 62
     7
  6
Center
370
    25
390
F
347
46
348
0
  0
LAYER
  5
10D
330
2
100
AcDbSymbolTableRecord
100
AcDbLayerTableRecord
  2
AM_0
 70
     0
 62
     7
  6
Continuous
370
    50
390
F
347
46
348
0
  0
LAYER
  5
1AD
330
2
100
AcDbSymbolTableRecord
100
AcDbLayerTableRecord
  2
AM_4
 70
     0
 62
     3
  6
Continuous
370
    25
390
F
347
46
348
0
  0
LAYER
  5
1E5
330
2
100
AcDbSymbolTableRecord
100
AcDbLayerTableRecord
  2
ConnectionPoints
 70
     0
 62
     7
  6
Continuous
370
    50
390
F
347
46
348
0
  0
ENDTAB
  0
TABLE
  2
STYLE
  5
3
330
0
100
AcDbSymbolTable
 70
     1
  0
STYLE
  5
11
330
3
100
AcDbSymbolTableRecord
100
AcDbTextStyleTableRecord
  2
Standard
 70
     0
 40
0.0
 41
1.0
 50
0.0
 71
     0
 42
0.2
  3
txt
  4

  0
ENDTAB
  0
TABLE
  2
VIEW
  5
6
330
0
100
AcDbSymbolTable
 70
     0
  0
ENDTAB
  0
TABLE
  2
UCS
  5
7
330
0
100
AcDbSymbolTable
 70
     0
  0
ENDTAB
  0
TABLE
  2
APPID
  5
9
330
0
100
AcDbSymbolTable
 70
     1
  0
APPID
  5
12
330
9
100
AcDbSymbolTableRecord
100
AcDbRegAppTableRecord
  2
ACAD
 70
     0
  0
ENDTAB
  0
TABLE
  2
DIMSTYLE
  5
A
330
0
100
AcDbSymbolTable
 70
     1
100
AcDbDimStyleTable
  0
DIMSTYLE
105
27
330
A
100
AcDbSymbolTableRecord
100
AcDbDimStyleTableRecord
  2
Standard
 70
     0
178
     0
340
11
  0
ENDTAB
  0
TABLE
  2
BLOCK_RECORD
  5
1
330
0
100
AcDbSymbolTable
 70
     4
  0
BLOCK_RECORD
  5
1F
330
1
100
AcDbSymbolTableRecord
100
AcDbBlockTableRecord
  2
*Model_Space
340
22
 70
     0
280
     1
281
     0
  0
BLOCK_RECORD
  5
1B
330
1
100
AcDbSymbolTableRecord
100
AcDbBlockTableRecord
  2
*Paper_Space
340
1E
 70
     0
280
     1
281
     0
  0
BLOCK_RECORD
  5
23
330
1
100
AcDbSymbolTableRecord
100
AcDbBlockTableRecord
  2
*Paper_Space0
340
26
 70
     0
280
     1
281
     0
  0
BLOCK_RECORD
  5
83
330
1
100
AcDbSymbolTableRecord
100
AcDbBlockTableRecord
  2
1_129527I_0_in_129666_4
340
0
102
{BLKREFS
331
84
102
}
 70
     0
280
     1
281
     0
  0
BLOCK_RECORD
  5
CC
330
1
100
AcDbSymbolTableRecord
100
AcDbBlockTableRecord
  2
2_129923_0_in_129666_4
340
0
102
{BLKREFS
331
CD
102
}
 70
     0
280
     1
281
     0
  0
BLOCK_RECORD
  5
128
330
1
100
AcDbSymbolTableRecord
100
AcDbBlockTableRecord
  2
3_129485I_0_in_129666_4
340
0
102
{BLKREFS
331
129
102
}
 70
     0
280
     1
281
     0
  0
ENDTAB
  0
ENDSEC
  0
SECTION
  2
BLOCKS
  0
BLOCK
  5
20
330
1F
100
AcDbEntity
  8
0
100
AcDbBlockBegin
  2
*Model_Space
 70
     0
 10
0.0
 20
0.0
 30
0.0
  3
*Model_Space
  1

  0
ENDBLK
  5
21
330
1F
100
AcDbEntity
  8
0
100
AcDbBlockEnd
  0
BLOCK
  5
1C
330
1B
100
AcDbEntity
 67
     1
  8
0
100
AcDbBlockBegin
  2
*Paper_Space
 70
     0
 10
0.0
 20
0.0
 30
0.0
  3
*Paper_Space
  1

  0
ENDBLK
  5
1D
330
1B
100
AcDbEntity
 67
     1
  8
0
100
AcDbBlockEnd
  0
BLOCK
  5
24
330
23
100
AcDbEntity
  8
0
100
AcDbBlockBegin
  2
*Paper_Space0
 70
     0
 10
0.0
 20
0.0
 30
0.0
  3
*Paper_Space0
  1

  0
ENDBLK
  5
25
330
23
100
AcDbEntity
  8
0
100
AcDbBlockEnd
  0
BLOCK
  5
85
330
83
100
AcDbEntity
  8
0
100
AcDbBlockBegin
  2
1_129527I_0_in_129666_4
 70
     2
 10
0.0
 20
0.0
 30
0.0
  3
1_129527I_0_in_129666_4
  1

  0
ATTDEF
  5
87
330
83
100
AcDbEntity
  8
AM_6
100
AcDbText
 10
7.558475058037383
 20
1.601875
 30
0.0
 40
0.5
  1
INS-GT B
100
AcDbAttributeDefinition
  3

  2
NN
 70
     8
280
     0
  0
ATTDEF
  5
88
330
83
100
AcDbEntity
  8
AM_6
100
AcDbText
 10
7.558475058037383
 20
1.101875
 30
0.0
 40
0.5
  1
GT Normal Duty Bearing Inserts
100
AcDbAttributeDefinition
  3

  2
NT
 70
     8
280
     0
  0
ATTDEF
  5
89
330
83
100
AcDbEntity
  8
AM_6
100
AcDbText
 10
7.558475058037383
 20
0.6018750000000002
 30
0.0
 40
0.5
  1
129527I
100
AcDbAttributeDefinition
  3

  2
NB
 70
     8
280
     0
  0
ATTDEF
  5
8A
330
83
100
AcDbEntity
  8
AM_6
100
AcDbText
 10
7.558475058037383
 20
0.1018750000000002
 30
0.0
 40
0.5
  1
$PN.I
100
AcDbAttributeDefinition
  3

  2
NBSYN
 70
     8
280
     0
  0
ATTDEF
  5
8B
330
83
100
AcDbEntity
  8
AM_6
100
AcDbText
 10
7.558475058037383
 20
-0.3981249999999998
 30
0.0
 40
0.5
  1
129527
100
AcDbAttributeDefinition
  3

  2
LINA
 70
     8
280
     0
  0
ATTDEF
  5
8C
330
83
100
AcDbEntity
  8
AM_6
100
AcDbText
 10
7.558475058037383
 20
-0.8981249999999998
 30
0.0
 40
0.5
  1
215
100
AcDbAttributeDefinition
  3

  2
SERIES
 70
     8
280
     0
  0
ATTDEF
  5
8D
330
83
100
AcDbEntity
  8
AM_6
100
AcDbText
 10
7.558475058037383
 20
-1.398125
 30
0.0
 40
0.5
  1
129527
100
AcDbAttributeDefinition
  3

  2
PN
 70
     8
280
     0
  0
ATTDEF
  5
8E
330
83
100
AcDbEntity
  8
AM_6
100
AcDbText
 10
7.558475058037383
 20
-1.898125
 30
0.0
 40
0.5
  1
INS-GT-15
100
AcDbAttributeDefinition
  3

  2
DESCRIPTION
 70
     8
280
     0
  0
ATTDEF
  5
8F
330
83
100
AcDbEntity
  8
AM_6
100
AcDbText
 10
7.558475058037383
 20
-2.398125
 30
0.0
 40
0.5
  1
2.46
100
AcDbAttributeDefinition
  3

  2
A
 70
     8
280
     0
  0
ATTDEF
  5
90
330
83
100
AcDbEntity
  8
AM_6
100
AcDbText
 10
7.558475058037383
 20
-2.898125
 30
0.0
 40
0.5
  1
1.14
100
AcDbAttributeDefinition
  3

  2
C
 70
     8
280
     0
  0
ATTDEF
  5
91
330
83
100
AcDbEntity
  8
AM_6
100
AcDbText
 10
7.558475058037383
 20
-3.398125
 30
0.0
 40
0.5
  1
5.1181
100
AcDbAttributeDefinition
  3

  2
D
 70
     8
280
     0
  0
ATTDEF
  5
92
330
83
100
AcDbEntity
  8
AM_6
100
AcDbText
 10
7.558475058037383
 20
-3.898125
 30
0.0
 40
0.5
  1
0.28
100
AcDbAttributeDefinition
  3

  2
J
 70
     8
280
     0
  0
ATTDEF
  5
93
330
83
100
AcDbEntity
  8
AM_6
100
AcDbText
 10
7.558475058037383
 20
-4.398125
 30
0.0
 40
0.5
  1
4.44
100
AcDbAttributeDefinition
  3

  2
L
 70
     8
280
     0
  0
ATTDEF
  5
94
330
83
100
AcDbEntity
  8
AM_6
100
AcDbText
 10
7.558475058037383
 20
-4.898125
 30
0.0
 40
0.5
  1
#10 - 32 x 1/4
100
AcDbAttributeDefinition
  3

  2
N
 70
     8
280
     0
  0
ATTDEF
  5
95
330
83
100
AcDbEntity
  8
AM_6
100
AcDbText
 10
7.558475058037383
 20
-5.398125
 30
0.0
 40
0.5
  1
0.86000
100
AcDbAttributeDefinition
  3

  2
W
 70
     8
280
     0
  0
ATTDEF
  5
96
330
83
100
AcDbEntity
  8
AM_6
100
AcDbText
 10
7.558475058037383
 20
-5.898125
 30
0.0
 40
0.5
  1
1.60
100
AcDbAttributeDefinition
  3

  2
X
 70
     8
280
     0
  0
ATTDEF
  5
97
330
83
100
AcDbEntity
  8
AM_6
100
AcDbText
 10
7.558475058037383
 20
-6.398125
 30
0.0
 40
0.5
  1
1.60
100
AcDbAttributeDefinition
  3

  2
Y
 70
     8
280
     0
  0
ATTDEF
  5
98
330
83
100
AcDbEntity
  8
AM_6
100
AcDbText
 10
7.558475058037383
 20
-6.898125
 30
0.0
 40
0.5
  1
baldor
100
AcDbAttributeDefinition
  3

  2
COMPANY
 70
     8
280
     0
  0
LINE
  5
9B
330
83
100
AcDbEntity
  8
AM_9
 48
0.013375408136637
100
AcDbLine
 10
1.656190349333333
 20
-0.372123983997968
 30
0.0
 11
1.656190349333333
 21
0.2278760160020316
 31
0.0
  0
LINE
  5
9C
330
83
100
AcDbEntity
  8
AM_9
 48
0.013375408136637
100
AcDbLine
 10
-1.656190349333333
 20
0.2278760160020316
 30
0.0
 11
-1.656190349333333
 21
-0.372123983997968
 31
0.0
  0
LINE
  5
9D
330
83
100
AcDbEntity
  8
AM_9
 48
0.013375408136637
100
AcDbLine
 10
-1.656190349333333
 20
0.2278760160020316
 30
0.0
 11
1.656190349333333
 21
0.2278760160020316
 31
0.0
  0
LINE
  5
9E
330
83
100
AcDbEntity
  8
AM_9
 48
0.013375408136637
100
AcDbLine
 10
1.656190349333333
 20
0.2278760160020316
 30
0.0
 11
1.704171451135422
 21
1.601875
 31
0.0
  0
LINE
  5
9F
330
83
100
AcDbEntity
  8
AM_9
 48
0.013375408136637
100
AcDbLine
 10
-1.704171451135422
 20
1.601875
 30
0.0
 11
-1.656190349333333
 21
0.2278760160020316
 31
0.0
  0
LINE
  5
A0
330
83
100
AcDbEntity
  8
AM_9
 48
0.013375408136637
100
AcDbLine
 10
1.814761841333333
 20
-0.1721239839979679
 30
0.0
 11
1.814761841333333
 21
0.0278760160020321
 31
0.0
  0
LINE
  5
A1
330
83
100
AcDbEntity
  8
AM_9
 48
0.013375408136637
100
AcDbLine
 10
-1.814761841333333
 20
0.0278760160020321
 30
0.0
 11
-1.814761841333333
 21
-0.1721239839979679
 31
0.0
  0
LINE
  5
A2
330
83
100
AcDbEntity
  8
AM_9
 48
0.013375408136637
100
AcDbLine
 10
1.973333333333334
 20
0.0278760160020321
 30
0.0
 11
1.973333333333334
 21
0.2578750000000006
 31
0.0
  0
LINE
  5
A3
330
83
100
AcDbEntity
  8
AM_9
 48
0.013375408136637
100
AcDbLine
 10
-1.973333333333334
 20
0.2578750000000006
 30
0.0
 11
-1.973333333333334
 21
0.0278760160020321
 31
0.0
  0
LINE
  5
A4
330
83
100
AcDbEntity
  8
AM_9
 48
0.013375408136637
100
AcDbLine
 10
-1.973333333333334
 20
0.0278760160020321
 30
0.0
 11
1.973333333333334
 21
0.0278760160020321
 31
0.0
  0
LINE
  5
A5
330
83
100
AcDbEntity
  8
AM_9
 48
0.013375408136637
100
AcDbLine
 10
1.973333333333334
 20
-0.3265239839979678
 30
0.0
 11
1.973333333333334
 21
-0.1721239839979679
 31
0.0
  0
LINE
  5
A6
330
83
100
AcDbEntity
  8
AM_9
 48
0.013375408136637
100
AcDbLine
 10
-1.973333333333334
 20
-0.1721239839979679
 30
0.0
 11
-1.973333333333334
 21
-0.3265239839979678
 31
0.0
  0
LINE
  5
A7
330
83
100
AcDbEntity
  8
AM_9
 48
0.013375408136637
100
AcDbLine
 10
-1.973333333333334
 20
-0.1721239839979679
 30
0.0
 11
1.973333333333334
 21
-0.1721239839979679
 31
0.0
  0
LINE
  5
A8
330
83
100
AcDbEntity
  8
AM_9
 48
0.013375408136637
100
AcDbLine
 10
-1.927733333333334
 20
1.601875
 30
0.0
 11
1.927733333333334
 21
1.601875
 31
0.0
  0
LINE
  5
A9
330
83
100
AcDbEntity
  8
AM_9
 48
0.013375408136637
100
AcDbLine
 10
-1.927733333333334
 20
1.601875
 30
0.0
 11
-1.973333333333334
 21
1.556275
 31
0.0
  0
LINE
  5
AA
330
83
100
AcDbEntity
  8
AM_9
 48
0.013375408136637
100
AcDbLine
 10
1.973333333333334
 20
1.556275
 30
0.0
 11
1.927733333333334
 21
1.601875
 31
0.0
  0
LINE
  5
AB
330
83
100
AcDbEntity
  8
AM_9
 48
0.013375408136637
100
AcDbLine
 10
1.927733333333334
 20
-0.372123983997968
 30
0.0
 11
1.973333333333334
 21
-0.3265239839979678
 31
0.0
  0
LINE
  5
AC
330
83
100
AcDbEntity
  8
AM_9
 48
0.013375408136637
100
AcDbLine
 10
-1.973333333333334
 20
-0.3265239839979678
 30
0.0
 11
-1.927733333333334
 21
-0.372123983997968
 31
0.0
  0
LINE
  5
AD
330
83
100
AcDbEntity
  8
AM_9
 48
0.013375408136637
100
AcDbLine
 10
-1.927733333333334
 20
-0.372123983997968
 30
0.0
 11
1.927733333333334
 21
-0.372123983997968
 31
0.0
  0
LINE
  5
AE
330
83
100
AcDbEntity
  8
AM_9
 48
0.013375408136637
100
AcDbLine
 10
-1.973333333333334
 20
-0.3265239839979678
 30
0.0
 11
1.973333333333334
 21
-0.3265239839979678
 31
0.0
  0
LINE
  5
AF
330
83
100
AcDbEntity
  8
AM_9
 48
0.013375408136637
100
AcDbLine
 10
-1.973333333333334
 20
1.556275
 30
0.0
 11
1.973333333333334
 21
1.556275
 31
0.0
  0
LINE
  5
B0
330
83
100
AcDbEntity
  8
AM_9
 48
0.013375408136637
100
AcDbLine
 10
1.973333333333334
 20
1.397875
 30
0.0
 11
1.973333333333334
 21
1.556275
 31
0.0
  0
LINE
  5
B1
330
83
100
AcDbEntity
  8
AM_9
 48
0.013375408136637
100
AcDbLine
 10
-1.973333333333334
 20
1.556275
 30
0.0
 11
-1.973333333333334
 21
1.397875
 31
0.0
  0
LINE
  5
B2
330
83
100
AcDbEntity
  8
AM_9
 48
0.013375408136637
100
AcDbLine
 10
2.44505
 20
0.4918750000000003
 30
0.0
 11
2.44505
 21
0.6038750000000004
 31
0.0
  0
LINE
  5
B3
330
83
100
AcDbEntity
  8
AM_9
 48
0.013375408136637
100
AcDbLine
 10
-2.44505
 20
0.6038750000000004
 30
0.0
 11
-2.44505
 21
0.4918750000000003
 31
0.0
  0
LINE
  5
B4
330
83
100
AcDbEntity
  8
AM_9
 48
0.013375408136637
100
AcDbLine
 10
-2.414304500833706
 20
1.397875
 30
0.0
 11
2.414304500833706
 21
1.397875
 31
0.0
  0
ARC
  5
B5
330
83
100
AcDbEntity
  8
AM_9
 48
0.013375408136637
100
AcDbCircle
 10
2.414304500833705
 20
1.352274999999999
 30
0.0
 40
0.0456000000000008
100
AcDbArc
 50
21.41247997210187
 51
89.99999999999945
  0
ARC
  5
B6
330
83
100
AcDbEntity
  8
AM_9
 48
0.013375408136637
100
AcDbCircle
 10
-2.414304500833684
 20
1.352274999999968
 30
0.0
 40
0.0456000000000325
100
AcDbArc
 50
90.00000000002734
 51
158.5875200278713
  0
LINE
  5
B7
330
83
100
AcDbEntity
  8
AM_9
 48
0.013375408136637
100
AcDbLine
 10
0.1088034165191427
 20
0.2578750000000005
 30
0.0
 11
2.414304500833706
 21
0.2578750000000003
 31
0.0
  0
LINE
  5
B8
330
83
100
AcDbEntity
  8
AM_9
 48
0.013375408136637
100
AcDbLine
 10
-0.1047987055004989
 20
0.2578750000000005
 30
0.0
 11
0.1047987055004989
 21
0.2578750000000005
 31
0.0
  0
LINE
  5
B9
330
83
100
AcDbEntity
  8
AM_9
 48
0.013375408136637
100
AcDbLine
 10
-2.414304500833706
 20
0.2578750000000003
 30
0.0
 11
-0.1088034165191427
 21
0.2578750000000005
 31
0.0
  0
ARC
  5
BA
330
83
100
AcDbEntity
  8
AM_9
 48
0.013375408136637
100
AcDbCircle
 10
2.414304500833704
 20
0.3034749999999999
 30
0.0
 40
0.0455999999999996
100
AcDbArc
 50
270.0000000000016
 51
338.5875329531163
  0
ARC
  5
BB
330
83
100
AcDbEntity
  8
AM_9
 48
0.013375408136637
100
AcDbCircle
 10
-2.414304500833704
 20
0.3034749999999998
 30
0.0
 40
0.0455999999999998
100
AcDbArc
 50
201.4124670468836
 51
269.9999999999983
  0
LINE
  5
BC
330
83
100
AcDbEntity
  8
AM_9
 48
0.013375408136637
100
AcDbLine
 10
0.1096620164714274
 20
0.2868273809523815
 30
0.0
 11
2.456757024669695
 21
0.2868273809523814
 31
0.0
  0
LINE
  5
BD
330
83
100
AcDbEntity
  8
AM_9
 48
0.013375408136637
100
AcDbLine
 10
-0.1056898438116069
 20
0.2868273809523815
 30
0.0
 11
0.1056898438116069
 21
0.2868273809523815
 31
0.0
  0
ARC
  5
BE
330
83
100
AcDbEntity
  8
AM_9
 48
0.013375408136637
100
AcDbCircle
 10
1.077049999999692
 20
0.8278750000000974
 30
0.0
 40
1.482000000000323
100
AcDbArc
 50
338.5875329531168
 51
346.3358553527518
  0
ARC
  5
BF
330
83
100
AcDbEntity
  8
AM_9
 48
0.013375408136637
100
AcDbCircle
 10
-1.077049999999761
 20
0.8278750000000756
 30
0.0
 40
1.48200000000025
100
AcDbArc
 50
193.664144647248
 51
201.4124670468834
  0
LINE
  5
C0
330
83
100
AcDbEntity
  8
AM_9
 48
0.013375408136637
100
AcDbLine
 10
-2.456757024669695
 20
0.2868273809523814
 30
0.0
 11
-0.1096620164714274
 21
0.2868273809523815
 31
0.0
  0
LINE
  5
C1
330
83
100
AcDbEntity
  8
AM_9
 48
0.013375408136637
100
AcDbLine
 10
-2.506027816482817
 20
0.4918750000000003
 30
0.0
 11
2.506027816482817
 21
0.4918750000000003
 31
0.0
  0
ARC
  5
C2
330
83
100
AcDbEntity
  8
AM_9
 48
0.013375408136637
100
AcDbCircle
 10
2.506027816482816
 20
0.4804749999999993
 30
0.0
 40
0.0114000000000011
100
AcDbArc
 50
346.3358553527597
 51
89.99999999999554
  0
ARC
  5
C3
330
83
100
AcDbEntity
  8
AM_9
 48
0.013375408136637
100
AcDbCircle
 10
-2.506027816482816
 20
0.4804749999999993
 30
0.0
 40
0.0114000000000011
100
AcDbArc
 50
90.00000000000446
 51
193.6641446472403
  0
LINE
  5
C4
330
83
100
AcDbEntity
  8
AM_9
 48
0.013375408136637
100
AcDbLine
 10
-2.517105163897413
 20
0.4777819767441864
 30
0.0
 11
2.517105163897413
 21
0.4777819767441864
 31
0.0
  0
LINE
  5
C5
330
83
100
AcDbEntity
  8
AM_9
 48
0.013375408136637
100
AcDbLine
 10
-2.532201401057636
 20
0.6038750000000004
 30
0.0
 11
2.532201401057636
 21
0.6038750000000004
 31
0.0
  0
ARC
  5
C6
330
83
100
AcDbEntity
  8
AM_9
 48
0.013375408136637
100
AcDbCircle
 10
2.532201401057635
 20
0.6152750000000015
 30
0.0
 40
0.011400000000001
100
AcDbArc
 50
270.0000000000022
 51
351.687803135781
  0
ARC
  5
C7
330
83
100
AcDbEntity
  8
AM_9
 48
0.013375408136637
100
AcDbCircle
 10
-2.532201401057635
 20
0.6152750000000015
 30
0.0
 40
0.0114000000000009
100
AcDbArc
 50
188.312196864219
 51
269.9999999999977
  0
ARC
  5
C8
330
83
100
AcDbEntity
  8
AM_9
 48
0.013375408136637
100
AcDbCircle
 10
1.077049999999921
 20
0.8278749999999905
 30
0.0
 40
1.482000000000077
100
AcDbArc
 50
351.6878031357876
 51
21.41246744458225
  0
ARC
  5
C9
330
83
100
AcDbEntity
  8
AM_9
 48
0.013375408136637
100
AcDbCircle
 10
-1.077050000000046
 20
0.8278750000000046
 30
0.0
 40
1.481999999999956
100
AcDbArc
 50
158.5875325554165
 51
188.3121968642135
  0
LINE
  5
CA
330
83
100
AcDbEntity
  8
AM_9
 48
0.013375408136637
100
AcDbLine
 10
-2.543481644476687
 20
0.6136269379844963
 30
0.0
 11
2.543481644476687
 21
0.6136269379844963
 31
0.0
  0
LINE
  5
CB
330
83
100
AcDbEntity
  8
AM_9
 48
0.013375408136637
100
AcDbLine
 10
-2.456757020914199
 20
1.368922628624381
 30
0.0
 11
2.456757020914199
 21
1.368922628624381
 31
0.0
  0
ENDBLK
  5
86
330
83
100
AcDbEntity
  8
0
100
AcDbBlockEnd
  0
BLOCK
  5
CE
330
CC
100
AcDbEntity
  8
0
100
AcDbBlockBegin
  2
2_129923_0_in_129666_4
 70
     2
 10
0.0
 20
0.0
 30
0.0
  3
2_129923_0_in_129666_4
  1

  0
ATTDEF
  5
D0
330
CC
100
AcDbEntity
  8
AM_6
100
AcDbText
 10
7.120865094719605
 20
1.718500000000001
 30
0.0
 40
0.5
  1
Grip Tight Normal Duty Adapter and Nut Inch Bore
100
AcDbAttributeDefinition
  3

  2
NN
 70
     8
280
     0
  0
ATTDEF
  5
D1
330
CC
100
AcDbEntity
  8
AM_6
100
AcDbText
 10
7.120865094719605
 20
1.218500000000001
 30
0.0
 40
0.5
  1
GT and GTM Adapter & Lock Nut Assemblies
100
AcDbAttributeDefinition
  3

  2
NT
 70
     8
280
     0
  0
ATTDEF
  5
D2
330
CC
100
AcDbEntity
  8
AM_6
100
AcDbText
 10
7.120865094719605
 20
0.7185000000000006
 30
0.0
 40
0.5
  1
129923
100
AcDbAttributeDefinition
  3

  2
NB
 70
     8
280
     0
  0
ATTDEF
  5
D3
330
CC
100
AcDbEntity
  8
AM_6
100
AcDbText
 10
7.120865094719605
 20
0.2185000000000006
 30
0.0
 40
0.5
  1
$PN.
100
AcDbAttributeDefinition
  3

  2
NBSYN
 70
     8
280
     0
  0
ATTDEF
  5
D4
330
CC
100
AcDbEntity
  8
AM_6
100
AcDbText
 10
7.120865094719605
 20
-0.2814999999999994
 30
0.0
 40
0.5
  1
129923
100
AcDbAttributeDefinition
  3

  2
LINA
 70
     8
280
     0
  0
ATTDEF
  5
D5
330
CC
100
AcDbEntity
  8
AM_6
100
AcDbText
 10
7.120865094719605
 20
-0.7814999999999994
 30
0.0
 40
0.5
  1
215
100
AcDbAttributeDefinition
  3

  2
SERIES
 70
     8
280
     0
  0
ATTDEF
  5
D6
330
CC
100
AcDbEntity
  8
AM_6
100
AcDbText
 10
7.120865094719605
 20
-1.281499999999999
 30
0.0
 40
0.5
  1
2-15/16
100
AcDbAttributeDefinition
  3

  2
SS
 70
     8
280
     0
  0
ATTDEF
  5
D7
330
CC
100
AcDbEntity
  8
AM_6
100
AcDbText
 10
7.120865094719605
 20
-1.781499999999999
 30
0.0
 40
0.5
  1
129923
100
AcDbAttributeDefinition
  3

  2
PN
 70
     8
280
     0
  0
ATTDEF
  5
D8
330
CC
100
AcDbEntity
  8
AM_6
100
AcDbText
 10
7.120865094719605
 20
-2.281499999999999
 30
0.0
 40
0.5
  1
AN-GT-15-215
100
AcDbAttributeDefinition
  3

  2
DESCRIPTION
 70
     8
280
     0
  0
ATTDEF
  5
D9
330
CC
100
AcDbEntity
  8
AM_6
100
AcDbText
 10
7.120865094719605
 20
-2.781499999999999
 30
0.0
 40
0.5
  1
2-9/16
100
AcDbAttributeDefinition
  3

  2
A
 70
     8
280
     0
  0
ATTDEF
  5
DA
330
CC
100
AcDbEntity
  8
AM_6
100
AcDbText
 10
7.120865094719605
 20
-3.281499999999999
 30
0.0
 40
0.5
  1
1.1420
100
AcDbAttributeDefinition
  3

  2
C
 70
     8
280
     0
  0
ATTDEF
  5
DB
330
CC
100
AcDbEntity
  8
AM_6
100
AcDbText
 10
7.120865094719605
 20
-3.781499999999999
 30
0.0
 40
0.5
  1
5.1181
100
AcDbAttributeDefinition
  3

  2
D
 70
     8
280
     0
  0
ATTDEF
  5
DC
330
CC
100
AcDbEntity
  8
AM_6
100
AcDbText
 10
7.120865094719605
 20
-4.281499999999999
 30
0.0
 40
0.5
  1
0.265
100
AcDbAttributeDefinition
  3

  2
J
 70
     8
280
     0
  0
ATTDEF
  5
DD
330
CC
100
AcDbEntity
  8
AM_6
100
AcDbText
 10
7.120865094719605
 20
-4.781499999999999
 30
0.0
 40
0.5
  1
4-1/4
100
AcDbAttributeDefinition
  3

  2
L
 70
     8
280
     0
  0
ATTDEF
  5
DE
330
CC
100
AcDbEntity
  8
AM_6
100
AcDbText
 10
7.120865094719605
 20
-5.281499999999999
 30
0.0
 40
0.5
  1
10 - 32 x 1/4
100
AcDbAttributeDefinition
  3

  2
N
 70
     8
280
     0
  0
ATTDEF
  5
DF
330
CC
100
AcDbEntity
  8
AM_6
100
AcDbText
 10
7.120865094719605
 20
-5.781499999999999
 30
0.0
 40
0.5
  1
57/64
100
AcDbAttributeDefinition
  3

  2
W
 70
     8
280
     0
  0
ATTDEF
  5
E0
330
CC
100
AcDbEntity
  8
AM_6
100
AcDbText
 10
7.120865094719605
 20
-6.281499999999999
 30
0.0
 40
0.5
  1
1-5/8
100
AcDbAttributeDefinition
  3

  2
X
 70
     8
280
     0
  0
ATTDEF
  5
E1
330
CC
100
AcDbEntity
  8
AM_6
100
AcDbText
 10
7.120865094719605
 20
-6.781499999999999
 30
0.0
 40
0.5
  1
1-43/64
100
AcDbAttributeDefinition
  3

  2
Y
 70
     8
280
     0
  0
ATTDEF
  5
E2
330
CC
100
AcDbEntity
  8
AM_6
100
AcDbText
 10
7.120865094719605
 20
-7.281499999999999
 30
0.0
 40
0.5
  1
baldor
100
AcDbAttributeDefinition
  3

  2
COMPANY
 70
     8
280
     0
  0
LINE
  5
E3
330
CC
100
AcDbEntity
  8
AM_9
 48
0.0119495472619639
100
AcDbLine
 10
-2.10245
 20
-0.6895231583904831
 30
0.0
 11
-1.6163
 21
-0.6895231583904831
 31
0.0
  0
LINE
  5
E4
330
CC
100
AcDbEntity
  8
AM_9
 48
0.0119495472619639
100
AcDbLine
 10
-1.6163
 20
-0.5446231583904831
 30
0.0
 11
-2.10245
 21
-0.5446231583904831
 31
0.0
  0
LINE
  5
E5
330
CC
100
AcDbEntity
  8
AM_9
 48
0.0119495472619639
100
AcDbLine
 10
-1.6163
 20
-0.6895231583904831
 30
0.0
 11
-1.59375
 21
-0.712073158390483
 31
0.0
  0
LINE
  5
E6
330
CC
100
AcDbEntity
  8
AM_9
 48
0.0119495472619639
100
AcDbLine
 10
-1.59375
 20
-0.5220731583904832
 30
0.0
 11
-1.6163
 21
-0.5446231583904831
 31
0.0
  0
LINE
  5
E7
330
CC
100
AcDbEntity
  8
AM_9
 48
0.0119495472619639
100
AcDbLine
 10
-1.59375
 20
-0.5220731583904832
 30
0.0
 11
-1.59375
 21
-0.712073158390483
 31
0.0
  0
LINE
  5
E8
330
CC
100
AcDbEntity
  8
AM_9
 48
0.0119495472619639
100
AcDbLine
 10
-1.6163
 20
-0.5446231583904831
 30
0.0
 11
-1.6163
 21
-0.6895231583904831
 31
0.0
  0
LINE
  5
E9
330
CC
100
AcDbEntity
  8
AM_9
 48
0.0119495472619639
100
AcDbLine
 10
-2.10245
 20
-0.5446231583904831
 30
0.0
 11
-2.125
 21
-0.5220731583904832
 31
0.0
  0
LINE
  5
EA
330
CC
100
AcDbEntity
  8
AM_9
 48
0.0119495472619639
100
AcDbLine
 10
-2.125
 20
-0.712073158390483
 30
0.0
 11
-2.10245
 21
-0.6895231583904831
 31
0.0
  0
LINE
  5
EB
330
CC
100
AcDbEntity
  8
AM_9
 48
0.0119495472619639
100
AcDbLine
 10
-2.10245
 20
-0.5446231583904831
 30
0.0
 11
-2.10245
 21
-0.6895231583904831
 31
0.0
  0
LINE
  5
EC
330
CC
100
AcDbEntity
  8
AM_9
 48
0.0119495472619639
100
AcDbLine
 10
1.983332973499281
 20
0.0153750000000004
 30
0.0
 11
1.983332973499281
 21
-0.7971249999999996
 31
0.0
  0
LINE
  5
ED
330
CC
100
AcDbEntity
  8
AM_9
 48
0.0119495472619639
100
AcDbLine
 10
1.46875
 20
-0.8439999999999994
 30
0.0
 11
1.46875
 21
1.7185
 31
0.0
  0
LINE
  5
EE
330
CC
100
AcDbEntity
  8
AM_9
 48
0.0119495472619639
100
AcDbLine
 10
-1.46875
 20
1.7185
 30
0.0
 11
-1.46875
 21
-0.8439999999999994
 31
0.0
  0
LINE
  5
EF
330
CC
100
AcDbEntity
  8
AM_9
 48
0.0119495472619639
100
AcDbLine
 10
1.58531746031746
 20
-0.3908749999999996
 30
0.0
 11
1.58531746031746
 21
0.2185000000000006
 31
0.0
  0
LINE
  5
F0
330
CC
100
AcDbEntity
  8
AM_9
 48
0.0119495472619639
100
AcDbLine
 10
-1.58531746031746
 20
0.2185000000000006
 30
0.0
 11
-1.58531746031746
 21
-0.3908749999999996
 31
0.0
  0
LINE
  5
F1
330
CC
100
AcDbEntity
  8
AM_9
 48
0.0119495472619639
100
AcDbLine
 10
0.0500000000000001
 20
1.718500000000001
 30
0.0
 11
0.0500000000000001
 21
-0.7971249999999996
 31
0.0
  0
LINE
  5
F2
330
CC
100
AcDbEntity
  8
AM_9
 48
0.0119495472619639
100
AcDbLine
 10
-0.0499999999999999
 20
1.718500000000001
 30
0.0
 11
-0.0499999999999999
 21
-0.7971249999999996
 31
0.0
  0
LINE
  5
F3
330
CC
100
AcDbEntity
  8
AM_9
 48
0.0119495472619639
100
AcDbLine
 10
0.0943010772246335
 20
0.2185000000000007
 30
0.0
 11
1.58531746031746
 21
0.2185000000000006
 31
0.0
  0
LINE
  5
F4
330
CC
100
AcDbEntity
  8
AM_9
 48
0.0119495472619639
100
AcDbLine
 10
1.58531746031746
 20
0.2185000000000006
 30
0.0
 11
1.637698614555082
 21
1.7185
 31
0.0
  0
LINE
  5
F5
330
CC
100
AcDbEntity
  8
AM_9
 48
0.0119495472619639
100
AcDbLine
 10
-1.637698614555082
 20
1.7185
 30
0.0
 11
-1.58531746031746
 21
0.2185000000000006
 31
0.0
  0
LINE
  5
F6
330
CC
100
AcDbEntity
  8
AM_9
 48
0.0119495472619639
100
AcDbLine
 10
-0.0896508694551734
 20
0.2185000000000007
 30
0.0
 11
0.0896508694551734
 21
0.2185000000000007
 31
0.0
  0
LINE
  5
F7
330
CC
100
AcDbEntity
  8
AM_9
 48
0.0119495472619639
100
AcDbLine
 10
-1.58531746031746
 20
0.2185000000000006
 30
0.0
 11
-0.0943010772246335
 21
0.2185000000000007
 31
0.0
  0
LINE
  5
F8
330
CC
100
AcDbEntity
  8
AM_9
 48
0.0119495472619639
100
AcDbLine
 10
-1.637698614555082
 20
1.7185
 30
0.0
 11
1.637698614555082
 21
1.7185
 31
0.0
  0
LINE
  5
F9
330
CC
100
AcDbEntity
  8
AM_9
 48
0.0119495472619639
100
AcDbLine
 10
1.737103174603175
 20
-0.1877499999999995
 30
0.0
 11
1.737103174603175
 21
0.0153750000000002
 31
0.0
  0
LINE
  5
FA
330
CC
100
AcDbEntity
  8
AM_9
 48
0.0119495472619639
100
AcDbLine
 10
-1.737103174603175
 20
0.0153750000000002
 30
0.0
 11
-1.737103174603175
 21
-0.1877499999999995
 31
0.0
  0
LINE
  5
FB
330
CC
100
AcDbEntity
  8
AM_9
 48
0.0119495472619639
100
AcDbLine
 10
-2.124019795609192
 20
-0.6854457706420682
 30
0.0
 11
-2.123940835474688
 21
-0.6828344932811152
 31
0.0
  0
LINE
  5
FC
330
CC
100
AcDbEntity
  8
AM_9
 48
0.0119495472619639
100
AcDbLine
 10
-2.07932
 20
0.0153750000000002
 30
0.0
 11
-2.094695
 21
0.0
 31
0.0
  0
LINE
  5
FD
330
CC
100
AcDbEntity
  8
AM_9
 48
0.0119495472619639
100
AcDbLine
 10
-1.152295402573758
 20
0.0153750000000005
 30
0.0
 11
-1.159998331537218
 21
0.0000002222793444
 31
0.0
  0
LINE
  5
FE
330
CC
100
AcDbEntity
  8
AM_9
 48
0.0119495472619639
100
AcDbLine
 10
-0.8769181207482026
 20
0.0153750000000005
 30
0.0
 11
-0.8769181207482026
 21
-0.7971249999999996
 31
0.0
  0
LINE
  5
FF
330
CC
100
AcDbEntity
  8
AM_9
 48
0.0119495472619639
100
AcDbLine
 10
-1.106414852751079
 20
0.0153750000000005
 30
0.0
 11
-1.106414852751079
 21
-0.0000000000000001
 31
0.0
  0
LINE
  5
100
330
CC
100
AcDbEntity
  8
AM_9
 48
0.0119495472619639
100
AcDbLine
 10
-1.888888888888889
 20
-0.1877499999999995
 30
0.0
 11
1.888888888888889
 21
-0.1877499999999995
 31
0.0
  0
LINE
  5
101
330
CC
100
AcDbEntity
  8
AM_9
 48
0.0119495472619639
100
AcDbLine
 10
-1.888888888888889
 20
-0.3908749999999996
 30
0.0
 11
1.888888888888889
 21
-0.3908749999999996
 31
0.0
  0
LINE
  5
102
330
CC
100
AcDbEntity
  8
AM_9
 48
0.0119495472619639
100
AcDbLine
 10
1.888888888888889
 20
-0.3908749999999996
 30
0.0
 11
1.888888888888889
 21
-0.1877499999999995
 31
0.0
  0
LINE
  5
103
330
CC
100
AcDbEntity
  8
AM_9
 48
0.0119495472619639
100
AcDbLine
 10
-1.888888888888889
 20
-0.1877499999999995
 30
0.0
 11
-1.888888888888889
 21
-0.3908749999999996
 31
0.0
  0
LINE
  5
104
330
CC
100
AcDbEntity
  8
AM_9
 48
0.0119495472619639
100
AcDbLine
 10
2.075094073144637
 20
0.0153750000000002
 30
0.0
 11
2.09050007323127
 21
0.0000000804043227
 31
0.0
  0
LINE
  5
105
330
CC
100
AcDbEntity
  8
AM_9
 48
0.0119495472619639
100
AcDbLine
 10
-2.07932
 20
0.0153750000000002
 30
0.0
 11
2.075094073144637
 21
0.0153750000000002
 31
0.0
  0
LINE
  5
106
330
CC
100
AcDbEntity
  8
AM_9
 48
0.0119495472619639
100
AcDbLine
 10
-0.9305015995343414
 20
0.0000002222793448
 30
0.0
 11
-0.9227986705708809
 21
0.0153750000000005
 31
0.0
  0
LINE
  5
108
330
CC
100
AcDbEntity
  8
AM_5
 48
0.0119495472619639
100
AcDbLine
 10
-2.125
 20
-0.712073158390483
 30
0.0
 11
-1.59375
 21
-0.712073158390483
 31
0.0
  0
LINE
  5
109
330
CC
100
AcDbEntity
  8
AM_5
 48
0.0119495472619639
100
AcDbLine
 10
-2.125
 20
-0.5220731583904832
 30
0.0
 11
-1.59375
 21
-0.5220731583904832
 31
0.0
  0
LINE
  5
10C
330
CC
100
AcDbEntity
  8
AM_7
 48
0.0119495472619639
100
AcDbLine
 10
-1.5671875
 20
-0.6170731583904832
 30
0.0
 11
-2.1515625
 21
-0.6170731583904832
 31
0.0
  0
LINE
  5
10E
330
CC
100
AcDbEntity
  8
AM_0
 48
0.0119495472619639
100
AcDbLine
 10
0.0500000000000001
 20
-0.8439999999999996
 30
0.0
 11
0.0500000000000001
 21
-0.7971249999999993
 31
0.0
  0
LINE
  5
10F
330
CC
100
AcDbEntity
  8
AM_0
 48
0.0119495472619639
100
AcDbLine
 10
-0.0499999999999999
 20
-0.8439999999999996
 30
0.0
 11
-0.0499999999999999
 21
-0.7971249999999993
 31
0.0
  0
LINE
  5
110
330
CC
100
AcDbEntity
  8
AM_0
 48
0.0119495472619639
100
AcDbLine
 10
1.58531746031746
 20
-0.8439999999999994
 30
0.0
 11
1.58531746031746
 21
-0.7971249999999993
 31
0.0
  0
LINE
  5
111
330
CC
100
AcDbEntity
  8
AM_0
 48
0.0119495472619639
100
AcDbLine
 10
-1.58531746031746
 20
-0.7971249999999993
 30
0.0
 11
-1.58531746031746
 21
-0.8439999999999994
 31
0.0
  0
LINE
  5
112
330
CC
100
AcDbEntity
  8
AM_0
 48
0.0119495472619639
100
AcDbLine
 10
-1.585317460317461
 20
-0.8439999999999994
 30
0.0
 11
1.585317460317461
 21
-0.8439999999999994
 31
0.0
  0
LINE
  5
113
330
CC
100
AcDbEntity
  8
AM_0
 48
0.0119495472619639
100
AcDbLine
 10
-2.123959347345033
 20
-0.683455898073669
 30
0.0
 11
-2.125
 21
-0.712073158390483
 31
0.0
  0
LINE
  5
114
330
CC
100
AcDbEntity
  8
AM_0
 48
0.0119495472619639
100
AcDbLine
 10
-2.125
 20
-0.0303049999999994
 30
0.0
 11
-2.125
 21
-0.5220731583904831
 31
0.0
  0
LINE
  5
115
330
CC
100
AcDbEntity
  8
AM_0
 48
0.0119495472619639
100
AcDbLine
 10
-2.125
 20
-0.712073158390483
 30
0.0
 11
-2.125
 21
-0.7514449999999997
 31
0.0
  0
LWPOLYLINE
  5
116
330
CC
100
AcDbEntity
  8
AM_0
 48
0.0119495472619639
100
AcDbPolyline
 90
       15
 70
     0
 43
0.0
 10
-2.125
 20
-0.5220731583904837
 10
-2.124990781474192
 20
-0.5222888246882607
 10
-2.124894297041747
 20
-0.5245761248618843
 10
-2.124695871259881
 20
-0.5294669178453496
 10
-2.124427119677649
 20
-0.5365618687939826
 10
-2.124103752054505
 20
-0.546029047848077
 10
-2.123772076173517
 20
-0.5572732101943325
 10
-2.123455834202709
 20
-0.57045049484532
 10
-2.123200523424547
 20
-0.5847962279775775
 10
-2.123027938267925
 20
-0.6004351307268365
 10
-2.122965592688326
 20
-0.6163596022335762
 10
-2.123020977037826
 20
-0.6327566245799721
 10
-2.123186386865366
 20
-0.6483643083762279
 10
-2.123452094422646
 20
-0.6635176549417813
 10
-2.123959347345033
 20
-0.683455898073669
  0
LINE
  5
117
330
CC
100
AcDbEntity
  8
AM_0
 48
0.0119495472619639
100
AcDbLine
 10
-2.094695
 20
0.0
 30
0.0
 11
-2.125
 21
-0.0303049999999994
 31
0.0
  0
LINE
  5
118
330
CC
100
AcDbEntity
  8
AM_0
 48
0.0119495472619639
100
AcDbLine
 10
-2.125
 20
-0.0303049999999994
 30
0.0
 11
-1.175180913361242
 21
-0.0303049999999992
 31
0.0
  0
LINE
  5
119
330
CC
100
AcDbEntity
  8
AM_0
 48
0.0119495472619639
100
AcDbLine
 10
-1.159998331537218
 20
0.0000002222793444
 30
0.0
 11
-1.175180913361242
 21
-0.0303049999999992
 31
0.0
  0
LINE
  5
11A
330
CC
100
AcDbEntity
  8
AM_0
 48
0.0119495472619639
100
AcDbLine
 10
-1.175180913361242
 20
-0.0303049999999992
 30
0.0
 11
-1.175180913361241
 21
-0.7514449999999997
 31
0.0
  0
LINE
  5
11B
330
CC
100
AcDbEntity
  8
AM_0
 48
0.0119495472619639
100
AcDbLine
 10
-1.175180913361241
 20
-0.7514449999999997
 30
0.0
 11
-1.152295402573758
 21
-0.7971249999999993
 31
0.0
  0
LINE
  5
11C
330
CC
100
AcDbEntity
  8
AM_0
 48
0.0119495472619639
100
AcDbLine
 10
-2.125
 20
-0.7514449999999997
 30
0.0
 11
-2.07932
 21
-0.7971249999999993
 31
0.0
  0
LINE
  5
11D
330
CC
100
AcDbEntity
  8
AM_0
 48
0.0119495472619639
100
AcDbLine
 10
-2.125
 20
-0.7514449999999997
 30
0.0
 11
-1.175180913361241
 21
-0.7514449999999997
 31
0.0
  0
LINE
  5
11E
330
CC
100
AcDbEntity
  8
AM_0
 48
0.0119495472619639
100
AcDbLine
 10
-1.106414852751079
 20
-0.0000000000000001
 30
0.0
 11
-1.106414852751079
 21
-0.7971249999999996
 31
0.0
  0
LINE
  5
11F
330
CC
100
AcDbEntity
  8
AM_0
 48
0.0119495472619639
100
AcDbLine
 10
2.09050007323127
 20
0.0000000804043227
 30
0.0
 11
2.120865094719605
 21
-0.0303049999999994
 31
0.0
  0
LINE
  5
120
330
CC
100
AcDbEntity
  8
AM_0
 48
0.0119495472619639
100
AcDbLine
 10
-0.945684181358365
 20
-0.0303049999999992
 30
0.0
 11
-0.9305015995343414
 21
0.0000002222793448
 31
0.0
  0
LINE
  5
121
330
CC
100
AcDbEntity
  8
AM_0
 48
0.0119495472619639
100
AcDbLine
 10
2.120865094719605
 20
-0.0303049999999994
 30
0.0
 11
2.120865094719605
 21
-0.7514449999999997
 31
0.0
  0
LINE
  5
122
330
CC
100
AcDbEntity
  8
AM_0
 48
0.0119495472619639
100
AcDbLine
 10
-0.945684181358365
 20
-0.0303049999999992
 30
0.0
 11
2.120865094719605
 21
-0.0303049999999994
 31
0.0
  0
LINE
  5
123
330
CC
100
AcDbEntity
  8
AM_0
 48
0.0119495472619639
100
AcDbLine
 10
-0.9456841813583651
 20
-0.7514449999999997
 30
0.0
 11
-0.945684181358365
 21
-0.0303049999999992
 31
0.0
  0
LINE
  5
124
330
CC
100
AcDbEntity
  8
AM_0
 48
0.0119495472619639
100
AcDbLine
 10
2.120865094719605
 20
-0.7514449999999997
 30
0.0
 11
2.075094073144637
 21
-0.7971249999999993
 31
0.0
  0
LINE
  5
125
330
CC
100
AcDbEntity
  8
AM_0
 48
0.0119495472619639
100
AcDbLine
 10
-0.9456841813583651
 20
-0.7514449999999997
 30
0.0
 11
2.120865094719605
 21
-0.7514449999999997
 31
0.0
  0
LINE
  5
126
330
CC
100
AcDbEntity
  8
AM_0
 48
0.0119495472619639
100
AcDbLine
 10
-0.9227986705708809
 20
-0.7971249999999993
 30
0.0
 11
-0.9456841813583651
 21
-0.7514449999999997
 31
0.0
  0
LINE
  5
127
330
CC
100
AcDbEntity
  8
AM_0
 48
0.0119495472619639
100
AcDbLine
 10
-2.07932
 20
-0.7971249999999993
 30
0.0
 11
2.075094073144637
 21
-0.7971249999999993
 31
0.0
  0
ENDBLK
  5
CF
330
CC
100
AcDbEntity
  8
0
100
AcDbBlockEnd
  0
BLOCK
  5
12A
330
128
100
AcDbEntity
  8
0
100
AcDbBlockBegin
  2
3_129485I_0_in_129666_4
 70
     2
 10
0.0
 20
0.0
 30
0.0
  3
3_129485I_0_in_129666_4
  1

  0
ATTDEF
  5
12C
330
128
100
AcDbEntity
  8
AM_6
100
AcDbText
 10
8.875
 20
2.362499999999999
 30
0.0
 40
0.5
  1
GTAH Normal Duty 4 Bolt Flange Bearings
100
AcDbAttributeDefinition
  3

  2
NN
 70
     8
280
     0
  0
ATTDEF
  5
12D
330
128
100
AcDbEntity
  8
AM_6
100
AcDbText
 10
8.875
 20
1.862499999999999
 30
0.0
 40
0.5
  1
Grip Tight Adapter Ball Bearings
100
AcDbAttributeDefinition
  3

  2
NT
 70
     8
280
     0
  0
ATTDEF
  5
12E
330
128
100
AcDbEntity
  8
AM_6
100
AcDbText
 10
8.875
 20
1.362499999999999
 30
0.0
 40
0.5
  1
129485I
100
AcDbAttributeDefinition
  3

  2
NB
 70
     8
280
     0
  0
ATTDEF
  5
12F
330
128
100
AcDbEntity
  8
AM_6
100
AcDbText
 10
8.875
 20
0.8624999999999994
 30
0.0
 40
0.5
  1
$PN.$LUBE.I
100
AcDbAttributeDefinition
  3

  2
NBSYN
 70
     8
280
     0
  0
ATTDEF
  5
130
330
128
100
AcDbEntity
  8
AM_6
100
AcDbText
 10
8.875
 20
0.3624999999999994
 30
0.0
 40
0.5
  1
129485
100
AcDbAttributeDefinition
  3

  2
LINA
 70
     8
280
     0
  0
ATTDEF
  5
131
330
128
100
AcDbEntity
  8
AM_6
100
AcDbText
 10
8.875
 20
-0.1375000000000006
 30
0.0
 40
0.5
  1
215
100
AcDbAttributeDefinition
  3

  2
SERIES
 70
     8
280
     0
  0
ATTDEF
  5
132
330
128
100
AcDbEntity
  8
AM_6
100
AcDbText
 10
8.875
 20
-0.6375000000000006
 30
0.0
 40
0.5
  1
5.1181
100
AcDbAttributeDefinition
  3

  2
BOD
 70
     8
280
     0
  0
ATTDEF
  5
133
330
128
100
AcDbEntity
  8
AM_6
100
AcDbText
 10
8.875
 20
-1.137500000000001
 30
0.0
 40
0.5
  1
129485
100
AcDbAttributeDefinition
  3

  2
PN
 70
     8
280
     0
  0
ATTDEF
  5
134
330
128
100
AcDbEntity
  8
AM_6
100
AcDbText
 10
8.875
 20
-1.637500000000001
 30
0.0
 40
0.5
  1
F4B-GTAH-15
100
AcDbAttributeDefinition
  3

  2
DESCRIPTION
 70
     8
280
     0
  0
ATTDEF
  5
135
330
128
100
AcDbEntity
  8
AM_6
100
AcDbText
 10
8.875
 20
-2.137500000000001
 30
0.0
 40
0.5
  1
With Lube
100
AcDbAttributeDefinition
  3

  2
LUBE
 70
     8
280
     0
  0
ATTDEF
  5
136
330
128
100
AcDbEntity
  8
AM_6
100
AcDbText
 10
8.875
 20
-2.637500000000001
 30
0.0
 40
0.5
  1
16.4
100
AcDbAttributeDefinition
  3

  2
WEIGHT
 70
     8
280
     0
  0
ATTDEF
  5
137
330
128
100
AcDbEntity
  8
AM_6
100
AcDbText
 10
8.875
 20
-3.137500000000001
 30
0.0
 40
0.5
  1
2-9/16
100
AcDbAttributeDefinition
  3

  2
A
 70
     8
280
     0
  0
ATTDEF
  5
138
330
128
100
AcDbEntity
  8
AM_6
100
AcDbText
 10
8.875
 20
-3.637500000000001
 30
0.0
 40
0.5
  1
2.5625
100
AcDbAttributeDefinition
  3

  2
A1
 70
     8
280
     0
  0
ATTDEF
  5
139
330
128
100
AcDbEntity
  8
AM_6
100
AcDbText
 10
8.875
 20
-4.137500000000001
 30
0.0
 40
0.5
  1
7-3/4
100
AcDbAttributeDefinition
  3

  2
B
 70
     8
280
     0
  0
ATTDEF
  5
13A
330
128
100
AcDbEntity
  8
AM_6
100
AcDbText
 10
8.875
 20
-4.637500000000001
 30
0.0
 40
0.5
  1
7.750
100
AcDbAttributeDefinition
  3

  2
B1
 70
     8
280
     0
  0
ATTDEF
  5
13B
330
128
100
AcDbEntity
  8
AM_6
100
AcDbText
 10
8.875
 20
-5.137500000000001
 30
0.0
 40
0.5
  1
3-3/32
100
AcDbAttributeDefinition
  3

  2
C
 70
     8
280
     0
  0
ATTDEF
  5
13C
330
128
100
AcDbEntity
  8
AM_6
100
AcDbText
 10
8.875
 20
-5.637500000000001
 30
0.0
 40
0.5
  1
3.094
100
AcDbAttributeDefinition
  3

  2
C1
 70
     8
280
     0
  0
ATTDEF
  5
13D
330
128
100
AcDbEntity
  8
AM_6
100
AcDbText
 10
8.875
 20
-6.137500000000001
 30
0.0
 40
0.5
  1
6
100
AcDbAttributeDefinition
  3

  2
D
 70
     8
280
     0
  0
ATTDEF
  5
13E
330
128
100
AcDbEntity
  8
AM_6
100
AcDbText
 10
8.875
 20
-6.637500000000001
 30
0.0
 40
0.5
  1
6.000
100
AcDbAttributeDefinition
  3

  2
D1
 70
     8
280
     0
  0
ATTDEF
  5
13F
330
128
100
AcDbEntity
  8
AM_6
100
AcDbText
 10
8.875
 20
-7.137500000000001
 30
0.0
 40
0.5
  1
3/4
100
AcDbAttributeDefinition
  3

  2
F
 70
     8
280
     0
  0
ATTDEF
  5
140
330
128
100
AcDbEntity
  8
AM_6
100
AcDbText
 10
8.875
 20
-7.637500000000001
 30
0.0
 40
0.5
  1
0.750
100
AcDbAttributeDefinition
  3

  2
F1
 70
     8
280
     0
  0
ATTDEF
  5
141
330
128
100
AcDbEntity
  8
AM_6
100
AcDbText
 10
8.875
 20
-8.137500000000001
 30
0.0
 40
0.5
  1
1
100
AcDbAttributeDefinition
  3

  2
H
 70
     8
280
     0
  0
ATTDEF
  5
142
330
128
100
AcDbEntity
  8
AM_6
100
AcDbText
 10
8.875
 20
-8.637500000000001
 30
0.0
 40
0.5
  1
1.000
100
AcDbAttributeDefinition
  3

  2
H1
 70
     8
280
     0
  0
ATTDEF
  5
143
330
128
100
AcDbEntity
  8
AM_6
100
AcDbText
 10
8.875
 20
-9.137500000000001
 30
0.0
 40
0.5
  1
51/64
100
AcDbAttributeDefinition
  3

  2
J
 70
     8
280
     0
  0
ATTDEF
  5
144
330
128
100
AcDbEntity
  8
AM_6
100
AcDbText
 10
8.875
 20
-9.637500000000001
 30
0.0
 40
0.5
  1
0.797
100
AcDbAttributeDefinition
  3

  2
J1
 70
     8
280
     0
  0
ATTDEF
  5
145
330
128
100
AcDbEntity
  8
AM_6
100
AcDbText
 10
8.875
 20
-10.1375
 30
0.0
 40
0.5
  1
4-1/4
100
AcDbAttributeDefinition
  3

  2
L
 70
     8
280
     0
  0
ATTDEF
  5
146
330
128
100
AcDbEntity
  8
AM_6
100
AcDbText
 10
8.875
 20
-10.6375
 30
0.0
 40
0.5
  1
4.250
100
AcDbAttributeDefinition
  3

  2
L1
 70
     8
280
     0
  0
ATTDEF
  5
147
330
128
100
AcDbEntity
  8
AM_6
100
AcDbText
 10
8.875
 20
-11.1375
 30
0.0
 40
0.5
  1
3-7/8
100
AcDbAttributeDefinition
  3

  2
N
 70
     8
280
     0
  0
ATTDEF
  5
148
330
128
100
AcDbEntity
  8
AM_6
100
AcDbText
 10
8.875
 20
-11.6375
 30
0.0
 40
0.5
  1
3.875
100
AcDbAttributeDefinition
  3

  2
N1
 70
     8
280
     0
  0
ATTDEF
  5
149
330
128
100
AcDbEntity
  8
AM_6
100
AcDbText
 10
8.875
 20
-12.1375
 30
0.0
 40
0.5
  1
3-3/64
100
AcDbAttributeDefinition
  3

  2
Z
 70
     8
280
     0
  0
ATTDEF
  5
14A
330
128
100
AcDbEntity
  8
AM_6
100
AcDbText
 10
8.875
 20
-12.6375
 30
0.0
 40
0.5
  1
3.047
100
AcDbAttributeDefinition
  3

  2
Z1
 70
     8
280
     0
  0
ATTDEF
  5
14B
330
128
100
AcDbEntity
  8
AM_6
100
AcDbText
 10
8.875
 20
-13.1375
 30
0.0
 40
0.5
  1
Infotext
100
AcDbAttributeDefinition
  3

  2
INFO
 70
     8
280
     0
  0
ATTDEF
  5
14C
330
128
100
AcDbEntity
  8
AM_6
100
AcDbText
 10
8.875
 20
-13.6375
 30
0.0
 40
0.5
  1
baldor
100
AcDbAttributeDefinition
  3

  2
COMPANY
 70
     8
280
     0
  0
LINE
  5
14D
330
128
100
AcDbEntity
  8
AM_9
 48
0.0225684895965262
100
AcDbLine
 10
0.16681783
 20
1.375
 30
0.0
 11
0.16681783
 21
1.39468504
 31
0.0
  0
LINE
  5
14E
330
128
100
AcDbEntity
  8
AM_9
 48
0.0225684895965262
100
AcDbLine
 10
0.33516609
 20
1.375
 30
0.0
 11
0.33516609
 21
1.39468504
 31
0.0
  0
LINE
  5
14F
330
128
100
AcDbEntity
  8
AM_9
 48
0.0225684895965262
100
AcDbLine
 10
-0.2004874629000166
 20
1.375
 30
0.0
 11
-0.2004874629000166
 21
1.39468504
 31
0.0
  0
LINE
  5
150
330
128
100
AcDbEntity
  8
AM_9
 48
0.0225684895965262
100
AcDbLine
 10
0.06886975
 20
1.375
 30
0.0
 11
0.06886975
 21
1.39468504
 31
0.0
  0
LINE
  5
151
330
128
100
AcDbEntity
  8
AM_9
 48
0.0225684895965262
100
AcDbLine
 10
0.09335677
 20
1.375
 30
0.0
 11
0.09335677
 21
1.39468504
 31
0.0
  0
LINE
  5
152
330
128
100
AcDbEntity
  8
AM_9
 48
0.0225684895965262
100
AcDbLine
 10
-0.2249744897000611
 20
1.375
 30
0.0
 11
-0.2249744897000611
 21
1.39468504
 31
0.0
  0
LINE
  5
153
330
128
100
AcDbEntity
  8
AM_9
 48
0.0225684895965262
100
AcDbLine
 10
-0.0780523722000355
 20
1.375
 30
0.0
 11
-0.0780523722000355
 21
1.39468504
 31
0.0
  0
LINE
  5
154
330
128
100
AcDbEntity
  8
AM_9
 48
0.0225684895965262
100
AcDbLine
 10
-0.2433397436000182
 20
1.375
 30
0.0
 11
-0.2433397436000182
 21
1.39468504
 31
0.0
  0
LINE
  5
155
330
128
100
AcDbEntity
  8
AM_9
 48
0.0225684895965262
100
AcDbLine
 10
-0.1821222090000572
 20
1.375
 30
0.0
 11
-0.1821222090000572
 21
1.39468504
 31
0.0
  0
LINE
  5
156
330
128
100
AcDbEntity
  8
AM_9
 48
0.0225684895965262
100
AcDbLine
 10
0.21273099
 20
1.375
 30
0.0
 11
0.21273099
 21
1.39468504
 31
0.0
  0
LINE
  5
157
330
128
100
AcDbEntity
  8
AM_9
 48
0.0225684895965262
100
AcDbLine
 10
0.05050448
 20
1.375
 30
0.0
 11
0.05050448
 21
1.39468504
 31
0.0
  0
LINE
  5
158
330
128
100
AcDbEntity
  8
AM_9
 48
0.0225684895965262
100
AcDbLine
 10
0.11172203
 20
1.375
 30
0.0
 11
0.11172203
 21
1.39468504
 31
0.0
  0
LINE
  5
159
330
128
100
AcDbEntity
  8
AM_9
 48
0.0225684895965262
100
AcDbLine
 10
-0.0964176369000162
 20
1.375
 30
0.0
 11
-0.0964176369000162
 21
1.39468504
 31
0.0
  0
LINE
  5
15A
330
128
100
AcDbEntity
  8
AM_9
 48
0.0225684895965262
100
AcDbLine
 10
0.06580887
 20
1.375
 30
0.0
 11
0.06580887
 21
1.39468504
 31
0.0
  0
LINE
  5
15B
330
128
100
AcDbEntity
  8
AM_9
 48
0.0225684895965262
100
AcDbLine
 10
-0.0811132479000217
 20
1.375
 30
0.0
 11
-0.0811132479000217
 21
1.39468504
 31
0.0
  0
LINE
  5
15C
330
128
100
AcDbEntity
  8
AM_9
 48
0.0225684895965262
100
AcDbLine
 10
-0.2280353653999914
 20
1.375
 30
0.0
 11
-0.2280353653999914
 21
1.39468504
 31
0.0
  0
LINE
  5
15D
330
128
100
AcDbEntity
  8
AM_9
 48
0.0225684895965262
100
AcDbLine
 10
0.09641765
 20
1.375
 30
0.0
 11
0.09641765
 21
1.39468504
 31
0.0
  0
LINE
  5
15E
330
128
100
AcDbEntity
  8
AM_9
 48
0.0225684895965262
100
AcDbLine
 10
-0.1974265873000162
 20
1.375
 30
0.0
 11
-0.1974265873000162
 21
1.39468504
 31
0.0
  0
LINE
  5
15F
330
128
100
AcDbEntity
  8
AM_9
 48
0.0225684895965262
100
AcDbLine
 10
0.19436572
 20
1.375
 30
0.0
 11
0.19436572
 21
1.39468504
 31
0.0
  0
LINE
  5
160
330
128
100
AcDbEntity
  8
AM_9
 48
0.0225684895965262
100
AcDbLine
 10
-0.1729395605000277
 20
1.375
 30
0.0
 11
-0.1729395605000277
 21
1.39468504
 31
0.0
  0
LINE
  5
161
330
128
100
AcDbEntity
  8
AM_9
 48
0.0225684895965262
100
AcDbLine
 10
0.05968711
 20
1.375
 30
0.0
 11
0.05968711
 21
1.39468504
 31
0.0
  0
LINE
  5
162
330
128
100
AcDbEntity
  8
AM_9
 48
0.0225684895965262
100
AcDbLine
 10
-0.234157116700034
 20
1.375
 30
0.0
 11
-0.234157116700034
 21
1.39468504
 31
0.0
  0
LINE
  5
163
330
128
100
AcDbEntity
  8
AM_9
 48
0.0225684895965262
100
AcDbLine
 10
0.1025393999999999
 20
1.375
 30
0.0
 11
0.1025394
 21
1.39468504
 31
0.0
  0
LINE
  5
164
330
128
100
AcDbEntity
  8
AM_9
 48
0.0225684895965262
100
AcDbLine
 10
-0.2525223706000493
 20
1.375
 30
0.0
 11
-0.2525223706000493
 21
1.39468504
 31
0.0
  0
LINE
  5
165
330
128
100
AcDbEntity
  8
AM_9
 48
0.0225684895965262
100
AcDbLine
 10
-0.0872349992000083
 20
1.375
 30
0.0
 11
-0.0872349992000083
 21
1.39468504
 31
0.0
  0
LINE
  5
166
330
128
100
AcDbEntity
  8
AM_9
 48
0.0225684895965262
100
AcDbLine
 10
0.04132185
 20
1.375
 30
0.0
 11
0.04132185
 21
1.39468504
 31
0.0
  0
LINE
  5
167
330
128
100
AcDbEntity
  8
AM_9
 48
0.0225684895965262
100
AcDbLine
 10
-0.1056002639000449
 20
1.375
 30
0.0
 11
-0.1056002639000449
 21
1.39468504
 31
0.0
  0
LINE
  5
168
330
128
100
AcDbEntity
  8
AM_9
 48
0.0225684895965262
100
AcDbLine
 10
-0.1913048360000297
 20
1.375
 30
0.0
 11
-0.19130483600003
 21
1.39468504
 31
0.0
  0
LINE
  5
169
330
128
100
AcDbEntity
  8
AM_9
 48
0.0225684895965262
100
AcDbLine
 10
0.19130484
 20
1.375
 30
0.0
 11
0.19130484
 21
1.39468504
 31
0.0
  0
LINE
  5
16A
330
128
100
AcDbEntity
  8
AM_9
 48
0.0225684895965262
100
AcDbLine
 10
0.12090467
 20
1.375
 30
0.0
 11
0.12090467
 21
1.39468504
 31
0.0
  0
LINE
  5
16B
330
128
100
AcDbEntity
  8
AM_9
 48
0.0225684895965262
100
AcDbLine
 10
0.20967012
 20
1.375
 30
0.0
 11
0.20967012
 21
1.39468504
 31
0.0
  0
LINE
  5
16C
330
128
100
AcDbEntity
  8
AM_9
 48
0.0225684895965262
100
AcDbLine
 10
0.03213922
 20
1.375
 30
0.0
 11
0.03213922
 21
1.39468504
 31
0.0
  0
LINE
  5
16D
330
128
100
AcDbEntity
  8
AM_9
 48
0.0225684895965262
100
AcDbLine
 10
-0.1637569336000434
 20
1.375
 30
0.0
 11
-0.1637569336000434
 21
1.39468504
 31
0.0
  0
LINE
  5
16E
330
128
100
AcDbEntity
  8
AM_9
 48
0.0225684895965262
100
AcDbLine
 10
0.25558328
 20
1.375
 30
0.0
 11
0.25558328
 21
1.39468504
 31
0.0
  0
LINE
  5
16F
330
128
100
AcDbEntity
  8
AM_9
 48
0.0225684895965262
100
AcDbLine
 10
-0.035200086200065
 20
1.375
 30
0.0
 11
-0.035200086200065
 21
1.39468504
 31
0.0
  0
LINE
  5
170
330
128
100
AcDbEntity
  8
AM_9
 48
0.0225684895965262
100
AcDbLine
 10
-0.1147829015999969
 20
1.375
 30
0.0
 11
-0.1147829015999969
 21
1.39468504
 31
0.0
  0
LINE
  5
171
330
128
100
AcDbEntity
  8
AM_9
 48
0.0225684895965262
100
AcDbLine
 10
0.13008729
 20
1.375
 30
0.0
 11
0.13008729
 21
1.39468504
 31
0.0
  0
LINE
  5
172
330
128
100
AcDbEntity
  8
AM_9
 48
0.0225684895965262
100
AcDbLine
 10
-0.3290443050000261
 20
1.375
 30
0.0
 11
-0.3290443050000261
 21
1.39468504
 31
0.0
  0
LINE
  5
173
330
128
100
AcDbEntity
  8
AM_9
 48
0.0225684895965262
100
AcDbLine
 10
-0.2617050191000226
 20
1.375
 30
0.0
 11
-0.2617050191000226
 21
1.39468504
 31
0.0
  0
LINE
  5
174
330
128
100
AcDbEntity
  8
AM_9
 48
0.0225684895965262
100
AcDbLine
 10
0.18212221
 20
1.375
 30
0.0
 11
0.18212221
 21
1.39468504
 31
0.0
  0
LINE
  5
175
330
128
100
AcDbEntity
  8
AM_9
 48
0.0225684895965262
100
AcDbLine
 10
-0.0994785126000024
 20
1.375
 30
0.0
 11
-0.0994785126000024
 21
1.39468504
 31
0.0
  0
LINE
  5
176
330
128
100
AcDbEntity
  8
AM_9
 48
0.0225684895965262
100
AcDbLine
 10
0.11478291
 20
1.375
 30
0.0
 11
0.11478291
 21
1.39468504
 31
0.0
  0
LINE
  5
177
330
128
100
AcDbEntity
  8
AM_9
 48
0.0225684895965262
100
AcDbLine
 10
0.19742659
 20
1.375
 30
0.0
 11
0.19742659
 21
1.39468504
 31
0.0
  0
LINE
  5
178
330
128
100
AcDbEntity
  8
AM_9
 48
0.0225684895965262
100
AcDbLine
 10
-0.2464006193000068
 20
1.375
 30
0.0
 11
-0.2464006193000068
 21
1.39468504
 31
0.0
  0
LINE
  5
179
330
128
100
AcDbEntity
  8
AM_9
 48
0.0225684895965262
100
AcDbLine
 10
0.04744361
 20
1.375
 30
0.0
 11
0.04744361
 21
1.39468504
 31
0.0
  0
LINE
  5
17A
330
128
100
AcDbEntity
  8
AM_9
 48
0.0225684895965262
100
AcDbLine
 10
-0.1790613334000591
 20
1.375
 30
0.0
 11
-0.1790613334000591
 21
1.39468504
 31
0.0
  0
LINE
  5
17B
330
128
100
AcDbEntity
  8
AM_9
 48
0.0225684895965262
100
AcDbLine
 10
0.0352001
 20
1.375
 30
0.0
 11
0.0352001
 21
1.39468504
 31
0.0
  0
LINE
  5
17C
330
128
100
AcDbEntity
  8
AM_9
 48
0.0225684895965262
100
AcDbLine
 10
-0.258644143400034
 20
1.375
 30
0.0
 11
-0.258644143400034
 21
1.39468504
 31
0.0
  0
LINE
  5
17D
330
128
100
AcDbEntity
  8
AM_9
 48
0.0225684895965262
100
AcDbLine
 10
0.12702642
 20
1.375
 30
0.0
 11
0.12702642
 21
1.39468504
 31
0.0
  0
LINE
  5
17E
330
128
100
AcDbEntity
  8
AM_9
 48
0.0225684895965262
100
AcDbLine
 10
-0.1668178092000414
 20
1.375
 30
0.0
 11
-0.1668178092000414
 21
1.39468504
 31
0.0
  0
LINE
  5
17F
330
128
100
AcDbEntity
  8
AM_9
 48
0.0225684895965262
100
AcDbLine
 10
-0.1117220152000316
 20
1.375
 30
0.0
 11
-0.1117220152000316
 21
1.39468504
 31
0.0
  0
LINE
  5
180
330
128
100
AcDbEntity
  8
AM_9
 48
0.0225684895965262
100
AcDbLine
 10
0.18518309
 20
1.375
 30
0.0
 11
0.18518309
 21
1.39468504
 31
0.0
  0
LINE
  5
181
330
128
100
AcDbEntity
  8
AM_9
 48
0.0225684895965262
100
AcDbLine
 10
0.21273099
 20
1.39468504
 30
0.0
 11
0.09335677
 21
1.39468504
 31
0.0
  0
LINE
  5
182
330
128
100
AcDbEntity
  8
AM_9
 48
0.0225684895965262
100
AcDbLine
 10
-0.2739485216999935
 20
1.375
 30
0.0
 11
-0.2739485216999935
 21
1.39468504
 31
0.0
  0
LINE
  5
183
330
128
100
AcDbEntity
  8
AM_9
 48
0.0225684895965262
100
AcDbLine
 10
-0.1515134310000146
 20
1.375
 30
0.0
 11
-0.1515134310000146
 21
1.39468504
 31
0.0
  0
LINE
  5
184
330
128
100
AcDbEntity
  8
AM_9
 48
0.0225684895965262
100
AcDbLine
 10
-0.1270264042000257
 20
1.375
 30
0.0
 11
-0.1270264042000257
 21
1.39468504
 31
0.0
  0
LINE
  5
185
330
128
100
AcDbEntity
  8
AM_9
 48
0.0225684895965262
100
AcDbLine
 10
0.14233081
 20
1.375
 30
0.0
 11
0.14233081
 21
1.39468504
 31
0.0
  0
LINE
  5
186
330
128
100
AcDbEntity
  8
AM_9
 48
0.0225684895965262
100
AcDbLine
 10
0.1698787
 20
1.375
 30
0.0
 11
0.1698787
 21
1.39468504
 31
0.0
  0
LINE
  5
187
330
128
100
AcDbEntity
  8
AM_9
 48
0.0225684895965262
100
AcDbLine
 10
-0.0780523722000355
 20
1.39468504
 30
0.0
 11
-0.2004874629000166
 21
1.39468504
 31
0.0
  0
LINE
  5
188
330
128
100
AcDbEntity
  8
AM_9
 48
0.0225684895965262
100
AcDbLine
 10
-0.0535653508999878
 20
1.375
 30
0.0
 11
-0.0535653508999878
 21
1.39468504
 31
0.0
  0
LINE
  5
189
330
128
100
AcDbEntity
  8
AM_9
 48
0.0225684895965262
100
AcDbLine
 10
0.237218
 20
1.375
 30
0.0
 11
0.237218
 21
1.39468504
 31
0.0
  0
LINE
  5
18A
330
128
100
AcDbEntity
  8
AM_9
 48
0.0225684895965262
100
AcDbLine
 10
0.06886975
 20
1.39468504
 30
0.0
 11
-0.0535653508999878
 21
1.39468504
 31
0.0
  0
LINE
  5
18B
330
128
100
AcDbEntity
  8
AM_9
 48
0.0225684895965262
100
AcDbLine
 10
0.01989571
 20
1.375
 30
0.0
 11
0.01989571
 21
1.39468504
 31
0.0
  0
LINE
  5
18C
330
128
100
AcDbEntity
  8
AM_9
 48
0.0225684895965262
100
AcDbLine
 10
-0.347409580399984
 20
1.375
 30
0.0
 11
-0.347409580399984
 21
1.39468504
 31
0.0
  0
LINE
  5
18D
330
128
100
AcDbEntity
  8
AM_9
 48
0.0225684895965262
100
AcDbLine
 10
-0.2249744897000611
 20
1.39468504
 30
0.0
 11
-0.347409580399984
 21
1.39468504
 31
0.0
  0
LINE
  5
18E
330
128
100
AcDbEntity
  8
AM_9
 48
0.0225684895965262
100
AcDbLine
 10
0.34740959
 20
1.375
 30
0.0
 11
0.34740959
 21
1.39468504
 31
0.0
  0
LINE
  5
18F
330
128
100
AcDbEntity
  8
AM_9
 48
0.0225684895965262
100
AcDbLine
 10
0.34740959
 20
1.39468504
 30
0.0
 11
0.237218
 21
1.39468504
 31
0.0
  0
LINE
  5
190
330
128
100
AcDbEntity
  8
AM_9
 48
0.0225684895965262
100
AcDbLine
 10
3.12
 20
1.250000000000001
 30
0.0
 11
3.12
 21
1.375
 31
0.0
  0
LINE
  5
191
330
128
100
AcDbEntity
  8
AM_9
 48
0.0225684895965262
100
AcDbLine
 10
-3.12
 20
1.375
 30
0.0
 11
-3.12
 21
1.250000000000001
 31
0.0
  0
LINE
  5
192
330
128
100
AcDbEntity
  8
AM_9
 48
0.0225684895965262
100
AcDbLine
 10
2.920434390303274
 20
1.250000000000001
 30
0.0
 11
2.920434390303274
 21
1.375
 31
0.0
  0
LINE
  5
193
330
128
100
AcDbEntity
  8
AM_9
 48
0.0225684895965262
100
AcDbLine
 10
2.898465714874261
 20
1.249999999999998
 30
0.0
 11
2.898465714874261
 21
1.375
 31
0.0
  0
LINE
  5
194
330
128
100
AcDbEntity
  8
AM_9
 48
0.0225684895965262
100
AcDbLine
 10
2.884264799161073
 20
1.375
 30
0.0
 11
2.884264799161073
 21
1.242533880822144
 31
0.0
  0
LINE
  5
195
330
128
100
AcDbEntity
  8
AM_9
 48
0.0225684895965262
100
AcDbLine
 10
-2.920434390303274
 20
1.250000000000001
 30
0.0
 11
-2.920434390303274
 21
1.375
 31
0.0
  0
LINE
  5
196
330
128
100
AcDbEntity
  8
AM_9
 48
0.0225684895965262
100
AcDbLine
 10
-2.898465710406772
 20
1.249999999999998
 30
0.0
 11
-2.898465710406772
 21
1.375
 31
0.0
  0
LINE
  5
197
330
128
100
AcDbEntity
  8
AM_9
 48
0.0225684895965262
100
AcDbLine
 10
-2.884264799161073
 20
1.242176790039542
 30
0.0
 11
-2.884264799161073
 21
1.375
 31
0.0
  0
LINE
  5
198
330
128
100
AcDbEntity
  8
AM_9
 48
0.0225684895965262
100
AcDbLine
 10
-2.884264799161073
 20
1.375
 30
0.0
 11
-3.875
 21
1.375
 31
0.0
  0
LINE
  5
199
330
128
100
AcDbEntity
  8
AM_9
 48
0.0225684895965262
100
AcDbLine
 10
3.724949559195758
 20
1.250000000000001
 30
0.0
 11
3.724949559195758
 21
1.375
 31
0.0
  0
LINE
  5
19A
330
128
100
AcDbEntity
  8
AM_9
 48
0.0225684895965262
100
AcDbLine
 10
-3.724949559195757
 20
1.250000000000001
 30
0.0
 11
-3.724949559195757
 21
1.375
 31
0.0
  0
LINE
  5
19B
330
128
100
AcDbEntity
  8
AM_9
 48
0.0225684895965262
100
AcDbLine
 10
2.55905
 20
0.0
 30
0.0
 11
2.55905
 21
2.25
 31
0.0
  0
LINE
  5
19C
330
128
100
AcDbEntity
  8
AM_9
 48
0.0225684895965262
100
AcDbLine
 10
-2.55905
 20
2.25
 30
0.0
 11
-2.55905
 21
0.0
 31
0.0
  0
LINE
  5
19D
330
128
100
AcDbEntity
  8
AM_9
 48
0.0225684895965262
100
AcDbLine
 10
2.884264799161073
 20
1.375
 30
0.0
 11
3.875
 21
1.375
 31
0.0
  0
LINE
  5
19E
330
128
100
AcDbEntity
  8
AM_9
 48
0.0225684895965262
100
AcDbLine
 10
0.3149760168110446
 20
0.0379960840228631
 30
0.0
 11
-0.314976016811008
 21
0.0379960840228631
 31
0.0
  0
LINE
  5
19F
330
128
100
AcDbEntity
  8
AM_9
 48
0.0225684895965262
100
AcDbLine
 10
-0.3149999999999999
 20
1.220854413170639
 30
0.0
 11
0.3150000000000001
 21
1.220854413170639
 31
0.0
  0
LINE
  5
1A0
330
128
100
AcDbEntity
  8
AM_9
 48
0.0225684895965262
100
AcDbLine
 10
0.3149999999999999
 20
1.212003915977138
 30
0.0
 11
-0.3150000000000001
 21
1.212003915977138
 31
0.0
  0
LINE
  5
1A1
330
128
100
AcDbEntity
  8
AM_9
 48
0.0225684895965262
100
AcDbLine
 10
-2.625
 20
1.250000000000001
 30
0.0
 11
-2.625
 21
2.25
 31
0.0
  0
LINE
  5
1A2
330
128
100
AcDbEntity
  8
AM_9
 48
0.0225684895965262
100
AcDbLine
 10
-3.375
 20
2.25
 30
0.0
 11
-3.375
 21
1.250000000000001
 31
0.0
  0
LINE
  5
1A3
330
128
100
AcDbEntity
  8
AM_9
 48
0.0225684895965262
100
AcDbLine
 10
3.375
 20
1.250000000000001
 30
0.0
 11
3.375
 21
2.25
 31
0.0
  0
LINE
  5
1A4
330
128
100
AcDbEntity
  8
AM_9
 48
0.0225684895965262
100
AcDbLine
 10
2.625
 20
2.25
 30
0.0
 11
2.625
 21
1.250000000000001
 31
0.0
  0
CIRCLE
  5
1A5
330
128
100
AcDbEntity
  8
AM_9
 48
0.0225684895965262
100
AcDbCircle
 10
0.0
 20
0.2755905511811027
 30
0.0
 40
0.0787401599999997
  0
CIRCLE
  5
1A6
330
128
100
AcDbEntity
  8
AM_9
 48
0.0225684895965262
100
AcDbCircle
 10
0.0
 20
0.2755905511811027
 30
0.0
 40
0.1003136179666384
  0
LINE
  5
1A7
330
128
100
AcDbEntity
  8
AM_7
 48
0.0225684895965262
100
AcDbLine
 10
0.0000000000000001
 20
-0.9721249999999997
 30
0.0
 11
0.0
 21
2.362499999999999
 31
0.0
  0
LINE
  5
1A8
330
128
100
AcDbEntity
  8
AM_7
 48
0.0225684895965262
100
AcDbLine
 10
-3.0
 20
2.3
 30
0.0
 11
-3.0
 21
1.2
 31
0.0
  0
LINE
  5
1A9
330
128
100
AcDbEntity
  8
AM_7
 48
0.0225684895965262
100
AcDbLine
 10
3.0
 20
2.3
 30
0.0
 11
3.0
 21
1.2
 31
0.0
  0
LINE
  5
1AA
330
128
100
AcDbEntity
  8
AM_7
 48
0.0225684895965262
100
AcDbLine
 10
-0.1653543359999993
 20
0.2755905511811031
 30
0.0
 11
0.1653543359999998
 21
0.2755905511811031
 31
0.0
  0
LINE
  5
1AB
330
128
100
AcDbEntity
  8
AM_0
 48
0.0225684895965262
100
AcDbLine
 10
3.12
 20
1.220854413170771
 30
0.0
 11
3.12
 21
1.250000000000001
 31
0.0
  0
LINE
  5
1AC
330
128
100
AcDbEntity
  8
AM_0
 48
0.0225684895965262
100
AcDbLine
 10
-3.12
 20
1.250000000000001
 30
0.0
 11
-3.12
 21
1.220854413170771
 31
0.0
  0
LINE
  5
1AE
330
128
100
AcDbEntity
  8
AM_4
 48
0.0225684895965262
100
AcDbLine
 10
2.898465714874261
 20
1.220854413170836
 30
0.0
 11
2.898465714874261
 21
1.249999999999998
 31
0.0
  0
LWPOLYLINE
  5
1AF
330
128
100
AcDbEntity
  8
AM_0
 48
0.0225684895965262
100
AcDbPolyline
 90
        5
 70
     0
 43
0.0
 10
2.884264799577041
 20
1.242619359744934
 10
2.886613885501315
 20
1.23266389521748
 10
2.889823275933293
 20
1.226893240064282
 10
2.894512720147632
 20
1.222086454095869
 10
2.898465714874261
 20
1.22085441317077
  0
LINE
  5
1B0
330
128
100
AcDbEntity
  8
AM_4
 48
0.0225684895965262
100
AcDbLine
 10
-2.898465710406772
 20
1.220854413170771
 30
0.0
 11
-2.898465710406772
 21
1.249999999999998
 31
0.0
  0
LWPOLYLINE
  5
1B1
330
128
100
AcDbEntity
  8
AM_0
 48
0.0225684895965262
100
AcDbPolyline
 90
        4
 70
     0
 43
0.0
 10
-2.884264823696027
 20
1.242595122405823
 10
-2.884587906412171
 20
1.245552988473801
 10
-2.887698368544213
 20
1.249661059730209
 10
-2.889522934472997
 20
1.25
  0
LINE
  5
1B2
330
128
100
AcDbEntity
  8
AM_0
 48
0.0225684895965262
100
AcDbLine
 10
-3.038329793816058
 20
-0.0000000000000003
 30
0.0
 11
3.038329793816058
 21
-0.0000000000000003
 31
0.0
  0
ARC
  5
1B3
330
128
100
AcDbEntity
  8
AM_0
 48
0.0225684895965262
100
AcDbCircle
 10
3.038329793816057
 20
0.0393700800000005
 30
0.0
 40
0.0393700800000009
100
AcDbArc
 50
270.0000000000026
 51
357.9999999999998
  0
ARC
  5
1B4
330
128
100
AcDbEntity
  8
AM_0
 48
0.0225684895965262
100
AcDbCircle
 10
-3.038329793816057
 20
0.0393700800000005
 30
0.0
 40
0.0393700800000011
100
AcDbArc
 50
182.0000000000001
 51
269.9999999999974
  0
LINE
  5
1B5
330
128
100
AcDbEntity
  8
AM_4
 48
0.0225684895965262
100
AcDbLine
 10
0.3149760168110446
 20
0.0379960840239132
 30
0.0
 11
3.077675890627066
 21
0.0379960840228631
 31
0.0
  0
LINE
  5
1B6
330
128
100
AcDbEntity
  8
AM_0
 48
0.0225684895965262
100
AcDbLine
 10
3.077675890627066
 20
0.0379960840228631
 30
0.0
 11
3.118673147508248
 21
1.212003915977138
 31
0.0
  0
LINE
  5
1B7
330
128
100
AcDbEntity
  8
AM_0
 48
0.0225684895965262
100
AcDbLine
 10
-3.118673147508248
 20
1.212003915977138
 30
0.0
 11
-3.077675890627066
 21
0.0379960840228631
 31
0.0
  0
LINE
  5
1B8
330
128
100
AcDbEntity
  8
AM_4
 48
0.0225684895965262
100
AcDbLine
 10
-3.077675890627066
 20
0.0379960840228631
 30
0.0
 11
-0.314976016811008
 21
0.0379960840228636
 31
0.0
  0
LINE
  5
1B9
330
128
100
AcDbEntity
  8
AM_4
 48
0.0225684895965262
100
AcDbLine
 10
-1.154684588837332
 20
1.220854413170875
 30
0.0
 11
-1.154684588837332
 21
1.375
 31
0.0
  0
LINE
  5
1BA
330
128
100
AcDbEntity
  8
AM_4
 48
0.0225684895965262
100
AcDbLine
 10
1.154684600051532
 20
1.220854413170771
 30
0.0
 11
1.154684600051532
 21
1.375
 31
0.0
  0
LINE
  5
1BB
330
128
100
AcDbEntity
  8
AM_4
 48
0.0225684895965262
100
AcDbLine
 10
0.3149999999999999
 20
1.212003915977164
 30
0.0
 11
3.118673147508248
 21
1.212003915977138
 31
0.0
  0
LINE
  5
1BC
330
128
100
AcDbEntity
  8
AM_0
 48
0.0225684895965262
100
AcDbLine
 10
-0.3149999999999999
 20
1.220854413170621
 30
0.0
 11
-1.154684588837332
 21
1.220854413170875
 31
0.0
  0
LWPOLYLINE
  5
1BD
330
128
100
AcDbEntity
  8
AM_0
 48
0.0225684895965262
100
AcDbPolyline
 90
        8
 70
     0
 43
0.0
 10
-1.274261652348252
 20
1.250000000000001
 10
-1.270876986844107
 20
1.249946032092519
 10
-1.250984619195825
 20
1.247790863601547
 10
-1.230734115598147
 20
1.243186019342947
 10
-1.198139514982746
 20
1.23266389521748
 10
-1.181878756228269
 20
1.226893240064281
 10
-1.165503555528328
 20
1.22208645409587
 10
-1.154684588837332
 20
1.220854413170875
  0
LWPOLYLINE
  5
1BE
330
128
100
AcDbEntity
  8
AM_0
 48
0.0225684895965262
100
AcDbPolyline
 90
        4
 70
     0
 43
0.0
 10
-2.898465710406772
 20
1.220854413170772
 10
-2.8920848021572
 20
1.224119680644091
 10
-2.88558602062349
 20
1.235341052452308
 10
-2.884264823696027
 20
1.242595122405823
  0
LINE
  5
1BF
330
128
100
AcDbEntity
  8
AM_0
 48
0.0225684895965262
100
AcDbLine
 10
-2.898465710406772
 20
1.220854413170771
 30
0.0
 11
-3.119999999999981
 21
1.2208544131707
 31
0.0
  0
LWPOLYLINE
  5
1C0
330
128
100
AcDbEntity
  8
AM_0
 48
0.0225684895965262
100
AcDbPolyline
 90
        5
 70
     0
 43
0.0
 10
2.889522934472994
 20
1.25
 10
2.888762009823293
 20
1.249946032092519
 10
2.885509869797033
 20
1.247790863601546
 10
2.88427511471267
 20
1.243186019342947
 10
2.884264799577041
 20
1.242619359744934
  0
LWPOLYLINE
  5
1C1
330
128
100
AcDbEntity
  8
AM_0
 48
0.0225684895965262
100
AcDbPolyline
 90
        6
 70
     0
 43
0.0
 10
1.154684600051532
 20
1.220854413170771
 10
1.173323695282792
 20
1.224119680644091
 10
1.2057519502728
 20
1.235341052452308
 10
1.240066743984308
 20
1.245552988473801
 10
1.265603215917477
 20
1.249661059730209
 10
1.274261652348263
 20
1.250000000000001
  0
LINE
  5
1C2
330
128
100
AcDbEntity
  8
AM_0
 48
0.0225684895965262
100
AcDbLine
 10
1.154684600051532
 20
1.220854413170771
 30
0.0
 11
0.3150000000000001
 21
1.220854413170621
 31
0.0
  0
ARC
  5
1C3
330
128
100
AcDbEntity
  8
AM_0
 48
0.0225684895965262
100
AcDbCircle
 10
3.158019244319294
 20
1.210629919999994
 30
0.0
 40
0.0393700800000382
100
AcDbArc
 50
164.9476123658974
 51
177.9999999999924
  0
ARC
  5
1C4
330
128
100
AcDbEntity
  8
AM_0
 48
0.0225684895965262
100
AcDbCircle
 10
-3.158019244319224
 20
1.210629920000004
 30
0.0
 40
0.0393700799999682
100
AcDbArc
 50
1.999999999996557
 51
15.05238763404466
  0
LINE
  5
1C5
330
128
100
AcDbEntity
  8
AM_4
 48
0.0225684895965262
100
AcDbLine
 10
-3.118673147508248
 20
1.212003915977138
 30
0.0
 11
-0.3150000000000001
 21
1.212003915977126
 31
0.0
  0
LINE
  5
1C6
330
128
100
AcDbEntity
  8
AM_0
 48
0.0225684895965262
100
AcDbLine
 10
3.119999999999993
 20
1.220854413170747
 30
0.0
 11
2.898465714874261
 21
1.220854413170836
 31
0.0
  0
LINE
  5
1C7
330
128
100
AcDbEntity
  8
AM_0
 48
0.0225684895965262
100
AcDbLine
 10
0.315
 20
0.0393700800000002
 30
0.0
 11
0.3149999999999999
 21
1.375
 31
0.0
  0
LINE
  5
1C8
330
128
100
AcDbEntity
  8
AM_0
 48
0.0225684895965262
100
AcDbLine
 10
-0.3150000000000001
 20
1.375
 30
0.0
 11
-0.315
 21
0.03937008
 31
0.0
  0
ARC
  5
1C9
330
128
100
AcDbEntity
  8
AM_0
 48
0.0225684895965262
100
AcDbCircle
 10
-0.2756299200000001
 20
0.0393700800000001
 30
0.0
 40
0.0393700799999999
100
AcDbArc
 50
180.0000000000002
 51
270.0000000000002
  0
ARC
  5
1CA
330
128
100
AcDbEntity
  8
AM_0
 48
0.0225684895965262
100
AcDbCircle
 10
0.2756299200000001
 20
0.0393700800000001
 30
0.0
 40
0.0393700799999999
100
AcDbArc
 50
269.9999999999998
 51
0.0000000000001717
  0
LINE
  5
1CB
330
128
100
AcDbEntity
  8
AM_0
 48
0.0225684895965262
100
AcDbLine
 10
-0.1818426102881368
 20
0.2755905511811027
 30
0.0
 11
-0.0909213051440684
 21
0.4330708711811027
 31
0.0
  0
LINE
  5
1CC
330
128
100
AcDbEntity
  8
AM_0
 48
0.0225684895965262
100
AcDbLine
 10
-0.0909213051440684
 20
0.1181102311811027
 30
0.0
 11
-0.1818426102881368
 21
0.2755905511811027
 31
0.0
  0
LINE
  5
1CD
330
128
100
AcDbEntity
  8
AM_0
 48
0.0225684895965262
100
AcDbLine
 10
-0.0909213051440684
 20
0.4330708711811027
 30
0.0
 11
0.0909213051440684
 21
0.4330708711811027
 31
0.0
  0
LINE
  5
1CE
330
128
100
AcDbEntity
  8
AM_0
 48
0.0225684895965262
100
AcDbLine
 10
0.1818426102881368
 20
0.2755905511811027
 30
0.0
 11
0.0909213051440684
 21
0.1181102311811027
 31
0.0
  0
LINE
  5
1CF
330
128
100
AcDbEntity
  8
AM_0
 48
0.0225684895965262
100
AcDbLine
 10
0.0909213051440684
 20
0.4330708711811027
 30
0.0
 11
0.1818426102881368
 21
0.2755905511811027
 31
0.0
  0
LINE
  5
1D0
330
128
100
AcDbEntity
  8
AM_0
 48
0.0225684895965262
100
AcDbLine
 10
0.0909213051440684
 20
0.1181102311811027
 30
0.0
 11
-0.0909213051440684
 21
0.1181102311811027
 31
0.0
  0
LINE
  5
1D1
330
128
100
AcDbEntity
  8
AM_4
 48
0.0225684895965262
100
AcDbLine
 10
1.343418118981728
 20
1.250000000000001
 30
0.0
 11
1.343418118981728
 21
1.375
 31
0.0
  0
LINE
  5
1D2
330
128
100
AcDbEntity
  8
AM_4
 48
0.0225684895965262
100
AcDbLine
 10
-1.343418118981728
 20
1.250000000000001
 30
0.0
 11
-1.343418118981728
 21
1.375
 31
0.0
  0
CIRCLE
  5
1D3
330
128
100
AcDbEntity
  8
AM_0
 48
0.0225684895965262
100
AcDbCircle
 10
0.0
 20
0.2755905511811027
 30
0.0
 40
0.1102362199999996
  0
CIRCLE
  5
1D4
330
128
100
AcDbEntity
  8
AM_0
 48
0.0225684895965262
100
AcDbCircle
 10
0.0
 20
0.2755905511811027
 30
0.0
 40
0.1062855090227758
  0
CIRCLE
  5
1D5
330
128
100
AcDbEntity
  8
AM_4
 48
0.0225684895965262
100
AcDbCircle
 10
0.0
 20
0.2755905511811027
 30
0.0
 40
0.1048775701420838
  0
LINE
  5
1D6
330
128
100
AcDbEntity
  8
AM_0
 48
0.0225684895965262
100
AcDbLine
 10
3.875
 20
1.249999999999998
 30
0.0
 11
3.875
 21
2.249999999999998
 31
0.0
  0
LINE
  5
1D7
330
128
100
AcDbEntity
  8
AM_0
 48
0.0225684895965262
100
AcDbLine
 10
2.867335008385783
 20
1.375
 30
0.0
 11
-2.867335008385782
 21
1.375
 31
0.0
  0
LINE
  5
1D8
330
128
100
AcDbEntity
  8
AM_4
 48
0.0225684895965262
100
AcDbLine
 10
3.0
 20
1.249999999999998
 30
0.0
 11
3.0
 21
2.249999999999998
 31
0.0
  0
LINE
  5
1D9
330
128
100
AcDbEntity
  8
AM_0
 48
0.0225684895965262
100
AcDbLine
 10
-3.875
 20
1.249999999999998
 30
0.0
 11
-1.274261652348252
 21
1.250000000000001
 31
0.0
  0
LINE
  5
1DA
330
128
100
AcDbEntity
  8
AM_4
 48
0.0225684895965262
100
AcDbLine
 10
-2.492384853829324
 20
1.250000000000001
 30
0.0
 11
-2.492384853829324
 21
1.375
 31
0.0
  0
LINE
  5
1DB
330
128
100
AcDbEntity
  8
AM_0
 48
0.0225684895965262
100
AcDbLine
 10
-2.867335008385778
 20
1.249999999999998
 30
0.0
 11
-2.867335008385782
 21
1.375
 31
0.0
  0
LINE
  5
1DC
330
128
100
AcDbEntity
  8
AM_0
 48
0.0225684895965262
100
AcDbLine
 10
1.274261652348263
 20
1.250000000000001
 30
0.0
 11
3.875
 21
1.249999999999998
 31
0.0
  0
LINE
  5
1DD
330
128
100
AcDbEntity
  8
AM_0
 48
0.0225684895965262
100
AcDbLine
 10
2.867335008385783
 20
1.375
 30
0.0
 11
2.867335008385779
 21
1.249999999999998
 31
0.0
  0
LINE
  5
1DE
330
128
100
AcDbEntity
  8
AM_4
 48
0.0225684895965262
100
AcDbLine
 10
2.492384853829323
 20
1.250000000000001
 30
0.0
 11
2.492384853829323
 21
1.375
 31
0.0
  0
LINE
  5
1DF
330
128
100
AcDbEntity
  8
AM_0
 48
0.0225684895965262
100
AcDbLine
 10
3.875
 20
2.249999999999998
 30
0.0
 11
-3.875
 21
2.249999999999998
 31
0.0
  0
LINE
  5
1E0
330
128
100
AcDbEntity
  8
AM_0
 48
0.0225684895965262
100
AcDbLine
 10
-3.875
 20
1.249999999999998
 30
0.0
 11
-3.875
 21
2.249999999999998
 31
0.0
  0
LINE
  5
1E1
330
128
100
AcDbEntity
  8
AM_4
 48
0.0225684895965262
100
AcDbLine
 10
-3.0
 20
1.249999999999998
 30
0.0
 11
-3.0
 21
2.249999999999998
 31
0.0
  0
CIRCLE
  5
1E2
330
128
100
AcDbEntity
  8
AM_4
 48
0.0225684895965262
100
AcDbCircle
 10
0.0
 20
0.2755905511811027
 30
0.0
 40
0.0654127384443837
  0
CIRCLE
  5
1E3
330
128
100
AcDbEntity
  8
AM_4
 48
0.0225684895965262
100
AcDbCircle
 10
0.0
 20
0.2755905511811027
 30
0.0
 40
0.0836898395636926
  0
CIRCLE
  5
1E4
330
128
100
AcDbEntity
  8
AM_0
 48
0.0225684895965262
100
AcDbCircle
 10
0.0000000000000002
 20
0.2755905511811031
 30
0.0
 40
0.1574803199999996
  0
ENDBLK
  5
12B
330
128
100
AcDbEntity
  8
0
100
AcDbBlockEnd
  0
ENDSEC
  0
SECTION
  2
ENTITIES
  0
ATTDEF
  5
6F
330
1F
100
AcDbEntity
  8
AM_6
100
AcDbText
 10
8.875
 20
2.362499999999999
 30
0.0
 40
0.5
  1
Grip Tight Air-handling Four-Bolt Flange
100
AcDbAttributeDefinition
  3

  2
NN
 70
     8
280
     0
  0
ATTDEF
  5
70
330
1F
100
AcDbEntity
  8
AM_6
100
AcDbText
 10
8.875
 20
1.862499999999999
 30
0.0
 40
0.5
  1
GTAH Air Handling Normal Duty 4 Bolt Flange Bearings
100
AcDbAttributeDefinition
  3

  2
NT
 70
     8
280
     0
  0
ATTDEF
  5
71
330
1F
100
AcDbEntity
  8
AM_6
100
AcDbText
 10
8.875
 20
1.362499999999999
 30
0.0
 40
0.5
  1
129666
100
AcDbAttributeDefinition
  3

  2
NB
 70
     8
280
     0
  0
ATTDEF
  5
72
330
1F
100
AcDbEntity
  8
AM_6
100
AcDbText
 10
8.875
 20
0.8624999999999994
 30
0.0
 40
0.5
  1
$PN.$LUBE.
100
AcDbAttributeDefinition
  3

  2
NBSYN
 70
     8
280
     0
  0
ATTDEF
  5
73
330
1F
100
AcDbEntity
  8
AM_6
100
AcDbText
 10
8.875
 20
0.3624999999999994
 30
0.0
 40
0.5
  1
129666
100
AcDbAttributeDefinition
  3

  2
LINA
 70
     8
280
     0
  0
ATTDEF
  5
74
330
1F
100
AcDbEntity
  8
AM_6
100
AcDbText
 10
8.875
 20
-0.1375000000000006
 30
0.0
 40
0.5
  1
215
100
AcDbAttributeDefinition
  3

  2
SERIES
 70
     8
280
     0
  0
ATTDEF
  5
75
330
1F
100
AcDbEntity
  8
AM_6
100
AcDbText
 10
8.875
 20
-0.6375000000000006
 30
0.0
 40
0.5
  1
2-15/16
100
AcDbAttributeDefinition
  3

  2
SS
 70
     8
280
     0
  0
ATTDEF
  5
76
330
1F
100
AcDbEntity
  8
AM_6
100
AcDbText
 10
8.875
 20
-1.137500000000001
 30
0.0
 40
0.5
  1
129666
100
AcDbAttributeDefinition
  3

  2
PN
 70
     8
280
     0
  0
ATTDEF
  5
77
330
1F
100
AcDbEntity
  8
AM_6
100
AcDbText
 10
8.875
 20
-1.637500000000001
 30
0.0
 40
0.5
  1
F4B-GTAH-215
100
AcDbAttributeDefinition
  3

  2
DESCRIPTION
 70
     8
280
     0
  0
ATTDEF
  5
78
330
1F
100
AcDbEntity
  8
AM_6
100
AcDbText
 10
8.875
 20
-2.137500000000001
 30
0.0
 40
0.5
  1
2-9/16
100
AcDbAttributeDefinition
  3

  2
A
 70
     8
280
     0
  0
ATTDEF
  5
79
330
1F
100
AcDbEntity
  8
AM_6
100
AcDbText
 10
8.875
 20
-2.637500000000001
 30
0.0
 40
0.5
  1
7-3/4
100
AcDbAttributeDefinition
  3

  2
B
 70
     8
280
     0
  0
ATTDEF
  5
7A
330
1F
100
AcDbEntity
  8
AM_6
100
AcDbText
 10
8.875
 20
-3.137500000000001
 30
0.0
 40
0.5
  1
3-3/32
100
AcDbAttributeDefinition
  3

  2
C
 70
     8
280
     0
  0
ATTDEF
  5
7B
330
1F
100
AcDbEntity
  8
AM_6
100
AcDbText
 10
8.875
 20
-3.637500000000001
 30
0.0
 40
0.5
  1
6
100
AcDbAttributeDefinition
  3

  2
D
 70
     8
280
     0
  0
ATTDEF
  5
7C
330
1F
100
AcDbEntity
  8
AM_6
100
AcDbText
 10
8.875
 20
-4.137500000000001
 30
0.0
 40
0.5
  1
3/4
100
AcDbAttributeDefinition
  3

  2
F
 70
     8
280
     0
  0
ATTDEF
  5
7D
330
1F
100
AcDbEntity
  8
AM_6
100
AcDbText
 10
8.875
 20
-4.637500000000001
 30
0.0
 40
0.5
  1
1
100
AcDbAttributeDefinition
  3

  2
H
 70
     8
280
     0
  0
ATTDEF
  5
7E
330
1F
100
AcDbEntity
  8
AM_6
100
AcDbText
 10
8.875
 20
-5.137500000000001
 30
0.0
 40
0.5
  1
51/64
100
AcDbAttributeDefinition
  3

  2
J
 70
     8
280
     0
  0
ATTDEF
  5
7F
330
1F
100
AcDbEntity
  8
AM_6
100
AcDbText
 10
8.875
 20
-5.637500000000001
 30
0.0
 40
0.5
  1
4-1/4
100
AcDbAttributeDefinition
  3

  2
L
 70
     8
280
     0
  0
ATTDEF
  5
80
330
1F
100
AcDbEntity
  8
AM_6
100
AcDbText
 10
8.875
 20
-6.137500000000001
 30
0.0
 40
0.5
  1
3-7/8
100
AcDbAttributeDefinition
  3

  2
N
 70
     8
280
     0
  0
ATTDEF
  5
81
330
1F
100
AcDbEntity
  8
AM_6
100
AcDbText
 10
8.875
 20
-6.637500000000001
 30
0.0
 40
0.5
  1
3-3/64
100
AcDbAttributeDefinition
  3

  2
Z
 70
     8
280
     0
  0
ATTDEF
  5
82
330
1F
100
AcDbEntity
  8
AM_6
100
AcDbText
 10
8.875
 20
-7.137500000000001
 30
0.0
 40
0.5
  1
baldor
100
AcDbAttributeDefinition
  3

  2
COMPANY
 70
     8
280
     0
  0
INSERT
  5
84
330
1F
100
AcDbEntity
  8
0
100
AcDbBlockReference
  2
1_129527I_0_in_129666_4
 10
0.0
 20
0.0
 30
0.0
  0
INSERT
  5
CD
330
1F
100
AcDbEntity
  8
0
100
AcDbBlockReference
  2
2_129923_0_in_129666_4
 10
0.0
 20
0.0
 30
0.0
  0
INSERT
  5
129
330
1F
100
AcDbEntity
  8
0
100
AcDbBlockReference
  2
3_129485I_0_in_129666_4
 10
0.0
 20
0.0
 30
0.0
  0
POINT
  5
1E6
330
1F
100
AcDbEntity
  8
ConnectionPoints
100
AcDbPoint
 10
0.0000000000000001
 20
0.8278750000000004
 30
-0.0000000000000001
  0
POINT
  5
1E7
330
1F
100
AcDbEntity
  8
ConnectionPoints
100
AcDbPoint
 10
0.0000000000000001
 20
1.7185
 30
-0.0000000000000001
  0
POINT
  5
1E8
330
1F
100
AcDbEntity
  8
ConnectionPoints
100
AcDbPoint
 10
0.0
 20
1.7185
 30
-0.0000000000000001
  0
ENDSEC
  0
SECTION
  2
OBJECTS
  0
DICTIONARY
  5
C
330
0
100
AcDbDictionary
281
     1
  3
ACAD_DETAILVIEWSTYLE
350
1F0
  3
ACAD_GROUP
350
D
  3
ACAD_LAYOUT
350
1A
  3
ACAD_MATERIAL
350
43
  3
ACAD_MLEADERSTYLE
350
6B
  3
ACAD_MLINESTYLE
350
17
  3
ACAD_PLOTSETTINGS
350
19
  3
ACAD_PLOTSTYLENAME
350
E
  3
ACAD_SCALELIST
350
47
  3
ACAD_SECTIONVIEWSTYLE
350
1F1
  3
ACAD_TABLESTYLE
350
69
  3
ACAD_VISUALSTYLE
350
2A
  3
ACDB_RECOMPOSE_DATA
350
1ED
  3
AcDbVariableDictionary
350
1E9
  0
SUN
  5
6D
330
29
100
AcDbSun
 90
        1
290
     0
 63
     7
421
 16777215
 40
1.0
291
     1
 91
  2455826
 92
 54000000
292
     0
 70
     2
 71
   256
280
     1
  0
DICTIONARY
  5
1F0
102
{ACAD_REACTORS
330
C
102
}
330
C
100
AcDbDictionary
281
     1
  0
DICTIONARY
  5
D
102
{ACAD_REACTORS
330
C
102
}
330
C
100
AcDbDictionary
281
     1
  0
DICTIONARY
  5
1A
102
{ACAD_REACTORS
330
C
102
}
330
C
100
AcDbDictionary
281
     1
  3
Layout1
350
1E
  3
Layout2
350
26
  3
Model
350
22
  0
DICTIONARY
  5
43
102
{ACAD_REACTORS
330
C
102
}
330
C
100
AcDbDictionary
281
     1
  3
ByBlock
350
45
  3
ByLayer
350
44
  3
Global
350
46
  0
DICTIONARY
  5
6B
102
{ACAD_REACTORS
330
C
102
}
330
C
100
AcDbDictionary
281
     1
  3
Standard
350
6C
  0
DICTIONARY
  5
17
102
{ACAD_REACTORS
330
C
102
}
330
C
100
AcDbDictionary
281
     1
  3
Standard
350
18
  0
DICTIONARY
  5
19
102
{ACAD_REACTORS
330
C
102
}
330
C
100
AcDbDictionary
281
     1
  0
ACDBDICTIONARYWDFLT
  5
E
102
{ACAD_REACTORS
330
C
102
}
330
C
100
AcDbDictionary
281
     1
  3
Normal
350
F
100
AcDbDictionaryWithDefault
340
F
  0
DICTIONARY
  5
47
102
{ACAD_REACTORS
330
C
102
}
330
C
100
AcDbDictionary
281
     1
  3
A0
350
48
  3
A1
350
49
  3
A2
350
4A
  3
A3
350
4B
  3
A4
350
4C
  3
A5
350
4D
  3
A6
350
4E
  3
A7
350
4F
  3
A8
350
50
  3
A9
350
51
  3
B0
350
52
  3
B1
350
53
  3
B2
350
54
  3
B3
350
55
  3
B4
350
56
  3
B5
350
57
  3
B6
350
58
  3
B7
350
59
  3
B8
350
5A
  3
B9
350
5B
  3
C0
350
5C
  3
C1
350
5D
  3
C2
350
5E
  3
C3
350
5F
  3
C4
350
60
  3
C5
350
61
  3
C6
350
62
  3
C7
350
63
  3
C8
350
64
  3
C9
350
65
  3
D0
350
66
  3
D1
350
67
  3
D2
350
68
  0
DICTIONARY
  5
1F1
102
{ACAD_REACTORS
330
C
102
}
330
C
100
AcDbDictionary
281
     1
  0
DICTIONARY
  5
69
102
{ACAD_REACTORS
330
C
102
}
330
C
100
AcDbDictionary
281
     1
  3
Standard
350
6A
  0
DICTIONARY
  5
2A
102
{ACAD_REACTORS
330
C
102
}
330
C
100
AcDbDictionary
281
     1
  3
2dWireframe
350
2F
  3
Basic
350
32
  3
Brighten
350
36
  3
ColorChange
350
3A
  3
Conceptual
350
34
  3
Dim
350
35
  3
EdgeColorOff
350
3D
  3
Facepattern
350
39
  3
Flat
350
2B
  3
FlatWithEdges
350
2C
  3
Gouraud
350
2D
  3
GouraudWithEdges
350
2E
  3
Hidden
350
31
  3
JitterOff
350
3B
  3
Linepattern
350
38
  3
OverhangOff
350
3C
  3
Realistic
350
33
  3
Shaded
350
42
  3
Shaded with edges
350
41
  3
Shades of Gray
350
3E
  3
Sketchy
350
3F
  3
Thicken
350
37
  3
Wireframe
350
30
  3
X-Ray
350
40
  0
XRECORD
  5
1ED
102
{ACAD_REACTORS
330
C
102
}
330
C
100
AcDbXrecord
280
     1
 90
        1
330
6A
  0
DICTIONARY
  5
1E9
102
{ACAD_REACTORS
330
C
102
}
330
C
100
AcDbDictionary
281
     1
  3
CANNOSCALE
350
1EA
  3
CMLEADERSTYLE
350
1EF
  3
CTABLESTYLE
350
1EE
  0
LAYOUT
  5
1E
102
{ACAD_REACTORS
330
1A
102
}
330
1A
100
AcDbPlotSettings
  1

  2
none_device
  4

  6

 40
0.0
 41
0.0
 42
0.0
 43
0.0
 44
0.0
 45
0.0
 46
0.0
 47
0.0
 48
0.0
 49
0.0
140
0.0
141
0.0
142
1.0
143
1.0
 70
   688
 72
     0
 73
     0
 74
     5
  7

 75
    16
 76
     0
 77
     2
 78
   300
147
1.0
148
0.0
149
0.0
100
AcDbLayout
  1
Layout1
 70
     1
 71
     1
 10
0.0
 20
0.0
 11
12.0
 21
9.0
 12
0.0
 22
0.0
 32
0.0
 14
1.000000000000000E+20
 24
1.000000000000000E+20
 34
1.000000000000000E+20
 15
-1.000000000000000E+20
 25
-1.000000000000000E+20
 35
-1.000000000000000E+20
146
0.0
 13
0.0
 23
0.0
 33
0.0
 16
1.0
 26
0.0
 36
0.0
 17
0.0
 27
1.0
 37
0.0
 76
     0
330
1B
  0
LAYOUT
  5
26
102
{ACAD_REACTORS
330
1A
102
}
330
1A
100
AcDbPlotSettings
  1

  2
none_device
  4

  6

 40
0.0
 41
0.0
 42
0.0
 43
0.0
 44
0.0
 45
0.0
 46
0.0
 47
0.0
 48
0.0
 49
0.0
140
0.0
141
0.0
142
1.0
143
1.0
 70
   688
 72
     0
 73
     0
 74
     5
  7

 75
    16
 76
     0
 77
     2
 78
   300
147
1.0
148
0.0
149
0.0
100
AcDbLayout
  1
Layout2
 70
     1
 71
     2
 10
0.0
 20
0.0
 11
0.0
 21
0.0
 12
0.0
 22
0.0
 32
0.0
 14
0.0
 24
0.0
 34
0.0
 15
0.0
 25
0.0
 35
0.0
146
0.0
 13
0.0
 23
0.0
 33
0.0
 16
1.0
 26
0.0
 36
0.0
 17
0.0
 27
1.0
 37
0.0
 76
     0
330
23
  0
LAYOUT
  5
22
102
{ACAD_REACTORS
330
1A
102
}
330
1A
100
AcDbPlotSettings
  1

  2
none_device
  4
Letter_(8.50_x_11.00_Inches)
  6

 40
6.35
 41
6.35
 42
6.35000508
 43
6.35000508
 44
215.9
 45
279.4
 46
0.0
 47
0.0
 48
0.0
 49
0.0
140
0.0
141
0.0
142
1.0
143
1.0
 70
  1712
 72
     0
 73
     0
 74
     0
  7

 75
     0
 76
     0
 77
     2
 78
   300
147
1.0
148
0.0
149
0.0
100
AcDbLayout
  1
Model
 70
     1
 71
     0
 10
0.0
 20
0.0
 11
12.0
 21
9.0
 12
0.0
 22
0.0
 32
0.0
 14
1.000000000000000E+20
 24
1.000000000000000E+20
 34
1.000000000000000E+20
 15
-1.000000000000000E+20
 25
-1.000000000000000E+20
 35
-1.000000000000000E+20
146
0.0
 13
0.0
 23
0.0
 33
0.0
 16
1.0
 26
0.0
 36
0.0
 17
0.0
 27
1.0
 37
0.0
 76
     0
330
1F
331
29
  0
MATERIAL
  5
45
102
{ACAD_REACTORS
330
43
102
}
330
43
100
AcDbMaterial
  1
ByBlock
 72
     1
 94
      127
  0
MATERIAL
  5
44
102
{ACAD_REACTORS
330
43
102
}
330
43
100
AcDbMaterial
  1
ByLayer
 72
     1
 94
      127
  0
MATERIAL
  5
46
102
{ACAD_REACTORS
330
43
102
}
330
43
100
AcDbMaterial
  1
Global
 72
     1
 94
      127
  0
MLEADERSTYLE
  5
6C
102
{ACAD_REACTORS
330
6B
102
}
330
6B
100
AcDbMLeaderStyle
179
     2
170
     2
171
     1
172
     0
 90
        2
 40
0.0
 41
0.0
173
     1
 91
-1056964608
340
14
 92
       -2
290
     1
 42
0.09
291
     1
 43
0.36
  3
Standard
341
0
 44
0.18
300

342
11
174
     1
178
     6
175
     1
176
     0
 93
-1056964608
 45
0.18
292
     0
297
     0
 46
0.18
343
0
 94
-1056964608
 47
1.0
 49
1.0
140
1.0
293
     1
141
0.0
294
     1
177
     0
142
1.0
295
     0
296
     0
143
0.125
271
     0
272
     9
273
     9
298
     0
  0
MLINESTYLE
  5
18
102
{ACAD_REACTORS
330
17
102
}
330
17
100
AcDbMlineStyle
  2
Standard
 70
     0
  3

 62
   256
 51
90.0
 52
90.0
 71
     2
 49
0.5
 62
   256
  6
BYLAYER
 49
-0.5
 62
   256
  6
BYLAYER
  0
ACDBPLACEHOLDER
  5
F
102
{ACAD_REACTORS
330
E
102
}
330
E
  0
SCALE
  5
48
102
{ACAD_REACTORS
330
47
102
}
330
47
100
AcDbScale
 70
     0
300
1:1
140
1.0
141
1.0
290
     1
  0
SCALE
  5
49
102
{ACAD_REACTORS
330
47
102
}
330
47
100
AcDbScale
 70
     0
300
1:2
140
1.0
141
2.0
290
     0
  0
SCALE
  5
4A
102
{ACAD_REACTORS
330
47
102
}
330
47
100
AcDbScale
 70
     0
300
1:4
140
1.0
141
4.0
290
     0
  0
SCALE
  5
4B
102
{ACAD_REACTORS
330
47
102
}
330
47
100
AcDbScale
 70
     0
300
1:5
140
1.0
141
5.0
290
     0
  0
SCALE
  5
4C
102
{ACAD_REACTORS
330
47
102
}
330
47
100
AcDbScale
 70
     0
300
1:8
140
1.0
141
8.0
290
     0
  0
SCALE
  5
4D
102
{ACAD_REACTORS
330
47
102
}
330
47
100
AcDbScale
 70
     0
300
1:10
140
1.0
141
10.0
290
     0
  0
SCALE
  5
4E
102
{ACAD_REACTORS
330
47
102
}
330
47
100
AcDbScale
 70
     0
300
1:16
140
1.0
141
16.0
290
     0
  0
SCALE
  5
4F
102
{ACAD_REACTORS
330
47
102
}
330
47
100
AcDbScale
 70
     0
300
1:20
140
1.0
141
20.0
290
     0
  0
SCALE
  5
50
102
{ACAD_REACTORS
330
47
102
}
330
47
100
AcDbScale
 70
     0
300
1:30
140
1.0
141
30.0
290
     0
  0
SCALE
  5
51
102
{ACAD_REACTORS
330
47
102
}
330
47
100
AcDbScale
 70
     0
300
1:40
140
1.0
141
40.0
290
     0
  0
SCALE
  5
52
102
{ACAD_REACTORS
330
47
102
}
330
47
100
AcDbScale
 70
     0
300
1:50
140
1.0
141
50.0
290
     0
  0
SCALE
  5
53
102
{ACAD_REACTORS
330
47
102
}
330
47
100
AcDbScale
 70
     0
300
1:100
140
1.0
141
100.0
290
     0
  0
SCALE
  5
54
102
{ACAD_REACTORS
330
47
102
}
330
47
100
AcDbScale
 70
     0
300
2:1
140
2.0
141
1.0
290
     0
  0
SCALE
  5
55
102
{ACAD_REACTORS
330
47
102
}
330
47
100
AcDbScale
 70
     0
300
4:1
140
4.0
141
1.0
290
     0
  0
SCALE
  5
56
102
{ACAD_REACTORS
330
47
102
}
330
47
100
AcDbScale
 70
     0
300
8:1
140
8.0
141
1.0
290
     0
  0
SCALE
  5
57
102
{ACAD_REACTORS
330
47
102
}
330
47
100
AcDbScale
 70
     0
300
10:1
140
10.0
141
1.0
290
     0
  0
SCALE
  5
58
102
{ACAD_REACTORS
330
47
102
}
330
47
100
AcDbScale
 70
     0
300
100:1
140
100.0
141
1.0
290
     0
  0
SCALE
  5
59
102
{ACAD_REACTORS
330
47
102
}
330
47
100
AcDbScale
 70
     0
300
1/128" = 1'-0"
140
0.0078125
141
12.0
290
     0
  0
SCALE
  5
5A
102
{ACAD_REACTORS
330
47
102
}
330
47
100
AcDbScale
 70
     0
300
1/64" = 1'-0"
140
0.015625
141
12.0
290
     0
  0
SCALE
  5
5B
102
{ACAD_REACTORS
330
47
102
}
330
47
100
AcDbScale
 70
     0
300
1/32" = 1'-0"
140
0.03125
141
12.0
290
     0
  0
SCALE
  5
5C
102
{ACAD_REACTORS
330
47
102
}
330
47
100
AcDbScale
 70
     0
300
1/16" = 1'-0"
140
0.0625
141
12.0
290
     0
  0
SCALE
  5
5D
102
{ACAD_REACTORS
330
47
102
}
330
47
100
AcDbScale
 70
     0
300
3/32" = 1'-0"
140
0.09375
141
12.0
290
     0
  0
SCALE
  5
5E
102
{ACAD_REACTORS
330
47
102
}
330
47
100
AcDbScale
 70
     0
300
1/8" = 1'-0"
140
0.125
141
12.0
290
     0
  0
SCALE
  5
5F
102
{ACAD_REACTORS
330
47
102
}
330
47
100
AcDbScale
 70
     0
300
3/16" = 1'-0"
140
0.1875
141
12.0
290
     0
  0
SCALE
  5
60
102
{ACAD_REACTORS
330
47
102
}
330
47
100
AcDbScale
 70
     0
300
1/4" = 1'-0"
140
0.25
141
12.0
290
     0
  0
SCALE
  5
61
102
{ACAD_REACTORS
330
47
102
}
330
47
100
AcDbScale
 70
     0
300
3/8" = 1'-0"
140
0.375
141
12.0
290
     0
  0
SCALE
  5
62
102
{ACAD_REACTORS
330
47
102
}
330
47
100
AcDbScale
 70
     0
300
1/2" = 1'-0"
140
0.5
141
12.0
290
     0
  0
SCALE
  5
63
102
{ACAD_REACTORS
330
47
102
}
330
47
100
AcDbScale
 70
     0
300
3/4" = 1'-0"
140
0.75
141
12.0
290
     0
  0
SCALE
  5
64
102
{ACAD_REACTORS
330
47
102
}
330
47
100
AcDbScale
 70
     0
300
1" = 1'-0"
140
1.0
141
12.0
290
     0
  0
SCALE
  5
65
102
{ACAD_REACTORS
330
47
102
}
330
47
100
AcDbScale
 70
     0
300
1-1/2" = 1'-0"
140
1.5
141
12.0
290
     0
  0
SCALE
  5
66
102
{ACAD_REACTORS
330
47
102
}
330
47
100
AcDbScale
 70
     0
300
3" = 1'-0"
140
3.0
141
12.0
290
     0
  0
SCALE
  5
67
102
{ACAD_REACTORS
330
47
102
}
330
47
100
AcDbScale
 70
     0
300
6" = 1'-0"
140
6.0
141
12.0
290
     0
  0
SCALE
  5
68
102
{ACAD_REACTORS
330
47
102
}
330
47
100
AcDbScale
 70
     0
300
1'-0" = 1'-0"
140
12.0
141
12.0
290
     0
  0
TABLESTYLE
  5
6A
102
{ACAD_REACTORS
330
69
102
}
102
{ACAD_XDICTIONARY
360
1EB
102
}
330
69
100
AcDbTableStyle
  3
Standard
 70
     0
 71
     0
 40
0.06
 41
0.06
280
     0
281
     0
  7
Standard
140
0.18
170
     2
 62
     0
 63
   257
283
     0
 90
        4
 91
        0
  1

274
    -2
284
     1
 64
     0
275
    -2
285
     1
 65
     0
276
    -2
286
     1
 66
     0
277
    -2
287
     1
 67
     0
278
    -2
288
     1
 68
     0
279
    -2
289
     1
 69
     0
  7
Standard
140
0.25
170
     5
 62
     0
 63
   257
283
     0
 90
        4
 91
        0
  1

274
    -2
284
     1
 64
     0
275
    -2
285
     1
 65
     0
276
    -2
286
     1
 66
     0
277
    -2
287
     1
 67
     0
278
    -2
288
     1
 68
     0
279
    -2
289
     1
 69
     0
  7
Standard
140
0.18
170
     5
 62
     0
 63
   257
283
     0
 90
        4
 91
        0
  1

274
    -2
284
     1
 64
     0
275
    -2
285
     1
 65
     0
276
    -2
286
     1
 66
     0
277
    -2
287
     1
 67
     0
278
    -2
288
     1
 68
     0
279
    -2
289
     1
 69
     0
  0
VISUALSTYLE
  5
2F
102
{ACAD_REACTORS
330
2A
102
}
330
2A
100
AcDbVisualStyle
  2
2dWireframe
 70
     4
177
     3
291
     0
 70
    58
 90
        0
176
     1
 90
        2
176
     1
 90
        0
176
     1
 90
        0
176
     1
 40
0.6
176
     1
 40
30.0
176
     1
 62
     7
420
 16777215
176
     1
 90
        1
176
     1
 90
        4
176
     1
 62
     7
176
     1
 62
   257
176
     1
 90
        1
176
     1
 90
        1
176
     1
 40
1.0
176
     1
 90
        0
176
     1
 62
   257
176
     1
 40
1.0
176
     1
 90
        1
176
     1
 90
        6
176
     1
 90
        2
176
     1
 62
     7
176
     1
 90
        5
176
     1
 90
        0
176
     1
 90
        0
176
     1
290
     0
176
     1
 90
        1
176
     1
 40
0.0
176
     1
 90
        0
176
     1
290
     1
176
     1
290
     1
176
     1
290
     0
176
     1
290
     0
176
     1
290
     0
176
     1
290
     0
176
     1
290
     0
176
     1
290
     0
176
     1
290
     0
176
     1
 90
       50
176
     1
 40
0.0
176
     1
 40
1.0
176
     1
 90
        0
176
     1
 62
    18
420
        0
176
     1
 90
       50
176
     1
 90
        3
176
     1
 62
     5
420
      255
176
     1
290
     0
176
     1
 90
       50
176
     1
 90
       50
176
     1
 90
       50
176
     1
290
     0
176
     1
 90
       50
176
     1
 62
   256
176
     0
 40
1.0
176
     0
 90
        2
176
     1
  1
strokes_ogs.tif
176
     1
290
     0
176
     1
 40
1.0
176
     1
 40
1.0
176
     1
  0
VISUALSTYLE
  5
32
102
{ACAD_REACTORS
330
2A
102
}
330
2A
100
AcDbVisualStyle
  2
Basic
 70
     7
177
     3
291
     1
 70
    58
 90
        1
176
     1
 90
        0
176
     1
 90
        1
176
     1
 90
        0
176
     1
 40
0.6
176
     1
 40
30.0
176
     1
 62
     7
420
 16777215
176
     1
 90
        0
176
     1
 90
        4
176
     1
 62
     7
176
     1
 62
   257
176
     1
 90
        1
176
     1
 90
        1
176
     1
 40
1.0
176
     1
 90
        8
176
     1
 62
     7
176
     1
 40
1.0
176
     1
 90
        1
176
     1
 90
        6
176
     1
 90
        2
176
     1
 62
     7
176
     1
 90
        5
176
     1
 90
        0
176
     1
 90
        0
176
     1
290
     0
176
     1
 90
        1
176
     1
 40
0.0
176
     1
 90
        0
176
     1
290
     0
176
     1
290
     1
176
     1
290
     1
176
     1
290
     0
176
     1
290
     0
176
     1
290
     0
176
     1
290
     0
176
     1
290
     0
176
     1
290
     0
176
     1
 90
       50
176
     1
 40
0.0
176
     1
 40
1.0
176
     1
 90
        0
176
     1
 62
    18
420
        0
176
     1
 90
       50
176
     1
 90
        3
176
     1
 62
     5
420
      255
176
     1
290
     0
176
     1
 90
       50
176
     1
 90
       50
176
     1
 90
       50
176
     1
290
     0
176
     1
 90
       50
176
     1
 62
   256
176
     0
 40
1.0
176
     0
 90
        2
176
     1
  1
strokes_ogs.tif
176
     1
290
     0
176
     1
 40
1.0
176
     1
 40
1.0
176
     1
  0
VISUALSTYLE
  5
36
102
{ACAD_REACTORS
330
2A
102
}
330
2A
100
AcDbVisualStyle
  2
Brighten
 70
    12
177
     3
291
     1
 70
    58
 90
        2
176
     1
 90
        2
176
     1
 90
        0
176
     1
 90
        0
176
     1
 40
0.6
176
     1
 40
30.0
176
     1
 62
     7
420
 16777215
176
     1
 90
        1
176
     1
 90
        4
176
     1
 62
     7
176
     1
 62
   257
176
     1
 90
        1
176
     1
 90
        1
176
     1
 40
1.0
176
     1
 90
        8
176
     1
 62
     7
176
     1
 40
1.0
176
     1
 90
        1
176
     1
 90
        6
176
     1
 90
        2
176
     1
 62
     7
176
     1
 90
        5
176
     1
 90
        0
176
     1
 90
        0
176
     1
290
     0
176
     1
 90
        1
176
     1
 40
50.0
176
     1
 90
        0
176
     1
290
     0
176
     1
290
     1
176
     1
290
     1
176
     1
290
     0
176
     1
290
     0
176
     1
290
     0
176
     1
290
     0
176
     1
290
     0
176
     1
290
     0
176
     1
 90
       50
176
     1
 40
0.0
176
     1
 40
1.0
176
     1
 90
        0
176
     1
 62
    18
420
        0
176
     1
 90
       50
176
     1
 90
        3
176
     1
 62
     5
420
      255
176
     1
290
     0
176
     1
 90
       50
176
     1
 90
       50
176
     1
 90
       50
176
     1
290
     0
176
     1
 90
       50
176
     1
 62
   256
176
     0
 40
1.0
176
     0
 90
        2
176
     1
  1
strokes_ogs.tif
176
     1
290
     0
176
     1
 40
1.0
176
     1
 40
1.0
176
     1
  0
VISUALSTYLE
  5
3A
102
{ACAD_REACTORS
330
2A
102
}
330
2A
100
AcDbVisualStyle
  2
ColorChange
 70
    16
177
     3
291
     1
 70
    58
 90
        2
176
     1
 90
        2
176
     1
 90
        3
176
     1
 90
        0
176
     1
 40
0.6
176
     1
 40
30.0
176
     1
 62
     8
420
  8421504
176
     1
 90
        1
176
     1
 90
        4
176
     1
 62
     7
176
     1
 62
   257
176
     1
 90
        1
176
     1
 90
        1
176
     1
 40
1.0
176
     1
 90
        8
176
     1
 62
     8
420
  8421504
176
     1
 40
1.0
176
     1
 90
        1
176
     1
 90
        6
176
     1
 90
        2
176
     1
 62
     7
176
     1
 90
        5
176
     1
 90
        0
176
     1
 90
        0
176
     1
290
     0
176
     1
 90
        1
176
     1
 40
0.0
176
     1
 90
        0
176
     1
290
     0
176
     1
290
     1
176
     1
290
     1
176
     1
290
     0
176
     1
290
     0
176
     1
290
     0
176
     1
290
     0
176
     1
290
     0
176
     1
290
     0
176
     1
 90
       50
176
     1
 40
0.0
176
     1
 40
1.0
176
     1
 90
        0
176
     1
 62
    18
420
        0
176
     1
 90
       50
176
     1
 90
        3
176
     1
 62
     5
420
      255
176
     1
290
     0
176
     1
 90
       50
176
     1
 90
       50
176
     1
 90
       50
176
     1
290
     0
176
     1
 90
       50
176
     1
 62
   256
176
     0
 40
1.0
176
     0
 90
        2
176
     1
  1
strokes_ogs.tif
176
     1
290
     0
176
     1
 40
1.0
176
     1
 40
1.0
176
     1
  0
VISUALSTYLE
  5
34
102
{ACAD_REACTORS
330
2A
102
}
330
2A
100
AcDbVisualStyle
  2
Conceptual
 70
     9
177
     3
291
     0
 70
    58
 90
        3
176
     1
 90
        2
176
     1
 90
        0
176
     1
 90
        0
176
     1
 40
0.6
176
     1
 40
30.0
176
     1
 62
     7
420
 16777215
176
     1
 90
        2
176
     1
 90
        2
176
     1
 62
     7
176
     1
 62
   257
176
     1
 90
        1
176
     1
 90
        1
176
     1
 40
179.0
176
     1
 90
        8
176
     1
 62
     7
176
     1
 40
1.0
176
     1
 90
        1
176
     1
 90
        6
176
     1
 90
        2
176
     1
 62
     7
176
     1
 90
        3
176
     1
 90
        0
176
     1
 90
        0
176
     1
290
     0
176
     1
 90
        1
176
     1
 40
0.0
176
     1
 90
        0
176
     1
290
     0
176
     1
290
     1
176
     1
290
     1
176
     1
290
     0
176
     1
290
     0
176
     1
290
     0
176
     1
290
     0
176
     1
290
     0
176
     1
290
     0
176
     1
 90
       50
176
     1
 40
0.0
176
     1
 40
1.0
176
     1
 90
        0
176
     1
 62
    18
420
        0
176
     1
 90
       50
176
     1
 90
        3
176
     1
 62
     5
420
      255
176
     1
290
     0
176
     1
 90
       50
176
     1
 90
       50
176
     1
 90
       50
176
     1
290
     0
176
     1
 90
       50
176
     1
 62
   256
176
     0
 40
1.0
176
     0
 90
        2
176
     1
  1
strokes_ogs.tif
176
     1
290
     0
176
     1
 40
1.0
176
     1
 40
1.0
176
     1
  0
VISUALSTYLE
  5
35
102
{ACAD_REACTORS
330
2A
102
}
330
2A
100
AcDbVisualStyle
  2
Dim
 70
    11
177
     3
291
     1
 70
    58
 90
        2
176
     1
 90
        2
176
     1
 90
        0
176
     1
 90
        0
176
     1
 40
0.6
176
     1
 40
30.0
176
     1
 62
     7
420
 16777215
176
     1
 90
        1
176
     1
 90
        4
176
     1
 62
     7
176
     1
 62
   257
176
     1
 90
        1
176
     1
 90
        1
176
     1
 40
1.0
176
     1
 90
        8
176
     1
 62
     7
176
     1
 40
1.0
176
     1
 90
        1
176
     1
 90
        6
176
     1
 90
        2
176
     1
 62
     7
176
     1
 90
        5
176
     1
 90
        0
176
     1
 90
        0
176
     1
290
     0
176
     1
 90
        1
176
     1
 40
-50.0
176
     1
 90
        0
176
     1
290
     0
176
     1
290
     1
176
     1
290
     1
176
     1
290
     0
176
     1
290
     0
176
     1
290
     0
176
     1
290
     0
176
     1
290
     0
176
     1
290
     0
176
     1
 90
       50
176
     1
 40
0.0
176
     1
 40
1.0
176
     1
 90
        0
176
     1
 62
    18
420
        0
176
     1
 90
       50
176
     1
 90
        3
176
     1
 62
     5
420
      255
176
     1
290
     0
176
     1
 90
       50
176
     1
 90
       50
176
     1
 90
       50
176
     1
290
     0
176
     1
 90
       50
176
     1
 62
   256
176
     0
 40
1.0
176
     0
 90
        2
176
     1
  1
strokes_ogs.tif
176
     1
290
     0
176
     1
 40
1.0
176
     1
 40
1.0
176
     1
  0
VISUALSTYLE
  5
3D
102
{ACAD_REACTORS
330
2A
102
}
330
2A
100
AcDbVisualStyle
  2
EdgeColorOff
 70
    22
177
     3
291
     1
 70
    58
 90
        2
176
     0
 90
        2
176
     0
 90
        0
176
     0
 90
        0
176
     0
 40
0.6
176
     0
 40
30.0
176
     0
 62
     7
420
 16777215
176
     0
 90
        1
176
     0
 90
        4
176
     0
 62
     7
176
     0
 62
   257
176
     0
 90
        1
176
     0
 90
        1
176
     0
 40
1.0
176
     0
 90
        8
176
     2
 62
     7
176
     0
 40
1.0
176
     0
 90
        1
176
     0
 90
        6
176
     0
 90
        2
176
     0
 62
     7
176
     0
 90
        5
176
     0
 90
        0
176
     0
 90
        0
176
     0
290
     0
176
     0
 90
        1
176
     0
 40
0.0
176
     0
 90
        0
176
     0
290
     0
176
     0
290
     1
176
     0
290
     1
176
     0
290
     0
176
     0
290
     0
176
     0
290
     0
176
     0
290
     0
176
     0
290
     0
176
     0
290
     0
176
     0
 90
       50
176
     0
 40
0.0
176
     0
 40
1.0
176
     0
 90
        0
176
     0
 62
    18
420
        0
176
     0
 90
       50
176
     0
 90
        3
176
     0
 62
     5
420
      255
176
     0
290
     0
176
     0
 90
       50
176
     0
 90
       50
176
     0
 90
       50
176
     0
290
     0
176
     0
 90
       50
176
     0
 62
   256
176
     0
 40
1.0
176
     0
 90
        2
176
     0
  1
strokes_ogs.tif
176
     0
290
     0
176
     0
 40
1.0
176
     0
 40
1.0
176
     0
  0
VISUALSTYLE
  5
39
102
{ACAD_REACTORS
330
2A
102
}
330
2A
100
AcDbVisualStyle
  2
Facepattern
 70
    15
177
     3
291
     1
 70
    58
 90
        2
176
     1
 90
        2
176
     1
 90
        0
176
     1
 90
        0
176
     1
 40
0.6
176
     1
 40
30.0
176
     1
 62
     7
420
 16777215
176
     1
 90
        1
176
     1
 90
        4
176
     1
 62
     7
176
     1
 62
   257
176
     1
 90
        1
176
     1
 90
        1
176
     1
 40
1.0
176
     1
 90
        8
176
     1
 62
     7
176
     1
 40
1.0
176
     1
 90
        1
176
     1
 90
        6
176
     1
 90
        2
176
     1
 62
     7
176
     1
 90
        5
176
     1
 90
        0
176
     1
 90
        0
176
     1
290
     0
176
     1
 90
        1
176
     1
 40
0.0
176
     1
 90
        0
176
     1
290
     0
176
     1
290
     1
176
     1
290
     1
176
     1
290
     0
176
     1
290
     0
176
     1
290
     0
176
     1
290
     0
176
     1
290
     0
176
     1
290
     0
176
     1
 90
       50
176
     1
 40
0.0
176
     1
 40
1.0
176
     1
 90
        0
176
     1
 62
    18
420
        0
176
     1
 90
       50
176
     1
 90
        3
176
     1
 62
     5
420
      255
176
     1
290
     0
176
     1
 90
       50
176
     1
 90
       50
176
     1
 90
       50
176
     1
290
     0
176
     1
 90
       50
176
     1
 62
   256
176
     0
 40
1.0
176
     0
 90
        2
176
     1
  1
strokes_ogs.tif
176
     1
290
     0
176
     1
 40
1.0
176
     1
 40
1.0
176
     1
  0
VISUALSTYLE
  5
2B
102
{ACAD_REACTORS
330
2A
102
}
330
2A
100
AcDbVisualStyle
  2
Flat
 70
     0
177
     3
291
     1
 70
    58
 90
        2
176
     1
 90
        1
176
     1
 90
        1
176
     1
 90
        2
176
     1
 40
0.6
176
     1
 40
30.0
176
     1
 62
     7
420
 16777215
176
     1
 90
        0
176
     1
 90
        0
176
     1
 62
     7
176
     1
 62
   257
176
     1
 90
        1
176
     1
 90
        1
176
     1
 40
1.0
176
     1
 90
        8
176
     1
 62
     7
176
     1
 40
1.0
176
     1
 90
        1
176
     1
 90
        6
176
     1
 90
        2
176
     1
 62
     7
176
     1
 90
        5
176
     1
 90
        0
176
     1
 90
        0
176
     1
290
     0
176
     1
 90
       13
176
     1
 40
0.0
176
     1
 90
        0
176
     1
290
     0
176
     1
290
     1
176
     1
290
     1
176
     1
290
     0
176
     1
290
     0
176
     1
290
     0
176
     1
290
     0
176
     1
290
     0
176
     1
290
     0
176
     1
 90
       50
176
     1
 40
0.0
176
     1
 40
1.0
176
     1
 90
        0
176
     1
 62
    18
420
        0
176
     1
 90
       50
176
     1
 90
        3
176
     1
 62
     5
420
      255
176
     1
290
     0
176
     1
 90
       50
176
     1
 90
       50
176
     1
 90
       50
176
     1
290
     0
176
     1
 90
       50
176
     1
 62
   256
176
     0
 40
1.0
176
     0
 90
        2
176
     1
  1
strokes_ogs.tif
176
     1
290
     0
176
     1
 40
1.0
176
     1
 40
1.0
176
     1
  0
VISUALSTYLE
  5
2C
102
{ACAD_REACTORS
330
2A
102
}
330
2A
100
AcDbVisualStyle
  2
FlatWithEdges
 70
     1
177
     3
291
     1
 70
    58
 90
        2
176
     1
 90
        1
176
     1
 90
        1
176
     1
 90
        2
176
     1
 40
0.6
176
     1
 40
30.0
176
     1
 62
     7
420
 16777215
176
     1
 90
        1
176
     1
 90
        0
176
     1
 62
     7
176
     1
 62
   257
176
     1
 90
        1
176
     1
 90
        1
176
     1
 40
1.0
176
     1
 90
        0
176
     1
 62
   257
176
     1
 40
1.0
176
     1
 90
        1
176
     1
 90
        6
176
     1
 90
        2
176
     1
 62
     7
176
     1
 90
        5
176
     1
 90
        0
176
     1
 90
        0
176
     1
290
     0
176
     1
 90
       13
176
     1
 40
0.0
176
     1
 90
        0
176
     1
290
     0
176
     1
290
     1
176
     1
290
     1
176
     1
290
     0
176
     1
290
     0
176
     1
290
     0
176
     1
290
     0
176
     1
290
     0
176
     1
290
     0
176
     1
 90
       50
176
     1
 40
0.0
176
     1
 40
1.0
176
     1
 90
        0
176
     1
 62
    18
420
        0
176
     1
 90
       50
176
     1
 90
        3
176
     1
 62
     5
420
      255
176
     1
290
     0
176
     1
 90
       50
176
     1
 90
       50
176
     1
 90
       50
176
     1
290
     0
176
     1
 90
       50
176
     1
 62
   256
176
     0
 40
1.0
176
     0
 90
        2
176
     1
  1
strokes_ogs.tif
176
     1
290
     0
176
     1
 40
1.0
176
     1
 40
1.0
176
     1
  0
VISUALSTYLE
  5
2D
102
{ACAD_REACTORS
330
2A
102
}
330
2A
100
AcDbVisualStyle
  2
Gouraud
 70
     2
177
     3
291
     1
 70
    58
 90
        2
176
     1
 90
        2
176
     1
 90
        1
176
     1
 90
        2
176
     1
 40
0.6
176
     1
 40
30.0
176
     1
 62
     7
420
 16777215
176
     1
 90
        0
176
     1
 90
        0
176
     1
 62
     7
176
     1
 62
   257
176
     1
 90
        1
176
     1
 90
        1
176
     1
 40
1.0
176
     1
 90
        0
176
     1
 62
     7
176
     1
 40
1.0
176
     1
 90
        1
176
     1
 90
        6
176
     1
 90
        2
176
     1
 62
     7
176
     1
 90
        5
176
     1
 90
        0
176
     1
 90
        0
176
     1
290
     0
176
     1
 90
       13
176
     1
 40
0.0
176
     1
 90
        0
176
     1
290
     0
176
     1
290
     1
176
     1
290
     1
176
     1
290
     0
176
     1
290
     0
176
     1
290
     0
176
     1
290
     0
176
     1
290
     0
176
     1
290
     0
176
     1
 90
       50
176
     1
 40
0.0
176
     1
 40
1.0
176
     1
 90
        0
176
     1
 62
    18
420
        0
176
     1
 90
       50
176
     1
 90
        3
176
     1
 62
     5
420
      255
176
     1
290
     0
176
     1
 90
       50
176
     1
 90
       50
176
     1
 90
       50
176
     1
290
     0
176
     1
 90
       50
176
     1
 62
   256
176
     0
 40
1.0
176
     0
 90
        2
176
     1
  1
strokes_ogs.tif
176
     1
290
     0
176
     1
 40
1.0
176
     1
 40
1.0
176
     1
  0
VISUALSTYLE
  5
2E
102
{ACAD_REACTORS
330
2A
102
}
330
2A
100
AcDbVisualStyle
  2
GouraudWithEdges
 70
     3
177
     3
291
     1
 70
    58
 90
        2
176
     1
 90
        2
176
     1
 90
        1
176
     1
 90
        2
176
     1
 40
0.6
176
     1
 40
30.0
176
     1
 62
     7
420
 16777215
176
     1
 90
        1
176
     1
 90
        0
176
     1
 62
     7
176
     1
 62
   257
176
     1
 90
        1
176
     1
 90
        1
176
     1
 40
1.0
176
     1
 90
        0
176
     1
 62
   257
176
     1
 40
1.0
176
     1
 90
        1
176
     1
 90
        6
176
     1
 90
        2
176
     1
 62
     7
176
     1
 90
        5
176
     1
 90
        0
176
     1
 90
        0
176
     1
290
     0
176
     1
 90
       13
176
     1
 40
0.0
176
     1
 90
        0
176
     1
290
     0
176
     1
290
     1
176
     1
290
     1
176
     1
290
     0
176
     1
290
     0
176
     1
290
     0
176
     1
290
     0
176
     1
290
     0
176
     1
290
     0
176
     1
 90
       50
176
     1
 40
0.0
176
     1
 40
1.0
176
     1
 90
        0
176
     1
 62
    18
420
        0
176
     1
 90
       50
176
     1
 90
        3
176
     1
 62
     5
420
      255
176
     1
290
     0
176
     1
 90
       50
176
     1
 90
       50
176
     1
 90
       50
176
     1
290
     0
176
     1
 90
       50
176
     1
 62
   256
176
     0
 40
1.0
176
     0
 90
        2
176
     1
  1
strokes_ogs.tif
176
     1
290
     0
176
     1
 40
1.0
176
     1
 40
1.0
176
     1
  0
VISUALSTYLE
  5
31
102
{ACAD_REACTORS
330
2A
102
}
330
2A
100
AcDbVisualStyle
  2
Hidden
 70
     6
177
     3
291
     0
 70
    58
 90
        1
176
     1
 90
        2
176
     1
 90
        2
176
     1
 90
        0
176
     1
 40
0.6
176
     1
 40
30.0
176
     1
 62
     7
420
 16777215
176
     1
 90
        2
176
     1
 90
        2
176
     1
 62
     7
176
     1
 62
   257
176
     1
 90
        2
176
     1
 90
        1
176
     1
 40
40.0
176
     1
 90
        0
176
     1
 62
   257
176
     1
 40
1.0
176
     1
 90
        1
176
     1
 90
        6
176
     1
 90
        2
176
     1
 62
     7
176
     1
 90
        3
176
     1
 90
        0
176
     1
 90
        0
176
     1
290
     0
176
     1
 90
        1
176
     1
 40
0.0
176
     1
 90
        0
176
     1
290
     0
176
     1
290
     1
176
     1
290
     1
176
     1
290
     0
176
     1
290
     0
176
     1
290
     0
176
     1
290
     0
176
     1
290
     0
176
     1
290
     0
176
     1
 90
       50
176
     1
 40
0.0
176
     1
 40
1.0
176
     1
 90
        0
176
     1
 62
    18
420
        0
176
     1
 90
       50
176
     1
 90
        3
176
     1
 62
     5
420
      255
176
     1
290
     0
176
     1
 90
       50
176
     1
 90
       50
176
     1
 90
       50
176
     1
290
     0
176
     1
 90
       50
176
     1
 62
   256
176
     0
 40
1.0
176
     0
 90
        2
176
     1
  1
strokes_ogs.tif
176
     1
290
     0
176
     1
 40
1.0
176
     1
 40
1.0
176
     1
  0
VISUALSTYLE
  5
3B
102
{ACAD_REACTORS
330
2A
102
}
330
2A
100
AcDbVisualStyle
  2
JitterOff
 70
    20
177
     3
291
     1
 70
    58
 90
        2
176
     0
 90
        2
176
     0
 90
        0
176
     0
 90
        0
176
     0
 40
0.6
176
     0
 40
30.0
176
     0
 62
     7
420
 16777215
176
     0
 90
        1
176
     0
 90
        4
176
     0
 62
     7
176
     0
 62
   257
176
     0
 90
        1
176
     0
 90
        1
176
     0
 40
1.0
176
     0
 90
       10
176
     2
 62
     7
176
     0
 40
1.0
176
     0
 90
        1
176
     0
 90
        6
176
     0
 90
        2
176
     0
 62
     7
176
     0
 90
        5
176
     0
 90
        0
176
     0
 90
        0
176
     0
290
     0
176
     0
 90
        1
176
     0
 40
0.0
176
     0
 90
        0
176
     0
290
     0
176
     0
290
     1
176
     0
290
     1
176
     0
290
     0
176
     0
290
     0
176
     0
290
     0
176
     0
290
     0
176
     0
290
     0
176
     0
290
     0
176
     0
 90
       50
176
     0
 40
0.0
176
     0
 40
1.0
176
     0
 90
        0
176
     0
 62
    18
420
        0
176
     0
 90
       50
176
     0
 90
        3
176
     0
 62
     5
420
      255
176
     0
290
     0
176
     0
 90
       50
176
     0
 90
       50
176
     0
 90
       50
176
     0
290
     0
176
     0
 90
       50
176
     0
 62
   256
176
     0
 40
1.0
176
     0
 90
        2
176
     0
  1
strokes_ogs.tif
176
     0
290
     0
176
     0
 40
1.0
176
     0
 40
1.0
176
     0
  0
VISUALSTYLE
  5
38
102
{ACAD_REACTORS
330
2A
102
}
330
2A
100
AcDbVisualStyle
  2
Linepattern
 70
    14
177
     3
291
     1
 70
    58
 90
        2
176
     1
 90
        2
176
     1
 90
        0
176
     1
 90
        0
176
     1
 40
0.6
176
     1
 40
30.0
176
     1
 62
     7
420
 16777215
176
     1
 90
        1
176
     1
 90
        4
176
     1
 62
     7
176
     1
 62
   257
176
     1
 90
        7
176
     1
 90
        7
176
     1
 40
1.0
176
     1
 90
        8
176
     1
 62
     7
176
     1
 40
1.0
176
     1
 90
        1
176
     1
 90
        6
176
     1
 90
        2
176
     1
 62
     7
176
     1
 90
        5
176
     1
 90
        0
176
     1
 90
        0
176
     1
290
     0
176
     1
 90
        1
176
     1
 40
0.0
176
     1
 90
        0
176
     1
290
     0
176
     1
290
     1
176
     1
290
     1
176
     1
290
     0
176
     1
290
     0
176
     1
290
     0
176
     1
290
     0
176
     1
290
     0
176
     1
290
     0
176
     1
 90
       50
176
     1
 40
0.0
176
     1
 40
1.0
176
     1
 90
        0
176
     1
 62
    18
420
        0
176
     1
 90
       50
176
     1
 90
        3
176
     1
 62
     5
420
      255
176
     1
290
     0
176
     1
 90
       50
176
     1
 90
       50
176
     1
 90
       50
176
     1
290
     0
176
     1
 90
       50
176
     1
 62
   256
176
     0
 40
1.0
176
     0
 90
        2
176
     1
  1
strokes_ogs.tif
176
     1
290
     0
176
     1
 40
1.0
176
     1
 40
1.0
176
     1
  0
VISUALSTYLE
  5
3C
102
{ACAD_REACTORS
330
2A
102
}
330
2A
100
AcDbVisualStyle
  2
OverhangOff
 70
    21
177
     3
291
     1
 70
    58
 90
        2
176
     0
 90
        2
176
     0
 90
        0
176
     0
 90
        0
176
     0
 40
0.6
176
     0
 40
30.0
176
     0
 62
     7
420
 16777215
176
     0
 90
        1
176
     0
 90
        4
176
     0
 62
     7
176
     0
 62
   257
176
     0
 90
        1
176
     0
 90
        1
176
     0
 40
1.0
176
     0
 90
        9
176
     2
 62
     7
176
     0
 40
1.0
176
     0
 90
        1
176
     0
 90
        6
176
     0
 90
        2
176
     0
 62
     7
176
     0
 90
        5
176
     0
 90
        0
176
     0
 90
        0
176
     0
290
     0
176
     0
 90
        1
176
     0
 40
0.0
176
     0
 90
        0
176
     0
290
     0
176
     0
290
     1
176
     0
290
     1
176
     0
290
     0
176
     0
290
     0
176
     0
290
     0
176
     0
290
     0
176
     0
290
     0
176
     0
290
     0
176
     0
 90
       50
176
     0
 40
0.0
176
     0
 40
1.0
176
     0
 90
        0
176
     0
 62
    18
420
        0
176
     0
 90
       50
176
     0
 90
        3
176
     0
 62
     5
420
      255
176
     0
290
     0
176
     0
 90
       50
176
     0
 90
       50
176
     0
 90
       50
176
     0
290
     0
176
     0
 90
       50
176
     0
 62
   256
176
     0
 40
1.0
176
     0
 90
        2
176
     0
  1
strokes_ogs.tif
176
     0
290
     0
176
     0
 40
1.0
176
     0
 40
1.0
176
     0
  0
VISUALSTYLE
  5
33
102
{ACAD_REACTORS
330
2A
102
}
330
2A
100
AcDbVisualStyle
  2
Realistic
 70
     8
177
     3
291
     0
 70
    58
 90
        2
176
     1
 90
        3
176
     1
 90
        0
176
     1
 90
        2
176
     1
 40
0.6
176
     1
 40
30.0
176
     1
 62
     7
420
 16777215
176
     1
 90
        0
176
     1
 90
        0
176
     1
 62
     7
176
     1
 62
   257
176
     1
 90
        1
176
     1
 90
        1
176
     1
 40
1.0
176
     1
 90
        8
176
     1
 62
   257
176
     1
 40
1.0
176
     1
 90
        1
176
     1
 90
        6
176
     1
 90
        2
176
     1
 62
     7
176
     1
 90
        3
176
     1
 90
        0
176
     1
 90
        0
176
     1
290
     0
176
     1
 90
       13
176
     1
 40
0.0
176
     1
 90
        0
176
     1
290
     0
176
     1
290
     1
176
     1
290
     1
176
     1
290
     0
176
     1
290
     0
176
     1
290
     0
176
     1
290
     0
176
     1
290
     0
176
     1
290
     0
176
     1
 90
       50
176
     1
 40
0.0
176
     1
 40
1.0
176
     1
 90
        0
176
     1
 62
    18
420
        0
176
     1
 90
       50
176
     1
 90
        3
176
     1
 62
     5
420
      255
176
     1
290
     0
176
     1
 90
       50
176
     1
 90
       50
176
     1
 90
       50
176
     1
290
     0
176
     1
 90
       50
176
     1
 62
   256
176
     0
 40
1.0
176
     0
 90
        2
176
     1
  1
strokes_ogs.tif
176
     1
290
     0
176
     1
 40
1.0
176
     1
 40
1.0
176
     1
  0
VISUALSTYLE
  5
42
102
{ACAD_REACTORS
330
2A
102
}
330
2A
100
AcDbVisualStyle
  2
Shaded
 70
    27
177
     3
291
     0
 70
    58
 90
        2
176
     1
 90
        2
176
     1
 90
        1
176
     1
 90
        2
176
     1
 40
0.6
176
     1
 40
30.0
176
     1
 62
     7
420
 16777215
176
     1
 90
        0
176
     1
 90
        4
176
     1
 62
     7
176
     1
 62
   257
176
     1
 90
        1
176
     1
 90
        1
176
     1
 40
1.0
176
     1
 90
        8
176
     1
 62
   257
176
     1
 40
1.0
176
     1
 90
        1
176
     1
 90
        6
176
     1
 90
        2
176
     1
 62
     8
420
  7895160
176
     1
 90
        3
176
     1
 90
        0
176
     1
 90
        0
176
     1
290
     0
176
     1
 90
        5
176
     1
 40
0.0
176
     1
 90
        0
176
     1
290
     0
176
     1
290
     1
176
     1
290
     1
176
     1
290
     0
176
     1
290
     0
176
     1
290
     0
176
     1
290
     0
176
     1
290
     0
176
     1
290
     0
176
     1
 90
       50
176
     1
 40
0.0
176
     1
 40
1.0
176
     1
 90
        0
176
     1
 62
    18
420
        0
176
     1
 90
       50
176
     1
 90
        3
176
     1
 62
     5
420
      255
176
     1
290
     0
176
     1
 90
       50
176
     1
 90
       50
176
     1
 90
       50
176
     1
290
     0
176
     1
 90
       50
176
     1
 62
   256
176
     0
 40
1.0
176
     0
 90
        2
176
     1
  1
strokes_ogs.tif
176
     1
290
     0
176
     1
 40
1.0
176
     1
 40
1.0
176
     1
  0
VISUALSTYLE
  5
41
102
{ACAD_REACTORS
330
2A
102
}
330
2A
100
AcDbVisualStyle
  2
Shaded with edges
 70
    26
177
     3
291
     0
 70
    58
 90
        2
176
     1
 90
        2
176
     1
 90
        1
176
     1
 90
        2
176
     1
 40
0.6
176
     1
 40
30.0
176
     1
 62
     7
420
 16777215
176
     1
 90
        1
176
     1
 90
       10
176
     1
 62
     7
176
     1
 62
   257
176
     1
 90
        2
176
     1
 90
        1
176
     1
 40
1.0
176
     1
 90
        8
176
     1
 62
   257
176
     1
 40
1.0
176
     1
 90
        1
176
     1
 90
        6
176
     1
 90
        2
176
     1
 62
     7
176
     1
 90
        3
176
     1
 90
        0
176
     1
 90
        0
176
     1
290
     0
176
     1
 90
        5
176
     1
 40
0.0
176
     1
 90
        0
176
     1
290
     0
176
     1
290
     1
176
     1
290
     1
176
     1
290
     0
176
     1
290
     0
176
     1
290
     0
176
     1
290
     0
176
     1
290
     0
176
     1
290
     0
176
     1
 90
       50
176
     1
 40
0.0
176
     1
 40
1.0
176
     1
 90
        0
176
     1
 62
    18
420
        0
176
     1
 90
       50
176
     1
 90
        3
176
     1
 62
     5
420
      255
176
     1
290
     0
176
     1
 90
       50
176
     1
 90
       50
176
     1
 90
       50
176
     1
290
     0
176
     1
 90
       50
176
     1
 62
   256
176
     0
 40
1.0
176
     0
 90
        2
176
     1
  1
strokes_ogs.tif
176
     1
290
     0
176
     1
 40
1.0
176
     1
 40
1.0
176
     1
  0
VISUALSTYLE
  5
3E
102
{ACAD_REACTORS
330
2A
102
}
330
2A
100
AcDbVisualStyle
  2
Shades of Gray
 70
    23
177
     3
291
     0
 70
    58
 90
        2
176
     1
 90
        2
176
     1
 90
        3
176
     1
 90
        0
176
     1
 40
0.6
176
     1
 40
30.0
176
     1
 62
     7
420
 16777215
176
     1
 90
        2
176
     1
 90
        2
176
     1
 62
     7
176
     1
 62
     7
176
     1
 90
        1
176
     1
 90
        1
176
     1
 40
40.0
176
     1
 90
        8
176
     1
 62
     7
176
     1
 40
1.0
176
     1
 90
        1
176
     1
 90
        6
176
     1
 90
        2
176
     1
 62
     7
176
     1
 90
        3
176
     1
 90
        0
176
     1
 90
        0
176
     1
290
     0
176
     1
 90
        1
176
     1
 40
0.0
176
     1
 90
        0
176
     1
290
     0
176
     1
290
     1
176
     1
290
     1
176
     1
290
     0
176
     1
290
     0
176
     1
290
     0
176
     1
290
     0
176
     1
290
     0
176
     1
290
     0
176
     1
 90
       50
176
     1
 40
0.0
176
     1
 40
1.0
176
     1
 90
        0
176
     1
 62
    18
420
        0
176
     1
 90
       50
176
     1
 90
        3
176
     1
 62
     5
420
      255
176
     1
290
     0
176
     1
 90
       50
176
     1
 90
       50
176
     1
 90
       50
176
     1
290
     0
176
     1
 90
       50
176
     1
 62
   256
176
     0
 40
1.0
176
     0
 90
        2
176
     1
  1
strokes_ogs.tif
176
     1
290
     0
176
     1
 40
1.0
176
     1
 40
1.0
176
     1
  0
VISUALSTYLE
  5
3F
102
{ACAD_REACTORS
330
2A
102
}
330
2A
100
AcDbVisualStyle
  2
Sketchy
 70
    24
177
     3
291
     0
 70
    58
 90
        1
176
     1
 90
        2
176
     1
 90
        2
176
     1
 90
        0
176
     1
 40
0.6
176
     1
 40
30.0
176
     1
 62
     7
420
 16777215
176
     1
 90
        2
176
     1
 90
        2
176
     1
 62
     7
176
     1
 62
     7
176
     1
 90
        1
176
     1
 90
        1
176
     1
 40
40.0
176
     1
 90
       11
176
     1
 62
     7
176
     1
 40
1.0
176
     1
 90
        1
176
     1
 90
        6
176
     1
 90
        2
176
     1
 62
     7
176
     1
 90
        6
176
     1
 90
        0
176
     1
 90
        0
176
     1
290
     0
176
     1
 90
        1
176
     1
 40
0.0
176
     1
 90
        0
176
     1
290
     0
176
     1
290
     1
176
     1
290
     1
176
     1
290
     0
176
     1
290
     0
176
     1
290
     0
176
     1
290
     0
176
     1
290
     0
176
     1
290
     0
176
     1
 90
       50
176
     1
 40
0.0
176
     1
 40
1.0
176
     1
 90
        0
176
     1
 62
    18
420
        0
176
     1
 90
       50
176
     1
 90
        3
176
     1
 62
     5
420
      255
176
     1
290
     0
176
     1
 90
       50
176
     1
 90
       50
176
     1
 90
       50
176
     1
290
     0
176
     1
 90
       50
176
     1
 62
   256
176
     0
 40
1.0
176
     0
 90
        2
176
     1
  1
strokes_ogs.tif
176
     1
290
     0
176
     1
 40
1.0
176
     1
 40
1.0
176
     1
  0
VISUALSTYLE
  5
37
102
{ACAD_REACTORS
330
2A
102
}
330
2A
100
AcDbVisualStyle
  2
Thicken
 70
    13
177
     3
291
     1
 70
    58
 90
        2
176
     1
 90
        2
176
     1
 90
        0
176
     1
 90
        0
176
     1
 40
0.6
176
     1
 40
30.0
176
     1
 62
     7
420
 16777215
176
     1
 90
        1
176
     1
 90
        4
176
     1
 62
     7
176
     1
 62
   257
176
     1
 90
        1
176
     1
 90
        1
176
     1
 40
1.0
176
     1
 90
       12
176
     1
 62
     7
176
     1
 40
1.0
176
     1
 90
        1
176
     1
 90
        6
176
     1
 90
        2
176
     1
 62
     7
176
     1
 90
        5
176
     1
 90
        0
176
     1
 90
        0
176
     1
290
     0
176
     1
 90
        1
176
     1
 40
0.0
176
     1
 90
        0
176
     1
290
     0
176
     1
290
     1
176
     1
290
     1
176
     1
290
     0
176
     1
290
     0
176
     1
290
     0
176
     1
290
     0
176
     1
290
     0
176
     1
290
     0
176
     1
 90
       50
176
     1
 40
0.0
176
     1
 40
1.0
176
     1
 90
        0
176
     1
 62
    18
420
        0
176
     1
 90
       50
176
     1
 90
        3
176
     1
 62
     5
420
      255
176
     1
290
     0
176
     1
 90
       50
176
     1
 90
       50
176
     1
 90
       50
176
     1
290
     0
176
     1
 90
       50
176
     1
 62
   256
176
     0
 40
1.0
176
     0
 90
        2
176
     1
  1
strokes_ogs.tif
176
     1
290
     0
176
     1
 40
1.0
176
     1
 40
1.0
176
     1
  0
VISUALSTYLE
  5
30
102
{ACAD_REACTORS
330
2A
102
}
330
2A
100
AcDbVisualStyle
  2
Wireframe
 70
     5
177
     3
291
     0
 70
    58
 90
        0
176
     1
 90
        2
176
     1
 90
        0
176
     1
 90
        0
176
     1
 40
0.6
176
     1
 40
30.0
176
     1
 62
     7
420
 16777215
176
     1
 90
        1
176
     1
 90
        4
176
     1
 62
     7
176
     1
 62
   257
176
     1
 90
        1
176
     1
 90
        1
176
     1
 40
1.0
176
     1
 90
        0
176
     1
 62
   257
176
     1
 40
1.0
176
     1
 90
        1
176
     1
 90
        6
176
     1
 90
        2
176
     1
 62
     7
176
     1
 90
        3
176
     1
 90
        0
176
     1
 90
        0
176
     1
290
     0
176
     1
 90
        1
176
     1
 40
0.0
176
     1
 90
        0
176
     1
290
     0
176
     1
290
     1
176
     1
290
     1
176
     1
290
     0
176
     1
290
     0
176
     1
290
     0
176
     1
290
     0
176
     1
290
     0
176
     1
290
     0
176
     1
 90
       50
176
     1
 40
0.0
176
     1
 40
1.0
176
     1
 90
        0
176
     1
 62
    18
420
        0
176
     1
 90
       50
176
     1
 90
        3
176
     1
 62
     5
420
      255
176
     1
290
     0
176
     1
 90
       50
176
     1
 90
       50
176
     1
 90
       50
176
     1
290
     0
176
     1
 90
       50
176
     1
 62
   256
176
     0
 40
1.0
176
     0
 90
        2
176
     1
  1
strokes_ogs.tif
176
     1
290
     0
176
     1
 40
1.0
176
     1
 40
1.0
176
     1
  0
VISUALSTYLE
  5
40
102
{ACAD_REACTORS
330
2A
102
}
330
2A
100
AcDbVisualStyle
  2
X-Ray
 70
    25
177
     3
291
     0
 70
    58
 90
        2
176
     1
 90
        2
176
     1
 90
        1
176
     1
 90
        1
176
     1
 40
0.5
176
     1
 40
30.0
176
     1
 62
     7
420
 16777215
176
     1
 90
        1
176
     1
 90
        0
176
     1
 62
     7
176
     1
 62
   257
176
     1
 90
        1
176
     1
 90
        1
176
     1
 40
1.0
176
     1
 90
        8
176
     1
 62
     7
176
     1
 40
1.0
176
     1
 90
        1
176
     1
 90
        6
176
     1
 90
        2
176
     1
 62
     7
176
     1
 90
        3
176
     1
 90
        0
176
     1
 90
        0
176
     1
290
     0
176
     1
 90
       13
176
     1
 40
0.0
176
     1
 90
        0
176
     1
290
     0
176
     1
290
     1
176
     1
290
     1
176
     1
290
     0
176
     1
290
     0
176
     1
290
     0
176
     1
290
     0
176
     1
290
     0
176
     1
290
     0
176
     1
 90
       50
176
     1
 40
0.0
176
     1
 40
1.0
176
     1
 90
        0
176
     1
 62
    18
420
        0
176
     1
 90
       50
176
     1
 90
        3
176
     1
 62
     5
420
      255
176
     1
290
     0
176
     1
 90
       50
176
     1
 90
       50
176
     1
 90
       50
176
     1
290
     0
176
     1
 90
       50
176
     1
 62
   256
176
     0
 40
1.0
176
     0
 90
        2
176
     1
  1
strokes_ogs.tif
176
     1
290
     0
176
     1
 40
1.0
176
     1
 40
1.0
176
     1
  0
DICTIONARYVAR
  5
1EA
102
{ACAD_REACTORS
330
1E9
102
}
330
1E9
100
DictionaryVariables
280
     0
  1
1:1
  0
DICTIONARYVAR
  5
1EF
102
{ACAD_REACTORS
330
1E9
102
}
330
1E9
100
DictionaryVariables
280
     0
  1
Standard
  0
DICTIONARYVAR
  5
1EE
102
{ACAD_REACTORS
330
1E9
102
}
330
1E9
100
DictionaryVariables
280
     0
  1
Standard
  0
DICTIONARY
  5
1EB
330
6A
100
AcDbDictionary
280
     1
281
     1
  3
ACAD_ROUNDTRIP_2008_TABLESTYLE_CELLSTYLEMAP
360
1EC
  0
CELLSTYLEMAP
  5
1EC
102
{ACAD_REACTORS
330
1EB
102
}
330
1EB
100
AcDbCellStyleMap
 90
        3
300
CELLSTYLE
  1
TABLEFORMAT_BEGIN
 90
        5
170
     1
 91
        0
 92
    32768
 62
   257
 93
        1
300
CONTENTFORMAT
  1
CONTENTFORMAT_BEGIN
 90
        0
 91
        0
 92
        4
 93
        0
300

 40
0.0
140
1.0
 94
        5
 62
     0
340
11
144
0.25
309
CONTENTFORMAT_END
171
     1
301
MARGIN
  1
CELLMARGIN_BEGIN
 40
0.06
 40
0.06
 40
0.06
 40
0.06
 40
0.06
 40
0.06
309
CELLMARGIN_END
 94
        6
 95
        1
302
GRIDFORMAT
  1
GRIDFORMAT_BEGIN
 90
        0
 91
        1
 62
     0
 92
       -2
340
14
 93
        0
 40
0.045
309
GRIDFORMAT_END
 95
        2
302
GRIDFORMAT
  1
GRIDFORMAT_BEGIN
 90
        0
 91
        1
 62
     0
 92
       -2
340
14
 93
        0
 40
0.045
309
GRIDFORMAT_END
 95
        4
302
GRIDFORMAT
  1
GRIDFORMAT_BEGIN
 90
        0
 91
        1
 62
     0
 92
       -2
340
14
 93
        0
 40
0.045
309
GRIDFORMAT_END
 95
        8
302
GRIDFORMAT
  1
GRIDFORMAT_BEGIN
 90
        0
 91
        1
 62
     0
 92
       -2
340
14
 93
        0
 40
0.045
309
GRIDFORMAT_END
 95
       16
302
GRIDFORMAT
  1
GRIDFORMAT_BEGIN
 90
        0
 91
        1
 62
     0
 92
       -2
340
14
 93
        0
 40
0.045
309
GRIDFORMAT_END
 95
       32
302
GRIDFORMAT
  1
GRIDFORMAT_BEGIN
 90
        0
 91
        1
 62
     0
 92
       -2
340
14
 93
        0
 40
0.045
309
GRIDFORMAT_END
309
TABLEFORMAT_END
  1
CELLSTYLE_BEGIN
 90
        1
 91
        1
300
_TITLE
309
CELLSTYLE_END
300
CELLSTYLE
  1
TABLEFORMAT_BEGIN
 90
        5
170
     1
 91
        0
 92
        0
 62
   257
 93
        1
300
CONTENTFORMAT
  1
CONTENTFORMAT_BEGIN
 90
        0
 91
        0
 92
        4
 93
        0
300

 40
0.0
140
1.0
 94
        5
 62
     0
340
11
144
0.18
309
CONTENTFORMAT_END
171
     1
301
MARGIN
  1
CELLMARGIN_BEGIN
 40
0.06
 40
0.06
 40
0.06
 40
0.06
 40
0.06
 40
0.06
309
CELLMARGIN_END
 94
        6
 95
        1
302
GRIDFORMAT
  1
GRIDFORMAT_BEGIN
 90
        0
 91
        1
 62
     0
 92
       -2
340
14
 93
        0
 40
0.045
309
GRIDFORMAT_END
 95
        2
302
GRIDFORMAT
  1
GRIDFORMAT_BEGIN
 90
        0
 91
        1
 62
     0
 92
       -2
340
14
 93
        0
 40
0.045
309
GRIDFORMAT_END
 95
        4
302
GRIDFORMAT
  1
GRIDFORMAT_BEGIN
 90
        0
 91
        1
 62
     0
 92
       -2
340
14
 93
        0
 40
0.045
309
GRIDFORMAT_END
 95
        8
302
GRIDFORMAT
  1
GRIDFORMAT_BEGIN
 90
        0
 91
        1
 62
     0
 92
       -2
340
14
 93
        0
 40
0.045
309
GRIDFORMAT_END
 95
       16
302
GRIDFORMAT
  1
GRIDFORMAT_BEGIN
 90
        0
 91
        1
 62
     0
 92
       -2
340
14
 93
        0
 40
0.045
309
GRIDFORMAT_END
 95
       32
302
GRIDFORMAT
  1
GRIDFORMAT_BEGIN
 90
        0
 91
        1
 62
     0
 92
       -2
340
14
 93
        0
 40
0.045
309
GRIDFORMAT_END
309
TABLEFORMAT_END
  1
CELLSTYLE_BEGIN
 90
        2
 91
        1
300
_HEADER
309
CELLSTYLE_END
300
CELLSTYLE
  1
TABLEFORMAT_BEGIN
 90
        5
170
     1
 91
        0
 92
        0
 62
   257
 93
        1
300
CONTENTFORMAT
  1
CONTENTFORMAT_BEGIN
 90
        0
 91
        0
 92
        4
 93
        0
300

 40
0.0
140
1.0
 94
        2
 62
     0
340
11
144
0.18
309
CONTENTFORMAT_END
171
     1
301
MARGIN
  1
CELLMARGIN_BEGIN
 40
0.06
 40
0.06
 40
0.06
 40
0.06
 40
0.06
 40
0.06
309
CELLMARGIN_END
 94
        6
 95
        1
302
GRIDFORMAT
  1
GRIDFORMAT_BEGIN
 90
        0
 91
        1
 62
     0
 92
       -2
340
14
 93
        0
 40
0.045
309
GRIDFORMAT_END
 95
        2
302
GRIDFORMAT
  1
GRIDFORMAT_BEGIN
 90
        0
 91
        1
 62
     0
 92
       -2
340
14
 93
        0
 40
0.045
309
GRIDFORMAT_END
 95
        4
302
GRIDFORMAT
  1
GRIDFORMAT_BEGIN
 90
        0
 91
        1
 62
     0
 92
       -2
340
14
 93
        0
 40
0.045
309
GRIDFORMAT_END
 95
        8
302
GRIDFORMAT
  1
GRIDFORMAT_BEGIN
 90
        0
 91
        1
 62
     0
 92
       -2
340
14
 93
        0
 40
0.045
309
GRIDFORMAT_END
 95
       16
302
GRIDFORMAT
  1
GRIDFORMAT_BEGIN
 90
        0
 91
        1
 62
     0
 92
       -2
340
14
 93
        0
 40
0.045
309
GRIDFORMAT_END
 95
       32
302
GRIDFORMAT
  1
GRIDFORMAT_BEGIN
 90
        0
 91
        1
 62
     0
 92
       -2
340
14
 93
        0
 40
0.045
309
GRIDFORMAT_END
309
TABLEFORMAT_END
  1
CELLSTYLE_BEGIN
 90
        3
 91
        2
300
_DATA
309
CELLSTYLE_END
  0
ENDSEC
  0
EOF