0
SECTION
  2
HEADER
  9
$ACADVER
  1
AC1027
  9
$ACADMAINTVER
 70
     8
  9
$DWGCODEPAGE
  3
ANSI_1252
  9
$REQUIREDVERSIONS
160
                 0
  9
$COMMENTS
  1
File was created by Cadenas
  9
$CUSTOMPROPERTYTAG
  1
NN
  9
$CUSTOMPROPERTY
  1
Grip Tight Air-handling Four-Bolt Flange
  9
$CUSTOMPROPERTYTAG
  1
NT
  9
$CUSTOMPROPERTY
  1
GTAH Air Handling Normal Duty 4 Bolt Flange Bearings
  9
$CUSTOMPROPERTYTAG
  1
NB
  9
$CUSTOMPROPERTY
  1
129660
  9
$CUSTOMPROPERTYTAG
  1
NBSYN
  9
$CUSTOMPROPERTY
  1
$PN.$LUBE.
  9
$CUSTOMPROPERTYTAG
  1
LINA
  9
$CUSTOMPROPERTY
  1
129660
  9
$CUSTOMPROPERTYTAG
  1
SERIES
  9
$CUSTOMPROPERTY
  1
206
  9
$CUSTOMPROPERTYTAG
  1
SS
  9
$CUSTOMPROPERTY
  1
1-3/16
  9
$CUSTOMPROPERTYTAG
  1
PN
  9
$CUSTOMPROPERTY
  1
129660
  9
$CUSTOMPROPERTYTAG
  1
DESCRIPTION
  9
$CUSTOMPROPERTY
  1
F4B-GTAH-103
  9
$CUSTOMPROPERTYTAG
  1
A
  9
$CUSTOMPROPERTY
  1
1-39/64
  9
$CUSTOMPROPERTYTAG
  1
B
  9
$CUSTOMPROPERTY
  1
4-1/4
  9
$CUSTOMPROPERTYTAG
  1
C
  9
$CUSTOMPROPERTY
  1
1-45/64
  9
$CUSTOMPROPERTYTAG
  1
D
  9
$CUSTOMPROPERTY
  1
3-1/4
  9
$CUSTOMPROPERTYTAG
  1
F
  9
$CUSTOMPROPERTY
  1
7/16
  9
$CUSTOMPROPERTYTAG
  1
H
  9
$CUSTOMPROPERTY
  1
1/2
  9
$CUSTOMPROPERTYTAG
  1
J
  9
$CUSTOMPROPERTY
  1
19/32
  9
$CUSTOMPROPERTYTAG
  1
L
  9
$CUSTOMPROPERTY
  1
2
  9
$CUSTOMPROPERTYTAG
  1
N
  9
$CUSTOMPROPERTY
  1
2-3/16
  9
$CUSTOMPROPERTYTAG
  1
Z
  9
$CUSTOMPROPERTY
  1
1-21/32
  9
$CUSTOMPROPERTYTAG
  1
COMPANY
  9
$CUSTOMPROPERTY
  1
baldor
  9
$INSBASE
 10
0.0
 20
0.0
 30
0.0
  9
$EXTMIN
 10
1.000000000000000E+20
 20
1.000000000000000E+20
 30
1.000000000000000E+20
  9
$EXTMAX
 10
-1.000000000000000E+20
 20
-1.000000000000000E+20
 30
-1.000000000000000E+20
  9
$LIMMIN
 10
0.0
 20
0.0
  9
$LIMMAX
 10
12.0
 20
9.0
  9
$ORTHOMODE
 70
     0
  9
$REGENMODE
 70
     1
  9
$FILLMODE
 70
     1
  9
$QTEXTMODE
 70
     0
  9
$MIRRTEXT
 70
     1
  9
$LTSCALE
 40
1.0
  9
$ATTMODE
 70
     1
  9
$TEXTSIZE
 40
0.2
  9
$TRACEWID
 40
0.05
  9
$TEXTSTYLE
  7
Standard
  9
$CLAYER
  8
0
  9
$CELTYPE
  6
ByLayer
  9
$CECOLOR
 62
   256
  9
$CELTSCALE
 40
1.0
  9
$DISPSILH
 70
     0
  9
$DIMSCALE
 40
1.0
  9
$DIMASZ
 40
0.18
  9
$DIMEXO
 40
0.0625
  9
$DIMDLI
 40
0.38
  9
$DIMRND
 40
0.0
  9
$DIMDLE
 40
0.0
  9
$DIMEXE
 40
0.18
  9
$DIMTP
 40
0.0
  9
$DIMTM
 40
0.0
  9
$DIMTXT
 40
0.18
  9
$DIMCEN
 40
0.09
  9
$DIMTSZ
 40
0.0
  9
$DIMTOL
 70
     0
  9
$DIMLIM
 70
     0
  9
$DIMTIH
 70
     1
  9
$DIMTOH
 70
     1
  9
$DIMSE1
 70
     0
  9
$DIMSE2
 70
     0
  9
$DIMTAD
 70
     0
  9
$DIMZIN
 70
     0
  9
$DIMBLK
  1

  9
$DIMASO
 70
     1
  9
$DIMSHO
 70
     1
  9
$DIMPOST
  1

  9
$DIMAPOST
  1

  9
$DIMALT
 70
     0
  9
$DIMALTD
 70
     2
  9
$DIMALTF
 40
25.4
  9
$DIMLFAC
 40
1.0
  9
$DIMTOFL
 70
     0
  9
$DIMTVP
 40
0.0
  9
$DIMTIX
 70
     0
  9
$DIMSOXD
 70
     0
  9
$DIMSAH
 70
     0
  9
$DIMBLK1
  1

  9
$DIMBLK2
  1

  9
$DIMSTYLE
  2
Standard
  9
$DIMCLRD
 70
     0
  9
$DIMCLRE
 70
     0
  9
$DIMCLRT
 70
     0
  9
$DIMTFAC
 40
1.0
  9
$DIMGAP
 40
0.09
  9
$DIMJUST
 70
     0
  9
$DIMSD1
 70
     0
  9
$DIMSD2
 70
     0
  9
$DIMTOLJ
 70
     1
  9
$DIMTZIN
 70
     0
  9
$DIMALTZ
 70
     0
  9
$DIMALTTZ
 70
     0
  9
$DIMUPT
 70
     0
  9
$DIMDEC
 70
     4
  9
$DIMTDEC
 70
     4
  9
$DIMALTU
 70
     2
  9
$DIMALTTD
 70
     2
  9
$DIMTXSTY
  7
Standard
  9
$DIMAUNIT
 70
     0
  9
$DIMADEC
 70
     0
  9
$DIMALTRND
 40
0.0
  9
$DIMAZIN
 70
     0
  9
$DIMDSEP
 70
    46
  9
$DIMATFIT
 70
     3
  9
$DIMFRAC
 70
     0
  9
$DIMLDRBLK
  1

  9
$DIMLUNIT
 70
     2
  9
$DIMLWD
 70
    -2
  9
$DIMLWE
 70
    -2
  9
$DIMTMOVE
 70
     0
  9
$DIMFXL
 40
1.0
  9
$DIMFXLON
 70
     0
  9
$DIMJOGANG
 40
0.7853981633974483
  9
$DIMTFILL
 70
     0
  9
$DIMTFILLCLR
 70
     0
  9
$DIMARCSYM
 70
     0
  9
$DIMLTYPE
  6

  9
$DIMLTEX1
  6

  9
$DIMLTEX2
  6

  9
$DIMTXTDIRECTION
 70
     0
  9
$LUNITS
 70
     2
  9
$LUPREC
 70
     4
  9
$SKETCHINC
 40
0.1
  9
$FILLETRAD
 40
0.5
  9
$AUNITS
 70
     0
  9
$AUPREC
 70
     0
  9
$MENU
  1
.
  9
$ELEVATION
 40
0.0
  9
$PELEVATION
 40
0.0
  9
$THICKNESS
 40
0.0
  9
$LIMCHECK
 70
     0
  9
$CHAMFERA
 40
0.0
  9
$CHAMFERB
 40
0.0
  9
$CHAMFERC
 40
0.0
  9
$CHAMFERD
 40
0.0
  9
$SKPOLY
 70
     0
  9
$TDCREATE
 40
2458168.994909398
  9
$TDUCREATE
 40
2458168.953242731
  9
$TDUPDATE
 40
2458168.994909572
  9
$TDUUPDATE
 40
2458168.953242905
  9
$TDINDWG
 40
0.0000000116
  9
$TDUSRTIMER
 40
0.0000000116
  9
$USRTIMER
 70
     1
  9
$ANGBASE
 50
0.0
  9
$ANGDIR
 70
     0
  9
$PDMODE
 70
     0
  9
$PDSIZE
 40
0.0
  9
$PLINEWID
 40
0.0
  9
$SPLFRAME
 70
     0
  9
$SPLINETYPE
 70
     6
  9
$SPLINESEGS
 70
     8
  9
$HANDSEED
  5
22E
  9
$SURFTAB1
 70
     6
  9
$SURFTAB2
 70
     6
  9
$SURFTYPE
 70
     6
  9
$SURFU
 70
     6
  9
$SURFV
 70
     6
  9
$UCSBASE
  2

  9
$UCSNAME
  2

  9
$UCSORG
 10
0.0
 20
0.0
 30
0.0
  9
$UCSXDIR
 10
1.0
 20
0.0
 30
0.0
  9
$UCSYDIR
 10
0.0
 20
1.0
 30
0.0
  9
$UCSORTHOREF
  2

  9
$UCSORTHOVIEW
 70
     0
  9
$UCSORGTOP
 10
0.0
 20
0.0
 30
0.0
  9
$UCSORGBOTTOM
 10
0.0
 20
0.0
 30
0.0
  9
$UCSORGLEFT
 10
0.0
 20
0.0
 30
0.0
  9
$UCSORGRIGHT
 10
0.0
 20
0.0
 30
0.0
  9
$UCSORGFRONT
 10
0.0
 20
0.0
 30
0.0
  9
$UCSORGBACK
 10
0.0
 20
0.0
 30
0.0
  9
$PUCSBASE
  2

  9
$PUCSNAME
  2

  9
$PUCSORG
 10
0.0
 20
0.0
 30
0.0
  9
$PUCSXDIR
 10
1.0
 20
0.0
 30
0.0
  9
$PUCSYDIR
 10
0.0
 20
1.0
 30
0.0
  9
$PUCSORTHOREF
  2

  9
$PUCSORTHOVIEW
 70
     0
  9
$PUCSORGTOP
 10
0.0
 20
0.0
 30
0.0
  9
$PUCSORGBOTTOM
 10
0.0
 20
0.0
 30
0.0
  9
$PUCSORGLEFT
 10
0.0
 20
0.0
 30
0.0
  9
$PUCSORGRIGHT
 10
0.0
 20
0.0
 30
0.0
  9
$PUCSORGFRONT
 10
0.0
 20
0.0
 30
0.0
  9
$PUCSORGBACK
 10
0.0
 20
0.0
 30
0.0
  9
$USERI1
 70
     0
  9
$USERI2
 70
     0
  9
$USERI3
 70
     0
  9
$USERI4
 70
     0
  9
$USERI5
 70
     0
  9
$USERR1
 40
0.0
  9
$USERR2
 40
0.0
  9
$USERR3
 40
0.0
  9
$USERR4
 40
0.0
  9
$USERR5
 40
0.0
  9
$WORLDVIEW
 70
     1
  9
$SHADEDGE
 70
     3
  9
$SHADEDIF
 70
    70
  9
$TILEMODE
 70
     1
  9
$MAXACTVP
 70
    64
  9
$PINSBASE
 10
0.0
 20
0.0
 30
0.0
  9
$PLIMCHECK
 70
     0
  9
$PEXTMIN
 10
1.000000000000000E+20
 20
1.000000000000000E+20
 30
1.000000000000000E+20
  9
$PEXTMAX
 10
-1.000000000000000E+20
 20
-1.000000000000000E+20
 30
-1.000000000000000E+20
  9
$PLIMMIN
 10
0.0
 20
0.0
  9
$PLIMMAX
 10
12.0
 20
9.0
  9
$UNITMODE
 70
     0
  9
$VISRETAIN
 70
     1
  9
$PLINEGEN
 70
     0
  9
$PSLTSCALE
 70
     1
  9
$TREEDEPTH
 70
  3020
  9
$CMLSTYLE
  2
Standard
  9
$CMLJUST
 70
     0
  9
$CMLSCALE
 40
1.0
  9
$PROXYGRAPHICS
 70
     1
  9
$MEASUREMENT
 70
     0
  9
$CELWEIGHT
370
    -1
  9
$ENDCAPS
280
     0
  9
$JOINSTYLE
280
     0
  9
$LWDISPLAY
290
     0
  9
$INSUNITS
 70
     1
  9
$HYPERLINKBASE
  1

  9
$STYLESHEET
  1

  9
$XEDIT
290
     1
  9
$CEPSNTYPE
380
     0
  9
$PSTYLEMODE
290
     1
  9
$FINGERPRINTGUID
  2
{9B62074C-8210-49B9-8502-E0FA4C38A6F5}
  9
$VERSIONGUID
  2
{FAEB1C32-E019-11D5-929B-00C0DF256EC4}
  9
$EXTNAMES
290
     1
  9
$PSVPSCALE
 40
0.0
  9
$OLESTARTUP
290
     0
  9
$SORTENTS
280
   127
  9
$INDEXCTL
280
     0
  9
$HIDETEXT
280
     1
  9
$XCLIPFRAME
280
     2
  9
$HALOGAP
280
     0
  9
$OBSCOLOR
 70
   257
  9
$OBSLTYPE
280
     0
  9
$INTERSECTIONDISPLAY
280
     0
  9
$INTERSECTIONCOLOR
 70
   257
  9
$DIMASSOC
280
     2
  9
$PROJECTNAME
  1

  9
$CAMERADISPLAY
290
     0
  9
$LENSLENGTH
 40
50.0
  9
$CAMERAHEIGHT
 40
0.0
  9
$STEPSPERSEC
 40
2.0
  9
$STEPSIZE
 40
6.0
  9
$3DDWFPREC
 40
2.0
  9
$PSOLWIDTH
 40
0.25
  9
$PSOLHEIGHT
 40
4.0
  9
$LOFTANG1
 40
1.570796326794897
  9
$LOFTANG2
 40
1.570796326794897
  9
$LOFTMAG1
 40
0.0
  9
$LOFTMAG2
 40
0.0
  9
$LOFTPARAM
 70
     7
  9
$LOFTNORMALS
280
     1
  9
$LATITUDE
 40
37.795
  9
$LONGITUDE
 40
-122.394
  9
$NORTHDIRECTION
 40
0.0
  9
$TIMEZONE
 70
 -8000
  9
$LIGHTGLYPHDISPLAY
280
     1
  9
$TILEMODELIGHTSYNCH
280
     1
  9
$CMATERIAL
347
44
  9
$SOLIDHIST
280
     0
  9
$SHOWHIST
280
     1
  9
$DWFFRAME
280
     2
  9
$DGNFRAME
280
     2
  9
$REALWORLDSCALE
290
     1
  9
$INTERFERECOLOR
 62
   256
  9
$CSHADOW
280
     0
  9
$SHADOWPLANELOCATION
 40
0.0
  0
ENDSEC
  0
SECTION
  2
CLASSES
  0
CLASS
  1
ACDBDICTIONARYWDFLT
  2
AcDbDictionaryWithDefault
  3
ObjectDBX Classes
 90
        0
 91
        4
280
     0
281
     0
  0
CLASS
  1
VISUALSTYLE
  2
AcDbVisualStyle
  3
ObjectDBX Classes
 90
     4095
 91
        4
280
     0
281
     0
  0
CLASS
  1
MATERIAL
  2
AcDbMaterial
  3
ObjectDBX Classes
 90
     1153
 91
        4
280
     0
281
     0
  0
CLASS
  1
SCALE
  2
AcDbScale
  3
ObjectDBX Classes
 90
     1153
 91
        4
280
     0
281
     0
  0
CLASS
  1
TABLESTYLE
  2
AcDbTableStyle
  3
ObjectDBX Classes
 90
     4095
 91
        4
280
     0
281
     0
  0
CLASS
  1
MLEADERSTYLE
  2
AcDbMLeaderStyle
  3
ACDB_MLEADERSTYLE_CLASS
 90
     4095
 91
        4
280
     0
281
     0
  0
CLASS
  1
SUN
  2
AcDbSun
  3
SCENEOE
 90
     1153
 91
        4
280
     0
281
     0
  0
CLASS
  1
DICTIONARYVAR
  2
AcDbDictionaryVar
  3
ObjectDBX Classes
 90
        0
 91
        4
280
     0
281
     0
  0
CLASS
  1
CELLSTYLEMAP
  2
AcDbCellStyleMap
  3
ObjectDBX Classes
 90
     1152
 91
        4
280
     0
281
     0
  0
ENDSEC
  0
SECTION
  2
TABLES
  0
TABLE
  2
VPORT
  5
8
330
0
100
AcDbSymbolTable
 70
     1
  0
VPORT
  5
29
330
8
100
AcDbSymbolTableRecord
100
AcDbViewportTableRecord
  2
*Active
 70
     0
 10
0.0
 20
0.0
 11
1.0
 21
1.0
 12
0.0
 22
0.0424832736692897
 13
0.0
 23
0.0
 14
0.5
 24
0.5
 15
0.5
 25
0.5
 16
0.0
 26
0.0
 36
1.0
 17
0.0
 27
0.0
 37
0.0
 40
4.421665878285351
 41
0.9803997224867297
 42
50.0
 43
0.0
 44
0.0
 50
0.0
 51
0.0
 71
     0
 72
   100
 73
     1
 74
     3
 75
     0
 76
     0
 77
     0
 78
     0
281
     0
 65
     1
110
0.0
120
0.0
130
0.0
111
1.0
121
0.0
131
0.0
112
0.0
122
1.0
132
0.0
 79
     0
146
0.0
348
2F
 60
     3
 61
     5
292
     1
282
     1
141
0.0
142
0.0
 63
   250
361
6D
  0
ENDTAB
  0
TABLE
  2
LTYPE
  5
5
330
0
100
AcDbSymbolTable
 70
     3
  0
LTYPE
  5
14
330
5
100
AcDbSymbolTableRecord
100
AcDbLinetypeTableRecord
  2
ByBlock
 70
     0
  3

 72
    65
 73
     0
 40
0.0
  0
LTYPE
  5
15
330
5
100
AcDbSymbolTableRecord
100
AcDbLinetypeTableRecord
  2
ByLayer
 70
     0
  3

 72
    65
 73
     0
 40
0.0
  0
LTYPE
  5
16
330
5
100
AcDbSymbolTableRecord
100
AcDbLinetypeTableRecord
  2
Continuous
 70
     0
  3
Solid line
 72
    65
 73
     0
 40
0.0
  0
LTYPE
  5
9D
330
5
100
AcDbSymbolTableRecord
100
AcDbLinetypeTableRecord
  2
Dashed
 70
     0
  3

 72
    65
 73
     2
 40
2.0
 49
1.0
 74
     0
 49
-1.0
 74
     0
  0
LTYPE
  5
114
330
5
100
AcDbSymbolTableRecord
100
AcDbLinetypeTableRecord
  2
Center
 70
     0
  3

 72
    65
 73
     4
 40
1.5
 49
0.45
 74
     0
 49
-0.5
 74
     0
 49
0.05
 74
     0
 49
-0.5
 74
     0
  0
ENDTAB
  0
TABLE
  2
LAYER
  5
2
330
0
100
AcDbSymbolTable
 70
     7
  0
LAYER
  5
10
330
2
100
AcDbSymbolTableRecord
100
AcDbLayerTableRecord
  2
0
 70
     0
 62
     7
  6
Continuous
370
    -3
390
F
347
46
348
0
  0
LAYER
  5
72
330
2
100
AcDbSymbolTableRecord
100
AcDbLayerTableRecord
  2
AM_6
 70
     0
 62
    -2
  6
Continuous
370
    35
390
F
347
46
348
0
  0
LAYER
  5
9E
330
2
100
AcDbSymbolTableRecord
100
AcDbLayerTableRecord
  2
AM_9
 70
     0
 62
     6
  6
Dashed
370
    25
390
F
347
46
348
0
  0
LAYER
  5
A6
330
2
100
AcDbSymbolTableRecord
100
AcDbLayerTableRecord
  2
AM_4
 70
     0
 62
     3
  6
Continuous
370
    25
390
F
347
46
348
0
  0
LAYER
  5
D5
330
2
100
AcDbSymbolTableRecord
100
AcDbLayerTableRecord
  2
AM_5
 70
     0
 62
     3
  6
Continuous
370
    25
390
F
347
46
348
0
  0
LAYER
  5
115
330
2
100
AcDbSymbolTableRecord
100
AcDbLayerTableRecord
  2
AM_7
 70
     0
 62
     7
  6
Center
370
    25
390
F
347
46
348
0
  0
LAYER
  5
221
330
2
100
AcDbSymbolTableRecord
100
AcDbLayerTableRecord
  2
ConnectionPoints
 70
     0
 62
     7
  6
Continuous
370
    50
390
F
347
46
348
0
  0
ENDTAB
  0
TABLE
  2
STYLE
  5
3
330
0
100
AcDbSymbolTable
 70
     1
  0
STYLE
  5
11
330
3
100
AcDbSymbolTableRecord
100
AcDbTextStyleTableRecord
  2
Standard
 70
     0
 40
0.0
 41
1.0
 50
0.0
 71
     0
 42
0.2
  3
txt
  4

  0
ENDTAB
  0
TABLE
  2
VIEW
  5
6
330
0
100
AcDbSymbolTable
 70
     0
  0
ENDTAB
  0
TABLE
  2
UCS
  5
7
330
0
100
AcDbSymbolTable
 70
     0
  0
ENDTAB
  0
TABLE
  2
APPID
  5
9
330
0
100
AcDbSymbolTable
 70
     1
  0
APPID
  5
12
330
9
100
AcDbSymbolTableRecord
100
AcDbRegAppTableRecord
  2
ACAD
 70
     0
  0
ENDTAB
  0
TABLE
  2
DIMSTYLE
  5
A
330
0
100
AcDbSymbolTable
 70
     1
100
AcDbDimStyleTable
  0
DIMSTYLE
105
27
330
A
100
AcDbSymbolTableRecord
100
AcDbDimStyleTableRecord
  2
Standard
 70
     0
178
     0
340
11
  0
ENDTAB
  0
TABLE
  2
BLOCK_RECORD
  5
1
330
0
100
AcDbSymbolTable
 70
     5
  0
BLOCK_RECORD
  5
1F
330
1
100
AcDbSymbolTableRecord
100
AcDbBlockTableRecord
  2
*Model_Space
340
22
 70
     0
280
     1
281
     0
  0
BLOCK_RECORD
  5
1B
330
1
100
AcDbSymbolTableRecord
100
AcDbBlockTableRecord
  2
*Paper_Space
340
1E
 70
     0
280
     1
281
     0
  0
BLOCK_RECORD
  5
23
330
1
100
AcDbSymbolTableRecord
100
AcDbBlockTableRecord
  2
*Paper_Space0
340
26
 70
     0
280
     1
281
     0
  0
BLOCK_RECORD
  5
6E
330
1
100
AcDbSymbolTableRecord
100
AcDbBlockTableRecord
  2
1_129660_0
340
0
102
{BLKREFS
331
6F
102
}
 70
     0
280
     1
281
     0
  0
BLOCK_RECORD
  5
87
330
1
100
AcDbSymbolTableRecord
100
AcDbBlockTableRecord
  2
2_129519I_0_in_129660_0
340
0
102
{BLKREFS
331
88
102
}
 70
     0
280
     1
281
     0
  0
BLOCK_RECORD
  5
AC
330
1
100
AcDbSymbolTableRecord
100
AcDbBlockTableRecord
  2
3_129909_0_in_129660_0
340
0
102
{BLKREFS
331
AD
102
}
 70
     0
280
     1
281
     0
  0
BLOCK_RECORD
  5
EE
330
1
100
AcDbSymbolTableRecord
100
AcDbBlockTableRecord
  2
4_129477I_0_in_129660_0
340
0
102
{BLKREFS
331
EF
102
}
 70
     0
280
     1
281
     0
  0
ENDTAB
  0
ENDSEC
  0
SECTION
  2
BLOCKS
  0
BLOCK
  5
20
330
1F
100
AcDbEntity
  8
0
100
AcDbBlockBegin
  2
*Model_Space
 70
     0
 10
0.0
 20
0.0
 30
0.0
  3
*Model_Space
  1

  0
ENDBLK
  5
21
330
1F
100
AcDbEntity
  8
0
100
AcDbBlockEnd
  0
BLOCK
  5
1C
330
1B
100
AcDbEntity
 67
     1
  8
0
100
AcDbBlockBegin
  2
*Paper_Space
 70
     0
 10
0.0
 20
0.0
 30
0.0
  3
*Paper_Space
  1

  0
ENDBLK
  5
1D
330
1B
100
AcDbEntity
 67
     1
  8
0
100
AcDbBlockEnd
  0
BLOCK
  5
24
330
23
100
AcDbEntity
  8
0
100
AcDbBlockBegin
  2
*Paper_Space0
 70
     0
 10
0.0
 20
0.0
 30
0.0
  3
*Paper_Space0
  1

  0
ENDBLK
  5
25
330
23
100
AcDbEntity
  8
0
100
AcDbBlockEnd
  0
BLOCK
  5
70
330
6E
100
AcDbEntity
  8
0
100
AcDbBlockBegin
  2
1_129660_0
 70
     2
 10
0.0
 20
0.0
 30
0.0
  3
1_129660_0
  1

  0
ATTDEF
  5
73
330
6E
100
AcDbEntity
  8
AM_6
100
AcDbText
 10
7.125
 20
2.20996654733858
 30
0.0
 40
0.5
  1
Grip Tight Air-handling Four-Bolt Flange
100
AcDbAttributeDefinition
  3

  2
NN
 70
     8
280
     0
  0
ATTDEF
  5
74
330
6E
100
AcDbEntity
  8
AM_6
100
AcDbText
 10
7.125
 20
1.70996654733858
 30
0.0
 40
0.5
  1
GTAH Air Handling Normal Duty 4 Bolt Flange Bearings
100
AcDbAttributeDefinition
  3

  2
NT
 70
     8
280
     0
  0
ATTDEF
  5
75
330
6E
100
AcDbEntity
  8
AM_6
100
AcDbText
 10
7.125
 20
1.20996654733858
 30
0.0
 40
0.5
  1
129660
100
AcDbAttributeDefinition
  3

  2
NB
 70
     8
280
     0
  0
ATTDEF
  5
76
330
6E
100
AcDbEntity
  8
AM_6
100
AcDbText
 10
7.125
 20
0.7099665473385799
 30
0.0
 40
0.5
  1
$PN.$LUBE.
100
AcDbAttributeDefinition
  3

  2
NBSYN
 70
     8
280
     0
  0
ATTDEF
  5
77
330
6E
100
AcDbEntity
  8
AM_6
100
AcDbText
 10
7.125
 20
0.2099665473385799
 30
0.0
 40
0.5
  1
129660
100
AcDbAttributeDefinition
  3

  2
LINA
 70
     8
280
     0
  0
ATTDEF
  5
78
330
6E
100
AcDbEntity
  8
AM_6
100
AcDbText
 10
7.125
 20
-0.2900334526614201
 30
0.0
 40
0.5
  1
206
100
AcDbAttributeDefinition
  3

  2
SERIES
 70
     8
280
     0
  0
ATTDEF
  5
79
330
6E
100
AcDbEntity
  8
AM_6
100
AcDbText
 10
7.125
 20
-0.7900334526614201
 30
0.0
 40
0.5
  1
1-3/16
100
AcDbAttributeDefinition
  3

  2
SS
 70
     8
280
     0
  0
ATTDEF
  5
7A
330
6E
100
AcDbEntity
  8
AM_6
100
AcDbText
 10
7.125
 20
-1.29003345266142
 30
0.0
 40
0.5
  1
129660
100
AcDbAttributeDefinition
  3

  2
PN
 70
     8
280
     0
  0
ATTDEF
  5
7B
330
6E
100
AcDbEntity
  8
AM_6
100
AcDbText
 10
7.125
 20
-1.79003345266142
 30
0.0
 40
0.5
  1
F4B-GTAH-103
100
AcDbAttributeDefinition
  3

  2
DESCRIPTION
 70
     8
280
     0
  0
ATTDEF
  5
7C
330
6E
100
AcDbEntity
  8
AM_6
100
AcDbText
 10
7.125
 20
-2.29003345266142
 30
0.0
 40
0.5
  1
1-39/64
100
AcDbAttributeDefinition
  3

  2
A
 70
     8
280
     0
  0
ATTDEF
  5
7D
330
6E
100
AcDbEntity
  8
AM_6
100
AcDbText
 10
7.125
 20
-2.79003345266142
 30
0.0
 40
0.5
  1
4-1/4
100
AcDbAttributeDefinition
  3

  2
B
 70
     8
280
     0
  0
ATTDEF
  5
7E
330
6E
100
AcDbEntity
  8
AM_6
100
AcDbText
 10
7.125
 20
-3.29003345266142
 30
0.0
 40
0.5
  1
1-45/64
100
AcDbAttributeDefinition
  3

  2
C
 70
     8
280
     0
  0
ATTDEF
  5
7F
330
6E
100
AcDbEntity
  8
AM_6
100
AcDbText
 10
7.125
 20
-3.79003345266142
 30
0.0
 40
0.5
  1
3-1/4
100
AcDbAttributeDefinition
  3

  2
D
 70
     8
280
     0
  0
ATTDEF
  5
80
330
6E
100
AcDbEntity
  8
AM_6
100
AcDbText
 10
7.125
 20
-4.290033452661421
 30
0.0
 40
0.5
  1
7/16
100
AcDbAttributeDefinition
  3

  2
F
 70
     8
280
     0
  0
ATTDEF
  5
81
330
6E
100
AcDbEntity
  8
AM_6
100
AcDbText
 10
7.125
 20
-4.790033452661421
 30
0.0
 40
0.5
  1
1/2
100
AcDbAttributeDefinition
  3

  2
H
 70
     8
280
     0
  0
ATTDEF
  5
82
330
6E
100
AcDbEntity
  8
AM_6
100
AcDbText
 10
7.125
 20
-5.290033452661421
 30
0.0
 40
0.5
  1
19/32
100
AcDbAttributeDefinition
  3

  2
J
 70
     8
280
     0
  0
ATTDEF
  5
83
330
6E
100
AcDbEntity
  8
AM_6
100
AcDbText
 10
7.125
 20
-5.790033452661421
 30
0.0
 40
0.5
  1
2
100
AcDbAttributeDefinition
  3

  2
L
 70
     8
280
     0
  0
ATTDEF
  5
84
330
6E
100
AcDbEntity
  8
AM_6
100
AcDbText
 10
7.125
 20
-6.290033452661421
 30
0.0
 40
0.5
  1
2-3/16
100
AcDbAttributeDefinition
  3

  2
N
 70
     8
280
     0
  0
ATTDEF
  5
85
330
6E
100
AcDbEntity
  8
AM_6
100
AcDbText
 10
7.125
 20
-6.790033452661421
 30
0.0
 40
0.5
  1
1-21/32
100
AcDbAttributeDefinition
  3

  2
Z
 70
     8
280
     0
  0
ATTDEF
  5
86
330
6E
100
AcDbEntity
  8
AM_6
100
AcDbText
 10
7.125
 20
-7.290033452661421
 30
0.0
 40
0.5
  1
baldor
100
AcDbAttributeDefinition
  3

  2
COMPANY
 70
     8
280
     0
  0
INSERT
  5
88
330
6E
100
AcDbEntity
  8
0
100
AcDbBlockReference
  2
2_129519I_0_in_129660_0
 10
0.0
 20
0.0
 30
0.0
  0
INSERT
  5
AD
330
6E
100
AcDbEntity
  8
0
100
AcDbBlockReference
  2
3_129909_0_in_129660_0
 10
0.0
 20
0.0
 30
0.0
  0
INSERT
  5
EF
330
6E
100
AcDbEntity
  8
0
100
AcDbBlockReference
  2
4_129477I_0_in_129660_0
 10
0.0
 20
0.0
 30
0.0
  0
ENDBLK
  5
71
330
6E
100
AcDbEntity
  8
0
100
AcDbBlockEnd
  0
BLOCK
  5
89
330
87
100
AcDbEntity
  8
0
100
AcDbBlockBegin
  2
2_129519I_0_in_129660_0
 70
     2
 10
0.0
 20
0.0
 30
0.0
  3
2_129519I_0_in_129660_0
  1

  0
ATTDEF
  5
8B
330
87
100
AcDbEntity
  8
AM_6
100
AcDbText
 10
6.212109406709537
 20
1.212109406709537
 30
0.0
 40
0.5
  1
INS-GT B
100
AcDbAttributeDefinition
  3

  2
NN
 70
     8
280
     0
  0
ATTDEF
  5
8C
330
87
100
AcDbEntity
  8
AM_6
100
AcDbText
 10
6.212109406709537
 20
0.7121094067095366
 30
0.0
 40
0.5
  1
GT Normal Duty Bearing Inserts
100
AcDbAttributeDefinition
  3

  2
NT
 70
     8
280
     0
  0
ATTDEF
  5
8D
330
87
100
AcDbEntity
  8
AM_6
100
AcDbText
 10
6.212109406709537
 20
0.2121094067095366
 30
0.0
 40
0.5
  1
129519I
100
AcDbAttributeDefinition
  3

  2
NB
 70
     8
280
     0
  0
ATTDEF
  5
8E
330
87
100
AcDbEntity
  8
AM_6
100
AcDbText
 10
6.212109406709537
 20
-0.2878905932904634
 30
0.0
 40
0.5
  1
$PN.I
100
AcDbAttributeDefinition
  3

  2
NBSYN
 70
     8
280
     0
  0
ATTDEF
  5
8F
330
87
100
AcDbEntity
  8
AM_6
100
AcDbText
 10
6.212109406709537
 20
-0.7878905932904634
 30
0.0
 40
0.5
  1
129519
100
AcDbAttributeDefinition
  3

  2
LINA
 70
     8
280
     0
  0
ATTDEF
  5
90
330
87
100
AcDbEntity
  8
AM_6
100
AcDbText
 10
6.212109406709537
 20
-1.287890593290463
 30
0.0
 40
0.5
  1
206
100
AcDbAttributeDefinition
  3

  2
SERIES
 70
     8
280
     0
  0
ATTDEF
  5
91
330
87
100
AcDbEntity
  8
AM_6
100
AcDbText
 10
6.212109406709537
 20
-1.787890593290463
 30
0.0
 40
0.5
  1
129519
100
AcDbAttributeDefinition
  3

  2
PN
 70
     8
280
     0
  0
ATTDEF
  5
92
330
87
100
AcDbEntity
  8
AM_6
100
AcDbText
 10
6.212109406709537
 20
-2.287890593290463
 30
0.0
 40
0.5
  1
INS-GT-06
100
AcDbAttributeDefinition
  3

  2
DESCRIPTION
 70
     8
280
     0
  0
ATTDEF
  5
93
330
87
100
AcDbEntity
  8
AM_6
100
AcDbText
 10
6.212109406709537
 20
-2.787890593290463
 30
0.0
 40
0.5
  1
1.61
100
AcDbAttributeDefinition
  3

  2
A
 70
     8
280
     0
  0
ATTDEF
  5
94
330
87
100
AcDbEntity
  8
AM_6
100
AcDbText
 10
6.212109406709537
 20
-3.287890593290463
 30
0.0
 40
0.5
  1
0.69
100
AcDbAttributeDefinition
  3

  2
C
 70
     8
280
     0
  0
ATTDEF
  5
95
330
87
100
AcDbEntity
  8
AM_6
100
AcDbText
 10
6.212109406709537
 20
-3.787890593290463
 30
0.0
 40
0.5
  1
2.4409
100
AcDbAttributeDefinition
  3

  2
D
 70
     8
280
     0
  0
ATTDEF
  5
96
330
87
100
AcDbEntity
  8
AM_6
100
AcDbText
 10
6.212109406709537
 20
-4.287890593290463
 30
0.0
 40
0.5
  1
0.16
100
AcDbAttributeDefinition
  3

  2
J
 70
     8
280
     0
  0
ATTDEF
  5
97
330
87
100
AcDbEntity
  8
AM_6
100
AcDbText
 10
6.212109406709537
 20
-4.787890593290463
 30
0.0
 40
0.5
  1
2.08
100
AcDbAttributeDefinition
  3

  2
L
 70
     8
280
     0
  0
ATTDEF
  5
98
330
87
100
AcDbEntity
  8
AM_6
100
AcDbText
 10
6.212109406709537
 20
-5.287890593290463
 30
0.0
 40
0.5
  1
#10 - 32 x 1/4
100
AcDbAttributeDefinition
  3

  2
N
 70
     8
280
     0
  0
ATTDEF
  5
99
330
87
100
AcDbEntity
  8
AM_6
100
AcDbText
 10
6.212109406709537
 20
-5.787890593290463
 30
0.0
 40
0.5
  1
0.52000
100
AcDbAttributeDefinition
  3

  2
W
 70
     8
280
     0
  0
ATTDEF
  5
9A
330
87
100
AcDbEntity
  8
AM_6
100
AcDbText
 10
6.212109406709537
 20
-6.287890593290463
 30
0.0
 40
0.5
  1
1.13
100
AcDbAttributeDefinition
  3

  2
X
 70
     8
280
     0
  0
ATTDEF
  5
9B
330
87
100
AcDbEntity
  8
AM_6
100
AcDbText
 10
6.212109406709537
 20
-6.787890593290463
 30
0.0
 40
0.5
  1
1.09
100
AcDbAttributeDefinition
  3

  2
Y
 70
     8
280
     0
  0
ATTDEF
  5
9C
330
87
100
AcDbEntity
  8
AM_6
100
AcDbText
 10
6.212109406709537
 20
-7.287890593290463
 30
0.0
 40
0.5
  1
baldor
100
AcDbAttributeDefinition
  3

  2
COMPANY
 70
     8
280
     0
  0
CIRCLE
  5
9F
330
87
100
AcDbEntity
  8
AM_9
100
AcDbCircle
 10
0.0000000000000001
 20
0.0
 30
0.0
 40
0.8070135275812623
  0
CIRCLE
  5
A0
330
87
100
AcDbEntity
  8
AM_9
100
AcDbCircle
 10
0.0000000000000001
 20
0.0
 30
0.0
 40
1.15145
  0
CIRCLE
  5
A1
330
87
100
AcDbEntity
  8
AM_9
100
AcDbCircle
 10
0.0000000000000001
 20
0.0
 30
0.0
 40
1.191042531088183
  0
CIRCLE
  5
A2
330
87
100
AcDbEntity
  8
AM_9
100
AcDbCircle
 10
0.0000000000000001
 20
0.0
 30
0.0
 40
0.8501587004444445
  0
CIRCLE
  5
A3
330
87
100
AcDbEntity
  8
AM_9
100
AcDbCircle
 10
0.0000000000000001
 20
0.0
 30
0.0
 40
0.9244444444444444
  0
CIRCLE
  5
A4
330
87
100
AcDbEntity
  8
AM_9
100
AcDbCircle
 10
-0.0000000000000001
 20
0.0000000000000002
 30
0.0
 40
0.7758729564444444
  0
CIRCLE
  5
A5
330
87
100
AcDbEntity
  8
AM_9
100
AcDbCircle
 10
-0.0000000000000002
 20
0.0000000000000001
 30
0.0
 40
0.8968444444444444
  0
CIRCLE
  5
A7
330
87
100
AcDbEntity
  8
AM_4
100
AcDbCircle
 10
0.0000000000000001
 20
0.0
 30
0.0
 40
1.212109406709537
  0
CIRCLE
  5
A8
330
87
100
AcDbEntity
  8
AM_4
100
AcDbCircle
 10
0.0000000000000001
 20
0.0
 30
0.0
 40
1.205273565119463
  0
CIRCLE
  5
A9
330
87
100
AcDbEntity
  8
AM_4
100
AcDbCircle
 10
0.0000000000000001
 20
0.0
 30
0.0
 40
1.197768054584991
  0
CIRCLE
  5
AA
330
87
100
AcDbEntity
  8
AM_4
100
AcDbCircle
 10
0.0000000000000001
 20
0.0
 30
0.0
 40
1.158535826874395
  0
CIRCLE
  5
AB
330
87
100
AcDbEntity
  8
AM_4
100
AcDbCircle
 10
0.0000000000000001
 20
0.0
 30
0.0
 40
1.13284088208356
  0
ENDBLK
  5
8A
330
87
100
AcDbEntity
  8
0
100
AcDbBlockEnd
  0
BLOCK
  5
AE
330
AC
100
AcDbEntity
  8
0
100
AcDbBlockBegin
  2
3_129909_0_in_129660_0
 70
     2
 10
0.0
 20
0.0
 30
0.0
  3
3_129909_0_in_129660_0
  1

  0
ATTDEF
  5
B0
330
AC
100
AcDbEntity
  8
AM_6
100
AcDbText
 10
5.995477272467835
 20
0.9999907698236257
 30
0.0
 40
0.5
  1
Grip Tight Normal Duty Adapter and Nut Inch Bore
100
AcDbAttributeDefinition
  3

  2
NN
 70
     8
280
     0
  0
ATTDEF
  5
B1
330
AC
100
AcDbEntity
  8
AM_6
100
AcDbText
 10
5.995477272467835
 20
0.4999907698236257
 30
0.0
 40
0.5
  1
GT and GTM Adapter & Lock Nut Assemblies
100
AcDbAttributeDefinition
  3

  2
NT
 70
     8
280
     0
  0
ATTDEF
  5
B2
330
AC
100
AcDbEntity
  8
AM_6
100
AcDbText
 10
5.995477272467835
 20
-0.0000092301763743
 30
0.0
 40
0.5
  1
129909
100
AcDbAttributeDefinition
  3

  2
NB
 70
     8
280
     0
  0
ATTDEF
  5
B3
330
AC
100
AcDbEntity
  8
AM_6
100
AcDbText
 10
5.995477272467835
 20
-0.5000092301763743
 30
0.0
 40
0.5
  1
$PN.
100
AcDbAttributeDefinition
  3

  2
NBSYN
 70
     8
280
     0
  0
ATTDEF
  5
B4
330
AC
100
AcDbEntity
  8
AM_6
100
AcDbText
 10
5.995477272467835
 20
-1.000009230176374
 30
0.0
 40
0.5
  1
129909
100
AcDbAttributeDefinition
  3

  2
LINA
 70
     8
280
     0
  0
ATTDEF
  5
B5
330
AC
100
AcDbEntity
  8
AM_6
100
AcDbText
 10
5.995477272467835
 20
-1.500009230176374
 30
0.0
 40
0.5
  1
206
100
AcDbAttributeDefinition
  3

  2
SERIES
 70
     8
280
     0
  0
ATTDEF
  5
B6
330
AC
100
AcDbEntity
  8
AM_6
100
AcDbText
 10
5.995477272467835
 20
-2.000009230176374
 30
0.0
 40
0.5
  1
1-3/16
100
AcDbAttributeDefinition
  3

  2
SS
 70
     8
280
     0
  0
ATTDEF
  5
B7
330
AC
100
AcDbEntity
  8
AM_6
100
AcDbText
 10
5.995477272467835
 20
-2.500009230176374
 30
0.0
 40
0.5
  1
129909
100
AcDbAttributeDefinition
  3

  2
PN
 70
     8
280
     0
  0
ATTDEF
  5
B8
330
AC
100
AcDbEntity
  8
AM_6
100
AcDbText
 10
5.995477272467835
 20
-3.000009230176374
 30
0.0
 40
0.5
  1
AN-GT-06-103
100
AcDbAttributeDefinition
  3

  2
DESCRIPTION
 70
     8
280
     0
  0
ATTDEF
  5
B9
330
AC
100
AcDbEntity
  8
AM_6
100
AcDbText
 10
5.995477272467835
 20
-3.500009230176374
 30
0.0
 40
0.5
  1
1-39/64
100
AcDbAttributeDefinition
  3

  2
A
 70
     8
280
     0
  0
ATTDEF
  5
BA
330
AC
100
AcDbEntity
  8
AM_6
100
AcDbText
 10
5.995477272467835
 20
-4.000009230176374
 30
0.0
 40
0.5
  1
0.7087
100
AcDbAttributeDefinition
  3

  2
C
 70
     8
280
     0
  0
ATTDEF
  5
BB
330
AC
100
AcDbEntity
  8
AM_6
100
AcDbText
 10
5.995477272467835
 20
-4.500009230176374
 30
0.0
 40
0.5
  1
2.4409
100
AcDbAttributeDefinition
  3

  2
D
 70
     8
280
     0
  0
ATTDEF
  5
BC
330
AC
100
AcDbEntity
  8
AM_6
100
AcDbText
 10
5.995477272467835
 20
-5.000009230176374
 30
0.0
 40
0.5
  1
0.190
100
AcDbAttributeDefinition
  3

  2
J
 70
     8
280
     0
  0
ATTDEF
  5
BD
330
AC
100
AcDbEntity
  8
AM_6
100
AcDbText
 10
5.995477272467835
 20
-5.500009230176374
 30
0.0
 40
0.5
  1
2
100
AcDbAttributeDefinition
  3

  2
L
 70
     8
280
     0
  0
ATTDEF
  5
BE
330
AC
100
AcDbEntity
  8
AM_6
100
AcDbText
 10
5.995477272467835
 20
-6.000009230176374
 30
0.0
 40
0.5
  1
10 - 32 x 1/4
100
AcDbAttributeDefinition
  3

  2
N
 70
     8
280
     0
  0
ATTDEF
  5
BF
330
AC
100
AcDbEntity
  8
AM_6
100
AcDbText
 10
5.995477272467835
 20
-6.500009230176374
 30
0.0
 40
0.5
  1
17/32
100
AcDbAttributeDefinition
  3

  2
W
 70
     8
280
     0
  0
ATTDEF
  5
C0
330
AC
100
AcDbEntity
  8
AM_6
100
AcDbText
 10
5.995477272467835
 20
-7.000009230176374
 30
0.0
 40
0.5
  1
1-1/32
100
AcDbAttributeDefinition
  3

  2
X
 70
     8
280
     0
  0
ATTDEF
  5
C1
330
AC
100
AcDbEntity
  8
AM_6
100
AcDbText
 10
5.995477272467835
 20
-7.500009230176374
 30
0.0
 40
0.5
  1
1-5/64
100
AcDbAttributeDefinition
  3

  2
Y
 70
     8
280
     0
  0
ATTDEF
  5
C2
330
AC
100
AcDbEntity
  8
AM_6
100
AcDbText
 10
5.995477272467835
 20
-8.000009230176374
 30
0.0
 40
0.5
  1
baldor
100
AcDbAttributeDefinition
  3

  2
COMPANY
 70
     8
280
     0
  0
LINE
  5
C3
330
AC
100
AcDbEntity
  8
AM_9
100
AcDbLine
 10
0.0500000000000001
 20
0.7460409281219607
 30
0.0
 11
0.0500000000000001
 21
0.7764797570067602
 31
0.0
  0
LINE
  5
C4
330
AC
100
AcDbEntity
  8
AM_9
100
AcDbLine
 10
-0.0499999999999999
 20
0.7460409281219607
 30
0.0
 11
-0.0499999999999999
 21
0.7764797570067602
 31
0.0
  0
ARC
  5
C5
330
AC
100
AcDbEntity
  8
AM_9
100
AcDbCircle
 10
0.0000000000000001
 20
-0.0000000000000001
 30
0.0
 40
0.7780879211511238
100
AcDbArc
 50
93.68437061446721
 51
86.3156293855328
  0
CIRCLE
  5
C6
330
AC
100
AcDbEntity
  8
AM_9
100
AcDbCircle
 10
0.0000000000000001
 20
0.0
 30
0.0
 40
0.8174603174603172
  0
CIRCLE
  5
C7
330
AC
100
AcDbEntity
  8
AM_9
100
AcDbCircle
 10
0.0000000000000001
 20
0.0
 30
0.0
 40
0.8888888888888888
  0
LINE
  5
C8
330
AC
100
AcDbEntity
  8
AM_9
100
AcDbLine
 10
-0.9774499999999999
 20
-0.0724499999999999
 30
0.0
 11
-0.77255
 21
-0.0724499999999999
 31
0.0
  0
LINE
  5
C9
330
AC
100
AcDbEntity
  8
AM_9
100
AcDbLine
 10
-0.77255
 20
0.0724499999999999
 30
0.0
 11
-0.9774499999999999
 21
0.0724499999999999
 31
0.0
  0
LINE
  5
CA
330
AC
100
AcDbEntity
  8
AM_9
100
AcDbLine
 10
-0.77255
 20
-0.0724499999999999
 30
0.0
 11
-0.7499999999999999
 21
-0.0949999999999999
 31
0.0
  0
LINE
  5
CB
330
AC
100
AcDbEntity
  8
AM_9
100
AcDbLine
 10
-0.7499999999999999
 20
0.0949999999999999
 30
0.0
 11
-0.77255
 21
0.0724499999999999
 31
0.0
  0
LINE
  5
CC
330
AC
100
AcDbEntity
  8
AM_9
100
AcDbLine
 10
-0.7499999999999999
 20
0.0949999999999999
 30
0.0
 11
-0.7499999999999999
 21
-0.0949999999999999
 31
0.0
  0
LINE
  5
CD
330
AC
100
AcDbEntity
  8
AM_9
100
AcDbLine
 10
-0.77255
 20
0.0724499999999999
 30
0.0
 11
-0.77255
 21
-0.0724499999999999
 31
0.0
  0
LINE
  5
CE
330
AC
100
AcDbEntity
  8
AM_9
100
AcDbLine
 10
-0.9774499999999999
 20
0.0724499999999999
 30
0.0
 11
-0.9953036580811968
 21
0.0903036580811967
 31
0.0
  0
LINE
  5
CF
330
AC
100
AcDbEntity
  8
AM_9
100
AcDbLine
 10
-0.9953111033673617
 20
-0.0903111033673618
 30
0.0
 11
-0.9774499999999999
 21
-0.0724499999999999
 31
0.0
  0
LINE
  5
D0
330
AC
100
AcDbEntity
  8
AM_9
100
AcDbLine
 10
-0.9774499999999999
 20
0.0724499999999999
 30
0.0
 11
-0.9774499999999999
 21
-0.0724499999999999
 31
0.0
  0
LWPOLYLINE
  5
D1
330
AC
100
AcDbEntity
  8
AM_9
100
AcDbPolyline
 90
        6
 70
     0
 43
0.0
 10
-0.9998401251287761
 20
0.0178808328238149
 10
-0.9994722729581027
 20
0.0324834663785133
 10
-0.9983472187042113
 20
0.0574702610535726
 10
-0.997034751708831
 20
0.0769526080448845
 10
-0.9960693475663225
 20
0.0885768301464934
 10
-0.9958633689163741
 20
0.0908633614309418
  0
LINE
  5
D2
330
AC
100
AcDbEntity
  8
AM_9
100
AcDbLine
 10
-0.9999440737208785
 20
0.0105758891112786
 30
0.0
 11
-0.9998401251287761
 21
0.0178808328238149
 31
0.0
  0
LINE
  5
D3
330
AC
100
AcDbEntity
  8
AM_9
100
AcDbLine
 10
-0.9997932193771375
 20
-0.0203351539831071
 30
0.0
 11
-0.9999761342242612
 21
-0.0069087612422482
 31
0.0
  0
LWPOLYLINE
  5
D4
330
AC
100
AcDbEntity
  8
AM_9
100
AcDbPolyline
 90
        6
 70
     0
 43
0.0
 10
-0.9958633690762888
 20
-0.0908633596782748
 10
-0.9960845122301303
 20
-0.0884061338101793
 10
-0.9971301569669586
 20
-0.0757063409963025
 10
-0.9985561031975955
 20
-0.0537187934230935
 10
-0.9996672986351324
 20
-0.0257932556986713
 10
-0.9997932193771375
 20
-0.0203351539831071
  0
LINE
  5
D6
330
AC
100
AcDbEntity
  8
AM_5
100
AcDbLine
 10
-0.9954772724678349
 20
-0.0949999999999999
 30
0.0
 11
-0.7499999999999999
 21
-0.0949999999999999
 31
0.0
  0
LINE
  5
D7
330
AC
100
AcDbEntity
  8
AM_5
100
AcDbLine
 10
-0.9954772724678349
 20
0.0950000000000001
 30
0.0
 11
-0.7499999999999999
 21
0.0950000000000001
 31
0.0
  0
LINE
  5
D8
330
AC
100
AcDbEntity
  8
AM_4
100
AcDbLine
 10
-0.3843941686403092
 20
0.8557902302182141
 30
0.0
 11
-0.4154662228743962
 21
0.9096086068471881
 31
0.0
  0
LINE
  5
D9
330
AC
100
AcDbEntity
  8
AM_4
100
AcDbLine
 10
0.9954772724678349
 20
0.095
 30
0.0
 11
0.9333331639996614
 21
0.095
 31
0.0
  0
ARC
  5
DA
330
AC
100
AcDbEntity
  8
AM_4
100
AcDbCircle
 10
0.0
 20
-0.0000000000000001
 30
0.0
 40
1.0
100
AcDbArc
 50
5.45131981241778
 51
114.5486801875822
  0
LINE
  5
DB
330
AC
100
AcDbEntity
  8
AM_4
100
AcDbLine
 10
-0.5800110495934395
 20
0.8146086068471882
 30
0.0
 11
-0.5489389953593525
 21
0.7607902302182141
 31
0.0
  0
LINE
  5
DC
330
AC
100
AcDbEntity
  8
AM_4
100
AcDbLine
 10
-0.5489389953593521
 20
-0.7607902302182145
 30
0.0
 11
-0.5800110495934389
 21
-0.8146086068471885
 31
0.0
  0
ARC
  5
DD
330
AC
100
AcDbEntity
  8
AM_4
100
AcDbCircle
 10
0.0000000000000003
 20
-0.0000000000000003
 30
0.0
 40
1.0
100
AcDbArc
 50
125.4513198124178
 51
179.0906600083979
  0
LINE
  5
DE
330
AC
100
AcDbEntity
  8
AM_4
100
AcDbLine
 10
-0.9998740586901647
 20
0.01587031059739
 30
0.0
 11
-0.9998740586901644
 21
-0.0158703105973893
 31
0.0
  0
ARC
  5
DF
330
AC
100
AcDbEntity
  8
AM_4
100
AcDbCircle
 10
0.0000000000000009
 20
0.0000000000000004
 30
0.0
 40
1.000000000000001
100
AcDbArc
 50
180.9093399916026
 51
234.5486801875822
  0
LINE
  5
E0
330
AC
100
AcDbEntity
  8
AM_4
100
AcDbLine
 10
-0.4154662228743955
 20
-0.9096086068471885
 30
0.0
 11
-0.3843941686403087
 21
-0.8557902302182143
 31
0.0
  0
LINE
  5
E1
330
AC
100
AcDbEntity
  8
AM_4
100
AcDbLine
 10
0.9333331639996614
 20
-0.095
 30
0.0
 11
0.9954772724678349
 21
-0.095
 31
0.0
  0
ARC
  5
E2
330
AC
100
AcDbEntity
  8
AM_4
100
AcDbCircle
 10
0.0
 20
0.0
 30
0.0
 40
1.0
100
AcDbArc
 50
245.4513198124178
 51
354.5486801875822
  0
LINE
  5
E3
330
AC
100
AcDbEntity
  8
AM_4
100
AcDbLine
 10
0.0500000000000001
 20
0.5916409912269432
 30
0.0
 11
0.0500000000000001
 21
0.7460317460317459
 31
0.0
  0
LINE
  5
E4
330
AC
100
AcDbEntity
  8
AM_4
100
AcDbLine
 10
-0.0499999999999999
 20
0.5916409912269432
 30
0.0
 11
-0.0499999999999999
 21
0.7460317460317459
 31
0.0
  0
LINE
  5
E5
330
AC
100
AcDbEntity
  8
AM_4
100
AcDbLine
 10
-0.0499999999999999
 20
0.7460317460317459
 30
0.0
 11
0.0500000000000001
 21
0.7460317460317459
 31
0.0
  0
LINE
  5
E6
330
AC
100
AcDbEntity
  8
AM_4
100
AcDbLine
 10
0.9333331639996614
 20
0.095
 30
0.0
 11
0.9333331639996614
 21
-0.095
 31
0.0
  0
ARC
  5
E7
330
AC
100
AcDbEntity
  8
AM_4
100
AcDbCircle
 10
0.0
 20
0.0000000000000002
 30
0.0
 40
0.971652
100
AcDbArc
 50
5.610865412998182
 51
114.3891345870018
  0
LINE
  5
E8
330
AC
100
AcDbEntity
  8
AM_4
100
AcDbLine
 10
-0.5489389953593525
 20
0.7607902302182141
 30
0.0
 11
-0.3843941686403092
 21
0.8557902302182141
 31
0.0
  0
ARC
  5
E9
330
AC
100
AcDbEntity
  8
AM_4
100
AcDbCircle
 10
0.0000000000000001
 20
-0.0000000000000001
 30
0.0
 40
0.971652
100
AcDbArc
 50
125.6108654129982
 51
234.3891345870018
  0
LINE
  5
EA
330
AC
100
AcDbEntity
  8
AM_4
100
AcDbLine
 10
-0.3843941686403087
 20
-0.8557902302182143
 30
0.0
 11
-0.5489389953593521
 21
-0.7607902302182145
 31
0.0
  0
ARC
  5
EB
330
AC
100
AcDbEntity
  8
AM_4
100
AcDbCircle
 10
-0.0000000000000002
 20
0.0000000000000002
 30
0.0
 40
0.9716520000000001
100
AcDbArc
 50
245.6108654129982
 51
354.3891345870018
  0
ARC
  5
EC
330
AC
100
AcDbEntity
  8
AM_4
100
AcDbCircle
 10
0.0000000000000001
 20
0.0
 30
0.0
 40
0.59375
100
AcDbArc
 50
94.83062859204209
 51
85.16937140795794
  0
ARC
  5
ED
330
AC
100
AcDbEntity
  8
AM_4
100
AcDbCircle
 10
0.0000000000000001
 20
0.0000000000000001
 30
0.0
 40
0.7460317460317459
100
AcDbArc
 50
93.84291692518897
 51
86.15708307481106
  0
ENDBLK
  5
AF
330
AC
100
AcDbEntity
  8
0
100
AcDbBlockEnd
  0
BLOCK
  5
F0
330
EE
100
AcDbEntity
  8
0
100
AcDbBlockBegin
  2
4_129477I_0_in_129660_0
 70
     2
 10
0.0
 20
0.0
 30
0.0
  3
4_129477I_0_in_129660_0
  1

  0
ATTDEF
  5
F2
330
EE
100
AcDbEntity
  8
AM_6
100
AcDbText
 10
7.125
 20
2.20996654733858
 30
0.0
 40
0.5
  1
GTAH Normal Duty 4 Bolt Flange Bearings
100
AcDbAttributeDefinition
  3

  2
NN
 70
     8
280
     0
  0
ATTDEF
  5
F3
330
EE
100
AcDbEntity
  8
AM_6
100
AcDbText
 10
7.125
 20
1.70996654733858
 30
0.0
 40
0.5
  1
Grip Tight Adapter Ball Bearings
100
AcDbAttributeDefinition
  3

  2
NT
 70
     8
280
     0
  0
ATTDEF
  5
F4
330
EE
100
AcDbEntity
  8
AM_6
100
AcDbText
 10
7.125
 20
1.20996654733858
 30
0.0
 40
0.5
  1
129477I
100
AcDbAttributeDefinition
  3

  2
NB
 70
     8
280
     0
  0
ATTDEF
  5
F5
330
EE
100
AcDbEntity
  8
AM_6
100
AcDbText
 10
7.125
 20
0.7099665473385799
 30
0.0
 40
0.5
  1
$PN.$LUBE.I
100
AcDbAttributeDefinition
  3

  2
NBSYN
 70
     8
280
     0
  0
ATTDEF
  5
F6
330
EE
100
AcDbEntity
  8
AM_6
100
AcDbText
 10
7.125
 20
0.2099665473385799
 30
0.0
 40
0.5
  1
129477
100
AcDbAttributeDefinition
  3

  2
LINA
 70
     8
280
     0
  0
ATTDEF
  5
F7
330
EE
100
AcDbEntity
  8
AM_6
100
AcDbText
 10
7.125
 20
-0.2900334526614201
 30
0.0
 40
0.5
  1
206
100
AcDbAttributeDefinition
  3

  2
SERIES
 70
     8
280
     0
  0
ATTDEF
  5
F8
330
EE
100
AcDbEntity
  8
AM_6
100
AcDbText
 10
7.125
 20
-0.7900334526614201
 30
0.0
 40
0.5
  1
2.4409
100
AcDbAttributeDefinition
  3

  2
BOD
 70
     8
280
     0
  0
ATTDEF
  5
F9
330
EE
100
AcDbEntity
  8
AM_6
100
AcDbText
 10
7.125
 20
-1.29003345266142
 30
0.0
 40
0.5
  1
129477
100
AcDbAttributeDefinition
  3

  2
PN
 70
     8
280
     0
  0
ATTDEF
  5
FA
330
EE
100
AcDbEntity
  8
AM_6
100
AcDbText
 10
7.125
 20
-1.79003345266142
 30
0.0
 40
0.5
  1
F4B-GTAH-06
100
AcDbAttributeDefinition
  3

  2
DESCRIPTION
 70
     8
280
     0
  0
ATTDEF
  5
FB
330
EE
100
AcDbEntity
  8
AM_6
100
AcDbText
 10
7.125
 20
-2.29003345266142
 30
0.0
 40
0.5
  1
With Lube
100
AcDbAttributeDefinition
  3

  2
LUBE
 70
     8
280
     0
  0
ATTDEF
  5
FC
330
EE
100
AcDbEntity
  8
AM_6
100
AcDbText
 10
7.125
 20
-2.79003345266142
 30
0.0
 40
0.5
  1
3.8
100
AcDbAttributeDefinition
  3

  2
WEIGHT
 70
     8
280
     0
  0
ATTDEF
  5
FD
330
EE
100
AcDbEntity
  8
AM_6
100
AcDbText
 10
7.125
 20
-3.29003345266142
 30
0.0
 40
0.5
  1
1-39/64
100
AcDbAttributeDefinition
  3

  2
A
 70
     8
280
     0
  0
ATTDEF
  5
FE
330
EE
100
AcDbEntity
  8
AM_6
100
AcDbText
 10
7.125
 20
-3.79003345266142
 30
0.0
 40
0.5
  1
1.6094
100
AcDbAttributeDefinition
  3

  2
A1
 70
     8
280
     0
  0
ATTDEF
  5
FF
330
EE
100
AcDbEntity
  8
AM_6
100
AcDbText
 10
7.125
 20
-4.290033452661421
 30
0.0
 40
0.5
  1
4-1/4
100
AcDbAttributeDefinition
  3

  2
B
 70
     8
280
     0
  0
ATTDEF
  5
100
330
EE
100
AcDbEntity
  8
AM_6
100
AcDbText
 10
7.125
 20
-4.790033452661421
 30
0.0
 40
0.5
  1
4.250
100
AcDbAttributeDefinition
  3

  2
B1
 70
     8
280
     0
  0
ATTDEF
  5
101
330
EE
100
AcDbEntity
  8
AM_6
100
AcDbText
 10
7.125
 20
-5.290033452661421
 30
0.0
 40
0.5
  1
1-45/64
100
AcDbAttributeDefinition
  3

  2
C
 70
     8
280
     0
  0
ATTDEF
  5
102
330
EE
100
AcDbEntity
  8
AM_6
100
AcDbText
 10
7.125
 20
-5.790033452661421
 30
0.0
 40
0.5
  1
1.703
100
AcDbAttributeDefinition
  3

  2
C1
 70
     8
280
     0
  0
ATTDEF
  5
103
330
EE
100
AcDbEntity
  8
AM_6
100
AcDbText
 10
7.125
 20
-6.290033452661421
 30
0.0
 40
0.5
  1
3-1/4
100
AcDbAttributeDefinition
  3

  2
D
 70
     8
280
     0
  0
ATTDEF
  5
104
330
EE
100
AcDbEntity
  8
AM_6
100
AcDbText
 10
7.125
 20
-6.790033452661421
 30
0.0
 40
0.5
  1
3.250
100
AcDbAttributeDefinition
  3

  2
D1
 70
     8
280
     0
  0
ATTDEF
  5
105
330
EE
100
AcDbEntity
  8
AM_6
100
AcDbText
 10
7.125
 20
-7.290033452661421
 30
0.0
 40
0.5
  1
7/16
100
AcDbAttributeDefinition
  3

  2
F
 70
     8
280
     0
  0
ATTDEF
  5
106
330
EE
100
AcDbEntity
  8
AM_6
100
AcDbText
 10
7.125
 20
-7.790033452661421
 30
0.0
 40
0.5
  1
0.438
100
AcDbAttributeDefinition
  3

  2
F1
 70
     8
280
     0
  0
ATTDEF
  5
107
330
EE
100
AcDbEntity
  8
AM_6
100
AcDbText
 10
7.125
 20
-8.29003345266142
 30
0.0
 40
0.5
  1
1/2
100
AcDbAttributeDefinition
  3

  2
H
 70
     8
280
     0
  0
ATTDEF
  5
108
330
EE
100
AcDbEntity
  8
AM_6
100
AcDbText
 10
7.125
 20
-8.79003345266142
 30
0.0
 40
0.5
  1
0.500
100
AcDbAttributeDefinition
  3

  2
H1
 70
     8
280
     0
  0
ATTDEF
  5
109
330
EE
100
AcDbEntity
  8
AM_6
100
AcDbText
 10
7.125
 20
-9.29003345266142
 30
0.0
 40
0.5
  1
19/32
100
AcDbAttributeDefinition
  3

  2
J
 70
     8
280
     0
  0
ATTDEF
  5
10A
330
EE
100
AcDbEntity
  8
AM_6
100
AcDbText
 10
7.125
 20
-9.79003345266142
 30
0.0
 40
0.5
  1
0.594
100
AcDbAttributeDefinition
  3

  2
J1
 70
     8
280
     0
  0
ATTDEF
  5
10B
330
EE
100
AcDbEntity
  8
AM_6
100
AcDbText
 10
7.125
 20
-10.29003345266142
 30
0.0
 40
0.5
  1
2
100
AcDbAttributeDefinition
  3

  2
L
 70
     8
280
     0
  0
ATTDEF
  5
10C
330
EE
100
AcDbEntity
  8
AM_6
100
AcDbText
 10
7.125
 20
-10.79003345266142
 30
0.0
 40
0.5
  1
2.000
100
AcDbAttributeDefinition
  3

  2
L1
 70
     8
280
     0
  0
ATTDEF
  5
10D
330
EE
100
AcDbEntity
  8
AM_6
100
AcDbText
 10
7.125
 20
-11.29003345266142
 30
0.0
 40
0.5
  1
2-3/16
100
AcDbAttributeDefinition
  3

  2
N
 70
     8
280
     0
  0
ATTDEF
  5
10E
330
EE
100
AcDbEntity
  8
AM_6
100
AcDbText
 10
7.125
 20
-11.79003345266142
 30
0.0
 40
0.5
  1
2.188
100
AcDbAttributeDefinition
  3

  2
N1
 70
     8
280
     0
  0
ATTDEF
  5
10F
330
EE
100
AcDbEntity
  8
AM_6
100
AcDbText
 10
7.125
 20
-12.29003345266142
 30
0.0
 40
0.5
  1
1-21/32
100
AcDbAttributeDefinition
  3

  2
Z
 70
     8
280
     0
  0
ATTDEF
  5
110
330
EE
100
AcDbEntity
  8
AM_6
100
AcDbText
 10
7.125
 20
-12.79003345266142
 30
0.0
 40
0.5
  1
1.656
100
AcDbAttributeDefinition
  3

  2
Z1
 70
     8
280
     0
  0
ATTDEF
  5
111
330
EE
100
AcDbEntity
  8
AM_6
100
AcDbText
 10
7.125
 20
-13.29003345266142
 30
0.0
 40
0.5
  1
Infotext
100
AcDbAttributeDefinition
  3

  2
INFO
 70
     8
280
     0
  0
ATTDEF
  5
112
330
EE
100
AcDbEntity
  8
AM_6
100
AcDbText
 10
7.125
 20
-13.79003345266142
 30
0.0
 40
0.5
  1
baldor
100
AcDbAttributeDefinition
  3

  2
COMPANY
 70
     8
280
     0
  0
LINE
  5
113
330
EE
100
AcDbEntity
  8
AM_9
100
AcDbLine
 10
0.1039401613350322
 20
2.125
 30
0.0
 11
-0.1039401613350322
 21
2.125
 31
0.0
  0
LINE
  5
116
330
EE
100
AcDbEntity
  8
AM_7
100
AcDbLine
 10
-1.85495
 20
-1.625
 30
0.0
 11
-1.39505
 21
-1.625
 31
0.0
  0
LINE
  5
117
330
EE
100
AcDbEntity
  8
AM_7
100
AcDbLine
 10
-1.625
 20
-1.85495
 30
0.0
 11
-1.625
 21
-1.39505
 31
0.0
  0
LINE
  5
118
330
EE
100
AcDbEntity
  8
AM_7
100
AcDbLine
 10
-1.85495
 20
1.625
 30
0.0
 11
-1.39505
 21
1.625
 31
0.0
  0
LINE
  5
119
330
EE
100
AcDbEntity
  8
AM_7
100
AcDbLine
 10
-1.625
 20
1.39505
 30
0.0
 11
-1.625
 21
1.85495
 31
0.0
  0
LINE
  5
11A
330
EE
100
AcDbEntity
  8
AM_7
100
AcDbLine
 10
1.39505
 20
-1.625
 30
0.0
 11
1.85495
 21
-1.625
 31
0.0
  0
LINE
  5
11B
330
EE
100
AcDbEntity
  8
AM_7
100
AcDbLine
 10
1.625
 20
-1.85495
 30
0.0
 11
1.625
 21
-1.39505
 31
0.0
  0
LINE
  5
11C
330
EE
100
AcDbEntity
  8
AM_7
100
AcDbLine
 10
1.39505
 20
1.625
 30
0.0
 11
1.85495
 21
1.625
 31
0.0
  0
LINE
  5
11D
330
EE
100
AcDbEntity
  8
AM_7
100
AcDbLine
 10
1.625
 20
1.39505
 30
0.0
 11
1.625
 21
1.85495
 31
0.0
  0
LINE
  5
11E
330
EE
100
AcDbEntity
  8
AM_7
100
AcDbLine
 10
-1.2814725
 20
0.0
 30
0.0
 11
1.2814725
 21
0.0
 31
0.0
  0
LINE
  5
11F
330
EE
100
AcDbEntity
  8
AM_7
100
AcDbLine
 10
0.0
 20
-1.2814725
 30
0.0
 11
0.0
 21
1.2814725
 31
0.0
  0
LINE
  5
120
330
EE
100
AcDbEntity
  8
AM_7
100
AcDbLine
 10
0.0
 20
2.20996654733858
 30
0.0
 11
0.0
 21
1.726702755338582
 31
0.0
  0
LINE
  5
121
330
EE
100
AcDbEntity
  8
AM_4
100
AcDbLine
 10
-0.2525223706000493
 20
-1.970394622799989
 30
0.0
 11
-0.2617050191000226
 21
-1.976221525499982
 31
0.0
  0
LINE
  5
122
330
EE
100
AcDbEntity
  8
AM_4
100
AcDbLine
 10
-0.2617050191000226
 20
-1.976221525499982
 30
0.0
 11
-0.2739485216999935
 21
-1.979134975599992
 31
0.0
  0
LINE
  5
123
330
EE
100
AcDbEntity
  8
AM_4
100
AcDbLine
 10
-0.3290443050000261
 20
-1.87716423
 30
0.0
 11
-0.2739485216999935
 21
-1.87716423
 31
0.0
  0
LINE
  5
124
330
EE
100
AcDbEntity
  8
AM_4
100
AcDbLine
 10
-0.3290443050000261
 20
-1.979134975599992
 30
0.0
 11
-0.3290443050000261
 21
-1.87716423
 31
0.0
  0
LINE
  5
125
330
EE
100
AcDbEntity
  8
AM_4
100
AcDbLine
 10
-0.2739485216999935
 20
-1.87716423
 30
0.0
 11
-0.2617050191000226
 21
-1.88007768
 31
0.0
  0
LINE
  5
126
330
EE
100
AcDbEntity
  8
AM_4
100
AcDbLine
 10
-0.2617050191000226
 20
-1.88007768
 30
0.0
 11
-0.2525223706000493
 21
-1.88590458
 31
0.0
  0
LINE
  5
127
330
EE
100
AcDbEntity
  8
AM_4
100
AcDbLine
 10
-0.2525223706000493
 20
-1.88590458
 30
0.0
 11
-0.2464006193000068
 21
-1.89464493
 31
0.0
  0
LINE
  5
128
330
EE
100
AcDbEntity
  8
AM_4
100
AcDbLine
 10
-0.2464006193000068
 20
-1.89464493
 30
0.0
 11
-0.2433397436000182
 21
-1.90629873
 31
0.0
  0
LINE
  5
129
330
EE
100
AcDbEntity
  8
AM_4
100
AcDbLine
 10
-0.2433397436000182
 20
-1.90629873
 30
0.0
 11
-0.2433397436000182
 21
-1.950000475300004
 31
0.0
  0
LINE
  5
12A
330
EE
100
AcDbEntity
  8
AM_4
100
AcDbLine
 10
-0.2433397436000182
 20
-1.950000475300004
 30
0.0
 11
-0.2464006193000068
 21
-1.961654275399996
 31
0.0
  0
LINE
  5
12B
330
EE
100
AcDbEntity
  8
AM_4
100
AcDbLine
 10
-0.2464006193000068
 20
-1.961654275399996
 30
0.0
 11
-0.2525223706000493
 21
-1.970394622799989
 31
0.0
  0
LINE
  5
12C
330
EE
100
AcDbEntity
  8
AM_4
100
AcDbLine
 10
-0.2739485216999935
 20
-1.979134975599992
 30
0.0
 11
-0.3290443050000261
 21
-1.979134975599992
 31
0.0
  0
LINE
  5
12D
330
EE
100
AcDbEntity
  8
AM_4
100
AcDbLine
 10
-0.035200086200065
 20
-1.979134975599992
 30
0.0
 11
-0.035200086200065
 21
-1.87716423
 31
0.0
  0
LINE
  5
12E
330
EE
100
AcDbEntity
  8
AM_4
100
AcDbLine
 10
-0.035200086200065
 20
-1.87716423
 30
0.0
 11
0.01989571
 21
-1.87716423
 31
0.0
  0
LINE
  5
12F
330
EE
100
AcDbEntity
  8
AM_4
100
AcDbLine
 10
0.01989571
 20
-1.87716423
 30
0.0
 11
0.03213922
 21
-1.88007768
 31
0.0
  0
LINE
  5
130
330
EE
100
AcDbEntity
  8
AM_4
100
AcDbLine
 10
0.03213922
 20
-1.88007768
 30
0.0
 11
0.04132185
 21
-1.88590458
 31
0.0
  0
LINE
  5
131
330
EE
100
AcDbEntity
  8
AM_4
100
AcDbLine
 10
0.04132185
 20
-1.88590458
 30
0.0
 11
0.04744361
 21
-1.89464493
 31
0.0
  0
LINE
  5
132
330
EE
100
AcDbEntity
  8
AM_4
100
AcDbLine
 10
0.04744361
 20
-1.89464493
 30
0.0
 11
0.05050448
 21
-1.90629873
 31
0.0
  0
LINE
  5
133
330
EE
100
AcDbEntity
  8
AM_4
100
AcDbLine
 10
0.05050448
 20
-1.90629873
 30
0.0
 11
0.05050448
 21
-1.950000475300004
 31
0.0
  0
LINE
  5
134
330
EE
100
AcDbEntity
  8
AM_4
100
AcDbLine
 10
0.05050448
 20
-1.950000475300004
 30
0.0
 11
0.04744361
 21
-1.961654275399996
 31
0.0
  0
LINE
  5
135
330
EE
100
AcDbEntity
  8
AM_4
100
AcDbLine
 10
0.04744361
 20
-1.961654275399996
 30
0.0
 11
0.04132185
 21
-1.970394622799989
 31
0.0
  0
LINE
  5
136
330
EE
100
AcDbEntity
  8
AM_4
100
AcDbLine
 10
0.04132185
 20
-1.970394622799989
 30
0.0
 11
0.03213922
 21
-1.976221525499982
 31
0.0
  0
LINE
  5
137
330
EE
100
AcDbEntity
  8
AM_4
100
AcDbLine
 10
0.03213922
 20
-1.976221525499982
 30
0.0
 11
0.01989571
 21
-1.979134975599992
 31
0.0
  0
LINE
  5
138
330
EE
100
AcDbEntity
  8
AM_4
100
AcDbLine
 10
0.01989571
 20
-1.979134975599992
 30
0.0
 11
-0.035200086200065
 21
-1.979134975599992
 31
0.0
  0
LINE
  5
139
330
EE
100
AcDbEntity
  8
AM_4
100
AcDbLine
 10
-0.1729395605000277
 20
-1.88590458
 30
0.0
 11
-0.1637569336000434
 21
-1.88007768
 31
0.0
  0
LINE
  5
13A
330
EE
100
AcDbEntity
  8
AM_4
100
AcDbLine
 10
-0.1790613334000591
 20
-1.89464493
 30
0.0
 11
-0.1729395605000277
 21
-1.88590458
 31
0.0
  0
LINE
  5
13B
330
EE
100
AcDbEntity
  8
AM_4
100
AcDbLine
 10
-0.1270264042000257
 20
-1.87716423
 30
0.0
 11
-0.1147829015999969
 21
-1.88007768
 31
0.0
  0
LINE
  5
13C
330
EE
100
AcDbEntity
  8
AM_4
100
AcDbLine
 10
-0.1637569336000434
 20
-1.88007768
 30
0.0
 11
-0.1515134310000146
 21
-1.87716423
 31
0.0
  0
LINE
  5
13D
330
EE
100
AcDbEntity
  8
AM_4
100
AcDbLine
 10
-0.1515134310000146
 20
-1.87716423
 30
0.0
 11
-0.1270264042000257
 21
-1.87716423
 31
0.0
  0
LINE
  5
13E
330
EE
100
AcDbEntity
  8
AM_4
100
AcDbLine
 10
-0.1821222090000572
 20
-1.90629873
 30
0.0
 11
-0.1790613334000591
 21
-1.89464493
 31
0.0
  0
LINE
  5
13F
330
EE
100
AcDbEntity
  8
AM_4
100
AcDbLine
 10
-0.1821222090000572
 20
-1.950000475300004
 30
0.0
 11
-0.1821222090000572
 21
-1.90629873
 31
0.0
  0
LINE
  5
140
330
EE
100
AcDbEntity
  8
AM_4
100
AcDbLine
 10
-0.1790613334000591
 20
-1.961654275399996
 30
0.0
 11
-0.1821222090000572
 21
-1.950000475300004
 31
0.0
  0
LINE
  5
141
330
EE
100
AcDbEntity
  8
AM_4
100
AcDbLine
 10
-0.1729395605000277
 20
-1.970394622799989
 30
0.0
 11
-0.1790613334000591
 21
-1.961654275399996
 31
0.0
  0
LINE
  5
142
330
EE
100
AcDbEntity
  8
AM_4
100
AcDbLine
 10
-0.1637569336000434
 20
-1.976221525499982
 30
0.0
 11
-0.1729395605000277
 21
-1.970394622799989
 31
0.0
  0
LINE
  5
143
330
EE
100
AcDbEntity
  8
AM_4
100
AcDbLine
 10
-0.1515134310000146
 20
-1.979134975599992
 30
0.0
 11
-0.1637569336000434
 21
-1.976221525499982
 31
0.0
  0
LINE
  5
144
330
EE
100
AcDbEntity
  8
AM_4
100
AcDbLine
 10
-0.1270264042000257
 20
-1.979134975599992
 30
0.0
 11
-0.1515134310000146
 21
-1.979134975599992
 31
0.0
  0
LINE
  5
145
330
EE
100
AcDbEntity
  8
AM_4
100
AcDbLine
 10
-0.1147829015999969
 20
-1.976221525499982
 30
0.0
 11
-0.1270264042000257
 21
-1.979134975599992
 31
0.0
  0
LINE
  5
146
330
EE
100
AcDbEntity
  8
AM_4
100
AcDbLine
 10
-0.1056002639000449
 20
-1.970394622799989
 30
0.0
 11
-0.1147829015999969
 21
-1.976221525499982
 31
0.0
  0
LINE
  5
147
330
EE
100
AcDbEntity
  8
AM_4
100
AcDbLine
 10
-0.0994785126000024
 20
-1.961654275399996
 30
0.0
 11
-0.1056002639000449
 21
-1.970394622799989
 31
0.0
  0
LINE
  5
148
330
EE
100
AcDbEntity
  8
AM_4
100
AcDbLine
 10
-0.0964176369000162
 20
-1.950000475300004
 30
0.0
 11
-0.0994785126000024
 21
-1.961654275399996
 31
0.0
  0
LINE
  5
149
330
EE
100
AcDbEntity
  8
AM_4
100
AcDbLine
 10
-0.0964176369000162
 20
-1.90629873
 30
0.0
 11
-0.0964176369000162
 21
-1.950000475300004
 31
0.0
  0
LINE
  5
14A
330
EE
100
AcDbEntity
  8
AM_4
100
AcDbLine
 10
-0.0994785126000024
 20
-1.89464493
 30
0.0
 11
-0.0964176369000162
 21
-1.90629873
 31
0.0
  0
LINE
  5
14B
330
EE
100
AcDbEntity
  8
AM_4
100
AcDbLine
 10
-0.1056002639000449
 20
-1.88590458
 30
0.0
 11
-0.0994785126000024
 21
-1.89464493
 31
0.0
  0
LINE
  5
14C
330
EE
100
AcDbEntity
  8
AM_4
100
AcDbLine
 10
-0.1147829015999969
 20
-1.88007768
 30
0.0
 11
-0.1056002639000449
 21
-1.88590458
 31
0.0
  0
LINE
  5
14D
330
EE
100
AcDbEntity
  8
AM_4
100
AcDbLine
 10
-0.347409580399984
 20
-1.85968353
 30
0.0
 11
-0.2739485216999935
 21
-1.85968353
 31
0.0
  0
LINE
  5
14E
330
EE
100
AcDbEntity
  8
AM_4
100
AcDbLine
 10
-0.258644143400034
 20
-1.993702220400012
 30
0.0
 11
-0.2739485216999935
 21
-1.996615670400006
 31
0.0
  0
LINE
  5
14F
330
EE
100
AcDbEntity
  8
AM_4
100
AcDbLine
 10
0.18518309
 20
-1.993702220400012
 30
0.0
 11
0.1698787
 21
-1.996615670400006
 31
0.0
  0
LINE
  5
150
330
EE
100
AcDbEntity
  8
AM_4
100
AcDbLine
 10
-0.2464006193000068
 20
-1.987875320300008
 30
0.0
 11
-0.258644143400034
 21
-1.993702220400012
 31
0.0
  0
LINE
  5
151
330
EE
100
AcDbEntity
  8
AM_4
100
AcDbLine
 10
-0.234157116700034
 20
-1.976221525499982
 30
0.0
 11
-0.2464006193000068
 21
-1.987875320300008
 31
0.0
  0
LINE
  5
152
330
EE
100
AcDbEntity
  8
AM_4
100
AcDbLine
 10
-0.2280353653999914
 20
-1.96456772539999
 30
0.0
 11
-0.234157116700034
 21
-1.976221525499982
 31
0.0
  0
LINE
  5
153
330
EE
100
AcDbEntity
  8
AM_4
100
AcDbLine
 10
-0.347409580399984
 20
-1.996615670400006
 30
0.0
 11
-0.347409580399984
 21
-1.85968353
 31
0.0
  0
LINE
  5
154
330
EE
100
AcDbEntity
  8
AM_4
100
AcDbLine
 10
-0.2739485216999935
 20
-1.996615670400006
 30
0.0
 11
-0.347409580399984
 21
-1.996615670400006
 31
0.0
  0
LINE
  5
155
330
EE
100
AcDbEntity
  8
AM_4
100
AcDbLine
 10
-0.2739485216999935
 20
-1.85968353
 30
0.0
 11
-0.258644143400034
 21
-1.86259698
 31
0.0
  0
LINE
  5
156
330
EE
100
AcDbEntity
  8
AM_4
100
AcDbLine
 10
-0.258644143400034
 20
-1.86259698
 30
0.0
 11
-0.2464006193000068
 21
-1.86842388
 31
0.0
  0
LINE
  5
157
330
EE
100
AcDbEntity
  8
AM_4
100
AcDbLine
 10
-0.2464006193000068
 20
-1.86842388
 30
0.0
 11
-0.234157116700034
 21
-1.88007768
 31
0.0
  0
LINE
  5
158
330
EE
100
AcDbEntity
  8
AM_4
100
AcDbLine
 10
-0.234157116700034
 20
-1.88007768
 30
0.0
 11
-0.2280353653999914
 21
-1.89173148
 31
0.0
  0
LINE
  5
159
330
EE
100
AcDbEntity
  8
AM_4
100
AcDbLine
 10
-0.2280353653999914
 20
-1.89173148
 30
0.0
 11
-0.2249744897000611
 21
-1.90629873
 31
0.0
  0
LINE
  5
15A
330
EE
100
AcDbEntity
  8
AM_4
100
AcDbLine
 10
-0.2249744897000611
 20
-1.90629873
 30
0.0
 11
-0.2249744897000611
 21
-1.950000475300004
 31
0.0
  0
LINE
  5
15B
330
EE
100
AcDbEntity
  8
AM_4
100
AcDbLine
 10
-0.2249744897000611
 20
-1.950000475300004
 30
0.0
 11
-0.2280353653999914
 21
-1.96456772539999
 31
0.0
  0
LINE
  5
15C
330
EE
100
AcDbEntity
  8
AM_4
100
AcDbLine
 10
-0.2004874629000166
 20
-1.950000475300004
 30
0.0
 11
-0.2004874629000166
 21
-1.90629873
 31
0.0
  0
LINE
  5
15D
330
EE
100
AcDbEntity
  8
AM_4
100
AcDbLine
 10
-0.2004874629000166
 20
-1.90629873
 30
0.0
 11
-0.1974265873000162
 21
-1.89173148
 31
0.0
  0
LINE
  5
15E
330
EE
100
AcDbEntity
  8
AM_4
100
AcDbLine
 10
-0.1974265873000162
 20
-1.89173148
 30
0.0
 11
-0.19130483600003
 21
-1.88007768
 31
0.0
  0
LINE
  5
15F
330
EE
100
AcDbEntity
  8
AM_4
100
AcDbLine
 10
-0.19130483600003
 20
-1.88007768
 30
0.0
 11
-0.1790613334000591
 21
-1.86842388
 31
0.0
  0
LINE
  5
160
330
EE
100
AcDbEntity
  8
AM_4
100
AcDbLine
 10
-0.1790613334000591
 20
-1.86842388
 30
0.0
 11
-0.1668178092000414
 21
-1.86259698
 31
0.0
  0
LINE
  5
161
330
EE
100
AcDbEntity
  8
AM_4
100
AcDbLine
 10
-0.1668178092000414
 20
-1.86259698
 30
0.0
 11
-0.1515134310000146
 21
-1.85968353
 31
0.0
  0
LINE
  5
162
330
EE
100
AcDbEntity
  8
AM_4
100
AcDbLine
 10
-0.1515134310000146
 20
-1.85968353
 30
0.0
 11
-0.1270264042000257
 21
-1.85968353
 31
0.0
  0
LINE
  5
163
330
EE
100
AcDbEntity
  8
AM_4
100
AcDbLine
 10
-0.1270264042000257
 20
-1.85968353
 30
0.0
 11
-0.1117220152000316
 21
-1.86259698
 31
0.0
  0
LINE
  5
164
330
EE
100
AcDbEntity
  8
AM_4
100
AcDbLine
 10
-0.1117220152000316
 20
-1.86259698
 30
0.0
 11
-0.0994785126000024
 21
-1.86842388
 31
0.0
  0
LINE
  5
165
330
EE
100
AcDbEntity
  8
AM_4
100
AcDbLine
 10
-0.0994785126000024
 20
-1.86842388
 30
0.0
 11
-0.0872349992000083
 21
-1.88007768
 31
0.0
  0
LINE
  5
166
330
EE
100
AcDbEntity
  8
AM_4
100
AcDbLine
 10
-0.0872349992000083
 20
-1.88007768
 30
0.0
 11
-0.0811132479000217
 21
-1.89173148
 31
0.0
  0
LINE
  5
167
330
EE
100
AcDbEntity
  8
AM_4
100
AcDbLine
 10
-0.0811132479000217
 20
-1.89173148
 30
0.0
 11
-0.0780523722000355
 21
-1.90629873
 31
0.0
  0
LINE
  5
168
330
EE
100
AcDbEntity
  8
AM_4
100
AcDbLine
 10
-0.0780523722000355
 20
-1.90629873
 30
0.0
 11
-0.0780523722000355
 21
-1.950000475300004
 31
0.0
  0
LINE
  5
169
330
EE
100
AcDbEntity
  8
AM_4
100
AcDbLine
 10
-0.0780523722000355
 20
-1.950000475300004
 30
0.0
 11
-0.0811132479000217
 21
-1.96456772539999
 31
0.0
  0
LINE
  5
16A
330
EE
100
AcDbEntity
  8
AM_4
100
AcDbLine
 10
-0.0811132479000217
 20
-1.96456772539999
 30
0.0
 11
-0.0872349992000083
 21
-1.976221525499982
 31
0.0
  0
LINE
  5
16B
330
EE
100
AcDbEntity
  8
AM_4
100
AcDbLine
 10
-0.0872349992000083
 20
-1.976221525499982
 30
0.0
 11
-0.0994785126000024
 21
-1.987875320300008
 31
0.0
  0
LINE
  5
16C
330
EE
100
AcDbEntity
  8
AM_4
100
AcDbLine
 10
-0.0994785126000024
 20
-1.987875320300008
 30
0.0
 11
-0.1117220152000316
 21
-1.993702220400012
 31
0.0
  0
LINE
  5
16D
330
EE
100
AcDbEntity
  8
AM_4
100
AcDbLine
 10
-0.1117220152000316
 20
-1.993702220400012
 30
0.0
 11
-0.1270264042000257
 21
-1.996615670400006
 31
0.0
  0
LINE
  5
16E
330
EE
100
AcDbEntity
  8
AM_4
100
AcDbLine
 10
-0.1270264042000257
 20
-1.996615670400006
 30
0.0
 11
-0.1515134310000146
 21
-1.996615670400006
 31
0.0
  0
LINE
  5
16F
330
EE
100
AcDbEntity
  8
AM_4
100
AcDbLine
 10
-0.1515134310000146
 20
-1.996615670400006
 30
0.0
 11
-0.1668178092000414
 21
-1.993702220400012
 31
0.0
  0
LINE
  5
170
330
EE
100
AcDbEntity
  8
AM_4
100
AcDbLine
 10
-0.1668178092000414
 20
-1.993702220400012
 30
0.0
 11
-0.1790613334000591
 21
-1.987875320300008
 31
0.0
  0
LINE
  5
171
330
EE
100
AcDbEntity
  8
AM_4
100
AcDbLine
 10
-0.1790613334000591
 20
-1.987875320300008
 30
0.0
 11
-0.19130483600003
 21
-1.976221525499982
 31
0.0
  0
LINE
  5
172
330
EE
100
AcDbEntity
  8
AM_4
100
AcDbLine
 10
-0.19130483600003
 20
-1.976221525499982
 30
0.0
 11
-0.1974265873000162
 21
-1.96456772539999
 31
0.0
  0
LINE
  5
173
330
EE
100
AcDbEntity
  8
AM_4
100
AcDbLine
 10
-0.1974265873000162
 20
-1.96456772539999
 30
0.0
 11
-0.2004874629000166
 21
-1.950000475300004
 31
0.0
  0
LINE
  5
174
330
EE
100
AcDbEntity
  8
AM_4
100
AcDbLine
 10
0.01989571
 20
-1.996615670400006
 30
0.0
 11
-0.0535653508999878
 21
-1.996615670400006
 31
0.0
  0
LINE
  5
175
330
EE
100
AcDbEntity
  8
AM_4
100
AcDbLine
 10
-0.0535653508999878
 20
-1.996615670400006
 30
0.0
 11
-0.0535653508999878
 21
-1.85968353
 31
0.0
  0
LINE
  5
176
330
EE
100
AcDbEntity
  8
AM_4
100
AcDbLine
 10
-0.0535653508999878
 20
-1.85968353
 30
0.0
 11
0.01989571
 21
-1.85968353
 31
0.0
  0
LINE
  5
177
330
EE
100
AcDbEntity
  8
AM_4
100
AcDbLine
 10
0.01989571
 20
-1.85968353
 30
0.0
 11
0.0352001
 21
-1.86259698
 31
0.0
  0
LINE
  5
178
330
EE
100
AcDbEntity
  8
AM_4
100
AcDbLine
 10
0.0352001
 20
-1.86259698
 30
0.0
 11
0.04744361
 21
-1.86842388
 31
0.0
  0
LINE
  5
179
330
EE
100
AcDbEntity
  8
AM_4
100
AcDbLine
 10
0.04744361
 20
-1.86842388
 30
0.0
 11
0.05968711
 21
-1.88007768
 31
0.0
  0
LINE
  5
17A
330
EE
100
AcDbEntity
  8
AM_4
100
AcDbLine
 10
0.05968711
 20
-1.88007768
 30
0.0
 11
0.06580887
 21
-1.89173148
 31
0.0
  0
LINE
  5
17B
330
EE
100
AcDbEntity
  8
AM_4
100
AcDbLine
 10
0.06580887
 20
-1.89173148
 30
0.0
 11
0.06886975
 21
-1.90629873
 31
0.0
  0
LINE
  5
17C
330
EE
100
AcDbEntity
  8
AM_4
100
AcDbLine
 10
0.06886975
 20
-1.90629873
 30
0.0
 11
0.06886975
 21
-1.950000475300004
 31
0.0
  0
LINE
  5
17D
330
EE
100
AcDbEntity
  8
AM_4
100
AcDbLine
 10
0.06886975
 20
-1.950000475300004
 30
0.0
 11
0.06580887
 21
-1.96456772539999
 31
0.0
  0
LINE
  5
17E
330
EE
100
AcDbEntity
  8
AM_4
100
AcDbLine
 10
0.06580887
 20
-1.96456772539999
 30
0.0
 11
0.05968711
 21
-1.976221525499982
 31
0.0
  0
LINE
  5
17F
330
EE
100
AcDbEntity
  8
AM_4
100
AcDbLine
 10
0.05968711
 20
-1.976221525499982
 30
0.0
 11
0.04744361
 21
-1.987875320300008
 31
0.0
  0
LINE
  5
180
330
EE
100
AcDbEntity
  8
AM_4
100
AcDbLine
 10
0.04744361
 20
-1.987875320300008
 30
0.0
 11
0.0352001
 21
-1.993702220400012
 31
0.0
  0
LINE
  5
181
330
EE
100
AcDbEntity
  8
AM_4
100
AcDbLine
 10
0.0352001
 20
-1.993702220400012
 30
0.0
 11
0.01989571
 21
-1.996615670400006
 31
0.0
  0
LINE
  5
182
330
EE
100
AcDbEntity
  8
AM_4
100
AcDbLine
 10
0.09335677
 20
-1.950000475300004
 30
0.0
 11
0.09335677
 21
-1.90629873
 31
0.0
  0
LINE
  5
183
330
EE
100
AcDbEntity
  8
AM_4
100
AcDbLine
 10
0.09335677
 20
-1.90629873
 30
0.0
 11
0.09641765
 21
-1.89173148
 31
0.0
  0
LINE
  5
184
330
EE
100
AcDbEntity
  8
AM_4
100
AcDbLine
 10
0.09641765
 20
-1.89173148
 30
0.0
 11
0.1025394
 21
-1.88007768
 31
0.0
  0
LINE
  5
185
330
EE
100
AcDbEntity
  8
AM_4
100
AcDbLine
 10
0.1025394
 20
-1.88007768
 30
0.0
 11
0.11478291
 21
-1.86842388
 31
0.0
  0
LINE
  5
186
330
EE
100
AcDbEntity
  8
AM_4
100
AcDbLine
 10
0.11478291
 20
-1.86842388
 30
0.0
 11
0.12702642
 21
-1.86259698
 31
0.0
  0
LINE
  5
187
330
EE
100
AcDbEntity
  8
AM_4
100
AcDbLine
 10
0.12702642
 20
-1.86259698
 30
0.0
 11
0.14233081
 21
-1.85968353
 31
0.0
  0
LINE
  5
188
330
EE
100
AcDbEntity
  8
AM_4
100
AcDbLine
 10
0.14233081
 20
-1.85968353
 30
0.0
 11
0.1698787
 21
-1.85968353
 31
0.0
  0
LINE
  5
189
330
EE
100
AcDbEntity
  8
AM_4
100
AcDbLine
 10
0.1698787
 20
-1.85968353
 30
0.0
 11
0.18518309
 21
-1.86259698
 31
0.0
  0
LINE
  5
18A
330
EE
100
AcDbEntity
  8
AM_4
100
AcDbLine
 10
0.18518309
 20
-1.86259698
 30
0.0
 11
0.19742659
 21
-1.86842388
 31
0.0
  0
LINE
  5
18B
330
EE
100
AcDbEntity
  8
AM_4
100
AcDbLine
 10
0.19742659
 20
-1.86842388
 30
0.0
 11
0.20967012
 21
-1.88007768
 31
0.0
  0
LINE
  5
18C
330
EE
100
AcDbEntity
  8
AM_4
100
AcDbLine
 10
0.20967012
 20
-1.88007768
 30
0.0
 11
0.21273099
 21
-1.89464493
 31
0.0
  0
LINE
  5
18D
330
EE
100
AcDbEntity
  8
AM_4
100
AcDbLine
 10
0.21273099
 20
-1.89464493
 30
0.0
 11
0.19436572
 21
-1.89464493
 31
0.0
  0
LINE
  5
18E
330
EE
100
AcDbEntity
  8
AM_4
100
AcDbLine
 10
0.19436572
 20
-1.89464493
 30
0.0
 11
0.19130484
 21
-1.88590458
 31
0.0
  0
LINE
  5
18F
330
EE
100
AcDbEntity
  8
AM_4
100
AcDbLine
 10
0.19130484
 20
-1.88590458
 30
0.0
 11
0.18212221
 21
-1.88007768
 31
0.0
  0
LINE
  5
190
330
EE
100
AcDbEntity
  8
AM_4
100
AcDbLine
 10
0.18212221
 20
-1.88007768
 30
0.0
 11
0.1698787
 21
-1.87716423
 31
0.0
  0
LINE
  5
191
330
EE
100
AcDbEntity
  8
AM_4
100
AcDbLine
 10
0.1698787
 20
-1.87716423
 30
0.0
 11
0.14233081
 21
-1.87716423
 31
0.0
  0
LINE
  5
192
330
EE
100
AcDbEntity
  8
AM_4
100
AcDbLine
 10
0.14233081
 20
-1.87716423
 30
0.0
 11
0.13008729
 21
-1.88007768
 31
0.0
  0
LINE
  5
193
330
EE
100
AcDbEntity
  8
AM_4
100
AcDbLine
 10
0.13008729
 20
-1.88007768
 30
0.0
 11
0.12090467
 21
-1.88590458
 31
0.0
  0
LINE
  5
194
330
EE
100
AcDbEntity
  8
AM_4
100
AcDbLine
 10
0.12090467
 20
-1.88590458
 30
0.0
 11
0.11478291
 21
-1.89464493
 31
0.0
  0
LINE
  5
195
330
EE
100
AcDbEntity
  8
AM_4
100
AcDbLine
 10
0.11478291
 20
-1.89464493
 30
0.0
 11
0.11172203
 21
-1.90629873
 31
0.0
  0
LINE
  5
196
330
EE
100
AcDbEntity
  8
AM_4
100
AcDbLine
 10
0.11172203
 20
-1.90629873
 30
0.0
 11
0.11172203
 21
-1.950000475300004
 31
0.0
  0
LINE
  5
197
330
EE
100
AcDbEntity
  8
AM_4
100
AcDbLine
 10
0.11172203
 20
-1.950000475300004
 30
0.0
 11
0.11478291
 21
-1.961654275399996
 31
0.0
  0
LINE
  5
198
330
EE
100
AcDbEntity
  8
AM_4
100
AcDbLine
 10
0.11478291
 20
-1.961654275399996
 30
0.0
 11
0.12090467
 21
-1.970394622799989
 31
0.0
  0
LINE
  5
199
330
EE
100
AcDbEntity
  8
AM_4
100
AcDbLine
 10
0.12090467
 20
-1.970394622799989
 30
0.0
 11
0.13008729
 21
-1.976221525499982
 31
0.0
  0
LINE
  5
19A
330
EE
100
AcDbEntity
  8
AM_4
100
AcDbLine
 10
0.13008729
 20
-1.976221525499982
 30
0.0
 11
0.14233081
 21
-1.979134975599992
 31
0.0
  0
LINE
  5
19B
330
EE
100
AcDbEntity
  8
AM_4
100
AcDbLine
 10
0.14233081
 20
-1.979134975599992
 30
0.0
 11
0.1698787
 21
-1.979134975599992
 31
0.0
  0
LINE
  5
19C
330
EE
100
AcDbEntity
  8
AM_4
100
AcDbLine
 10
0.1698787
 20
-1.979134975599992
 30
0.0
 11
0.18212221
 21
-1.976221525499982
 31
0.0
  0
LINE
  5
19D
330
EE
100
AcDbEntity
  8
AM_4
100
AcDbLine
 10
0.18212221
 20
-1.976221525499982
 30
0.0
 11
0.19130484
 21
-1.970394622799989
 31
0.0
  0
LINE
  5
19E
330
EE
100
AcDbEntity
  8
AM_4
100
AcDbLine
 10
0.19130484
 20
-1.970394622799989
 30
0.0
 11
0.19436572
 21
-1.961654275399996
 31
0.0
  0
LINE
  5
19F
330
EE
100
AcDbEntity
  8
AM_4
100
AcDbLine
 10
0.19436572
 20
-1.961654275399996
 30
0.0
 11
0.19436572
 21
-1.938346675799993
 31
0.0
  0
LINE
  5
1A0
330
EE
100
AcDbEntity
  8
AM_4
100
AcDbLine
 10
0.19436572
 20
-1.938346675799993
 30
0.0
 11
0.16681783
 21
-1.938346675799993
 31
0.0
  0
LINE
  5
1A1
330
EE
100
AcDbEntity
  8
AM_4
100
AcDbLine
 10
0.16681783
 20
-1.938346675799993
 30
0.0
 11
0.16681783
 21
-1.92086598
 31
0.0
  0
LINE
  5
1A2
330
EE
100
AcDbEntity
  8
AM_4
100
AcDbLine
 10
0.16681783
 20
-1.92086598
 30
0.0
 11
0.21273099
 21
-1.92086598
 31
0.0
  0
LINE
  5
1A3
330
EE
100
AcDbEntity
  8
AM_4
100
AcDbLine
 10
0.21273099
 20
-1.92086598
 30
0.0
 11
0.21273099
 21
-1.96456772539999
 31
0.0
  0
LINE
  5
1A4
330
EE
100
AcDbEntity
  8
AM_4
100
AcDbLine
 10
0.21273099
 20
-1.96456772539999
 30
0.0
 11
0.20967012
 21
-1.976221525499982
 31
0.0
  0
LINE
  5
1A5
330
EE
100
AcDbEntity
  8
AM_4
100
AcDbLine
 10
0.20967012
 20
-1.976221525499982
 30
0.0
 11
0.19742659
 21
-1.987875320300008
 31
0.0
  0
LINE
  5
1A6
330
EE
100
AcDbEntity
  8
AM_4
100
AcDbLine
 10
0.19742659
 20
-1.987875320300008
 30
0.0
 11
0.18518309
 21
-1.993702220400012
 31
0.0
  0
LINE
  5
1A7
330
EE
100
AcDbEntity
  8
AM_4
100
AcDbLine
 10
0.1698787
 20
-1.996615670400006
 30
0.0
 11
0.14233081
 21
-1.996615670400006
 31
0.0
  0
LINE
  5
1A8
330
EE
100
AcDbEntity
  8
AM_4
100
AcDbLine
 10
0.14233081
 20
-1.996615670400006
 30
0.0
 11
0.12702642
 21
-1.993702220400012
 31
0.0
  0
LINE
  5
1A9
330
EE
100
AcDbEntity
  8
AM_4
100
AcDbLine
 10
0.12702642
 20
-1.993702220400012
 30
0.0
 11
0.11478291
 21
-1.987875320300008
 31
0.0
  0
LINE
  5
1AA
330
EE
100
AcDbEntity
  8
AM_4
100
AcDbLine
 10
0.11478291
 20
-1.987875320300008
 30
0.0
 11
0.1025394
 21
-1.976221525499982
 31
0.0
  0
LINE
  5
1AB
330
EE
100
AcDbEntity
  8
AM_4
100
AcDbLine
 10
0.1025394
 20
-1.976221525499982
 30
0.0
 11
0.09641765
 21
-1.96456772539999
 31
0.0
  0
LINE
  5
1AC
330
EE
100
AcDbEntity
  8
AM_4
100
AcDbLine
 10
0.09641765
 20
-1.96456772539999
 30
0.0
 11
0.09335677
 21
-1.950000475300004
 31
0.0
  0
LINE
  5
1AD
330
EE
100
AcDbEntity
  8
AM_4
100
AcDbLine
 10
0.34740959
 20
-1.996615670400006
 30
0.0
 11
0.237218
 21
-1.996615670400006
 31
0.0
  0
LINE
  5
1AE
330
EE
100
AcDbEntity
  8
AM_4
100
AcDbLine
 10
0.237218
 20
-1.996615670400006
 30
0.0
 11
0.237218
 21
-1.85968353
 31
0.0
  0
LINE
  5
1AF
330
EE
100
AcDbEntity
  8
AM_4
100
AcDbLine
 10
0.237218
 20
-1.85968353
 30
0.0
 11
0.34740959
 21
-1.85968353
 31
0.0
  0
LINE
  5
1B0
330
EE
100
AcDbEntity
  8
AM_4
100
AcDbLine
 10
0.34740959
 20
-1.85968353
 30
0.0
 11
0.34740959
 21
-1.87716423
 31
0.0
  0
LINE
  5
1B1
330
EE
100
AcDbEntity
  8
AM_4
100
AcDbLine
 10
0.34740959
 20
-1.87716423
 30
0.0
 11
0.25558328
 21
-1.87716423
 31
0.0
  0
LINE
  5
1B2
330
EE
100
AcDbEntity
  8
AM_4
100
AcDbLine
 10
0.25558328
 20
-1.87716423
 30
0.0
 11
0.25558328
 21
-1.91503908
 31
0.0
  0
LINE
  5
1B3
330
EE
100
AcDbEntity
  8
AM_4
100
AcDbLine
 10
0.25558328
 20
-1.91503908
 30
0.0
 11
0.33516609
 21
-1.91503908
 31
0.0
  0
LINE
  5
1B4
330
EE
100
AcDbEntity
  8
AM_4
100
AcDbLine
 10
0.33516609
 20
-1.91503908
 30
0.0
 11
0.33516609
 21
-1.932519776400016
 31
0.0
  0
LINE
  5
1B5
330
EE
100
AcDbEntity
  8
AM_4
100
AcDbLine
 10
0.33516609
 20
-1.932519776400016
 30
0.0
 11
0.25558328
 21
-1.932519776400016
 31
0.0
  0
LINE
  5
1B6
330
EE
100
AcDbEntity
  8
AM_4
100
AcDbLine
 10
0.25558328
 20
-1.932519776400016
 30
0.0
 11
0.25558328
 21
-1.979134975599992
 31
0.0
  0
LINE
  5
1B7
330
EE
100
AcDbEntity
  8
AM_4
100
AcDbLine
 10
0.25558328
 20
-1.979134975599992
 30
0.0
 11
0.34740959
 21
-1.979134975599992
 31
0.0
  0
LINE
  5
1B8
330
EE
100
AcDbEntity
  8
AM_4
100
AcDbLine
 10
0.34740959
 20
-1.979134975599992
 30
0.0
 11
0.34740959
 21
-1.996615670400006
 31
0.0
  0
LINE
  5
1B9
330
EE
100
AcDbEntity
  8
AM_4
100
AcDbLine
 10
-0.1039401613350322
 20
2.125
 30
0.0
 11
-1.625
 21
2.125
 31
0.0
  0
LINE
  5
1BA
330
EE
100
AcDbEntity
  8
AM_4
100
AcDbLine
 10
1.625000000000001
 20
2.125
 30
0.0
 11
0.1039401613350322
 21
2.125
 31
0.0
  0
ARC
  5
1BB
330
EE
100
AcDbEntity
  8
AM_4
100
AcDbCircle
 10
-1.674593999126647
 20
-0.6323250256702888
 30
0.0
 40
0.0999999999999604
100
AcDbArc
 50
324.9999999999975
 51
330.2556903850068
  0
ARC
  5
1BC
330
EE
100
AcDbEntity
  8
AM_4
100
AcDbCircle
 10
-0.6323250256702467
 20
-1.674593999126718
 30
0.0
 40
0.1000000000000431
100
AcDbArc
 50
119.7443096145518
 51
124.9999999999995
  0
ARC
  5
1BD
330
EE
100
AcDbEntity
  8
AM_4
100
AcDbCircle
 10
-1.625
 20
-1.625
 30
0.0
 40
0.4999999999999998
100
AcDbArc
 50
180.0
 51
270.0
  0
LINE
  5
1BE
330
EE
100
AcDbEntity
  8
AM_4
100
AcDbLine
 10
-2.125
 20
-1.625000000000001
 30
0.0
 11
-2.125
 21
1.625000000000001
 31
0.0
  0
LINE
  5
1BF
330
EE
100
AcDbEntity
  8
AM_4
100
AcDbLine
 10
-2.042767542587387
 20
-1.332476017460966
 30
0.0
 11
-1.592678794697783
 21
-0.6896826693053743
 31
0.0
  0
CIRCLE
  5
1C0
330
EE
100
AcDbEntity
  8
AM_4
100
AcDbCircle
 10
-1.625
 20
-1.625
 30
0.0
 40
0.219
  0
ARC
  5
1C1
330
EE
100
AcDbEntity
  8
AM_4
100
AcDbCircle
 10
-1.62500000000001
 20
-1.624999999999998
 30
0.0
 40
0.5099999999999911
100
AcDbArc
 50
144.9999999999996
 51
168.6351230329655
  0
ARC
  5
1C2
330
EE
100
AcDbEntity
  8
AM_4
100
AcDbCircle
 10
-1.625000000000005
 20
-1.624999999999995
 30
0.0
 40
0.5100000000000068
100
AcDbArc
 50
281.3648769670344
 51
305.0
  0
LINE
  5
1C3
330
EE
100
AcDbEntity
  8
AM_4
100
AcDbLine
 10
-0.6896826693053754
 20
-1.592678794697783
 30
0.0
 11
-1.332476017460967
 21
-2.042767542587386
 31
0.0
  0
ARC
  5
1C4
330
EE
100
AcDbEntity
  8
AM_4
100
AcDbCircle
 10
-0.6323250256703469
 20
1.67459399912656
 30
0.0
 40
0.0999999999998559
100
AcDbArc
 50
234.9999999999961
 51
240.255690385011
  0
ARC
  5
1C5
330
EE
100
AcDbEntity
  8
AM_4
100
AcDbCircle
 10
-1.674593999126662
 20
0.6323250256702855
 30
0.0
 40
0.0999999999999756
100
AcDbArc
 50
29.74430961454845
 51
34.99999999999941
  0
ARC
  5
1C6
330
EE
100
AcDbEntity
  8
AM_4
100
AcDbCircle
 10
-1.625
 20
1.625
 30
0.0
 40
0.4999999999999996
100
AcDbArc
 50
90.0
 51
180.0
  0
LINE
  5
1C7
330
EE
100
AcDbEntity
  8
AM_4
100
AcDbLine
 10
-1.332476017460966
 20
2.042767542587386
 30
0.0
 11
-0.6896826693053745
 21
1.592678794697783
 31
0.0
  0
ARC
  5
1C8
330
EE
100
AcDbEntity
  8
AM_4
100
AcDbCircle
 10
-1.625000000000002
 20
1.624999999999997
 30
0.0
 40
0.5100000000000039
100
AcDbArc
 50
54.99999999999999
 51
78.63512303296581
  0
CIRCLE
  5
1C9
330
EE
100
AcDbEntity
  8
AM_4
100
AcDbCircle
 10
-1.625
 20
1.625
 30
0.0
 40
0.219
  0
LINE
  5
1CA
330
EE
100
AcDbEntity
  8
AM_4
100
AcDbLine
 10
-1.592678794697782
 20
0.6896826693053753
 30
0.0
 11
-2.042767542587386
 21
1.332476017460967
 31
0.0
  0
ARC
  5
1CB
330
EE
100
AcDbEntity
  8
AM_4
100
AcDbCircle
 10
-1.624999999999988
 20
1.625000000000006
 30
0.0
 40
0.5100000000000134
100
AcDbArc
 50
191.3648769670341
 51
214.9999999999997
  0
ARC
  5
1CC
330
EE
100
AcDbEntity
  8
AM_4
100
AcDbCircle
 10
0.6323250256702866
 20
-1.674593999126653
 30
0.0
 40
0.0999999999999671
100
AcDbArc
 50
54.99999999999866
 51
60.25569038545745
  0
ARC
  5
1CD
330
EE
100
AcDbEntity
  8
AM_4
100
AcDbCircle
 10
1.674593999126662
 20
-0.6323250256702857
 30
0.0
 40
0.0999999999999757
100
AcDbArc
 50
209.7443096145485
 51
214.9999999999994
  0
LINE
  5
1CE
330
EE
100
AcDbEntity
  8
AM_4
100
AcDbLine
 10
1.625
 20
-2.125
 30
0.0
 11
-1.625000000000001
 21
-2.125
 31
0.0
  0
ARC
  5
1CF
330
EE
100
AcDbEntity
  8
AM_4
100
AcDbCircle
 10
1.625000000000001
 20
-1.625000000000001
 30
0.0
 40
0.4999999999999989
100
AcDbArc
 50
270.0
 51
0.0
  0
ARC
  5
1D0
330
EE
100
AcDbEntity
  8
AM_4
100
AcDbCircle
 10
1.62500000000001
 20
-1.624999999999998
 30
0.0
 40
0.5099999999999909
100
AcDbArc
 50
11.36487696703417
 51
35.00000000000045
  0
LINE
  5
1D1
330
EE
100
AcDbEntity
  8
AM_4
100
AcDbLine
 10
1.592678794697782
 20
-0.6896826693053755
 30
0.0
 11
2.042767542587386
 21
-1.332476017460967
 31
0.0
  0
ARC
  5
1D2
330
EE
100
AcDbEntity
  8
AM_4
100
AcDbCircle
 10
1.624999999999998
 20
-1.62500000000001
 30
0.0
 40
0.5099999999999918
100
AcDbArc
 50
234.9999999999995
 51
258.6351230329654
  0
CIRCLE
  5
1D3
330
EE
100
AcDbEntity
  8
AM_4
100
AcDbCircle
 10
1.625
 20
-1.625
 30
0.0
 40
0.219
  0
LINE
  5
1D4
330
EE
100
AcDbEntity
  8
AM_4
100
AcDbLine
 10
1.332476017460966
 20
-2.042767542587387
 30
0.0
 11
0.6896826693053743
 21
-1.592678794697783
 31
0.0
  0
ARC
  5
1D5
330
EE
100
AcDbEntity
  8
AM_4
100
AcDbCircle
 10
1.674593999126611
 20
0.6323250256703156
 30
0.0
 40
0.0999999999999163
100
AcDbArc
 50
144.9999999999983
 51
150.2556903850101
  0
ARC
  5
1D6
330
EE
100
AcDbEntity
  8
AM_4
100
AcDbCircle
 10
0.6323250256702478
 20
1.674593999126716
 30
0.0
 40
0.1000000000000412
100
AcDbArc
 50
299.7443096145516
 51
304.9999999999994
  0
ARC
  5
1D7
330
EE
100
AcDbEntity
  8
AM_4
100
AcDbCircle
 10
1.625000000000001
 20
1.625000000000001
 30
0.0
 40
0.4999999999999989
100
AcDbArc
 50
0.0
 51
90.0
  0
LINE
  5
1D8
330
EE
100
AcDbEntity
  8
AM_4
100
AcDbLine
 10
2.125
 20
1.625
 30
0.0
 11
2.125
 21
-1.625000000000001
 31
0.0
  0
ARC
  5
1D9
330
EE
100
AcDbEntity
  8
AM_4
100
AcDbCircle
 10
1.625000000000001
 20
1.625
 30
0.0
 40
0.5100000000000007
100
AcDbArc
 50
101.3648769670342
 51
125.0000000000002
  0
ARC
  5
1DA
330
EE
100
AcDbEntity
  8
AM_4
100
AcDbCircle
 10
1.625000000000004
 20
1.625
 30
0.0
 40
0.5099999999999973
100
AcDbArc
 50
324.9999999999998
 51
348.6351230329658
  0
LINE
  5
1DB
330
EE
100
AcDbEntity
  8
AM_4
100
AcDbLine
 10
0.6896826693053751
 20
1.592678794697783
 30
0.0
 11
1.332476017460966
 21
2.042767542587386
 31
0.0
  0
LINE
  5
1DC
330
EE
100
AcDbEntity
  8
AM_4
100
AcDbLine
 10
2.042767542587386
 20
1.332476017460966
 30
0.0
 11
1.592678794697783
 21
0.6896826693053746
 31
0.0
  0
CIRCLE
  5
1DD
330
EE
100
AcDbEntity
  8
AM_4
100
AcDbCircle
 10
1.625
 20
1.625
 30
0.0
 40
0.219
  0
ARC
  5
1DE
330
EE
100
AcDbEntity
  8
AM_4
100
AcDbCircle
 10
0.0000000000015037
 20
-0.0000000000053362
 30
0.0
 40
1.690000000005523
100
AcDbArc
 50
100.742214277266
 51
110.6864864724964
  0
LWPOLYLINE
  5
1DF
330
EE
100
AcDbEntity
  8
AM_4
100
AcDbPolyline
 90
        7
 70
     0
 43
0.0
 10
-0.6819380531937197
 20
1.587769189884407
 10
-0.6721640209473982
 20
1.582872385232742
 10
-0.6492923792869049
 20
1.576043966598792
 10
-0.6321519058835751
 20
1.574582521526808
 10
-0.6152118458020365
 20
1.576069184613801
 10
-0.6022263776305121
 20
1.579231158427681
 10
-0.5969996052417631
 20
1.581041261745303
  0
ARC
  5
1E0
330
EE
100
AcDbEntity
  8
AM_4
100
AcDbCircle
 10
0.0000000000036477
 20
-0.000000000002472
 30
0.0
 40
1.728019244323584
100
AcDbArc
 50
113.2432544281178
 51
156.7567455719488
  0
LWPOLYLINE
  5
1E1
330
EE
100
AcDbEntity
  8
AM_4
100
AcDbPolyline
 90
        6
 70
     0
 43
0.0
 10
-1.581041261745302
 20
0.5969996052417637
 10
-1.577553367611151
 20
0.6081772341549564
 10
-1.574940572465779
 20
0.6237852681624985
 10
-1.574841672231292
 20
0.6393587500717096
 10
-1.580105581041133
 20
0.6650655028764837
 10
-1.587769189884024
 20
0.6819380531930501
  0
ARC
  5
1E2
330
EE
100
AcDbEntity
  8
AM_4
100
AcDbCircle
 10
0.0000000000000939
 20
0.0000000000000003
 30
0.0
 40
1.690000000000088
100
AcDbArc
 50
159.3135135274885
 51
200.6864864725114
  0
LWPOLYLINE
  5
1E3
330
EE
100
AcDbEntity
  8
AM_4
100
AcDbPolyline
 90
        7
 70
     0
 43
0.0
 10
-1.587769189884407
 20
-0.6819380531937199
 10
-1.582872385232742
 20
-0.672164020947398
 10
-1.576043966598792
 20
-0.6492923792869052
 10
-1.574582521526808
 20
-0.6321519058835754
 10
-1.576069184613801
 20
-0.6152118458020366
 10
-1.579231158427682
 20
-0.6022263776305113
 10
-1.581041261745303
 20
-0.5969996052417619
  0
ARC
  5
1E4
330
EE
100
AcDbEntity
  8
AM_4
100
AcDbCircle
 10
0.0000000000024698
 20
0.000000000003646
 30
0.0
 40
1.728019244323582
100
AcDbArc
 50
203.2432544281178
 51
246.7567455719489
  0
LWPOLYLINE
  5
1E5
330
EE
100
AcDbEntity
  8
AM_4
100
AcDbPolyline
 90
        6
 70
     0
 43
0.0
 10
-0.5969996052417639
 20
-1.581041261745302
 10
-0.6081772341549566
 20
-1.577553367611151
 10
-0.6237852681624986
 20
-1.574940572465779
 10
-0.6393587500717094
 20
-1.574841672231292
 10
-0.6650655028764837
 20
-1.580105581041133
 10
-0.6819380531930499
 20
-1.587769189884024
  0
ARC
  5
1E6
330
EE
100
AcDbEntity
  8
AM_4
100
AcDbCircle
 10
-0.0000000000000005
 20
0.0000000000000016
 30
0.0
 40
1.690000000000001
100
AcDbArc
 50
249.3135135274874
 51
290.6864864725125
  0
LWPOLYLINE
  5
1E7
330
EE
100
AcDbEntity
  8
AM_4
100
AcDbPolyline
 90
        7
 70
     0
 43
0.0
 10
0.6819380531930381
 20
-1.587769189884017
 10
0.6721640209473982
 20
-1.582872385232742
 10
0.6492923792869053
 20
-1.576043966598792
 10
0.6321519058835754
 20
-1.574582521526808
 10
0.6152118458020365
 20
-1.576069184613801
 10
0.6022263776305118
 20
-1.579231158427681
 10
0.5969996052417619
 20
-1.581041261745303
  0
ARC
  5
1E8
330
EE
100
AcDbEntity
  8
AM_4
100
AcDbCircle
 10
0.0000000000000624
 20
-0.0000000000000422
 30
0.0
 40
1.728019244319183
100
AcDbArc
 50
293.2432544280219
 51
336.7567455719769
  0
LWPOLYLINE
  5
1E9
330
EE
100
AcDbEntity
  8
AM_4
100
AcDbPolyline
 90
        6
 70
     0
 43
0.0
 10
1.581041261745302
 20
-0.596999605241764
 10
1.577553367611151
 20
-0.6081772341549566
 10
1.574940572465779
 20
-0.6237852681624984
 10
1.574841672231292
 20
-0.639358750071709
 10
1.580105581041133
 20
-0.6650655028764837
 10
1.587769189884024
 20
-0.6819380531930505
  0
ARC
  5
1EA
330
EE
100
AcDbEntity
  8
AM_4
100
AcDbCircle
 10
-0.0000000000002589
 20
-0.0000000000000001
 30
0.0
 40
1.690000000000242
100
AcDbArc
 50
339.3135135274904
 51
20.68648647250951
  0
LWPOLYLINE
  5
1EB
330
EE
100
AcDbEntity
  8
AM_4
100
AcDbPolyline
 90
        7
 70
     0
 43
0.0
 10
1.587769189884407
 20
0.6819380531937197
 10
1.582872385232742
 20
0.6721640209473986
 10
1.576043966598792
 20
0.6492923792869056
 10
1.574582521526808
 20
0.6321519058835756
 10
1.576069184613801
 20
0.6152118458020368
 10
1.579231158427682
 20
0.6022263776305112
 10
1.581041261745303
 20
0.5969996052417633
  0
ARC
  5
1EC
330
EE
100
AcDbEntity
  8
AM_4
100
AcDbCircle
 10
-0.0000000000024705
 20
-0.0000000000036466
 30
0.0
 40
1.728019244323582
100
AcDbArc
 50
23.2432544281178
 51
66.75674557194884
  0
LWPOLYLINE
  5
1ED
330
EE
100
AcDbEntity
  8
AM_4
100
AcDbPolyline
 90
        6
 70
     0
 43
0.0
 10
0.5969996052417635
 20
1.581041261745302
 10
0.6081772341549563
 20
1.577553367611151
 10
0.6237852681624979
 20
1.574940572465779
 10
0.6393587500717084
 20
1.574841672231292
 10
0.665065502876483
 20
1.580105581041133
 10
0.6819380531930498
 20
1.587769189884024
  0
ARC
  5
1EE
330
EE
100
AcDbEntity
  8
AM_4
100
AcDbCircle
 10
0.0000000000005599
 20
0.0000000000019897
 30
0.0
 40
1.68999999999794
100
AcDbArc
 50
69.31351352748132
 51
79.25778572275642
  0
LINE
  5
1EF
330
EE
100
AcDbEntity
  8
AM_4
100
AcDbLine
 10
0.15748032
 20
1.853354331338582
 30
0.0
 11
-0.15748032
 21
1.853354331338582
 31
0.0
  0
LINE
  5
1F0
330
EE
100
AcDbEntity
  8
AM_4
100
AcDbLine
 10
-0.1818426102881368
 20
1.859882187347061
 30
0.0
 11
-0.15748032
 21
1.853354331338582
 31
0.0
  0
LINE
  5
1F1
330
EE
100
AcDbEntity
  8
AM_4
100
AcDbLine
 10
0.15748032
 20
1.971464571338583
 30
0.0
 11
-0.15748032
 21
1.971464571338583
 31
0.0
  0
LINE
  5
1F2
330
EE
100
AcDbEntity
  8
AM_4
100
AcDbLine
 10
-0.15748032
 20
1.971464571338583
 30
0.0
 11
-0.1818426102881368
 21
1.964936715330104
 31
0.0
  0
LINE
  5
1F3
330
EE
100
AcDbEntity
  8
AM_4
100
AcDbLine
 10
0.1818426102881368
 20
1.964936715330104
 30
0.0
 11
0.15748032
 21
1.971464571338583
 31
0.0
  0
LINE
  5
1F4
330
EE
100
AcDbEntity
  8
AM_4
100
AcDbLine
 10
0.15748032
 20
1.853354331338582
 30
0.0
 11
0.1818426102881368
 21
1.859882187347061
 31
0.0
  0
LINE
  5
1F5
330
EE
100
AcDbEntity
  8
AM_4
100
AcDbLine
 10
0.0654127384443837
 20
2.18800001133858
 30
0.0
 11
-0.0654127384443837
 21
2.18800001133858
 31
0.0
  0
ARC
  5
1F6
330
EE
100
AcDbEntity
  8
AM_4
100
AcDbCircle
 10
-0.0654127384443832
 20
2.168314971338578
 30
0.0
 40
0.0196850400000024
100
AcDbArc
 50
90.0
 51
158.1985930228001
  0
ARC
  5
1F7
330
EE
100
AcDbEntity
  8
AM_4
100
AcDbCircle
 10
0.0654127384443832
 20
2.168314971338578
 30
0.0
 40
0.0196850400000023
100
AcDbArc
 50
21.80140697719991
 51
90.0
  0
LINE
  5
1F8
330
EE
100
AcDbEntity
  8
AM_4
100
AcDbLine
 10
-0.0836898395636926
 20
2.175625810857828
 30
0.0
 11
-0.1048775701420836
 21
2.122656477684744
 31
0.0
  0
LINE
  5
1F9
330
EE
100
AcDbEntity
  8
AM_4
100
AcDbLine
 10
0.1048775701420836
 20
2.122656477684744
 30
0.0
 11
0.0836898395636926
 21
2.175625810857828
 31
0.0
  0
LINE
  5
1FA
330
EE
100
AcDbEntity
  8
AM_4
100
AcDbLine
 10
0.0836898395636926
 20
2.175625810857828
 30
0.0
 11
-0.0836898395636926
 21
2.175625810857828
 31
0.0
  0
ARC
  5
1FB
330
EE
100
AcDbEntity
  8
AM_4
100
AcDbCircle
 10
-0.086600469022775
 20
2.115345638165497
 30
0.0
 40
0.0196850400000002
100
AcDbArc
 50
158.1985930228088
 51
225.842901952552
  0
ARC
  5
1FC
330
EE
100
AcDbEntity
  8
AM_4
100
AcDbCircle
 10
0.086600469022775
 20
2.115345638165497
 30
0.0
 40
0.0196850400000004
100
AcDbArc
 50
314.157098047448
 51
21.80140697719118
  0
LINE
  5
1FD
330
EE
100
AcDbEntity
  8
AM_4
100
AcDbLine
 10
0.1048775701420836
 20
2.122656477684744
 30
0.0
 11
-0.1048775701420836
 21
2.122656477684744
 31
0.0
  0
LINE
  5
1FE
330
EE
100
AcDbEntity
  8
AM_4
100
AcDbLine
 10
-0.11023622
 20
1.853354331338582
 30
0.0
 11
-0.11023622
 21
1.83366928
 31
0.0
  0
LINE
  5
1FF
330
EE
100
AcDbEntity
  8
AM_4
100
AcDbLine
 10
0.11023622
 20
1.83366928
 30
0.0
 11
0.11023622
 21
1.853354331338582
 31
0.0
  0
LINE
  5
200
330
EE
100
AcDbEntity
  8
AM_4
100
AcDbLine
 10
-0.11023622
 20
1.991149611338582
 30
0.0
 11
-0.11023622
 21
1.971464571338583
 31
0.0
  0
LINE
  5
201
330
EE
100
AcDbEntity
  8
AM_4
100
AcDbLine
 10
0.11023622
 20
1.971464571338583
 30
0.0
 11
0.11023622
 21
1.991149611338582
 31
0.0
  0
ARC
  5
202
330
EE
100
AcDbEntity
  8
AM_4
100
AcDbCircle
 10
-0.1498523720312506
 20
2.050204731338582
 30
0.0
 40
0.0711122120312507
100
AcDbArc
 50
303.8550321711151
 51
45.84291774237034
  0
ARC
  5
203
330
EE
100
AcDbEntity
  8
AM_4
100
AcDbCircle
 10
0.1498523720312506
 20
2.050204731338582
 30
0.0
 40
0.0711122120312506
100
AcDbArc
 50
134.1570822576297
 51
236.1449678288849
  0
LINE
  5
204
330
EE
100
AcDbEntity
  8
AM_4
100
AcDbLine
 10
0.1102362200000001
 20
1.991149611338582
 30
0.0
 11
-0.1102362200000001
 21
1.991149611338582
 31
0.0
  0
LINE
  5
205
330
EE
100
AcDbEntity
  8
AM_4
100
AcDbLine
 10
0.1003136210148369
 20
2.101222952080895
 30
0.0
 11
-0.1003136210148369
 21
2.101222952080895
 31
0.0
  0
LWPOLYLINE
  5
206
330
EE
100
AcDbEntity
  8
AM_4
100
AcDbPolyline
 90
        3
 70
     0
 43
0.0
 10
-0.0909213051440684
 20
1.964936715330104
 10
-0.1135494297624474
 20
1.969726330599319
 10
-0.1363819577161026
 20
1.971464571338583
  0
LWPOLYLINE
  5
207
330
EE
100
AcDbEntity
  8
AM_4
100
AcDbPolyline
 90
        3
 70
     0
 43
0.0
 10
-0.1363819577161026
 20
1.971464571338583
 10
-0.1591122840021197
 20
1.96974155249557
 10
-0.1818426102881368
 20
1.964936715330104
  0
LINE
  5
208
330
EE
100
AcDbEntity
  8
AM_4
100
AcDbLine
 10
-0.1818426102881368
 20
1.859882187347061
 30
0.0
 11
-0.1818426102881368
 21
1.964936715330104
 31
0.0
  0
LWPOLYLINE
  5
209
330
EE
100
AcDbEntity
  8
AM_4
100
AcDbPolyline
 90
        3
 70
     0
 43
0.0
 10
-0.1818426102881368
 20
1.859882187347061
 10
-0.1592144856697578
 20
1.855092572077847
 10
-0.1363819577161026
 20
1.853354331338583
  0
LWPOLYLINE
  5
20A
330
EE
100
AcDbEntity
  8
AM_4
100
AcDbPolyline
 90
        3
 70
     0
 43
0.0
 10
0.1818426102881368
 20
1.964936715330104
 10
0.1592144856697578
 20
1.969726330599319
 10
0.1363819577161026
 20
1.971464571338583
  0
LWPOLYLINE
  5
20B
330
EE
100
AcDbEntity
  8
AM_4
100
AcDbPolyline
 90
        3
 70
     0
 43
0.0
 10
0.1363819577161026
 20
1.971464571338583
 10
0.1136516314300855
 20
1.96974155249557
 10
0.0909213051440684
 20
1.964936715330104
  0
LWPOLYLINE
  5
20C
330
EE
100
AcDbEntity
  8
AM_4
100
AcDbPolyline
 90
        3
 70
     0
 43
0.0
 10
0.1363819577161026
 20
1.853354331338582
 10
0.1591122840021197
 20
1.855077350181595
 10
0.1818426102881368
 20
1.859882187347061
  0
LINE
  5
20D
330
EE
100
AcDbEntity
  8
AM_4
100
AcDbLine
 10
0.1818426102881368
 20
1.859882187347061
 30
0.0
 11
0.1818426102881368
 21
1.964936715330104
 31
0.0
  0
LWPOLYLINE
  5
20E
330
EE
100
AcDbEntity
  8
AM_4
100
AcDbPolyline
 90
        3
 70
     0
 43
0.0
 10
0.0909213051440684
 20
1.964936715330104
 10
0.0456650559073104
 20
1.969726330599319
 10
0.0
 20
1.971464571338583
  0
LWPOLYLINE
  5
20F
330
EE
100
AcDbEntity
  8
AM_4
100
AcDbPolyline
 90
        3
 70
     0
 43
0.0
 10
0.0
 20
1.971464571338583
 10
-0.0689029552938091
 20
1.96760234295952
 10
-0.0909213051440684
 20
1.964936715330104
  0
LINE
  5
210
330
EE
100
AcDbEntity
  8
AM_4
100
AcDbLine
 10
-0.0909213051440684
 20
1.859882187347061
 30
0.0
 11
-0.0909213051440684
 21
1.964936715330104
 31
0.0
  0
LINE
  5
211
330
EE
100
AcDbEntity
  8
AM_4
100
AcDbLine
 10
0.0909213051440684
 20
1.859882187347061
 30
0.0
 11
0.0909213051440684
 21
1.964936715330104
 31
0.0
  0
LWPOLYLINE
  5
212
330
EE
100
AcDbEntity
  8
AM_4
100
AcDbPolyline
 90
        3
 70
     0
 43
0.0
 10
0.0
 20
1.853354331338583
 10
0.0454606525720342
 20
1.855077350181595
 10
0.0909213051440684
 20
1.859882187347061
  0
LWPOLYLINE
  5
213
330
EE
100
AcDbEntity
  8
AM_4
100
AcDbPolyline
 90
        3
 70
     0
 43
0.0
 10
0.0909213051440684
 20
1.859882187347061
 10
0.1135494297624474
 20
1.855092572077847
 10
0.1363819577161026
 20
1.853354331338582
  0
LWPOLYLINE
  5
214
330
EE
100
AcDbEntity
  8
AM_4
100
AcDbPolyline
 90
        3
 70
     0
 43
0.0
 10
-0.1363819577161026
 20
1.853354331338583
 10
-0.1136516314300855
 20
1.855077350181595
 10
-0.0909213051440684
 20
1.859882187347061
  0
LWPOLYLINE
  5
215
330
EE
100
AcDbEntity
  8
AM_4
100
AcDbPolyline
 90
        3
 70
     0
 43
0.0
 10
-0.0909213051440684
 20
1.859882187347061
 10
-0.0689029552938091
 20
1.857216559717645
 10
0.0
 20
1.853354331338583
  0
ARC
  5
216
330
EE
100
AcDbEntity
  8
AM_4
100
AcDbCircle
 10
0.0
 20
-0.0000000000000001
 30
0.0
 40
1.688673147508248
100
AcDbArc
 50
100.750755259871
 51
79.24924474012897
  0
ARC
  5
217
330
EE
100
AcDbEntity
  8
AM_4
100
AcDbCircle
 10
0.0000000000000556
 20
0.0000000000000052
 30
0.0
 40
1.671701380037395
100
AcDbArc
 50
100.8603836469348
 51
79.13961635306833
  0
LINE
  5
218
330
EE
100
AcDbEntity
  8
AM_4
100
AcDbLine
 10
0.27562992
 20
1.608916380014161
 30
0.0
 11
0.3149760168110289
 21
1.641759913279905
 31
0.0
  0
LINE
  5
219
330
EE
100
AcDbEntity
  8
AM_4
100
AcDbLine
 10
0.315
 20
1.64180416803793
 30
0.0
 11
0.315
 21
1.83366928
 31
0.0
  0
CIRCLE
  5
21A
330
EE
100
AcDbEntity
  8
AM_4
100
AcDbCircle
 10
0.0
 20
0.0
 30
0.0
 40
1.22045
  0
ARC
  5
21B
330
EE
100
AcDbEntity
  8
AM_4
100
AcDbCircle
 10
-0.0000000000000001
 20
0.0000000000000001
 30
0.0
 40
1.632355283226381
100
AcDbArc
 50
99.72120204449868
 51
80.27879795550132
  0
LINE
  5
21C
330
EE
100
AcDbEntity
  8
AM_4
100
AcDbLine
 10
0.27562992
 20
1.608916380014161
 30
0.0
 11
0.27562992
 21
1.83366928
 31
0.0
  0
LINE
  5
21D
330
EE
100
AcDbEntity
  8
AM_4
100
AcDbLine
 10
-0.315
 20
1.83366928
 30
0.0
 11
0.315
 21
1.83366928
 31
0.0
  0
LINE
  5
21E
330
EE
100
AcDbEntity
  8
AM_4
100
AcDbLine
 10
-0.315
 20
1.641804168017069
 30
0.0
 11
-0.315
 21
1.83366928
 31
0.0
  0
LINE
  5
21F
330
EE
100
AcDbEntity
  8
AM_4
100
AcDbLine
 10
-0.314976016811008
 20
1.641759913279887
 30
0.0
 11
-0.2756299200000001
 21
1.608916380014161
 31
0.0
  0
LINE
  5
220
330
EE
100
AcDbEntity
  8
AM_4
100
AcDbLine
 10
-0.2756299200000001
 20
1.608916380014161
 30
0.0
 11
-0.2756299200000001
 21
1.83366928
 31
0.0
  0
ENDBLK
  5
F1
330
EE
100
AcDbEntity
  8
0
100
AcDbBlockEnd
  0
ENDSEC
  0
SECTION
  2
ENTITIES
  0
INSERT
  5
6F
330
1F
100
AcDbEntity
  8
0
100
AcDbBlockReference
  2
1_129660_0
 10
0.0
 20
0.0
 30
0.0
  0
POINT
  5
222
330
1F
100
AcDbEntity
  8
ConnectionPoints
100
AcDbPoint
 10
0.0000000000000001
 20
0.0
 30
-0.4371499999999999
  0
POINT
  5
223
330
1F
100
AcDbEntity
  8
ConnectionPoints
100
AcDbPoint
 10
0.0000000000000001
 20
0.0
 30
-0.9683999999999999
  0
POINT
  5
224
330
1F
100
AcDbEntity
  8
ConnectionPoints
100
AcDbPoint
 10
0.0
 20
0.0
 30
-0.9683999999999999
  0
ENDSEC
  0
SECTION
  2
OBJECTS
  0
DICTIONARY
  5
C
330
0
100
AcDbDictionary
281
     1
  3
ACAD_DETAILVIEWSTYLE
350
22C
  3
ACAD_GROUP
350
D
  3
ACAD_LAYOUT
350
1A
  3
ACAD_MATERIAL
350
43
  3
ACAD_MLEADERSTYLE
350
6B
  3
ACAD_MLINESTYLE
350
17
  3
ACAD_PLOTSETTINGS
350
19
  3
ACAD_PLOTSTYLENAME
350
E
  3
ACAD_SCALELIST
350
47
  3
ACAD_SECTIONVIEWSTYLE
350
22D
  3
ACAD_TABLESTYLE
350
69
  3
ACAD_VISUALSTYLE
350
2A
  3
ACDB_RECOMPOSE_DATA
350
229
  3
AcDbVariableDictionary
350
225
  0
SUN
  5
6D
330
29
100
AcDbSun
 90
        1
290
     0
 63
     7
421
 16777215
 40
1.0
291
     1
 91
  2455826
 92
 54000000
292
     0
 70
     2
 71
   256
280
     1
  0
DICTIONARY
  5
22C
102
{ACAD_REACTORS
330
C
102
}
330
C
100
AcDbDictionary
281
     1
  0
DICTIONARY
  5
D
102
{ACAD_REACTORS
330
C
102
}
330
C
100
AcDbDictionary
281
     1
  0
DICTIONARY
  5
1A
102
{ACAD_REACTORS
330
C
102
}
330
C
100
AcDbDictionary
281
     1
  3
Layout1
350
1E
  3
Layout2
350
26
  3
Model
350
22
  0
DICTIONARY
  5
43
102
{ACAD_REACTORS
330
C
102
}
330
C
100
AcDbDictionary
281
     1
  3
ByBlock
350
45
  3
ByLayer
350
44
  3
Global
350
46
  0
DICTIONARY
  5
6B
102
{ACAD_REACTORS
330
C
102
}
330
C
100
AcDbDictionary
281
     1
  3
Standard
350
6C
  0
DICTIONARY
  5
17
102
{ACAD_REACTORS
330
C
102
}
330
C
100
AcDbDictionary
281
     1
  3
Standard
350
18
  0
DICTIONARY
  5
19
102
{ACAD_REACTORS
330
C
102
}
330
C
100
AcDbDictionary
281
     1
  0
ACDBDICTIONARYWDFLT
  5
E
102
{ACAD_REACTORS
330
C
102
}
330
C
100
AcDbDictionary
281
     1
  3
Normal
350
F
100
AcDbDictionaryWithDefault
340
F
  0
DICTIONARY
  5
47
102
{ACAD_REACTORS
330
C
102
}
330
C
100
AcDbDictionary
281
     1
  3
A0
350
48
  3
A1
350
49
  3
A2
350
4A
  3
A3
350
4B
  3
A4
350
4C
  3
A5
350
4D
  3
A6
350
4E
  3
A7
350
4F
  3
A8
350
50
  3
A9
350
51
  3
B0
350
52
  3
B1
350
53
  3
B2
350
54
  3
B3
350
55
  3
B4
350
56
  3
B5
350
57
  3
B6
350
58
  3
B7
350
59
  3
B8
350
5A
  3
B9
350
5B
  3
C0
350
5C
  3
C1
350
5D
  3
C2
350
5E
  3
C3
350
5F
  3
C4
350
60
  3
C5
350
61
  3
C6
350
62
  3
C7
350
63
  3
C8
350
64
  3
C9
350
65
  3
D0
350
66
  3
D1
350
67
  3
D2
350
68
  0
DICTIONARY
  5
22D
102
{ACAD_REACTORS
330
C
102
}
330
C
100
AcDbDictionary
281
     1
  0
DICTIONARY
  5
69
102
{ACAD_REACTORS
330
C
102
}
330
C
100
AcDbDictionary
281
     1
  3
Standard
350
6A
  0
DICTIONARY
  5
2A
102
{ACAD_REACTORS
330
C
102
}
330
C
100
AcDbDictionary
281
     1
  3
2dWireframe
350
2F
  3
Basic
350
32
  3
Brighten
350
36
  3
ColorChange
350
3A
  3
Conceptual
350
34
  3
Dim
350
35
  3
EdgeColorOff
350
3D
  3
Facepattern
350
39
  3
Flat
350
2B
  3
FlatWithEdges
350
2C
  3
Gouraud
350
2D
  3
GouraudWithEdges
350
2E
  3
Hidden
350
31
  3
JitterOff
350
3B
  3
Linepattern
350
38
  3
OverhangOff
350
3C
  3
Realistic
350
33
  3
Shaded
350
42
  3
Shaded with edges
350
41
  3
Shades of Gray
350
3E
  3
Sketchy
350
3F
  3
Thicken
350
37
  3
Wireframe
350
30
  3
X-Ray
350
40
  0
XRECORD
  5
229
102
{ACAD_REACTORS
330
C
102
}
330
C
100
AcDbXrecord
280
     1
 90
        1
330
6A
  0
DICTIONARY
  5
225
102
{ACAD_REACTORS
330
C
102
}
330
C
100
AcDbDictionary
281
     1
  3
CANNOSCALE
350
226
  3
CMLEADERSTYLE
350
22B
  3
CTABLESTYLE
350
22A
  0
LAYOUT
  5
1E
102
{ACAD_REACTORS
330
1A
102
}
330
1A
100
AcDbPlotSettings
  1

  2
none_device
  4

  6

 40
0.0
 41
0.0
 42
0.0
 43
0.0
 44
0.0
 45
0.0
 46
0.0
 47
0.0
 48
0.0
 49
0.0
140
0.0
141
0.0
142
1.0
143
1.0
 70
   688
 72
     0
 73
     0
 74
     5
  7

 75
    16
 76
     0
 77
     2
 78
   300
147
1.0
148
0.0
149
0.0
100
AcDbLayout
  1
Layout1
 70
     1
 71
     1
 10
0.0
 20
0.0
 11
12.0
 21
9.0
 12
0.0
 22
0.0
 32
0.0
 14
1.000000000000000E+20
 24
1.000000000000000E+20
 34
1.000000000000000E+20
 15
-1.000000000000000E+20
 25
-1.000000000000000E+20
 35
-1.000000000000000E+20
146
0.0
 13
0.0
 23
0.0
 33
0.0
 16
1.0
 26
0.0
 36
0.0
 17
0.0
 27
1.0
 37
0.0
 76
     0
330
1B
  0
LAYOUT
  5
26
102
{ACAD_REACTORS
330
1A
102
}
330
1A
100
AcDbPlotSettings
  1

  2
none_device
  4

  6

 40
0.0
 41
0.0
 42
0.0
 43
0.0
 44
0.0
 45
0.0
 46
0.0
 47
0.0
 48
0.0
 49
0.0
140
0.0
141
0.0
142
1.0
143
1.0
 70
   688
 72
     0
 73
     0
 74
     5
  7

 75
    16
 76
     0
 77
     2
 78
   300
147
1.0
148
0.0
149
0.0
100
AcDbLayout
  1
Layout2
 70
     1
 71
     2
 10
0.0
 20
0.0
 11
0.0
 21
0.0
 12
0.0
 22
0.0
 32
0.0
 14
0.0
 24
0.0
 34
0.0
 15
0.0
 25
0.0
 35
0.0
146
0.0
 13
0.0
 23
0.0
 33
0.0
 16
1.0
 26
0.0
 36
0.0
 17
0.0
 27
1.0
 37
0.0
 76
     0
330
23
  0
LAYOUT
  5
22
102
{ACAD_REACTORS
330
1A
102
}
330
1A
100
AcDbPlotSettings
  1

  2
none_device
  4
Letter_(8.50_x_11.00_Inches)
  6

 40
6.35
 41
6.35
 42
6.35000508
 43
6.35000508
 44
215.9
 45
279.4
 46
0.0
 47
0.0
 48
0.0
 49
0.0
140
0.0
141
0.0
142
1.0
143
1.0
 70
  1712
 72
     0
 73
     0
 74
     0
  7

 75
     0
 76
     0
 77
     2
 78
   300
147
1.0
148
0.0
149
0.0
100
AcDbLayout
  1
Model
 70
     1
 71
     0
 10
0.0
 20
0.0
 11
12.0
 21
9.0
 12
0.0
 22
0.0
 32
0.0
 14
1.000000000000000E+20
 24
1.000000000000000E+20
 34
1.000000000000000E+20
 15
-1.000000000000000E+20
 25
-1.000000000000000E+20
 35
-1.000000000000000E+20
146
0.0
 13
0.0
 23
0.0
 33
0.0
 16
1.0
 26
0.0
 36
0.0
 17
0.0
 27
1.0
 37
0.0
 76
     0
330
1F
331
29
  0
MATERIAL
  5
45
102
{ACAD_REACTORS
330
43
102
}
330
43
100
AcDbMaterial
  1
ByBlock
 72
     1
 94
      127
  0
MATERIAL
  5
44
102
{ACAD_REACTORS
330
43
102
}
330
43
100
AcDbMaterial
  1
ByLayer
 72
     1
 94
      127
  0
MATERIAL
  5
46
102
{ACAD_REACTORS
330
43
102
}
330
43
100
AcDbMaterial
  1
Global
 72
     1
 94
      127
  0
MLEADERSTYLE
  5
6C
102
{ACAD_REACTORS
330
6B
102
}
330
6B
100
AcDbMLeaderStyle
179
     2
170
     2
171
     1
172
     0
 90
        2
 40
0.0
 41
0.0
173
     1
 91
-1056964608
340
14
 92
       -2
290
     1
 42
0.09
291
     1
 43
0.36
  3
Standard
341
0
 44
0.18
300

342
11
174
     1
178
     6
175
     1
176
     0
 93
-1056964608
 45
0.18
292
     0
297
     0
 46
0.18
343
0
 94
-1056964608
 47
1.0
 49
1.0
140
1.0
293
     1
141
0.0
294
     1
177
     0
142
1.0
295
     0
296
     0
143
0.125
271
     0
272
     9
273
     9
298
     0
  0
MLINESTYLE
  5
18
102
{ACAD_REACTORS
330
17
102
}
330
17
100
AcDbMlineStyle
  2
Standard
 70
     0
  3

 62
   256
 51
90.0
 52
90.0
 71
     2
 49
0.5
 62
   256
  6
BYLAYER
 49
-0.5
 62
   256
  6
BYLAYER
  0
ACDBPLACEHOLDER
  5
F
102
{ACAD_REACTORS
330
E
102
}
330
E
  0
SCALE
  5
48
102
{ACAD_REACTORS
330
47
102
}
330
47
100
AcDbScale
 70
     0
300
1:1
140
1.0
141
1.0
290
     1
  0
SCALE
  5
49
102
{ACAD_REACTORS
330
47
102
}
330
47
100
AcDbScale
 70
     0
300
1:2
140
1.0
141
2.0
290
     0
  0
SCALE
  5
4A
102
{ACAD_REACTORS
330
47
102
}
330
47
100
AcDbScale
 70
     0
300
1:4
140
1.0
141
4.0
290
     0
  0
SCALE
  5
4B
102
{ACAD_REACTORS
330
47
102
}
330
47
100
AcDbScale
 70
     0
300
1:5
140
1.0
141
5.0
290
     0
  0
SCALE
  5
4C
102
{ACAD_REACTORS
330
47
102
}
330
47
100
AcDbScale
 70
     0
300
1:8
140
1.0
141
8.0
290
     0
  0
SCALE
  5
4D
102
{ACAD_REACTORS
330
47
102
}
330
47
100
AcDbScale
 70
     0
300
1:10
140
1.0
141
10.0
290
     0
  0
SCALE
  5
4E
102
{ACAD_REACTORS
330
47
102
}
330
47
100
AcDbScale
 70
     0
300
1:16
140
1.0
141
16.0
290
     0
  0
SCALE
  5
4F
102
{ACAD_REACTORS
330
47
102
}
330
47
100
AcDbScale
 70
     0
300
1:20
140
1.0
141
20.0
290
     0
  0
SCALE
  5
50
102
{ACAD_REACTORS
330
47
102
}
330
47
100
AcDbScale
 70
     0
300
1:30
140
1.0
141
30.0
290
     0
  0
SCALE
  5
51
102
{ACAD_REACTORS
330
47
102
}
330
47
100
AcDbScale
 70
     0
300
1:40
140
1.0
141
40.0
290
     0
  0
SCALE
  5
52
102
{ACAD_REACTORS
330
47
102
}
330
47
100
AcDbScale
 70
     0
300
1:50
140
1.0
141
50.0
290
     0
  0
SCALE
  5
53
102
{ACAD_REACTORS
330
47
102
}
330
47
100
AcDbScale
 70
     0
300
1:100
140
1.0
141
100.0
290
     0
  0
SCALE
  5
54
102
{ACAD_REACTORS
330
47
102
}
330
47
100
AcDbScale
 70
     0
300
2:1
140
2.0
141
1.0
290
     0
  0
SCALE
  5
55
102
{ACAD_REACTORS
330
47
102
}
330
47
100
AcDbScale
 70
     0
300
4:1
140
4.0
141
1.0
290
     0
  0
SCALE
  5
56
102
{ACAD_REACTORS
330
47
102
}
330
47
100
AcDbScale
 70
     0
300
8:1
140
8.0
141
1.0
290
     0
  0
SCALE
  5
57
102
{ACAD_REACTORS
330
47
102
}
330
47
100
AcDbScale
 70
     0
300
10:1
140
10.0
141
1.0
290
     0
  0
SCALE
  5
58
102
{ACAD_REACTORS
330
47
102
}
330
47
100
AcDbScale
 70
     0
300
100:1
140
100.0
141
1.0
290
     0
  0
SCALE
  5
59
102
{ACAD_REACTORS
330
47
102
}
330
47
100
AcDbScale
 70
     0
300
1/128" = 1'-0"
140
0.0078125
141
12.0
290
     0
  0
SCALE
  5
5A
102
{ACAD_REACTORS
330
47
102
}
330
47
100
AcDbScale
 70
     0
300
1/64" = 1'-0"
140
0.015625
141
12.0
290
     0
  0
SCALE
  5
5B
102
{ACAD_REACTORS
330
47
102
}
330
47
100
AcDbScale
 70
     0
300
1/32" = 1'-0"
140
0.03125
141
12.0
290
     0
  0
SCALE
  5
5C
102
{ACAD_REACTORS
330
47
102
}
330
47
100
AcDbScale
 70
     0
300
1/16" = 1'-0"
140
0.0625
141
12.0
290
     0
  0
SCALE
  5
5D
102
{ACAD_REACTORS
330
47
102
}
330
47
100
AcDbScale
 70
     0
300
3/32" = 1'-0"
140
0.09375
141
12.0
290
     0
  0
SCALE
  5
5E
102
{ACAD_REACTORS
330
47
102
}
330
47
100
AcDbScale
 70
     0
300
1/8" = 1'-0"
140
0.125
141
12.0
290
     0
  0
SCALE
  5
5F
102
{ACAD_REACTORS
330
47
102
}
330
47
100
AcDbScale
 70
     0
300
3/16" = 1'-0"
140
0.1875
141
12.0
290
     0
  0
SCALE
  5
60
102
{ACAD_REACTORS
330
47
102
}
330
47
100
AcDbScale
 70
     0
300
1/4" = 1'-0"
140
0.25
141
12.0
290
     0
  0
SCALE
  5
61
102
{ACAD_REACTORS
330
47
102
}
330
47
100
AcDbScale
 70
     0
300
3/8" = 1'-0"
140
0.375
141
12.0
290
     0
  0
SCALE
  5
62
102
{ACAD_REACTORS
330
47
102
}
330
47
100
AcDbScale
 70
     0
300
1/2" = 1'-0"
140
0.5
141
12.0
290
     0
  0
SCALE
  5
63
102
{ACAD_REACTORS
330
47
102
}
330
47
100
AcDbScale
 70
     0
300
3/4" = 1'-0"
140
0.75
141
12.0
290
     0
  0
SCALE
  5
64
102
{ACAD_REACTORS
330
47
102
}
330
47
100
AcDbScale
 70
     0
300
1" = 1'-0"
140
1.0
141
12.0
290
     0
  0
SCALE
  5
65
102
{ACAD_REACTORS
330
47
102
}
330
47
100
AcDbScale
 70
     0
300
1-1/2" = 1'-0"
140
1.5
141
12.0
290
     0
  0
SCALE
  5
66
102
{ACAD_REACTORS
330
47
102
}
330
47
100
AcDbScale
 70
     0
300
3" = 1'-0"
140
3.0
141
12.0
290
     0
  0
SCALE
  5
67
102
{ACAD_REACTORS
330
47
102
}
330
47
100
AcDbScale
 70
     0
300
6" = 1'-0"
140
6.0
141
12.0
290
     0
  0
SCALE
  5
68
102
{ACAD_REACTORS
330
47
102
}
330
47
100
AcDbScale
 70
     0
300
1'-0" = 1'-0"
140
12.0
141
12.0
290
     0
  0
TABLESTYLE
  5
6A
102
{ACAD_REACTORS
330
69
102
}
102
{ACAD_XDICTIONARY
360
227
102
}
330
69
100
AcDbTableStyle
  3
Standard
 70
     0
 71
     0
 40
0.06
 41
0.06
280
     0
281
     0
  7
Standard
140
0.18
170
     2
 62
     0
 63
   257
283
     0
 90
        4
 91
        0
  1

274
    -2
284
     1
 64
     0
275
    -2
285
     1
 65
     0
276
    -2
286
     1
 66
     0
277
    -2
287
     1
 67
     0
278
    -2
288
     1
 68
     0
279
    -2
289
     1
 69
     0
  7
Standard
140
0.25
170
     5
 62
     0
 63
   257
283
     0
 90
        4
 91
        0
  1

274
    -2
284
     1
 64
     0
275
    -2
285
     1
 65
     0
276
    -2
286
     1
 66
     0
277
    -2
287
     1
 67
     0
278
    -2
288
     1
 68
     0
279
    -2
289
     1
 69
     0
  7
Standard
140
0.18
170
     5
 62
     0
 63
   257
283
     0
 90
        4
 91
        0
  1

274
    -2
284
     1
 64
     0
275
    -2
285
     1
 65
     0
276
    -2
286
     1
 66
     0
277
    -2
287
     1
 67
     0
278
    -2
288
     1
 68
     0
279
    -2
289
     1
 69
     0
  0
VISUALSTYLE
  5
2F
102
{ACAD_REACTORS
330
2A
102
}
330
2A
100
AcDbVisualStyle
  2
2dWireframe
 70
     4
177
     3
291
     0
 70
    58
 90
        0
176
     1
 90
        2
176
     1
 90
        0
176
     1
 90
        0
176
     1
 40
0.6
176
     1
 40
30.0
176
     1
 62
     7
420
 16777215
176
     1
 90
        1
176
     1
 90
        4
176
     1
 62
     7
176
     1
 62
   257
176
     1
 90
        1
176
     1
 90
        1
176
     1
 40
1.0
176
     1
 90
        0
176
     1
 62
   257
176
     1
 40
1.0
176
     1
 90
        1
176
     1
 90
        6
176
     1
 90
        2
176
     1
 62
     7
176
     1
 90
        5
176
     1
 90
        0
176
     1
 90
        0
176
     1
290
     0
176
     1
 90
        1
176
     1
 40
0.0
176
     1
 90
        0
176
     1
290
     1
176
     1
290
     1
176
     1
290
     0
176
     1
290
     0
176
     1
290
     0
176
     1
290
     0
176
     1
290
     0
176
     1
290
     0
176
     1
290
     0
176
     1
 90
       50
176
     1
 40
0.0
176
     1
 40
1.0
176
     1
 90
        0
176
     1
 62
    18
420
        0
176
     1
 90
       50
176
     1
 90
        3
176
     1
 62
     5
420
      255
176
     1
290
     0
176
     1
 90
       50
176
     1
 90
       50
176
     1
 90
       50
176
     1
290
     0
176
     1
 90
       50
176
     1
 62
   256
176
     0
 40
1.0
176
     0
 90
        2
176
     1
  1
strokes_ogs.tif
176
     1
290
     0
176
     1
 40
1.0
176
     1
 40
1.0
176
     1
  0
VISUALSTYLE
  5
32
102
{ACAD_REACTORS
330
2A
102
}
330
2A
100
AcDbVisualStyle
  2
Basic
 70
     7
177
     3
291
     1
 70
    58
 90
        1
176
     1
 90
        0
176
     1
 90
        1
176
     1
 90
        0
176
     1
 40
0.6
176
     1
 40
30.0
176
     1
 62
     7
420
 16777215
176
     1
 90
        0
176
     1
 90
        4
176
     1
 62
     7
176
     1
 62
   257
176
     1
 90
        1
176
     1
 90
        1
176
     1
 40
1.0
176
     1
 90
        8
176
     1
 62
     7
176
     1
 40
1.0
176
     1
 90
        1
176
     1
 90
        6
176
     1
 90
        2
176
     1
 62
     7
176
     1
 90
        5
176
     1
 90
        0
176
     1
 90
        0
176
     1
290
     0
176
     1
 90
        1
176
     1
 40
0.0
176
     1
 90
        0
176
     1
290
     0
176
     1
290
     1
176
     1
290
     1
176
     1
290
     0
176
     1
290
     0
176
     1
290
     0
176
     1
290
     0
176
     1
290
     0
176
     1
290
     0
176
     1
 90
       50
176
     1
 40
0.0
176
     1
 40
1.0
176
     1
 90
        0
176
     1
 62
    18
420
        0
176
     1
 90
       50
176
     1
 90
        3
176
     1
 62
     5
420
      255
176
     1
290
     0
176
     1
 90
       50
176
     1
 90
       50
176
     1
 90
       50
176
     1
290
     0
176
     1
 90
       50
176
     1
 62
   256
176
     0
 40
1.0
176
     0
 90
        2
176
     1
  1
strokes_ogs.tif
176
     1
290
     0
176
     1
 40
1.0
176
     1
 40
1.0
176
     1
  0
VISUALSTYLE
  5
36
102
{ACAD_REACTORS
330
2A
102
}
330
2A
100
AcDbVisualStyle
  2
Brighten
 70
    12
177
     3
291
     1
 70
    58
 90
        2
176
     1
 90
        2
176
     1
 90
        0
176
     1
 90
        0
176
     1
 40
0.6
176
     1
 40
30.0
176
     1
 62
     7
420
 16777215
176
     1
 90
        1
176
     1
 90
        4
176
     1
 62
     7
176
     1
 62
   257
176
     1
 90
        1
176
     1
 90
        1
176
     1
 40
1.0
176
     1
 90
        8
176
     1
 62
     7
176
     1
 40
1.0
176
     1
 90
        1
176
     1
 90
        6
176
     1
 90
        2
176
     1
 62
     7
176
     1
 90
        5
176
     1
 90
        0
176
     1
 90
        0
176
     1
290
     0
176
     1
 90
        1
176
     1
 40
50.0
176
     1
 90
        0
176
     1
290
     0
176
     1
290
     1
176
     1
290
     1
176
     1
290
     0
176
     1
290
     0
176
     1
290
     0
176
     1
290
     0
176
     1
290
     0
176
     1
290
     0
176
     1
 90
       50
176
     1
 40
0.0
176
     1
 40
1.0
176
     1
 90
        0
176
     1
 62
    18
420
        0
176
     1
 90
       50
176
     1
 90
        3
176
     1
 62
     5
420
      255
176
     1
290
     0
176
     1
 90
       50
176
     1
 90
       50
176
     1
 90
       50
176
     1
290
     0
176
     1
 90
       50
176
     1
 62
   256
176
     0
 40
1.0
176
     0
 90
        2
176
     1
  1
strokes_ogs.tif
176
     1
290
     0
176
     1
 40
1.0
176
     1
 40
1.0
176
     1
  0
VISUALSTYLE
  5
3A
102
{ACAD_REACTORS
330
2A
102
}
330
2A
100
AcDbVisualStyle
  2
ColorChange
 70
    16
177
     3
291
     1
 70
    58
 90
        2
176
     1
 90
        2
176
     1
 90
        3
176
     1
 90
        0
176
     1
 40
0.6
176
     1
 40
30.0
176
     1
 62
     8
420
  8421504
176
     1
 90
        1
176
     1
 90
        4
176
     1
 62
     7
176
     1
 62
   257
176
     1
 90
        1
176
     1
 90
        1
176
     1
 40
1.0
176
     1
 90
        8
176
     1
 62
     8
420
  8421504
176
     1
 40
1.0
176
     1
 90
        1
176
     1
 90
        6
176
     1
 90
        2
176
     1
 62
     7
176
     1
 90
        5
176
     1
 90
        0
176
     1
 90
        0
176
     1
290
     0
176
     1
 90
        1
176
     1
 40
0.0
176
     1
 90
        0
176
     1
290
     0
176
     1
290
     1
176
     1
290
     1
176
     1
290
     0
176
     1
290
     0
176
     1
290
     0
176
     1
290
     0
176
     1
290
     0
176
     1
290
     0
176
     1
 90
       50
176
     1
 40
0.0
176
     1
 40
1.0
176
     1
 90
        0
176
     1
 62
    18
420
        0
176
     1
 90
       50
176
     1
 90
        3
176
     1
 62
     5
420
      255
176
     1
290
     0
176
     1
 90
       50
176
     1
 90
       50
176
     1
 90
       50
176
     1
290
     0
176
     1
 90
       50
176
     1
 62
   256
176
     0
 40
1.0
176
     0
 90
        2
176
     1
  1
strokes_ogs.tif
176
     1
290
     0
176
     1
 40
1.0
176
     1
 40
1.0
176
     1
  0
VISUALSTYLE
  5
34
102
{ACAD_REACTORS
330
2A
102
}
330
2A
100
AcDbVisualStyle
  2
Conceptual
 70
     9
177
     3
291
     0
 70
    58
 90
        3
176
     1
 90
        2
176
     1
 90
        0
176
     1
 90
        0
176
     1
 40
0.6
176
     1
 40
30.0
176
     1
 62
     7
420
 16777215
176
     1
 90
        2
176
     1
 90
        2
176
     1
 62
     7
176
     1
 62
   257
176
     1
 90
        1
176
     1
 90
        1
176
     1
 40
179.0
176
     1
 90
        8
176
     1
 62
     7
176
     1
 40
1.0
176
     1
 90
        1
176
     1
 90
        6
176
     1
 90
        2
176
     1
 62
     7
176
     1
 90
        3
176
     1
 90
        0
176
     1
 90
        0
176
     1
290
     0
176
     1
 90
        1
176
     1
 40
0.0
176
     1
 90
        0
176
     1
290
     0
176
     1
290
     1
176
     1
290
     1
176
     1
290
     0
176
     1
290
     0
176
     1
290
     0
176
     1
290
     0
176
     1
290
     0
176
     1
290
     0
176
     1
 90
       50
176
     1
 40
0.0
176
     1
 40
1.0
176
     1
 90
        0
176
     1
 62
    18
420
        0
176
     1
 90
       50
176
     1
 90
        3
176
     1
 62
     5
420
      255
176
     1
290
     0
176
     1
 90
       50
176
     1
 90
       50
176
     1
 90
       50
176
     1
290
     0
176
     1
 90
       50
176
     1
 62
   256
176
     0
 40
1.0
176
     0
 90
        2
176
     1
  1
strokes_ogs.tif
176
     1
290
     0
176
     1
 40
1.0
176
     1
 40
1.0
176
     1
  0
VISUALSTYLE
  5
35
102
{ACAD_REACTORS
330
2A
102
}
330
2A
100
AcDbVisualStyle
  2
Dim
 70
    11
177
     3
291
     1
 70
    58
 90
        2
176
     1
 90
        2
176
     1
 90
        0
176
     1
 90
        0
176
     1
 40
0.6
176
     1
 40
30.0
176
     1
 62
     7
420
 16777215
176
     1
 90
        1
176
     1
 90
        4
176
     1
 62
     7
176
     1
 62
   257
176
     1
 90
        1
176
     1
 90
        1
176
     1
 40
1.0
176
     1
 90
        8
176
     1
 62
     7
176
     1
 40
1.0
176
     1
 90
        1
176
     1
 90
        6
176
     1
 90
        2
176
     1
 62
     7
176
     1
 90
        5
176
     1
 90
        0
176
     1
 90
        0
176
     1
290
     0
176
     1
 90
        1
176
     1
 40
-50.0
176
     1
 90
        0
176
     1
290
     0
176
     1
290
     1
176
     1
290
     1
176
     1
290
     0
176
     1
290
     0
176
     1
290
     0
176
     1
290
     0
176
     1
290
     0
176
     1
290
     0
176
     1
 90
       50
176
     1
 40
0.0
176
     1
 40
1.0
176
     1
 90
        0
176
     1
 62
    18
420
        0
176
     1
 90
       50
176
     1
 90
        3
176
     1
 62
     5
420
      255
176
     1
290
     0
176
     1
 90
       50
176
     1
 90
       50
176
     1
 90
       50
176
     1
290
     0
176
     1
 90
       50
176
     1
 62
   256
176
     0
 40
1.0
176
     0
 90
        2
176
     1
  1
strokes_ogs.tif
176
     1
290
     0
176
     1
 40
1.0
176
     1
 40
1.0
176
     1
  0
VISUALSTYLE
  5
3D
102
{ACAD_REACTORS
330
2A
102
}
330
2A
100
AcDbVisualStyle
  2
EdgeColorOff
 70
    22
177
     3
291
     1
 70
    58
 90
        2
176
     0
 90
        2
176
     0
 90
        0
176
     0
 90
        0
176
     0
 40
0.6
176
     0
 40
30.0
176
     0
 62
     7
420
 16777215
176
     0
 90
        1
176
     0
 90
        4
176
     0
 62
     7
176
     0
 62
   257
176
     0
 90
        1
176
     0
 90
        1
176
     0
 40
1.0
176
     0
 90
        8
176
     2
 62
     7
176
     0
 40
1.0
176
     0
 90
        1
176
     0
 90
        6
176
     0
 90
        2
176
     0
 62
     7
176
     0
 90
        5
176
     0
 90
        0
176
     0
 90
        0
176
     0
290
     0
176
     0
 90
        1
176
     0
 40
0.0
176
     0
 90
        0
176
     0
290
     0
176
     0
290
     1
176
     0
290
     1
176
     0
290
     0
176
     0
290
     0
176
     0
290
     0
176
     0
290
     0
176
     0
290
     0
176
     0
290
     0
176
     0
 90
       50
176
     0
 40
0.0
176
     0
 40
1.0
176
     0
 90
        0
176
     0
 62
    18
420
        0
176
     0
 90
       50
176
     0
 90
        3
176
     0
 62
     5
420
      255
176
     0
290
     0
176
     0
 90
       50
176
     0
 90
       50
176
     0
 90
       50
176
     0
290
     0
176
     0
 90
       50
176
     0
 62
   256
176
     0
 40
1.0
176
     0
 90
        2
176
     0
  1
strokes_ogs.tif
176
     0
290
     0
176
     0
 40
1.0
176
     0
 40
1.0
176
     0
  0
VISUALSTYLE
  5
39
102
{ACAD_REACTORS
330
2A
102
}
330
2A
100
AcDbVisualStyle
  2
Facepattern
 70
    15
177
     3
291
     1
 70
    58
 90
        2
176
     1
 90
        2
176
     1
 90
        0
176
     1
 90
        0
176
     1
 40
0.6
176
     1
 40
30.0
176
     1
 62
     7
420
 16777215
176
     1
 90
        1
176
     1
 90
        4
176
     1
 62
     7
176
     1
 62
   257
176
     1
 90
        1
176
     1
 90
        1
176
     1
 40
1.0
176
     1
 90
        8
176
     1
 62
     7
176
     1
 40
1.0
176
     1
 90
        1
176
     1
 90
        6
176
     1
 90
        2
176
     1
 62
     7
176
     1
 90
        5
176
     1
 90
        0
176
     1
 90
        0
176
     1
290
     0
176
     1
 90
        1
176
     1
 40
0.0
176
     1
 90
        0
176
     1
290
     0
176
     1
290
     1
176
     1
290
     1
176
     1
290
     0
176
     1
290
     0
176
     1
290
     0
176
     1
290
     0
176
     1
290
     0
176
     1
290
     0
176
     1
 90
       50
176
     1
 40
0.0
176
     1
 40
1.0
176
     1
 90
        0
176
     1
 62
    18
420
        0
176
     1
 90
       50
176
     1
 90
        3
176
     1
 62
     5
420
      255
176
     1
290
     0
176
     1
 90
       50
176
     1
 90
       50
176
     1
 90
       50
176
     1
290
     0
176
     1
 90
       50
176
     1
 62
   256
176
     0
 40
1.0
176
     0
 90
        2
176
     1
  1
strokes_ogs.tif
176
     1
290
     0
176
     1
 40
1.0
176
     1
 40
1.0
176
     1
  0
VISUALSTYLE
  5
2B
102
{ACAD_REACTORS
330
2A
102
}
330
2A
100
AcDbVisualStyle
  2
Flat
 70
     0
177
     3
291
     1
 70
    58
 90
        2
176
     1
 90
        1
176
     1
 90
        1
176
     1
 90
        2
176
     1
 40
0.6
176
     1
 40
30.0
176
     1
 62
     7
420
 16777215
176
     1
 90
        0
176
     1
 90
        0
176
     1
 62
     7
176
     1
 62
   257
176
     1
 90
        1
176
     1
 90
        1
176
     1
 40
1.0
176
     1
 90
        8
176
     1
 62
     7
176
     1
 40
1.0
176
     1
 90
        1
176
     1
 90
        6
176
     1
 90
        2
176
     1
 62
     7
176
     1
 90
        5
176
     1
 90
        0
176
     1
 90
        0
176
     1
290
     0
176
     1
 90
       13
176
     1
 40
0.0
176
     1
 90
        0
176
     1
290
     0
176
     1
290
     1
176
     1
290
     1
176
     1
290
     0
176
     1
290
     0
176
     1
290
     0
176
     1
290
     0
176
     1
290
     0
176
     1
290
     0
176
     1
 90
       50
176
     1
 40
0.0
176
     1
 40
1.0
176
     1
 90
        0
176
     1
 62
    18
420
        0
176
     1
 90
       50
176
     1
 90
        3
176
     1
 62
     5
420
      255
176
     1
290
     0
176
     1
 90
       50
176
     1
 90
       50
176
     1
 90
       50
176
     1
290
     0
176
     1
 90
       50
176
     1
 62
   256
176
     0
 40
1.0
176
     0
 90
        2
176
     1
  1
strokes_ogs.tif
176
     1
290
     0
176
     1
 40
1.0
176
     1
 40
1.0
176
     1
  0
VISUALSTYLE
  5
2C
102
{ACAD_REACTORS
330
2A
102
}
330
2A
100
AcDbVisualStyle
  2
FlatWithEdges
 70
     1
177
     3
291
     1
 70
    58
 90
        2
176
     1
 90
        1
176
     1
 90
        1
176
     1
 90
        2
176
     1
 40
0.6
176
     1
 40
30.0
176
     1
 62
     7
420
 16777215
176
     1
 90
        1
176
     1
 90
        0
176
     1
 62
     7
176
     1
 62
   257
176
     1
 90
        1
176
     1
 90
        1
176
     1
 40
1.0
176
     1
 90
        0
176
     1
 62
   257
176
     1
 40
1.0
176
     1
 90
        1
176
     1
 90
        6
176
     1
 90
        2
176
     1
 62
     7
176
     1
 90
        5
176
     1
 90
        0
176
     1
 90
        0
176
     1
290
     0
176
     1
 90
       13
176
     1
 40
0.0
176
     1
 90
        0
176
     1
290
     0
176
     1
290
     1
176
     1
290
     1
176
     1
290
     0
176
     1
290
     0
176
     1
290
     0
176
     1
290
     0
176
     1
290
     0
176
     1
290
     0
176
     1
 90
       50
176
     1
 40
0.0
176
     1
 40
1.0
176
     1
 90
        0
176
     1
 62
    18
420
        0
176
     1
 90
       50
176
     1
 90
        3
176
     1
 62
     5
420
      255
176
     1
290
     0
176
     1
 90
       50
176
     1
 90
       50
176
     1
 90
       50
176
     1
290
     0
176
     1
 90
       50
176
     1
 62
   256
176
     0
 40
1.0
176
     0
 90
        2
176
     1
  1
strokes_ogs.tif
176
     1
290
     0
176
     1
 40
1.0
176
     1
 40
1.0
176
     1
  0
VISUALSTYLE
  5
2D
102
{ACAD_REACTORS
330
2A
102
}
330
2A
100
AcDbVisualStyle
  2
Gouraud
 70
     2
177
     3
291
     1
 70
    58
 90
        2
176
     1
 90
        2
176
     1
 90
        1
176
     1
 90
        2
176
     1
 40
0.6
176
     1
 40
30.0
176
     1
 62
     7
420
 16777215
176
     1
 90
        0
176
     1
 90
        0
176
     1
 62
     7
176
     1
 62
   257
176
     1
 90
        1
176
     1
 90
        1
176
     1
 40
1.0
176
     1
 90
        0
176
     1
 62
     7
176
     1
 40
1.0
176
     1
 90
        1
176
     1
 90
        6
176
     1
 90
        2
176
     1
 62
     7
176
     1
 90
        5
176
     1
 90
        0
176
     1
 90
        0
176
     1
290
     0
176
     1
 90
       13
176
     1
 40
0.0
176
     1
 90
        0
176
     1
290
     0
176
     1
290
     1
176
     1
290
     1
176
     1
290
     0
176
     1
290
     0
176
     1
290
     0
176
     1
290
     0
176
     1
290
     0
176
     1
290
     0
176
     1
 90
       50
176
     1
 40
0.0
176
     1
 40
1.0
176
     1
 90
        0
176
     1
 62
    18
420
        0
176
     1
 90
       50
176
     1
 90
        3
176
     1
 62
     5
420
      255
176
     1
290
     0
176
     1
 90
       50
176
     1
 90
       50
176
     1
 90
       50
176
     1
290
     0
176
     1
 90
       50
176
     1
 62
   256
176
     0
 40
1.0
176
     0
 90
        2
176
     1
  1
strokes_ogs.tif
176
     1
290
     0
176
     1
 40
1.0
176
     1
 40
1.0
176
     1
  0
VISUALSTYLE
  5
2E
102
{ACAD_REACTORS
330
2A
102
}
330
2A
100
AcDbVisualStyle
  2
GouraudWithEdges
 70
     3
177
     3
291
     1
 70
    58
 90
        2
176
     1
 90
        2
176
     1
 90
        1
176
     1
 90
        2
176
     1
 40
0.6
176
     1
 40
30.0
176
     1
 62
     7
420
 16777215
176
     1
 90
        1
176
     1
 90
        0
176
     1
 62
     7
176
     1
 62
   257
176
     1
 90
        1
176
     1
 90
        1
176
     1
 40
1.0
176
     1
 90
        0
176
     1
 62
   257
176
     1
 40
1.0
176
     1
 90
        1
176
     1
 90
        6
176
     1
 90
        2
176
     1
 62
     7
176
     1
 90
        5
176
     1
 90
        0
176
     1
 90
        0
176
     1
290
     0
176
     1
 90
       13
176
     1
 40
0.0
176
     1
 90
        0
176
     1
290
     0
176
     1
290
     1
176
     1
290
     1
176
     1
290
     0
176
     1
290
     0
176
     1
290
     0
176
     1
290
     0
176
     1
290
     0
176
     1
290
     0
176
     1
 90
       50
176
     1
 40
0.0
176
     1
 40
1.0
176
     1
 90
        0
176
     1
 62
    18
420
        0
176
     1
 90
       50
176
     1
 90
        3
176
     1
 62
     5
420
      255
176
     1
290
     0
176
     1
 90
       50
176
     1
 90
       50
176
     1
 90
       50
176
     1
290
     0
176
     1
 90
       50
176
     1
 62
   256
176
     0
 40
1.0
176
     0
 90
        2
176
     1
  1
strokes_ogs.tif
176
     1
290
     0
176
     1
 40
1.0
176
     1
 40
1.0
176
     1
  0
VISUALSTYLE
  5
31
102
{ACAD_REACTORS
330
2A
102
}
330
2A
100
AcDbVisualStyle
  2
Hidden
 70
     6
177
     3
291
     0
 70
    58
 90
        1
176
     1
 90
        2
176
     1
 90
        2
176
     1
 90
        0
176
     1
 40
0.6
176
     1
 40
30.0
176
     1
 62
     7
420
 16777215
176
     1
 90
        2
176
     1
 90
        2
176
     1
 62
     7
176
     1
 62
   257
176
     1
 90
        2
176
     1
 90
        1
176
     1
 40
40.0
176
     1
 90
        0
176
     1
 62
   257
176
     1
 40
1.0
176
     1
 90
        1
176
     1
 90
        6
176
     1
 90
        2
176
     1
 62
     7
176
     1
 90
        3
176
     1
 90
        0
176
     1
 90
        0
176
     1
290
     0
176
     1
 90
        1
176
     1
 40
0.0
176
     1
 90
        0
176
     1
290
     0
176
     1
290
     1
176
     1
290
     1
176
     1
290
     0
176
     1
290
     0
176
     1
290
     0
176
     1
290
     0
176
     1
290
     0
176
     1
290
     0
176
     1
 90
       50
176
     1
 40
0.0
176
     1
 40
1.0
176
     1
 90
        0
176
     1
 62
    18
420
        0
176
     1
 90
       50
176
     1
 90
        3
176
     1
 62
     5
420
      255
176
     1
290
     0
176
     1
 90
       50
176
     1
 90
       50
176
     1
 90
       50
176
     1
290
     0
176
     1
 90
       50
176
     1
 62
   256
176
     0
 40
1.0
176
     0
 90
        2
176
     1
  1
strokes_ogs.tif
176
     1
290
     0
176
     1
 40
1.0
176
     1
 40
1.0
176
     1
  0
VISUALSTYLE
  5
3B
102
{ACAD_REACTORS
330
2A
102
}
330
2A
100
AcDbVisualStyle
  2
JitterOff
 70
    20
177
     3
291
     1
 70
    58
 90
        2
176
     0
 90
        2
176
     0
 90
        0
176
     0
 90
        0
176
     0
 40
0.6
176
     0
 40
30.0
176
     0
 62
     7
420
 16777215
176
     0
 90
        1
176
     0
 90
        4
176
     0
 62
     7
176
     0
 62
   257
176
     0
 90
        1
176
     0
 90
        1
176
     0
 40
1.0
176
     0
 90
       10
176
     2
 62
     7
176
     0
 40
1.0
176
     0
 90
        1
176
     0
 90
        6
176
     0
 90
        2
176
     0
 62
     7
176
     0
 90
        5
176
     0
 90
        0
176
     0
 90
        0
176
     0
290
     0
176
     0
 90
        1
176
     0
 40
0.0
176
     0
 90
        0
176
     0
290
     0
176
     0
290
     1
176
     0
290
     1
176
     0
290
     0
176
     0
290
     0
176
     0
290
     0
176
     0
290
     0
176
     0
290
     0
176
     0
290
     0
176
     0
 90
       50
176
     0
 40
0.0
176
     0
 40
1.0
176
     0
 90
        0
176
     0
 62
    18
420
        0
176
     0
 90
       50
176
     0
 90
        3
176
     0
 62
     5
420
      255
176
     0
290
     0
176
     0
 90
       50
176
     0
 90
       50
176
     0
 90
       50
176
     0
290
     0
176
     0
 90
       50
176
     0
 62
   256
176
     0
 40
1.0
176
     0
 90
        2
176
     0
  1
strokes_ogs.tif
176
     0
290
     0
176
     0
 40
1.0
176
     0
 40
1.0
176
     0
  0
VISUALSTYLE
  5
38
102
{ACAD_REACTORS
330
2A
102
}
330
2A
100
AcDbVisualStyle
  2
Linepattern
 70
    14
177
     3
291
     1
 70
    58
 90
        2
176
     1
 90
        2
176
     1
 90
        0
176
     1
 90
        0
176
     1
 40
0.6
176
     1
 40
30.0
176
     1
 62
     7
420
 16777215
176
     1
 90
        1
176
     1
 90
        4
176
     1
 62
     7
176
     1
 62
   257
176
     1
 90
        7
176
     1
 90
        7
176
     1
 40
1.0
176
     1
 90
        8
176
     1
 62
     7
176
     1
 40
1.0
176
     1
 90
        1
176
     1
 90
        6
176
     1
 90
        2
176
     1
 62
     7
176
     1
 90
        5
176
     1
 90
        0
176
     1
 90
        0
176
     1
290
     0
176
     1
 90
        1
176
     1
 40
0.0
176
     1
 90
        0
176
     1
290
     0
176
     1
290
     1
176
     1
290
     1
176
     1
290
     0
176
     1
290
     0
176
     1
290
     0
176
     1
290
     0
176
     1
290
     0
176
     1
290
     0
176
     1
 90
       50
176
     1
 40
0.0
176
     1
 40
1.0
176
     1
 90
        0
176
     1
 62
    18
420
        0
176
     1
 90
       50
176
     1
 90
        3
176
     1
 62
     5
420
      255
176
     1
290
     0
176
     1
 90
       50
176
     1
 90
       50
176
     1
 90
       50
176
     1
290
     0
176
     1
 90
       50
176
     1
 62
   256
176
     0
 40
1.0
176
     0
 90
        2
176
     1
  1
strokes_ogs.tif
176
     1
290
     0
176
     1
 40
1.0
176
     1
 40
1.0
176
     1
  0
VISUALSTYLE
  5
3C
102
{ACAD_REACTORS
330
2A
102
}
330
2A
100
AcDbVisualStyle
  2
OverhangOff
 70
    21
177
     3
291
     1
 70
    58
 90
        2
176
     0
 90
        2
176
     0
 90
        0
176
     0
 90
        0
176
     0
 40
0.6
176
     0
 40
30.0
176
     0
 62
     7
420
 16777215
176
     0
 90
        1
176
     0
 90
        4
176
     0
 62
     7
176
     0
 62
   257
176
     0
 90
        1
176
     0
 90
        1
176
     0
 40
1.0
176
     0
 90
        9
176
     2
 62
     7
176
     0
 40
1.0
176
     0
 90
        1
176
     0
 90
        6
176
     0
 90
        2
176
     0
 62
     7
176
     0
 90
        5
176
     0
 90
        0
176
     0
 90
        0
176
     0
290
     0
176
     0
 90
        1
176
     0
 40
0.0
176
     0
 90
        0
176
     0
290
     0
176
     0
290
     1
176
     0
290
     1
176
     0
290
     0
176
     0
290
     0
176
     0
290
     0
176
     0
290
     0
176
     0
290
     0
176
     0
290
     0
176
     0
 90
       50
176
     0
 40
0.0
176
     0
 40
1.0
176
     0
 90
        0
176
     0
 62
    18
420
        0
176
     0
 90
       50
176
     0
 90
        3
176
     0
 62
     5
420
      255
176
     0
290
     0
176
     0
 90
       50
176
     0
 90
       50
176
     0
 90
       50
176
     0
290
     0
176
     0
 90
       50
176
     0
 62
   256
176
     0
 40
1.0
176
     0
 90
        2
176
     0
  1
strokes_ogs.tif
176
     0
290
     0
176
     0
 40
1.0
176
     0
 40
1.0
176
     0
  0
VISUALSTYLE
  5
33
102
{ACAD_REACTORS
330
2A
102
}
330
2A
100
AcDbVisualStyle
  2
Realistic
 70
     8
177
     3
291
     0
 70
    58
 90
        2
176
     1
 90
        3
176
     1
 90
        0
176
     1
 90
        2
176
     1
 40
0.6
176
     1
 40
30.0
176
     1
 62
     7
420
 16777215
176
     1
 90
        0
176
     1
 90
        0
176
     1
 62
     7
176
     1
 62
   257
176
     1
 90
        1
176
     1
 90
        1
176
     1
 40
1.0
176
     1
 90
        8
176
     1
 62
   257
176
     1
 40
1.0
176
     1
 90
        1
176
     1
 90
        6
176
     1
 90
        2
176
     1
 62
     7
176
     1
 90
        3
176
     1
 90
        0
176
     1
 90
        0
176
     1
290
     0
176
     1
 90
       13
176
     1
 40
0.0
176
     1
 90
        0
176
     1
290
     0
176
     1
290
     1
176
     1
290
     1
176
     1
290
     0
176
     1
290
     0
176
     1
290
     0
176
     1
290
     0
176
     1
290
     0
176
     1
290
     0
176
     1
 90
       50
176
     1
 40
0.0
176
     1
 40
1.0
176
     1
 90
        0
176
     1
 62
    18
420
        0
176
     1
 90
       50
176
     1
 90
        3
176
     1
 62
     5
420
      255
176
     1
290
     0
176
     1
 90
       50
176
     1
 90
       50
176
     1
 90
       50
176
     1
290
     0
176
     1
 90
       50
176
     1
 62
   256
176
     0
 40
1.0
176
     0
 90
        2
176
     1
  1
strokes_ogs.tif
176
     1
290
     0
176
     1
 40
1.0
176
     1
 40
1.0
176
     1
  0
VISUALSTYLE
  5
42
102
{ACAD_REACTORS
330
2A
102
}
330
2A
100
AcDbVisualStyle
  2
Shaded
 70
    27
177
     3
291
     0
 70
    58
 90
        2
176
     1
 90
        2
176
     1
 90
        1
176
     1
 90
        2
176
     1
 40
0.6
176
     1
 40
30.0
176
     1
 62
     7
420
 16777215
176
     1
 90
        0
176
     1
 90
        4
176
     1
 62
     7
176
     1
 62
   257
176
     1
 90
        1
176
     1
 90
        1
176
     1
 40
1.0
176
     1
 90
        8
176
     1
 62
   257
176
     1
 40
1.0
176
     1
 90
        1
176
     1
 90
        6
176
     1
 90
        2
176
     1
 62
     8
420
  7895160
176
     1
 90
        3
176
     1
 90
        0
176
     1
 90
        0
176
     1
290
     0
176
     1
 90
        5
176
     1
 40
0.0
176
     1
 90
        0
176
     1
290
     0
176
     1
290
     1
176
     1
290
     1
176
     1
290
     0
176
     1
290
     0
176
     1
290
     0
176
     1
290
     0
176
     1
290
     0
176
     1
290
     0
176
     1
 90
       50
176
     1
 40
0.0
176
     1
 40
1.0
176
     1
 90
        0
176
     1
 62
    18
420
        0
176
     1
 90
       50
176
     1
 90
        3
176
     1
 62
     5
420
      255
176
     1
290
     0
176
     1
 90
       50
176
     1
 90
       50
176
     1
 90
       50
176
     1
290
     0
176
     1
 90
       50
176
     1
 62
   256
176
     0
 40
1.0
176
     0
 90
        2
176
     1
  1
strokes_ogs.tif
176
     1
290
     0
176
     1
 40
1.0
176
     1
 40
1.0
176
     1
  0
VISUALSTYLE
  5
41
102
{ACAD_REACTORS
330
2A
102
}
330
2A
100
AcDbVisualStyle
  2
Shaded with edges
 70
    26
177
     3
291
     0
 70
    58
 90
        2
176
     1
 90
        2
176
     1
 90
        1
176
     1
 90
        2
176
     1
 40
0.6
176
     1
 40
30.0
176
     1
 62
     7
420
 16777215
176
     1
 90
        1
176
     1
 90
       10
176
     1
 62
     7
176
     1
 62
   257
176
     1
 90
        2
176
     1
 90
        1
176
     1
 40
1.0
176
     1
 90
        8
176
     1
 62
   257
176
     1
 40
1.0
176
     1
 90
        1
176
     1
 90
        6
176
     1
 90
        2
176
     1
 62
     7
176
     1
 90
        3
176
     1
 90
        0
176
     1
 90
        0
176
     1
290
     0
176
     1
 90
        5
176
     1
 40
0.0
176
     1
 90
        0
176
     1
290
     0
176
     1
290
     1
176
     1
290
     1
176
     1
290
     0
176
     1
290
     0
176
     1
290
     0
176
     1
290
     0
176
     1
290
     0
176
     1
290
     0
176
     1
 90
       50
176
     1
 40
0.0
176
     1
 40
1.0
176
     1
 90
        0
176
     1
 62
    18
420
        0
176
     1
 90
       50
176
     1
 90
        3
176
     1
 62
     5
420
      255
176
     1
290
     0
176
     1
 90
       50
176
     1
 90
       50
176
     1
 90
       50
176
     1
290
     0
176
     1
 90
       50
176
     1
 62
   256
176
     0
 40
1.0
176
     0
 90
        2
176
     1
  1
strokes_ogs.tif
176
     1
290
     0
176
     1
 40
1.0
176
     1
 40
1.0
176
     1
  0
VISUALSTYLE
  5
3E
102
{ACAD_REACTORS
330
2A
102
}
330
2A
100
AcDbVisualStyle
  2
Shades of Gray
 70
    23
177
     3
291
     0
 70
    58
 90
        2
176
     1
 90
        2
176
     1
 90
        3
176
     1
 90
        0
176
     1
 40
0.6
176
     1
 40
30.0
176
     1
 62
     7
420
 16777215
176
     1
 90
        2
176
     1
 90
        2
176
     1
 62
     7
176
     1
 62
     7
176
     1
 90
        1
176
     1
 90
        1
176
     1
 40
40.0
176
     1
 90
        8
176
     1
 62
     7
176
     1
 40
1.0
176
     1
 90
        1
176
     1
 90
        6
176
     1
 90
        2
176
     1
 62
     7
176
     1
 90
        3
176
     1
 90
        0
176
     1
 90
        0
176
     1
290
     0
176
     1
 90
        1
176
     1
 40
0.0
176
     1
 90
        0
176
     1
290
     0
176
     1
290
     1
176
     1
290
     1
176
     1
290
     0
176
     1
290
     0
176
     1
290
     0
176
     1
290
     0
176
     1
290
     0
176
     1
290
     0
176
     1
 90
       50
176
     1
 40
0.0
176
     1
 40
1.0
176
     1
 90
        0
176
     1
 62
    18
420
        0
176
     1
 90
       50
176
     1
 90
        3
176
     1
 62
     5
420
      255
176
     1
290
     0
176
     1
 90
       50
176
     1
 90
       50
176
     1
 90
       50
176
     1
290
     0
176
     1
 90
       50
176
     1
 62
   256
176
     0
 40
1.0
176
     0
 90
        2
176
     1
  1
strokes_ogs.tif
176
     1
290
     0
176
     1
 40
1.0
176
     1
 40
1.0
176
     1
  0
VISUALSTYLE
  5
3F
102
{ACAD_REACTORS
330
2A
102
}
330
2A
100
AcDbVisualStyle
  2
Sketchy
 70
    24
177
     3
291
     0
 70
    58
 90
        1
176
     1
 90
        2
176
     1
 90
        2
176
     1
 90
        0
176
     1
 40
0.6
176
     1
 40
30.0
176
     1
 62
     7
420
 16777215
176
     1
 90
        2
176
     1
 90
        2
176
     1
 62
     7
176
     1
 62
     7
176
     1
 90
        1
176
     1
 90
        1
176
     1
 40
40.0
176
     1
 90
       11
176
     1
 62
     7
176
     1
 40
1.0
176
     1
 90
        1
176
     1
 90
        6
176
     1
 90
        2
176
     1
 62
     7
176
     1
 90
        6
176
     1
 90
        0
176
     1
 90
        0
176
     1
290
     0
176
     1
 90
        1
176
     1
 40
0.0
176
     1
 90
        0
176
     1
290
     0
176
     1
290
     1
176
     1
290
     1
176
     1
290
     0
176
     1
290
     0
176
     1
290
     0
176
     1
290
     0
176
     1
290
     0
176
     1
290
     0
176
     1
 90
       50
176
     1
 40
0.0
176
     1
 40
1.0
176
     1
 90
        0
176
     1
 62
    18
420
        0
176
     1
 90
       50
176
     1
 90
        3
176
     1
 62
     5
420
      255
176
     1
290
     0
176
     1
 90
       50
176
     1
 90
       50
176
     1
 90
       50
176
     1
290
     0
176
     1
 90
       50
176
     1
 62
   256
176
     0
 40
1.0
176
     0
 90
        2
176
     1
  1
strokes_ogs.tif
176
     1
290
     0
176
     1
 40
1.0
176
     1
 40
1.0
176
     1
  0
VISUALSTYLE
  5
37
102
{ACAD_REACTORS
330
2A
102
}
330
2A
100
AcDbVisualStyle
  2
Thicken
 70
    13
177
     3
291
     1
 70
    58
 90
        2
176
     1
 90
        2
176
     1
 90
        0
176
     1
 90
        0
176
     1
 40
0.6
176
     1
 40
30.0
176
     1
 62
     7
420
 16777215
176
     1
 90
        1
176
     1
 90
        4
176
     1
 62
     7
176
     1
 62
   257
176
     1
 90
        1
176
     1
 90
        1
176
     1
 40
1.0
176
     1
 90
       12
176
     1
 62
     7
176
     1
 40
1.0
176
     1
 90
        1
176
     1
 90
        6
176
     1
 90
        2
176
     1
 62
     7
176
     1
 90
        5
176
     1
 90
        0
176
     1
 90
        0
176
     1
290
     0
176
     1
 90
        1
176
     1
 40
0.0
176
     1
 90
        0
176
     1
290
     0
176
     1
290
     1
176
     1
290
     1
176
     1
290
     0
176
     1
290
     0
176
     1
290
     0
176
     1
290
     0
176
     1
290
     0
176
     1
290
     0
176
     1
 90
       50
176
     1
 40
0.0
176
     1
 40
1.0
176
     1
 90
        0
176
     1
 62
    18
420
        0
176
     1
 90
       50
176
     1
 90
        3
176
     1
 62
     5
420
      255
176
     1
290
     0
176
     1
 90
       50
176
     1
 90
       50
176
     1
 90
       50
176
     1
290
     0
176
     1
 90
       50
176
     1
 62
   256
176
     0
 40
1.0
176
     0
 90
        2
176
     1
  1
strokes_ogs.tif
176
     1
290
     0
176
     1
 40
1.0
176
     1
 40
1.0
176
     1
  0
VISUALSTYLE
  5
30
102
{ACAD_REACTORS
330
2A
102
}
330
2A
100
AcDbVisualStyle
  2
Wireframe
 70
     5
177
     3
291
     0
 70
    58
 90
        0
176
     1
 90
        2
176
     1
 90
        0
176
     1
 90
        0
176
     1
 40
0.6
176
     1
 40
30.0
176
     1
 62
     7
420
 16777215
176
     1
 90
        1
176
     1
 90
        4
176
     1
 62
     7
176
     1
 62
   257
176
     1
 90
        1
176
     1
 90
        1
176
     1
 40
1.0
176
     1
 90
        0
176
     1
 62
   257
176
     1
 40
1.0
176
     1
 90
        1
176
     1
 90
        6
176
     1
 90
        2
176
     1
 62
     7
176
     1
 90
        3
176
     1
 90
        0
176
     1
 90
        0
176
     1
290
     0
176
     1
 90
        1
176
     1
 40
0.0
176
     1
 90
        0
176
     1
290
     0
176
     1
290
     1
176
     1
290
     1
176
     1
290
     0
176
     1
290
     0
176
     1
290
     0
176
     1
290
     0
176
     1
290
     0
176
     1
290
     0
176
     1
 90
       50
176
     1
 40
0.0
176
     1
 40
1.0
176
     1
 90
        0
176
     1
 62
    18
420
        0
176
     1
 90
       50
176
     1
 90
        3
176
     1
 62
     5
420
      255
176
     1
290
     0
176
     1
 90
       50
176
     1
 90
       50
176
     1
 90
       50
176
     1
290
     0
176
     1
 90
       50
176
     1
 62
   256
176
     0
 40
1.0
176
     0
 90
        2
176
     1
  1
strokes_ogs.tif
176
     1
290
     0
176
     1
 40
1.0
176
     1
 40
1.0
176
     1
  0
VISUALSTYLE
  5
40
102
{ACAD_REACTORS
330
2A
102
}
330
2A
100
AcDbVisualStyle
  2
X-Ray
 70
    25
177
     3
291
     0
 70
    58
 90
        2
176
     1
 90
        2
176
     1
 90
        1
176
     1
 90
        1
176
     1
 40
0.5
176
     1
 40
30.0
176
     1
 62
     7
420
 16777215
176
     1
 90
        1
176
     1
 90
        0
176
     1
 62
     7
176
     1
 62
   257
176
     1
 90
        1
176
     1
 90
        1
176
     1
 40
1.0
176
     1
 90
        8
176
     1
 62
     7
176
     1
 40
1.0
176
     1
 90
        1
176
     1
 90
        6
176
     1
 90
        2
176
     1
 62
     7
176
     1
 90
        3
176
     1
 90
        0
176
     1
 90
        0
176
     1
290
     0
176
     1
 90
       13
176
     1
 40
0.0
176
     1
 90
        0
176
     1
290
     0
176
     1
290
     1
176
     1
290
     1
176
     1
290
     0
176
     1
290
     0
176
     1
290
     0
176
     1
290
     0
176
     1
290
     0
176
     1
290
     0
176
     1
 90
       50
176
     1
 40
0.0
176
     1
 40
1.0
176
     1
 90
        0
176
     1
 62
    18
420
        0
176
     1
 90
       50
176
     1
 90
        3
176
     1
 62
     5
420
      255
176
     1
290
     0
176
     1
 90
       50
176
     1
 90
       50
176
     1
 90
       50
176
     1
290
     0
176
     1
 90
       50
176
     1
 62
   256
176
     0
 40
1.0
176
     0
 90
        2
176
     1
  1
strokes_ogs.tif
176
     1
290
     0
176
     1
 40
1.0
176
     1
 40
1.0
176
     1
  0
DICTIONARYVAR
  5
226
102
{ACAD_REACTORS
330
225
102
}
330
225
100
DictionaryVariables
280
     0
  1
1:1
  0
DICTIONARYVAR
  5
22B
102
{ACAD_REACTORS
330
225
102
}
330
225
100
DictionaryVariables
280
     0
  1
Standard
  0
DICTIONARYVAR
  5
22A
102
{ACAD_REACTORS
330
225
102
}
330
225
100
DictionaryVariables
280
     0
  1
Standard
  0
DICTIONARY
  5
227
330
6A
100
AcDbDictionary
280
     1
281
     1
  3
ACAD_ROUNDTRIP_2008_TABLESTYLE_CELLSTYLEMAP
360
228
  0
CELLSTYLEMAP
  5
228
102
{ACAD_REACTORS
330
227
102
}
330
227
100
AcDbCellStyleMap
 90
        3
300
CELLSTYLE
  1
TABLEFORMAT_BEGIN
 90
        5
170
     1
 91
        0
 92
    32768
 62
   257
 93
        1
300
CONTENTFORMAT
  1
CONTENTFORMAT_BEGIN
 90
        0
 91
        0
 92
        4
 93
        0
300

 40
0.0
140
1.0
 94
        5
 62
     0
340
11
144
0.25
309
CONTENTFORMAT_END
171
     1
301
MARGIN
  1
CELLMARGIN_BEGIN
 40
0.06
 40
0.06
 40
0.06
 40
0.06
 40
0.06
 40
0.06
309
CELLMARGIN_END
 94
        6
 95
        1
302
GRIDFORMAT
  1
GRIDFORMAT_BEGIN
 90
        0
 91
        1
 62
     0
 92
       -2
340
14
 93
        0
 40
0.045
309
GRIDFORMAT_END
 95
        2
302
GRIDFORMAT
  1
GRIDFORMAT_BEGIN
 90
        0
 91
        1
 62
     0
 92
       -2
340
14
 93
        0
 40
0.045
309
GRIDFORMAT_END
 95
        4
302
GRIDFORMAT
  1
GRIDFORMAT_BEGIN
 90
        0
 91
        1
 62
     0
 92
       -2
340
14
 93
        0
 40
0.045
309
GRIDFORMAT_END
 95
        8
302
GRIDFORMAT
  1
GRIDFORMAT_BEGIN
 90
        0
 91
        1
 62
     0
 92
       -2
340
14
 93
        0
 40
0.045
309
GRIDFORMAT_END
 95
       16
302
GRIDFORMAT
  1
GRIDFORMAT_BEGIN
 90
        0
 91
        1
 62
     0
 92
       -2
340
14
 93
        0
 40
0.045
309
GRIDFORMAT_END
 95
       32
302
GRIDFORMAT
  1
GRIDFORMAT_BEGIN
 90
        0
 91
        1
 62
     0
 92
       -2
340
14
 93
        0
 40
0.045
309
GRIDFORMAT_END
309
TABLEFORMAT_END
  1
CELLSTYLE_BEGIN
 90
        1
 91
        1
300
_TITLE
309
CELLSTYLE_END
300
CELLSTYLE
  1
TABLEFORMAT_BEGIN
 90
        5
170
     1
 91
        0
 92
        0
 62
   257
 93
        1
300
CONTENTFORMAT
  1
CONTENTFORMAT_BEGIN
 90
        0
 91
        0
 92
        4
 93
        0
300

 40
0.0
140
1.0
 94
        5
 62
     0
340
11
144
0.18
309
CONTENTFORMAT_END
171
     1
301
MARGIN
  1
CELLMARGIN_BEGIN
 40
0.06
 40
0.06
 40
0.06
 40
0.06
 40
0.06
 40
0.06
309
CELLMARGIN_END
 94
        6
 95
        1
302
GRIDFORMAT
  1
GRIDFORMAT_BEGIN
 90
        0
 91
        1
 62
     0
 92
       -2
340
14
 93
        0
 40
0.045
309
GRIDFORMAT_END
 95
        2
302
GRIDFORMAT
  1
GRIDFORMAT_BEGIN
 90
        0
 91
        1
 62
     0
 92
       -2
340
14
 93
        0
 40
0.045
309
GRIDFORMAT_END
 95
        4
302
GRIDFORMAT
  1
GRIDFORMAT_BEGIN
 90
        0
 91
        1
 62
     0
 92
       -2
340
14
 93
        0
 40
0.045
309
GRIDFORMAT_END
 95
        8
302
GRIDFORMAT
  1
GRIDFORMAT_BEGIN
 90
        0
 91
        1
 62
     0
 92
       -2
340
14
 93
        0
 40
0.045
309
GRIDFORMAT_END
 95
       16
302
GRIDFORMAT
  1
GRIDFORMAT_BEGIN
 90
        0
 91
        1
 62
     0
 92
       -2
340
14
 93
        0
 40
0.045
309
GRIDFORMAT_END
 95
       32
302
GRIDFORMAT
  1
GRIDFORMAT_BEGIN
 90
        0
 91
        1
 62
     0
 92
       -2
340
14
 93
        0
 40
0.045
309
GRIDFORMAT_END
309
TABLEFORMAT_END
  1
CELLSTYLE_BEGIN
 90
        2
 91
        1
300
_HEADER
309
CELLSTYLE_END
300
CELLSTYLE
  1
TABLEFORMAT_BEGIN
 90
        5
170
     1
 91
        0
 92
        0
 62
   257
 93
        1
300
CONTENTFORMAT
  1
CONTENTFORMAT_BEGIN
 90
        0
 91
        0
 92
        4
 93
        0
300

 40
0.0
140
1.0
 94
        2
 62
     0
340
11
144
0.18
309
CONTENTFORMAT_END
171
     1
301
MARGIN
  1
CELLMARGIN_BEGIN
 40
0.06
 40
0.06
 40
0.06
 40
0.06
 40
0.06
 40
0.06
309
CELLMARGIN_END
 94
        6
 95
        1
302
GRIDFORMAT
  1
GRIDFORMAT_BEGIN
 90
        0
 91
        1
 62
     0
 92
       -2
340
14
 93
        0
 40
0.045
309
GRIDFORMAT_END
 95
        2
302
GRIDFORMAT
  1
GRIDFORMAT_BEGIN
 90
        0
 91
        1
 62
     0
 92
       -2
340
14
 93
        0
 40
0.045
309
GRIDFORMAT_END
 95
        4
302
GRIDFORMAT
  1
GRIDFORMAT_BEGIN
 90
        0
 91
        1
 62
     0
 92
       -2
340
14
 93
        0
 40
0.045
309
GRIDFORMAT_END
 95
        8
302
GRIDFORMAT
  1
GRIDFORMAT_BEGIN
 90
        0
 91
        1
 62
     0
 92
       -2
340
14
 93
        0
 40
0.045
309
GRIDFORMAT_END
 95
       16
302
GRIDFORMAT
  1
GRIDFORMAT_BEGIN
 90
        0
 91
        1
 62
     0
 92
       -2
340
14
 93
        0
 40
0.045
309
GRIDFORMAT_END
 95
       32
302
GRIDFORMAT
  1
GRIDFORMAT_BEGIN
 90
        0
 91
        1
 62
     0
 92
       -2
340
14
 93
        0
 40
0.045
309
GRIDFORMAT_END
309
TABLEFORMAT_END
  1
CELLSTYLE_BEGIN
 90
        3
 91
        2
300
_DATA
309
CELLSTYLE_END
  0
ENDSEC
  0
EOF