0
SECTION
  2
HEADER
  9
$ACADVER
  1
AC1027
  9
$ACADMAINTVER
 70
     8
  9
$DWGCODEPAGE
  3
ANSI_1252
  9
$REQUIREDVERSIONS
160
                 0
  9
$COMMENTS
  1
File was created by Cadenas
  9
$CUSTOMPROPERTYTAG
  1
NN
  9
$CUSTOMPROPERTY
  1
Grip Tight Four-Bolt Flange Inch Bore
  9
$CUSTOMPROPERTYTAG
  1
NT
  9
$CUSTOMPROPERTY
  1
GT Normal Duty 4 Bolt Flange Bearings
  9
$CUSTOMPROPERTYTAG
  1
NB
  9
$CUSTOMPROPERTY
  1
129656
  9
$CUSTOMPROPERTYTAG
  1
NBSYN
  9
$CUSTOMPROPERTY
  1
$PN.$LUBE.
  9
$CUSTOMPROPERTYTAG
  1
LINA
  9
$CUSTOMPROPERTY
  1
129656
  9
$CUSTOMPROPERTYTAG
  1
SERIES
  9
$CUSTOMPROPERTY
  1
212
  9
$CUSTOMPROPERTYTAG
  1
SS
  9
$CUSTOMPROPERTY
  1
2-7/16
  9
$CUSTOMPROPERTYTAG
  1
PN
  9
$CUSTOMPROPERTY
  1
129656
  9
$CUSTOMPROPERTYTAG
  1
DESCRIPTION
  9
$CUSTOMPROPERTY
  1
F4B-GT-207
  9
$CUSTOMPROPERTYTAG
  1
A
  9
$CUSTOMPROPERTY
  1
2-7/64
  9
$CUSTOMPROPERTYTAG
  1
B
  9
$CUSTOMPROPERTY
  1
6-7/8
  9
$CUSTOMPROPERTYTAG
  1
C
  9
$CUSTOMPROPERTY
  1
2-5/16
  9
$CUSTOMPROPERTYTAG
  1
D
  9
$CUSTOMPROPERTY
  1
5-5/8
  9
$CUSTOMPROPERTYTAG
  1
F
  9
$CUSTOMPROPERTY
  1
5/8
  9
$CUSTOMPROPERTYTAG
  1
H
  9
$CUSTOMPROPERTY
  1
11/16
  9
$CUSTOMPROPERTYTAG
  1
J
  9
$CUSTOMPROPERTY
  1
9/16
  9
$CUSTOMPROPERTYTAG
  1
L
  9
$CUSTOMPROPERTY
  1
3-1/2
  9
$CUSTOMPROPERTYTAG
  1
N
  9
$CUSTOMPROPERTY
  1
3-1/2
  9
$CUSTOMPROPERTYTAG
  1
Z
  9
$CUSTOMPROPERTY
  1
2-9/32
  9
$CUSTOMPROPERTYTAG
  1
COMPANY
  9
$CUSTOMPROPERTY
  1
baldor
  9
$INSBASE
 10
0.0
 20
0.0
 30
0.0
  9
$EXTMIN
 10
1.000000000000000E+20
 20
1.000000000000000E+20
 30
1.000000000000000E+20
  9
$EXTMAX
 10
-1.000000000000000E+20
 20
-1.000000000000000E+20
 30
-1.000000000000000E+20
  9
$LIMMIN
 10
0.0
 20
0.0
  9
$LIMMAX
 10
12.0
 20
9.0
  9
$ORTHOMODE
 70
     0
  9
$REGENMODE
 70
     1
  9
$FILLMODE
 70
     1
  9
$QTEXTMODE
 70
     0
  9
$MIRRTEXT
 70
     1
  9
$LTSCALE
 40
1.0
  9
$ATTMODE
 70
     1
  9
$TEXTSIZE
 40
0.2
  9
$TRACEWID
 40
0.05
  9
$TEXTSTYLE
  7
Standard
  9
$CLAYER
  8
0
  9
$CELTYPE
  6
ByLayer
  9
$CECOLOR
 62
   256
  9
$CELTSCALE
 40
1.0
  9
$DISPSILH
 70
     0
  9
$DIMSCALE
 40
1.0
  9
$DIMASZ
 40
0.18
  9
$DIMEXO
 40
0.0625
  9
$DIMDLI
 40
0.38
  9
$DIMRND
 40
0.0
  9
$DIMDLE
 40
0.0
  9
$DIMEXE
 40
0.18
  9
$DIMTP
 40
0.0
  9
$DIMTM
 40
0.0
  9
$DIMTXT
 40
0.18
  9
$DIMCEN
 40
0.09
  9
$DIMTSZ
 40
0.0
  9
$DIMTOL
 70
     0
  9
$DIMLIM
 70
     0
  9
$DIMTIH
 70
     1
  9
$DIMTOH
 70
     1
  9
$DIMSE1
 70
     0
  9
$DIMSE2
 70
     0
  9
$DIMTAD
 70
     0
  9
$DIMZIN
 70
     0
  9
$DIMBLK
  1

  9
$DIMASO
 70
     1
  9
$DIMSHO
 70
     1
  9
$DIMPOST
  1

  9
$DIMAPOST
  1

  9
$DIMALT
 70
     0
  9
$DIMALTD
 70
     2
  9
$DIMALTF
 40
25.4
  9
$DIMLFAC
 40
1.0
  9
$DIMTOFL
 70
     0
  9
$DIMTVP
 40
0.0
  9
$DIMTIX
 70
     0
  9
$DIMSOXD
 70
     0
  9
$DIMSAH
 70
     0
  9
$DIMBLK1
  1

  9
$DIMBLK2
  1

  9
$DIMSTYLE
  2
Standard
  9
$DIMCLRD
 70
     0
  9
$DIMCLRE
 70
     0
  9
$DIMCLRT
 70
     0
  9
$DIMTFAC
 40
1.0
  9
$DIMGAP
 40
0.09
  9
$DIMJUST
 70
     0
  9
$DIMSD1
 70
     0
  9
$DIMSD2
 70
     0
  9
$DIMTOLJ
 70
     1
  9
$DIMTZIN
 70
     0
  9
$DIMALTZ
 70
     0
  9
$DIMALTTZ
 70
     0
  9
$DIMUPT
 70
     0
  9
$DIMDEC
 70
     4
  9
$DIMTDEC
 70
     4
  9
$DIMALTU
 70
     2
  9
$DIMALTTD
 70
     2
  9
$DIMTXSTY
  7
Standard
  9
$DIMAUNIT
 70
     0
  9
$DIMADEC
 70
     0
  9
$DIMALTRND
 40
0.0
  9
$DIMAZIN
 70
     0
  9
$DIMDSEP
 70
    46
  9
$DIMATFIT
 70
     3
  9
$DIMFRAC
 70
     0
  9
$DIMLDRBLK
  1

  9
$DIMLUNIT
 70
     2
  9
$DIMLWD
 70
    -2
  9
$DIMLWE
 70
    -2
  9
$DIMTMOVE
 70
     0
  9
$DIMFXL
 40
1.0
  9
$DIMFXLON
 70
     0
  9
$DIMJOGANG
 40
0.7853981633974483
  9
$DIMTFILL
 70
     0
  9
$DIMTFILLCLR
 70
     0
  9
$DIMARCSYM
 70
     0
  9
$DIMLTYPE
  6

  9
$DIMLTEX1
  6

  9
$DIMLTEX2
  6

  9
$DIMTXTDIRECTION
 70
     0
  9
$LUNITS
 70
     2
  9
$LUPREC
 70
     4
  9
$SKETCHINC
 40
0.1
  9
$FILLETRAD
 40
0.5
  9
$AUNITS
 70
     0
  9
$AUPREC
 70
     0
  9
$MENU
  1
.
  9
$ELEVATION
 40
0.0
  9
$PELEVATION
 40
0.0
  9
$THICKNESS
 40
0.0
  9
$LIMCHECK
 70
     0
  9
$CHAMFERA
 40
0.0
  9
$CHAMFERB
 40
0.0
  9
$CHAMFERC
 40
0.0
  9
$CHAMFERD
 40
0.0
  9
$SKPOLY
 70
     0
  9
$TDCREATE
 40
2458168.99501463
  9
$TDUCREATE
 40
2458168.953347963
  9
$TDUPDATE
 40
2458168.995014815
  9
$TDUUPDATE
 40
2458168.953348148
  9
$TDINDWG
 40
0.0000000116
  9
$TDUSRTIMER
 40
0.0000000116
  9
$USRTIMER
 70
     1
  9
$ANGBASE
 50
0.0
  9
$ANGDIR
 70
     0
  9
$PDMODE
 70
     0
  9
$PDSIZE
 40
0.0
  9
$PLINEWID
 40
0.0
  9
$SPLFRAME
 70
     0
  9
$SPLINETYPE
 70
     6
  9
$SPLINESEGS
 70
     8
  9
$HANDSEED
  5
231
  9
$SURFTAB1
 70
     6
  9
$SURFTAB2
 70
     6
  9
$SURFTYPE
 70
     6
  9
$SURFU
 70
     6
  9
$SURFV
 70
     6
  9
$UCSBASE
  2

  9
$UCSNAME
  2

  9
$UCSORG
 10
0.0
 20
0.0
 30
0.0
  9
$UCSXDIR
 10
1.0
 20
0.0
 30
0.0
  9
$UCSYDIR
 10
0.0
 20
1.0
 30
0.0
  9
$UCSORTHOREF
  2

  9
$UCSORTHOVIEW
 70
     0
  9
$UCSORGTOP
 10
0.0
 20
0.0
 30
0.0
  9
$UCSORGBOTTOM
 10
0.0
 20
0.0
 30
0.0
  9
$UCSORGLEFT
 10
0.0
 20
0.0
 30
0.0
  9
$UCSORGRIGHT
 10
0.0
 20
0.0
 30
0.0
  9
$UCSORGFRONT
 10
0.0
 20
0.0
 30
0.0
  9
$UCSORGBACK
 10
0.0
 20
0.0
 30
0.0
  9
$PUCSBASE
  2

  9
$PUCSNAME
  2

  9
$PUCSORG
 10
0.0
 20
0.0
 30
0.0
  9
$PUCSXDIR
 10
1.0
 20
0.0
 30
0.0
  9
$PUCSYDIR
 10
0.0
 20
1.0
 30
0.0
  9
$PUCSORTHOREF
  2

  9
$PUCSORTHOVIEW
 70
     0
  9
$PUCSORGTOP
 10
0.0
 20
0.0
 30
0.0
  9
$PUCSORGBOTTOM
 10
0.0
 20
0.0
 30
0.0
  9
$PUCSORGLEFT
 10
0.0
 20
0.0
 30
0.0
  9
$PUCSORGRIGHT
 10
0.0
 20
0.0
 30
0.0
  9
$PUCSORGFRONT
 10
0.0
 20
0.0
 30
0.0
  9
$PUCSORGBACK
 10
0.0
 20
0.0
 30
0.0
  9
$USERI1
 70
     0
  9
$USERI2
 70
     0
  9
$USERI3
 70
     0
  9
$USERI4
 70
     0
  9
$USERI5
 70
     0
  9
$USERR1
 40
0.0
  9
$USERR2
 40
0.0
  9
$USERR3
 40
0.0
  9
$USERR4
 40
0.0
  9
$USERR5
 40
0.0
  9
$WORLDVIEW
 70
     1
  9
$SHADEDGE
 70
     3
  9
$SHADEDIF
 70
    70
  9
$TILEMODE
 70
     1
  9
$MAXACTVP
 70
    64
  9
$PINSBASE
 10
0.0
 20
0.0
 30
0.0
  9
$PLIMCHECK
 70
     0
  9
$PEXTMIN
 10
1.000000000000000E+20
 20
1.000000000000000E+20
 30
1.000000000000000E+20
  9
$PEXTMAX
 10
-1.000000000000000E+20
 20
-1.000000000000000E+20
 30
-1.000000000000000E+20
  9
$PLIMMIN
 10
0.0
 20
0.0
  9
$PLIMMAX
 10
12.0
 20
9.0
  9
$UNITMODE
 70
     0
  9
$VISRETAIN
 70
     1
  9
$PLINEGEN
 70
     0
  9
$PSLTSCALE
 70
     1
  9
$TREEDEPTH
 70
  3020
  9
$CMLSTYLE
  2
Standard
  9
$CMLJUST
 70
     0
  9
$CMLSCALE
 40
1.0
  9
$PROXYGRAPHICS
 70
     1
  9
$MEASUREMENT
 70
     0
  9
$CELWEIGHT
370
    -1
  9
$ENDCAPS
280
     0
  9
$JOINSTYLE
280
     0
  9
$LWDISPLAY
290
     0
  9
$INSUNITS
 70
     1
  9
$HYPERLINKBASE
  1

  9
$STYLESHEET
  1

  9
$XEDIT
290
     1
  9
$CEPSNTYPE
380
     0
  9
$PSTYLEMODE
290
     1
  9
$FINGERPRINTGUID
  2
{614D622E-2FE4-48D3-9DA3-101CCF35E9A5}
  9
$VERSIONGUID
  2
{FAEB1C32-E019-11D5-929B-00C0DF256EC4}
  9
$EXTNAMES
290
     1
  9
$PSVPSCALE
 40
0.0
  9
$OLESTARTUP
290
     0
  9
$SORTENTS
280
   127
  9
$INDEXCTL
280
     0
  9
$HIDETEXT
280
     1
  9
$XCLIPFRAME
280
     2
  9
$HALOGAP
280
     0
  9
$OBSCOLOR
 70
   257
  9
$OBSLTYPE
280
     0
  9
$INTERSECTIONDISPLAY
280
     0
  9
$INTERSECTIONCOLOR
 70
   257
  9
$DIMASSOC
280
     2
  9
$PROJECTNAME
  1

  9
$CAMERADISPLAY
290
     0
  9
$LENSLENGTH
 40
50.0
  9
$CAMERAHEIGHT
 40
0.0
  9
$STEPSPERSEC
 40
2.0
  9
$STEPSIZE
 40
6.0
  9
$3DDWFPREC
 40
2.0
  9
$PSOLWIDTH
 40
0.25
  9
$PSOLHEIGHT
 40
4.0
  9
$LOFTANG1
 40
1.570796326794897
  9
$LOFTANG2
 40
1.570796326794897
  9
$LOFTMAG1
 40
0.0
  9
$LOFTMAG2
 40
0.0
  9
$LOFTPARAM
 70
     7
  9
$LOFTNORMALS
280
     1
  9
$LATITUDE
 40
37.795
  9
$LONGITUDE
 40
-122.394
  9
$NORTHDIRECTION
 40
0.0
  9
$TIMEZONE
 70
 -8000
  9
$LIGHTGLYPHDISPLAY
280
     1
  9
$TILEMODELIGHTSYNCH
280
     1
  9
$CMATERIAL
347
44
  9
$SOLIDHIST
280
     0
  9
$SHOWHIST
280
     1
  9
$DWFFRAME
280
     2
  9
$DGNFRAME
280
     2
  9
$REALWORLDSCALE
290
     1
  9
$INTERFERECOLOR
 62
   256
  9
$CSHADOW
280
     0
  9
$SHADOWPLANELOCATION
 40
0.0
  0
ENDSEC
  0
SECTION
  2
CLASSES
  0
CLASS
  1
ACDBDICTIONARYWDFLT
  2
AcDbDictionaryWithDefault
  3
ObjectDBX Classes
 90
        0
 91
        4
280
     0
281
     0
  0
CLASS
  1
VISUALSTYLE
  2
AcDbVisualStyle
  3
ObjectDBX Classes
 90
     4095
 91
        4
280
     0
281
     0
  0
CLASS
  1
MATERIAL
  2
AcDbMaterial
  3
ObjectDBX Classes
 90
     1153
 91
        4
280
     0
281
     0
  0
CLASS
  1
SCALE
  2
AcDbScale
  3
ObjectDBX Classes
 90
     1153
 91
        4
280
     0
281
     0
  0
CLASS
  1
TABLESTYLE
  2
AcDbTableStyle
  3
ObjectDBX Classes
 90
     4095
 91
        4
280
     0
281
     0
  0
CLASS
  1
MLEADERSTYLE
  2
AcDbMLeaderStyle
  3
ACDB_MLEADERSTYLE_CLASS
 90
     4095
 91
        4
280
     0
281
     0
  0
CLASS
  1
SUN
  2
AcDbSun
  3
SCENEOE
 90
     1153
 91
        4
280
     0
281
     0
  0
CLASS
  1
DICTIONARYVAR
  2
AcDbDictionaryVar
  3
ObjectDBX Classes
 90
        0
 91
        4
280
     0
281
     0
  0
CLASS
  1
CELLSTYLEMAP
  2
AcDbCellStyleMap
  3
ObjectDBX Classes
 90
     1152
 91
        4
280
     0
281
     0
  0
ENDSEC
  0
SECTION
  2
TABLES
  0
TABLE
  2
VPORT
  5
8
330
0
100
AcDbSymbolTable
 70
     1
  0
VPORT
  5
29
330
8
100
AcDbSymbolTableRecord
100
AcDbViewportTableRecord
  2
*Active
 70
     0
 10
0.0
 20
0.0
 11
1.0
 21
1.0
 12
0.0
 22
0.0435457736692912
 13
0.0
 23
0.0
 14
0.5
 24
0.5
 15
0.5
 25
0.5
 16
0.0
 26
0.0
 36
1.0
 17
0.0
 27
0.0
 37
0.0
 40
7.101333378285354
 41
0.9874906058407297
 42
50.0
 43
0.0
 44
0.0
 50
0.0
 51
0.0
 71
     0
 72
   100
 73
     1
 74
     3
 75
     0
 76
     0
 77
     0
 78
     0
281
     0
 65
     1
110
0.0
120
0.0
130
0.0
111
1.0
121
0.0
131
0.0
112
0.0
122
1.0
132
0.0
 79
     0
146
0.0
348
2F
 60
     3
 61
     5
292
     1
282
     1
141
0.0
142
0.0
 63
   250
361
6D
  0
ENDTAB
  0
TABLE
  2
LTYPE
  5
5
330
0
100
AcDbSymbolTable
 70
     3
  0
LTYPE
  5
14
330
5
100
AcDbSymbolTableRecord
100
AcDbLinetypeTableRecord
  2
ByBlock
 70
     0
  3

 72
    65
 73
     0
 40
0.0
  0
LTYPE
  5
15
330
5
100
AcDbSymbolTableRecord
100
AcDbLinetypeTableRecord
  2
ByLayer
 70
     0
  3

 72
    65
 73
     0
 40
0.0
  0
LTYPE
  5
16
330
5
100
AcDbSymbolTableRecord
100
AcDbLinetypeTableRecord
  2
Continuous
 70
     0
  3
Solid line
 72
    65
 73
     0
 40
0.0
  0
LTYPE
  5
9D
330
5
100
AcDbSymbolTableRecord
100
AcDbLinetypeTableRecord
  2
Dashed
 70
     0
  3

 72
    65
 73
     2
 40
2.0
 49
1.0
 74
     0
 49
-1.0
 74
     0
  0
LTYPE
  5
117
330
5
100
AcDbSymbolTableRecord
100
AcDbLinetypeTableRecord
  2
Center
 70
     0
  3

 72
    65
 73
     4
 40
1.5
 49
0.45
 74
     0
 49
-0.5
 74
     0
 49
0.05
 74
     0
 49
-0.5
 74
     0
  0
ENDTAB
  0
TABLE
  2
LAYER
  5
2
330
0
100
AcDbSymbolTable
 70
     7
  0
LAYER
  5
10
330
2
100
AcDbSymbolTableRecord
100
AcDbLayerTableRecord
  2
0
 70
     0
 62
     7
  6
Continuous
370
    -3
390
F
347
46
348
0
  0
LAYER
  5
72
330
2
100
AcDbSymbolTableRecord
100
AcDbLayerTableRecord
  2
AM_6
 70
     0
 62
    -2
  6
Continuous
370
    35
390
F
347
46
348
0
  0
LAYER
  5
9E
330
2
100
AcDbSymbolTableRecord
100
AcDbLayerTableRecord
  2
AM_9
 70
     0
 62
     6
  6
Dashed
370
    25
390
F
347
46
348
0
  0
LAYER
  5
A8
330
2
100
AcDbSymbolTableRecord
100
AcDbLayerTableRecord
  2
AM_4
 70
     0
 62
     3
  6
Continuous
370
    25
390
F
347
46
348
0
  0
LAYER
  5
D8
330
2
100
AcDbSymbolTableRecord
100
AcDbLayerTableRecord
  2
AM_5
 70
     0
 62
     3
  6
Continuous
370
    25
390
F
347
46
348
0
  0
LAYER
  5
118
330
2
100
AcDbSymbolTableRecord
100
AcDbLayerTableRecord
  2
AM_7
 70
     0
 62
     7
  6
Center
370
    25
390
F
347
46
348
0
  0
LAYER
  5
224
330
2
100
AcDbSymbolTableRecord
100
AcDbLayerTableRecord
  2
ConnectionPoints
 70
     0
 62
     7
  6
Continuous
370
    50
390
F
347
46
348
0
  0
ENDTAB
  0
TABLE
  2
STYLE
  5
3
330
0
100
AcDbSymbolTable
 70
     1
  0
STYLE
  5
11
330
3
100
AcDbSymbolTableRecord
100
AcDbTextStyleTableRecord
  2
Standard
 70
     0
 40
0.0
 41
1.0
 50
0.0
 71
     0
 42
0.2
  3
txt
  4

  0
ENDTAB
  0
TABLE
  2
VIEW
  5
6
330
0
100
AcDbSymbolTable
 70
     0
  0
ENDTAB
  0
TABLE
  2
UCS
  5
7
330
0
100
AcDbSymbolTable
 70
     0
  0
ENDTAB
  0
TABLE
  2
APPID
  5
9
330
0
100
AcDbSymbolTable
 70
     1
  0
APPID
  5
12
330
9
100
AcDbSymbolTableRecord
100
AcDbRegAppTableRecord
  2
ACAD
 70
     0
  0
ENDTAB
  0
TABLE
  2
DIMSTYLE
  5
A
330
0
100
AcDbSymbolTable
 70
     1
100
AcDbDimStyleTable
  0
DIMSTYLE
105
27
330
A
100
AcDbSymbolTableRecord
100
AcDbDimStyleTableRecord
  2
Standard
 70
     0
178
     0
340
11
  0
ENDTAB
  0
TABLE
  2
BLOCK_RECORD
  5
1
330
0
100
AcDbSymbolTable
 70
     5
  0
BLOCK_RECORD
  5
1F
330
1
100
AcDbSymbolTableRecord
100
AcDbBlockTableRecord
  2
*Model_Space
340
22
 70
     0
280
     1
281
     0
  0
BLOCK_RECORD
  5
1B
330
1
100
AcDbSymbolTableRecord
100
AcDbBlockTableRecord
  2
*Paper_Space
340
1E
 70
     0
280
     1
281
     0
  0
BLOCK_RECORD
  5
23
330
1
100
AcDbSymbolTableRecord
100
AcDbBlockTableRecord
  2
*Paper_Space0
340
26
 70
     0
280
     1
281
     0
  0
BLOCK_RECORD
  5
6E
330
1
100
AcDbSymbolTableRecord
100
AcDbBlockTableRecord
  2
1_129656_0
340
0
102
{BLKREFS
331
6F
102
}
 70
     0
280
     1
281
     0
  0
BLOCK_RECORD
  5
87
330
1
100
AcDbSymbolTableRecord
100
AcDbBlockTableRecord
  2
2_129525I_0_in_129656_0
340
0
102
{BLKREFS
331
88
102
}
 70
     0
280
     1
281
     0
  0
BLOCK_RECORD
  5
B1
330
1
100
AcDbSymbolTableRecord
100
AcDbBlockTableRecord
  2
3_129921_0_in_129656_0
340
0
102
{BLKREFS
331
B2
102
}
 70
     0
280
     1
281
     0
  0
BLOCK_RECORD
  5
F1
330
1
100
AcDbSymbolTableRecord
100
AcDbBlockTableRecord
  2
4_129473I_0_in_129656_0
340
0
102
{BLKREFS
331
F2
102
}
 70
     0
280
     1
281
     0
  0
ENDTAB
  0
ENDSEC
  0
SECTION
  2
BLOCKS
  0
BLOCK
  5
20
330
1F
100
AcDbEntity
  8
0
100
AcDbBlockBegin
  2
*Model_Space
 70
     0
 10
0.0
 20
0.0
 30
0.0
  3
*Model_Space
  1

  0
ENDBLK
  5
21
330
1F
100
AcDbEntity
  8
0
100
AcDbBlockEnd
  0
BLOCK
  5
1C
330
1B
100
AcDbEntity
 67
     1
  8
0
100
AcDbBlockBegin
  2
*Paper_Space
 70
     0
 10
0.0
 20
0.0
 30
0.0
  3
*Paper_Space
  1

  0
ENDBLK
  5
1D
330
1B
100
AcDbEntity
 67
     1
  8
0
100
AcDbBlockEnd
  0
BLOCK
  5
24
330
23
100
AcDbEntity
  8
0
100
AcDbBlockBegin
  2
*Paper_Space0
 70
     0
 10
0.0
 20
0.0
 30
0.0
  3
*Paper_Space0
  1

  0
ENDBLK
  5
25
330
23
100
AcDbEntity
  8
0
100
AcDbBlockEnd
  0
BLOCK
  5
70
330
6E
100
AcDbEntity
  8
0
100
AcDbBlockBegin
  2
1_129656_0
 70
     2
 10
0.0
 20
0.0
 30
0.0
  3
1_129656_0
  1

  0
ATTDEF
  5
73
330
6E
100
AcDbEntity
  8
AM_6
100
AcDbText
 10
8.4375
 20
3.524591547338582
 30
0.0
 40
0.5
  1
Grip Tight Four-Bolt Flange Inch Bore
100
AcDbAttributeDefinition
  3

  2
NN
 70
     8
280
     0
  0
ATTDEF
  5
74
330
6E
100
AcDbEntity
  8
AM_6
100
AcDbText
 10
8.4375
 20
3.024591547338582
 30
0.0
 40
0.5
  1
GT Normal Duty 4 Bolt Flange Bearings
100
AcDbAttributeDefinition
  3

  2
NT
 70
     8
280
     0
  0
ATTDEF
  5
75
330
6E
100
AcDbEntity
  8
AM_6
100
AcDbText
 10
8.4375
 20
2.524591547338582
 30
0.0
 40
0.5
  1
129656
100
AcDbAttributeDefinition
  3

  2
NB
 70
     8
280
     0
  0
ATTDEF
  5
76
330
6E
100
AcDbEntity
  8
AM_6
100
AcDbText
 10
8.4375
 20
2.024591547338582
 30
0.0
 40
0.5
  1
$PN.$LUBE.
100
AcDbAttributeDefinition
  3

  2
NBSYN
 70
     8
280
     0
  0
ATTDEF
  5
77
330
6E
100
AcDbEntity
  8
AM_6
100
AcDbText
 10
8.4375
 20
1.524591547338582
 30
0.0
 40
0.5
  1
129656
100
AcDbAttributeDefinition
  3

  2
LINA
 70
     8
280
     0
  0
ATTDEF
  5
78
330
6E
100
AcDbEntity
  8
AM_6
100
AcDbText
 10
8.4375
 20
1.024591547338582
 30
0.0
 40
0.5
  1
212
100
AcDbAttributeDefinition
  3

  2
SERIES
 70
     8
280
     0
  0
ATTDEF
  5
79
330
6E
100
AcDbEntity
  8
AM_6
100
AcDbText
 10
8.4375
 20
0.5245915473385825
 30
0.0
 40
0.5
  1
2-7/16
100
AcDbAttributeDefinition
  3

  2
SS
 70
     8
280
     0
  0
ATTDEF
  5
7A
330
6E
100
AcDbEntity
  8
AM_6
100
AcDbText
 10
8.4375
 20
0.0245915473385825
 30
0.0
 40
0.5
  1
129656
100
AcDbAttributeDefinition
  3

  2
PN
 70
     8
280
     0
  0
ATTDEF
  5
7B
330
6E
100
AcDbEntity
  8
AM_6
100
AcDbText
 10
8.4375
 20
-0.4754084526614175
 30
0.0
 40
0.5
  1
F4B-GT-207
100
AcDbAttributeDefinition
  3

  2
DESCRIPTION
 70
     8
280
     0
  0
ATTDEF
  5
7C
330
6E
100
AcDbEntity
  8
AM_6
100
AcDbText
 10
8.4375
 20
-0.9754084526614175
 30
0.0
 40
0.5
  1
2-7/64
100
AcDbAttributeDefinition
  3

  2
A
 70
     8
280
     0
  0
ATTDEF
  5
7D
330
6E
100
AcDbEntity
  8
AM_6
100
AcDbText
 10
8.4375
 20
-1.475408452661418
 30
0.0
 40
0.5
  1
6-7/8
100
AcDbAttributeDefinition
  3

  2
B
 70
     8
280
     0
  0
ATTDEF
  5
7E
330
6E
100
AcDbEntity
  8
AM_6
100
AcDbText
 10
8.4375
 20
-1.975408452661418
 30
0.0
 40
0.5
  1
2-5/16
100
AcDbAttributeDefinition
  3

  2
C
 70
     8
280
     0
  0
ATTDEF
  5
7F
330
6E
100
AcDbEntity
  8
AM_6
100
AcDbText
 10
8.4375
 20
-2.475408452661418
 30
0.0
 40
0.5
  1
5-5/8
100
AcDbAttributeDefinition
  3

  2
D
 70
     8
280
     0
  0
ATTDEF
  5
80
330
6E
100
AcDbEntity
  8
AM_6
100
AcDbText
 10
8.4375
 20
-2.975408452661418
 30
0.0
 40
0.5
  1
5/8
100
AcDbAttributeDefinition
  3

  2
F
 70
     8
280
     0
  0
ATTDEF
  5
81
330
6E
100
AcDbEntity
  8
AM_6
100
AcDbText
 10
8.4375
 20
-3.475408452661418
 30
0.0
 40
0.5
  1
11/16
100
AcDbAttributeDefinition
  3

  2
H
 70
     8
280
     0
  0
ATTDEF
  5
82
330
6E
100
AcDbEntity
  8
AM_6
100
AcDbText
 10
8.4375
 20
-3.975408452661418
 30
0.0
 40
0.5
  1
9/16
100
AcDbAttributeDefinition
  3

  2
J
 70
     8
280
     0
  0
ATTDEF
  5
83
330
6E
100
AcDbEntity
  8
AM_6
100
AcDbText
 10
8.4375
 20
-4.475408452661418
 30
0.0
 40
0.5
  1
3-1/2
100
AcDbAttributeDefinition
  3

  2
L
 70
     8
280
     0
  0
ATTDEF
  5
84
330
6E
100
AcDbEntity
  8
AM_6
100
AcDbText
 10
8.4375
 20
-4.975408452661418
 30
0.0
 40
0.5
  1
3-1/2
100
AcDbAttributeDefinition
  3

  2
N
 70
     8
280
     0
  0
ATTDEF
  5
85
330
6E
100
AcDbEntity
  8
AM_6
100
AcDbText
 10
8.4375
 20
-5.475408452661418
 30
0.0
 40
0.5
  1
2-9/32
100
AcDbAttributeDefinition
  3

  2
Z
 70
     8
280
     0
  0
ATTDEF
  5
86
330
6E
100
AcDbEntity
  8
AM_6
100
AcDbText
 10
8.4375
 20
-5.975408452661418
 30
0.0
 40
0.5
  1
baldor
100
AcDbAttributeDefinition
  3

  2
COMPANY
 70
     8
280
     0
  0
INSERT
  5
88
330
6E
100
AcDbEntity
  8
0
100
AcDbBlockReference
  2
2_129525I_0_in_129656_0
 10
0.0
 20
0.0
 30
0.0
  0
INSERT
  5
B2
330
6E
100
AcDbEntity
  8
0
100
AcDbBlockReference
  2
3_129921_0_in_129656_0
 10
0.0
 20
0.0
 30
0.0
  0
INSERT
  5
F2
330
6E
100
AcDbEntity
  8
0
100
AcDbBlockReference
  2
4_129473I_0_in_129656_0
 10
0.0
 20
0.0
 30
0.0
  0
ENDBLK
  5
71
330
6E
100
AcDbEntity
  8
0
100
AcDbBlockEnd
  0
BLOCK
  5
89
330
87
100
AcDbEntity
  8
0
100
AcDbBlockBegin
  2
2_129525I_0_in_129656_0
 70
     2
 10
0.0
 20
0.0
 30
0.0
  3
2_129525I_0_in_129656_0
  1

  0
ATTDEF
  5
8B
330
87
100
AcDbEntity
  8
AM_6
100
AcDbText
 10
7.151482345060115
 20
2.151482345060115
 30
0.0
 40
0.5
  1
INS-GT B
100
AcDbAttributeDefinition
  3

  2
NN
 70
     8
280
     0
  0
ATTDEF
  5
8C
330
87
100
AcDbEntity
  8
AM_6
100
AcDbText
 10
7.151482345060115
 20
1.651482345060115
 30
0.0
 40
0.5
  1
GT Normal Duty Bearing Inserts
100
AcDbAttributeDefinition
  3

  2
NT
 70
     8
280
     0
  0
ATTDEF
  5
8D
330
87
100
AcDbEntity
  8
AM_6
100
AcDbText
 10
7.151482345060115
 20
1.151482345060115
 30
0.0
 40
0.5
  1
129525I
100
AcDbAttributeDefinition
  3

  2
NB
 70
     8
280
     0
  0
ATTDEF
  5
8E
330
87
100
AcDbEntity
  8
AM_6
100
AcDbText
 10
7.151482345060115
 20
0.6514823450601148
 30
0.0
 40
0.5
  1
$PN.I
100
AcDbAttributeDefinition
  3

  2
NBSYN
 70
     8
280
     0
  0
ATTDEF
  5
8F
330
87
100
AcDbEntity
  8
AM_6
100
AcDbText
 10
7.151482345060115
 20
0.1514823450601148
 30
0.0
 40
0.5
  1
129525
100
AcDbAttributeDefinition
  3

  2
LINA
 70
     8
280
     0
  0
ATTDEF
  5
90
330
87
100
AcDbEntity
  8
AM_6
100
AcDbText
 10
7.151482345060115
 20
-0.3485176549398852
 30
0.0
 40
0.5
  1
212
100
AcDbAttributeDefinition
  3

  2
SERIES
 70
     8
280
     0
  0
ATTDEF
  5
91
330
87
100
AcDbEntity
  8
AM_6
100
AcDbText
 10
7.151482345060115
 20
-0.8485176549398852
 30
0.0
 40
0.5
  1
129525
100
AcDbAttributeDefinition
  3

  2
PN
 70
     8
280
     0
  0
ATTDEF
  5
92
330
87
100
AcDbEntity
  8
AM_6
100
AcDbText
 10
7.151482345060115
 20
-1.348517654939885
 30
0.0
 40
0.5
  1
INS-GT-12
100
AcDbAttributeDefinition
  3

  2
DESCRIPTION
 70
     8
280
     0
  0
ATTDEF
  5
93
330
87
100
AcDbEntity
  8
AM_6
100
AcDbText
 10
7.151482345060115
 20
-1.848517654939885
 30
0.0
 40
0.5
  1
2.12
100
AcDbAttributeDefinition
  3

  2
A
 70
     8
280
     0
  0
ATTDEF
  5
94
330
87
100
AcDbEntity
  8
AM_6
100
AcDbText
 10
7.151482345060115
 20
-2.348517654939885
 30
0.0
 40
0.5
  1
1.02
100
AcDbAttributeDefinition
  3

  2
C
 70
     8
280
     0
  0
ATTDEF
  5
95
330
87
100
AcDbEntity
  8
AM_6
100
AcDbText
 10
7.151482345060115
 20
-2.848517654939885
 30
0.0
 40
0.5
  1
4.3307
100
AcDbAttributeDefinition
  3

  2
D
 70
     8
280
     0
  0
ATTDEF
  5
96
330
87
100
AcDbEntity
  8
AM_6
100
AcDbText
 10
7.151482345060115
 20
-3.348517654939885
 30
0.0
 40
0.5
  1
0.25
100
AcDbAttributeDefinition
  3

  2
J
 70
     8
280
     0
  0
ATTDEF
  5
97
330
87
100
AcDbEntity
  8
AM_6
100
AcDbText
 10
7.151482345060115
 20
-3.848517654939885
 30
0.0
 40
0.5
  1
3.69
100
AcDbAttributeDefinition
  3

  2
L
 70
     8
280
     0
  0
ATTDEF
  5
98
330
87
100
AcDbEntity
  8
AM_6
100
AcDbText
 10
7.151482345060115
 20
-4.348517654939885
 30
0.0
 40
0.5
  1
#10 - 32 x 1/4
100
AcDbAttributeDefinition
  3

  2
N
 70
     8
280
     0
  0
ATTDEF
  5
99
330
87
100
AcDbEntity
  8
AM_6
100
AcDbText
 10
7.151482345060115
 20
-4.848517654939885
 30
0.0
 40
0.5
  1
0.73000
100
AcDbAttributeDefinition
  3

  2
W
 70
     8
280
     0
  0
ATTDEF
  5
9A
330
87
100
AcDbEntity
  8
AM_6
100
AcDbText
 10
7.151482345060115
 20
-5.348517654939885
 30
0.0
 40
0.5
  1
1.46
100
AcDbAttributeDefinition
  3

  2
X
 70
     8
280
     0
  0
ATTDEF
  5
9B
330
87
100
AcDbEntity
  8
AM_6
100
AcDbText
 10
7.151482345060115
 20
-5.848517654939885
 30
0.0
 40
0.5
  1
1.39
100
AcDbAttributeDefinition
  3

  2
Y
 70
     8
280
     0
  0
ATTDEF
  5
9C
330
87
100
AcDbEntity
  8
AM_6
100
AcDbText
 10
7.151482345060115
 20
-6.348517654939885
 30
0.0
 40
0.5
  1
baldor
100
AcDbAttributeDefinition
  3

  2
COMPANY
 70
     8
280
     0
  0
CIRCLE
  5
9F
330
87
100
AcDbEntity
  8
AM_9
100
AcDbCircle
 10
0.0000000000000001
 20
0.0
 30
0.0
 40
1.4184905004777
  0
CIRCLE
  5
A0
330
87
100
AcDbEntity
  8
AM_9
100
AcDbCircle
 10
0.0000000000000001
 20
0.0
 30
0.0
 40
2.06335
  0
CIRCLE
  5
A1
330
87
100
AcDbEntity
  8
AM_9
100
AcDbCircle
 10
0.0000000000000001
 20
0.0
 30
0.0
 40
2.11806247745535
  0
CIRCLE
  5
A2
330
87
100
AcDbEntity
  8
AM_9
100
AcDbCircle
 10
0.0000000000000001
 20
0.0
 30
0.0
 40
1.508214233
  0
CIRCLE
  5
A3
330
87
100
AcDbEntity
  8
AM_9
100
AcDbCircle
 10
0.0000000000000001
 20
0.0
 30
0.0
 40
1.376428466
  0
CIRCLE
  5
A4
330
87
100
AcDbEntity
  8
AM_9
100
AcDbCircle
 10
0.0000000000000001
 20
0.0
 30
0.0
 40
1.5992
  0
ARC
  5
A5
330
87
100
AcDbEntity
  8
AM_9
100
AcDbCircle
 10
-0.0000000000000029
 20
-0.000000000000005
 30
0.0
 40
1.640000000000003
100
AcDbArc
 50
4.371295797341632
 51
115.6287042026584
  0
ARC
  5
A6
330
87
100
AcDbEntity
  8
AM_9
100
AcDbCircle
 10
-0.0000000000000002
 20
0.0
 30
0.0
 40
1.64
100
AcDbArc
 50
124.3712957973415
 51
235.6287042026585
  0
ARC
  5
A7
330
87
100
AcDbEntity
  8
AM_9
100
AcDbCircle
 10
0.0000000000000006
 20
-0.0000000000000009
 30
0.0
 40
1.639999999999999
100
AcDbArc
 50
244.3712957973415
 51
355.6287042026586
  0
CIRCLE
  5
A9
330
87
100
AcDbEntity
  8
AM_4
100
AcDbCircle
 10
0.0000000000000001
 20
0.0
 30
0.0
 40
2.141389016312513
  0
CIRCLE
  5
AA
330
87
100
AcDbEntity
  8
AM_4
100
AcDbCircle
 10
0.0000000000000001
 20
0.0
 30
0.0
 40
2.151482345060115
  0
CIRCLE
  5
AB
330
87
100
AcDbEntity
  8
AM_4
100
AcDbCircle
 10
0.0000000000000001
 20
0.0
 30
0.0
 40
2.127974977280586
  0
CIRCLE
  5
AC
330
87
100
AcDbEntity
  8
AM_4
100
AcDbCircle
 10
0.0000000000000001
 20
0.0
 30
0.0
 40
2.035840869774971
  0
CIRCLE
  5
AD
330
87
100
AcDbEntity
  8
AM_4
100
AcDbCircle
 10
0.0000000000000001
 20
0.0
 30
0.0
 40
2.073824698589939
  0
ARC
  5
AE
330
87
100
AcDbEntity
  8
AM_4
100
AcDbCircle
 10
0.0000000000000109
 20
-0.0000000000000158
 30
0.0
 40
1.640000000000019
100
AcDbArc
 50
115.6287042026587
 51
124.3712957973415
  0
ARC
  5
AF
330
87
100
AcDbEntity
  8
AM_4
100
AcDbCircle
 10
-0.00000000000003
 20
-0.0000000000000528
 30
0.0
 40
1.639999999999939
100
AcDbArc
 50
235.6287042026584
 51
244.3712957973417
  0
ARC
  5
B0
330
87
100
AcDbEntity
  8
AM_4
100
AcDbCircle
 10
0.0000000000000038
 20
0.0
 30
0.0
 40
1.639999999999996
100
AcDbArc
 50
355.6287042026585
 51
4.371295797341546
  0
ENDBLK
  5
8A
330
87
100
AcDbEntity
  8
0
100
AcDbBlockEnd
  0
BLOCK
  5
B3
330
B1
100
AcDbEntity
  8
0
100
AcDbBlockBegin
  2
3_129921_0_in_129656_0
 70
     2
 10
0.0
 20
0.0
 30
0.0
  3
3_129921_0_in_129656_0
  1

  0
ATTDEF
  5
B5
330
B1
100
AcDbEntity
  8
AM_6
100
AcDbText
 10
6.745530005471117
 20
1.749319501019082
 30
0.0
 40
0.5
  1
Grip Tight Normal Duty Adapter and Nut Inch Bore
100
AcDbAttributeDefinition
  3

  2
NN
 70
     8
280
     0
  0
ATTDEF
  5
B6
330
B1
100
AcDbEntity
  8
AM_6
100
AcDbText
 10
6.745530005471117
 20
1.249319501019082
 30
0.0
 40
0.5
  1
GT and GTM Adapter & Lock Nut Assemblies
100
AcDbAttributeDefinition
  3

  2
NT
 70
     8
280
     0
  0
ATTDEF
  5
B7
330
B1
100
AcDbEntity
  8
AM_6
100
AcDbText
 10
6.745530005471117
 20
0.7493195010190816
 30
0.0
 40
0.5
  1
129921
100
AcDbAttributeDefinition
  3

  2
NB
 70
     8
280
     0
  0
ATTDEF
  5
B8
330
B1
100
AcDbEntity
  8
AM_6
100
AcDbText
 10
6.745530005471117
 20
0.2493195010190816
 30
0.0
 40
0.5
  1
$PN.
100
AcDbAttributeDefinition
  3

  2
NBSYN
 70
     8
280
     0
  0
ATTDEF
  5
B9
330
B1
100
AcDbEntity
  8
AM_6
100
AcDbText
 10
6.745530005471117
 20
-0.2506804989809184
 30
0.0
 40
0.5
  1
129921
100
AcDbAttributeDefinition
  3

  2
LINA
 70
     8
280
     0
  0
ATTDEF
  5
BA
330
B1
100
AcDbEntity
  8
AM_6
100
AcDbText
 10
6.745530005471117
 20
-0.7506804989809184
 30
0.0
 40
0.5
  1
212
100
AcDbAttributeDefinition
  3

  2
SERIES
 70
     8
280
     0
  0
ATTDEF
  5
BB
330
B1
100
AcDbEntity
  8
AM_6
100
AcDbText
 10
6.745530005471117
 20
-1.250680498980918
 30
0.0
 40
0.5
  1
2-7/16
100
AcDbAttributeDefinition
  3

  2
SS
 70
     8
280
     0
  0
ATTDEF
  5
BC
330
B1
100
AcDbEntity
  8
AM_6
100
AcDbText
 10
6.745530005471117
 20
-1.750680498980918
 30
0.0
 40
0.5
  1
129921
100
AcDbAttributeDefinition
  3

  2
PN
 70
     8
280
     0
  0
ATTDEF
  5
BD
330
B1
100
AcDbEntity
  8
AM_6
100
AcDbText
 10
6.745530005471117
 20
-2.250680498980918
 30
0.0
 40
0.5
  1
AN-GT-12-207
100
AcDbAttributeDefinition
  3

  2
DESCRIPTION
 70
     8
280
     0
  0
ATTDEF
  5
BE
330
B1
100
AcDbEntity
  8
AM_6
100
AcDbText
 10
6.745530005471117
 20
-2.750680498980918
 30
0.0
 40
0.5
  1
2-7/64
100
AcDbAttributeDefinition
  3

  2
A
 70
     8
280
     0
  0
ATTDEF
  5
BF
330
B1
100
AcDbEntity
  8
AM_6
100
AcDbText
 10
6.745530005471117
 20
-3.250680498980918
 30
0.0
 40
0.5
  1
1.0240
100
AcDbAttributeDefinition
  3

  2
C
 70
     8
280
     0
  0
ATTDEF
  5
C0
330
B1
100
AcDbEntity
  8
AM_6
100
AcDbText
 10
6.745530005471117
 20
-3.750680498980918
 30
0.0
 40
0.5
  1
4.3307
100
AcDbAttributeDefinition
  3

  2
D
 70
     8
280
     0
  0
ATTDEF
  5
C1
330
B1
100
AcDbEntity
  8
AM_6
100
AcDbText
 10
6.745530005471117
 20
-4.250680498980918
 30
0.0
 40
0.5
  1
0.250
100
AcDbAttributeDefinition
  3

  2
J
 70
     8
280
     0
  0
ATTDEF
  5
C2
330
B1
100
AcDbEntity
  8
AM_6
100
AcDbText
 10
6.745530005471117
 20
-4.750680498980918
 30
0.0
 40
0.5
  1
3-1/2
100
AcDbAttributeDefinition
  3

  2
L
 70
     8
280
     0
  0
ATTDEF
  5
C3
330
B1
100
AcDbEntity
  8
AM_6
100
AcDbText
 10
6.745530005471117
 20
-5.250680498980918
 30
0.0
 40
0.5
  1
10 - 32 x 1/4
100
AcDbAttributeDefinition
  3

  2
N
 70
     8
280
     0
  0
ATTDEF
  5
C4
330
B1
100
AcDbEntity
  8
AM_6
100
AcDbText
 10
6.745530005471117
 20
-5.750680498980918
 30
0.0
 40
0.5
  1
49/64
100
AcDbAttributeDefinition
  3

  2
W
 70
     8
280
     0
  0
ATTDEF
  5
C5
330
B1
100
AcDbEntity
  8
AM_6
100
AcDbText
 10
6.745530005471117
 20
-6.250680498980918
 30
0.0
 40
0.5
  1
1-5/16
100
AcDbAttributeDefinition
  3

  2
X
 70
     8
280
     0
  0
ATTDEF
  5
C6
330
B1
100
AcDbEntity
  8
AM_6
100
AcDbText
 10
6.745530005471117
 20
-6.750680498980918
 30
0.0
 40
0.5
  1
1-11/32
100
AcDbAttributeDefinition
  3

  2
Y
 70
     8
280
     0
  0
ATTDEF
  5
C7
330
B1
100
AcDbEntity
  8
AM_6
100
AcDbText
 10
6.745530005471117
 20
-7.250680498980918
 30
0.0
 40
0.5
  1
baldor
100
AcDbAttributeDefinition
  3

  2
COMPANY
 70
     8
280
     0
  0
LINE
  5
C8
330
B1
100
AcDbEntity
  8
AM_9
100
AcDbLine
 10
0.0500000000000001
 20
1.305560948203287
 30
0.0
 11
0.0500000000000001
 21
1.348552734640803
 31
0.0
  0
LINE
  5
C9
330
B1
100
AcDbEntity
  8
AM_9
100
AcDbLine
 10
-0.0499999999999999
 20
1.305560948203287
 30
0.0
 11
-0.0499999999999999
 21
1.348552734640803
 31
0.0
  0
ARC
  5
CA
330
B1
100
AcDbEntity
  8
AM_9
100
AcDbCircle
 10
0.0000000000000001
 20
-0.0000000000000002
 30
0.0
 40
1.349479335931895
100
AcDbArc
 50
92.12337067246555
 51
87.87662932753443
  0
CIRCLE
  5
CB
330
B1
100
AcDbEntity
  8
AM_9
100
AcDbCircle
 10
0.0000000000000001
 20
0.0
 30
0.0
 40
1.430555555555555
  0
CIRCLE
  5
CC
330
B1
100
AcDbEntity
  8
AM_9
100
AcDbCircle
 10
0.0000000000000001
 20
0.0
 30
0.0
 40
1.555555555555555
  0
LINE
  5
CD
330
B1
100
AcDbEntity
  8
AM_9
100
AcDbLine
 10
-1.72745
 20
-0.0724500000000001
 30
0.0
 11
-1.33505
 21
-0.0724500000000001
 31
0.0
  0
LINE
  5
CE
330
B1
100
AcDbEntity
  8
AM_9
100
AcDbLine
 10
-1.33505
 20
0.0724500000000001
 30
0.0
 11
-1.72745
 21
0.0724500000000001
 31
0.0
  0
LINE
  5
CF
330
B1
100
AcDbEntity
  8
AM_9
100
AcDbLine
 10
-1.33505
 20
-0.0724500000000001
 30
0.0
 11
-1.3125
 21
-0.0950000000000001
 31
0.0
  0
LINE
  5
D0
330
B1
100
AcDbEntity
  8
AM_9
100
AcDbLine
 10
-1.3125
 20
0.0950000000000001
 30
0.0
 11
-1.33505
 21
0.0724500000000001
 31
0.0
  0
LINE
  5
D1
330
B1
100
AcDbEntity
  8
AM_9
100
AcDbLine
 10
-1.3125
 20
0.0950000000000001
 30
0.0
 11
-1.3125
 21
-0.0950000000000001
 31
0.0
  0
LINE
  5
D2
330
B1
100
AcDbEntity
  8
AM_9
100
AcDbLine
 10
-1.33505
 20
0.0724500000000001
 30
0.0
 11
-1.33505
 21
-0.0724500000000001
 31
0.0
  0
LINE
  5
D3
330
B1
100
AcDbEntity
  8
AM_9
100
AcDbLine
 10
-1.72745
 20
0.0724500000000001
 30
0.0
 11
-1.747070218354624
 21
0.0920702183546236
 31
0.0
  0
LINE
  5
D4
330
B1
100
AcDbEntity
  8
AM_9
100
AcDbLine
 10
-1.74739082472568
 20
-0.09239082472568
 30
0.0
 11
-1.72745
 21
-0.0724500000000001
 31
0.0
  0
LINE
  5
D5
330
B1
100
AcDbEntity
  8
AM_9
100
AcDbLine
 10
-1.72745
 20
0.0724500000000001
 30
0.0
 11
-1.72745
 21
-0.0724500000000001
 31
0.0
  0
LINE
  5
D6
330
B1
100
AcDbEntity
  8
AM_9
100
AcDbLine
 10
-1.749354574078736
 20
0.0475244584378169
 30
0.0
 11
-1.747550950312222
 21
0.0925509376659681
 31
0.0
  0
LINE
  5
D7
330
B1
100
AcDbEntity
  8
AM_9
100
AcDbLine
 10
-1.747550949875472
 20
-0.0925509459127004
 30
0.0
 11
-1.749355735972798
 21
-0.0474816703483541
 31
0.0
  0
LINE
  5
D9
330
B1
100
AcDbEntity
  8
AM_5
100
AcDbLine
 10
-1.747419526044046
 20
-0.0950000000000001
 30
0.0
 11
-1.3125
 21
-0.0950000000000001
 31
0.0
  0
LINE
  5
DA
330
B1
100
AcDbEntity
  8
AM_5
100
AcDbLine
 10
-1.747419526044046
 20
0.0949999999999999
 30
0.0
 11
-1.3125
 21
0.0949999999999999
 31
0.0
  0
LINE
  5
DB
330
B1
100
AcDbEntity
  8
AM_4
100
AcDbLine
 10
-0.9810181782086138
 20
1.449173327805978
 30
0.0
 11
-0.9249196939727585
 21
1.352007902881875
 31
0.0
  0
LINE
  5
DC
330
B1
100
AcDbEntity
  8
AM_4
100
AcDbLine
 10
-0.924919693972758
 20
-1.352007902881875
 30
0.0
 11
-0.9810181782086131
 21
-1.449173327805978
 31
0.0
  0
ARC
  5
DD
330
B1
100
AcDbEntity
  8
AM_4
100
AcDbCircle
 10
-0.0000000000000009
 20
0.0000000000000007
 30
0.0
 40
1.749999999999999
100
AcDbArc
 50
124.0960437581523
 51
178.4508896933642
  0
LWPOLYLINE
  5
DE
330
B1
100
AcDbEntity
  8
AM_4
100
AcDbPolyline
 90
        4
 70
     0
 43
0.0
 10
-1.749360410951264
 20
0.047309117476686
 10
-1.743331371074887
 20
0.0018699370410627
 10
-1.748152648680345
 20
-0.0423311387033335
 10
-1.749360410951264
 20
-0.0473091174766861
  0
ARC
  5
DF
330
B1
100
AcDbEntity
  8
AM_4
100
AcDbCircle
 10
0.0000000000000004
 20
0.0000000000000002
 30
0.0
 40
1.75
100
AcDbArc
 50
181.5491103066358
 51
235.9039562418477
  0
LINE
  5
E0
330
B1
100
AcDbEntity
  8
AM_4
100
AcDbLine
 10
-0.7084133430266494
 20
1.477007902881875
 30
0.0
 11
-0.7645118272625048
 21
1.574173327805978
 31
0.0
  0
LINE
  5
E1
330
B1
100
AcDbEntity
  8
AM_4
100
AcDbLine
 10
1.745530005471118
 20
0.125
 30
0.0
 11
1.633333036999407
 21
0.125
 31
0.0
  0
ARC
  5
E2
330
B1
100
AcDbEntity
  8
AM_4
100
AcDbCircle
 10
0.0000000000000009
 20
0.0000000000000012
 30
0.0
 40
1.749999999999999
100
AcDbArc
 50
4.096043758152158
 51
115.9039562418478
  0
LINE
  5
E3
330
B1
100
AcDbEntity
  8
AM_4
100
AcDbLine
 10
-0.7645118272625036
 20
-1.574173327805978
 30
0.0
 11
-0.7084133430266485
 21
-1.477007902881875
 31
0.0
  0
LINE
  5
E4
330
B1
100
AcDbEntity
  8
AM_4
100
AcDbLine
 10
1.633333036999407
 20
-0.125
 30
0.0
 11
1.745530005471118
 21
-0.125
 31
0.0
  0
ARC
  5
E5
330
B1
100
AcDbEntity
  8
AM_4
100
AcDbCircle
 10
-0.0000000000000002
 20
0.0
 30
0.0
 40
1.75
100
AcDbArc
 50
244.0960437581524
 51
355.9039562418476
  0
LINE
  5
E6
330
B1
100
AcDbEntity
  8
AM_4
100
AcDbLine
 10
1.633333036999407
 20
0.125
 30
0.0
 11
1.633333036999407
 21
-0.125
 31
0.0
  0
LINE
  5
E7
330
B1
100
AcDbEntity
  8
AM_4
100
AcDbLine
 10
-0.9249196939727585
 20
1.352007902881875
 30
0.0
 11
-0.7084133430266494
 21
1.477007902881875
 31
0.0
  0
LINE
  5
E8
330
B1
100
AcDbEntity
  8
AM_4
100
AcDbLine
 10
-0.0499999999999999
 20
1.305555555555556
 30
0.0
 11
0.0500000000000001
 21
1.305555555555556
 31
0.0
  0
ARC
  5
E9
330
B1
100
AcDbEntity
  8
AM_4
100
AcDbCircle
 10
0.0
 20
0.0000000000000002
 30
0.0
 40
1.70904
100
AcDbArc
 50
4.194385965404924
 51
115.8056140345951
  0
ARC
  5
EA
330
B1
100
AcDbEntity
  8
AM_4
100
AcDbCircle
 10
-0.0000000000000002
 20
0.0000000000000004
 30
0.0
 40
1.70904
100
AcDbArc
 50
124.1943859654049
 51
235.8056140345951
  0
LINE
  5
EB
330
B1
100
AcDbEntity
  8
AM_4
100
AcDbLine
 10
-0.7084133430266485
 20
-1.477007902881875
 30
0.0
 11
-0.924919693972758
 21
-1.352007902881875
 31
0.0
  0
ARC
  5
EC
330
B1
100
AcDbEntity
  8
AM_4
100
AcDbCircle
 10
0.0000000000000002
 20
-0.0000000000000004
 30
0.0
 40
1.70904
100
AcDbArc
 50
244.194385965405
 51
355.8056140345951
  0
ARC
  5
ED
330
B1
100
AcDbEntity
  8
AM_4
100
AcDbCircle
 10
0.0000000000000001
 20
0.0000000000000001
 30
0.0
 40
1.21875
100
AcDbArc
 50
92.35125596514285
 51
87.64874403485717
  0
ARC
  5
EE
330
B1
100
AcDbEntity
  8
AM_4
100
AcDbCircle
 10
0.0000000000000001
 20
-0.0000000000000002
 30
0.0
 40
1.305555555555556
100
AcDbArc
 50
92.19484321188592
 51
87.8051567881141
  0
LINE
  5
EF
330
B1
100
AcDbEntity
  8
AM_4
100
AcDbLine
 10
0.0500000000000001
 20
1.304597757411064
 30
0.0
 11
0.0500000000000001
 21
1.217723927045864
 31
0.0
  0
LINE
  5
F0
330
B1
100
AcDbEntity
  8
AM_4
100
AcDbLine
 10
-0.0499999999999999
 20
1.304597757411064
 30
0.0
 11
-0.0499999999999999
 21
1.217723927045864
 31
0.0
  0
ENDBLK
  5
B4
330
B1
100
AcDbEntity
  8
0
100
AcDbBlockEnd
  0
BLOCK
  5
F3
330
F1
100
AcDbEntity
  8
0
100
AcDbBlockBegin
  2
4_129473I_0_in_129656_0
 70
     2
 10
0.0
 20
0.0
 30
0.0
  3
4_129473I_0_in_129656_0
  1

  0
ATTDEF
  5
F5
330
F1
100
AcDbEntity
  8
AM_6
100
AcDbText
 10
8.4375
 20
3.524591547338582
 30
0.0
 40
0.5
  1
GT Normal Duty 4 Bolt Flange Bearings
100
AcDbAttributeDefinition
  3

  2
NN
 70
     8
280
     0
  0
ATTDEF
  5
F6
330
F1
100
AcDbEntity
  8
AM_6
100
AcDbText
 10
8.4375
 20
3.024591547338582
 30
0.0
 40
0.5
  1
Grip Tight Adapter Ball Bearings
100
AcDbAttributeDefinition
  3

  2
NT
 70
     8
280
     0
  0
ATTDEF
  5
F7
330
F1
100
AcDbEntity
  8
AM_6
100
AcDbText
 10
8.4375
 20
2.524591547338582
 30
0.0
 40
0.5
  1
129473I
100
AcDbAttributeDefinition
  3

  2
NB
 70
     8
280
     0
  0
ATTDEF
  5
F8
330
F1
100
AcDbEntity
  8
AM_6
100
AcDbText
 10
8.4375
 20
2.024591547338582
 30
0.0
 40
0.5
  1
$PN.$LUBE.I
100
AcDbAttributeDefinition
  3

  2
NBSYN
 70
     8
280
     0
  0
ATTDEF
  5
F9
330
F1
100
AcDbEntity
  8
AM_6
100
AcDbText
 10
8.4375
 20
1.524591547338582
 30
0.0
 40
0.5
  1
129473
100
AcDbAttributeDefinition
  3

  2
LINA
 70
     8
280
     0
  0
ATTDEF
  5
FA
330
F1
100
AcDbEntity
  8
AM_6
100
AcDbText
 10
8.4375
 20
1.024591547338582
 30
0.0
 40
0.5
  1
212
100
AcDbAttributeDefinition
  3

  2
SERIES
 70
     8
280
     0
  0
ATTDEF
  5
FB
330
F1
100
AcDbEntity
  8
AM_6
100
AcDbText
 10
8.4375
 20
0.5245915473385825
 30
0.0
 40
0.5
  1
4.3307
100
AcDbAttributeDefinition
  3

  2
BOD
 70
     8
280
     0
  0
ATTDEF
  5
FC
330
F1
100
AcDbEntity
  8
AM_6
100
AcDbText
 10
8.4375
 20
0.0245915473385825
 30
0.0
 40
0.5
  1
129473
100
AcDbAttributeDefinition
  3

  2
PN
 70
     8
280
     0
  0
ATTDEF
  5
FD
330
F1
100
AcDbEntity
  8
AM_6
100
AcDbText
 10
8.4375
 20
-0.4754084526614175
 30
0.0
 40
0.5
  1
F4B-GT-12
100
AcDbAttributeDefinition
  3

  2
DESCRIPTION
 70
     8
280
     0
  0
ATTDEF
  5
FE
330
F1
100
AcDbEntity
  8
AM_6
100
AcDbText
 10
8.4375
 20
-0.9754084526614175
 30
0.0
 40
0.5
  1
With Lube
100
AcDbAttributeDefinition
  3

  2
LUBE
 70
     8
280
     0
  0
ATTDEF
  5
FF
330
F1
100
AcDbEntity
  8
AM_6
100
AcDbText
 10
8.4375
 20
-1.475408452661418
 30
0.0
 40
0.5
  1
11.9
100
AcDbAttributeDefinition
  3

  2
WEIGHT
 70
     8
280
     0
  0
ATTDEF
  5
100
330
F1
100
AcDbEntity
  8
AM_6
100
AcDbText
 10
8.4375
 20
-1.975408452661418
 30
0.0
 40
0.5
  1
2-7/64
100
AcDbAttributeDefinition
  3

  2
A
 70
     8
280
     0
  0
ATTDEF
  5
101
330
F1
100
AcDbEntity
  8
AM_6
100
AcDbText
 10
8.4375
 20
-2.475408452661418
 30
0.0
 40
0.5
  1
2.1094
100
AcDbAttributeDefinition
  3

  2
A1
 70
     8
280
     0
  0
ATTDEF
  5
102
330
F1
100
AcDbEntity
  8
AM_6
100
AcDbText
 10
8.4375
 20
-2.975408452661418
 30
0.0
 40
0.5
  1
6-7/8
100
AcDbAttributeDefinition
  3

  2
B
 70
     8
280
     0
  0
ATTDEF
  5
103
330
F1
100
AcDbEntity
  8
AM_6
100
AcDbText
 10
8.4375
 20
-3.475408452661418
 30
0.0
 40
0.5
  1
6.875
100
AcDbAttributeDefinition
  3

  2
B1
 70
     8
280
     0
  0
ATTDEF
  5
104
330
F1
100
AcDbEntity
  8
AM_6
100
AcDbText
 10
8.4375
 20
-3.975408452661418
 30
0.0
 40
0.5
  1
2-5/16
100
AcDbAttributeDefinition
  3

  2
C
 70
     8
280
     0
  0
ATTDEF
  5
105
330
F1
100
AcDbEntity
  8
AM_6
100
AcDbText
 10
8.4375
 20
-4.475408452661418
 30
0.0
 40
0.5
  1
2.313
100
AcDbAttributeDefinition
  3

  2
C1
 70
     8
280
     0
  0
ATTDEF
  5
106
330
F1
100
AcDbEntity
  8
AM_6
100
AcDbText
 10
8.4375
 20
-4.975408452661418
 30
0.0
 40
0.5
  1
5-5/8
100
AcDbAttributeDefinition
  3

  2
D
 70
     8
280
     0
  0
ATTDEF
  5
107
330
F1
100
AcDbEntity
  8
AM_6
100
AcDbText
 10
8.4375
 20
-5.475408452661418
 30
0.0
 40
0.5
  1
5.625
100
AcDbAttributeDefinition
  3

  2
D1
 70
     8
280
     0
  0
ATTDEF
  5
108
330
F1
100
AcDbEntity
  8
AM_6
100
AcDbText
 10
8.4375
 20
-5.975408452661418
 30
0.0
 40
0.5
  1
5/8
100
AcDbAttributeDefinition
  3

  2
F
 70
     8
280
     0
  0
ATTDEF
  5
109
330
F1
100
AcDbEntity
  8
AM_6
100
AcDbText
 10
8.4375
 20
-6.475408452661418
 30
0.0
 40
0.5
  1
0.625
100
AcDbAttributeDefinition
  3

  2
F1
 70
     8
280
     0
  0
ATTDEF
  5
10A
330
F1
100
AcDbEntity
  8
AM_6
100
AcDbText
 10
8.4375
 20
-6.975408452661418
 30
0.0
 40
0.5
  1
11/16
100
AcDbAttributeDefinition
  3

  2
H
 70
     8
280
     0
  0
ATTDEF
  5
10B
330
F1
100
AcDbEntity
  8
AM_6
100
AcDbText
 10
8.4375
 20
-7.475408452661418
 30
0.0
 40
0.5
  1
0.688
100
AcDbAttributeDefinition
  3

  2
H1
 70
     8
280
     0
  0
ATTDEF
  5
10C
330
F1
100
AcDbEntity
  8
AM_6
100
AcDbText
 10
8.4375
 20
-7.975408452661418
 30
0.0
 40
0.5
  1
9/16
100
AcDbAttributeDefinition
  3

  2
J
 70
     8
280
     0
  0
ATTDEF
  5
10D
330
F1
100
AcDbEntity
  8
AM_6
100
AcDbText
 10
8.4375
 20
-8.475408452661418
 30
0.0
 40
0.5
  1
0.563
100
AcDbAttributeDefinition
  3

  2
J1
 70
     8
280
     0
  0
ATTDEF
  5
10E
330
F1
100
AcDbEntity
  8
AM_6
100
AcDbText
 10
8.4375
 20
-8.975408452661418
 30
0.0
 40
0.5
  1
3-1/2
100
AcDbAttributeDefinition
  3

  2
L
 70
     8
280
     0
  0
ATTDEF
  5
10F
330
F1
100
AcDbEntity
  8
AM_6
100
AcDbText
 10
8.4375
 20
-9.475408452661418
 30
0.0
 40
0.5
  1
3.500
100
AcDbAttributeDefinition
  3

  2
L1
 70
     8
280
     0
  0
ATTDEF
  5
110
330
F1
100
AcDbEntity
  8
AM_6
100
AcDbText
 10
8.4375
 20
-9.975408452661418
 30
0.0
 40
0.5
  1
3-1/2
100
AcDbAttributeDefinition
  3

  2
N
 70
     8
280
     0
  0
ATTDEF
  5
111
330
F1
100
AcDbEntity
  8
AM_6
100
AcDbText
 10
8.4375
 20
-10.47540845266142
 30
0.0
 40
0.5
  1
3.500
100
AcDbAttributeDefinition
  3

  2
N1
 70
     8
280
     0
  0
ATTDEF
  5
112
330
F1
100
AcDbEntity
  8
AM_6
100
AcDbText
 10
8.4375
 20
-10.97540845266142
 30
0.0
 40
0.5
  1
2-9/32
100
AcDbAttributeDefinition
  3

  2
Z
 70
     8
280
     0
  0
ATTDEF
  5
113
330
F1
100
AcDbEntity
  8
AM_6
100
AcDbText
 10
8.4375
 20
-11.47540845266142
 30
0.0
 40
0.5
  1
2.281
100
AcDbAttributeDefinition
  3

  2
Z1
 70
     8
280
     0
  0
ATTDEF
  5
114
330
F1
100
AcDbEntity
  8
AM_6
100
AcDbText
 10
8.4375
 20
-11.97540845266142
 30
0.0
 40
0.5
  1
Infotext
100
AcDbAttributeDefinition
  3

  2
INFO
 70
     8
280
     0
  0
ATTDEF
  5
115
330
F1
100
AcDbEntity
  8
AM_6
100
AcDbText
 10
8.4375
 20
-12.47540845266142
 30
0.0
 40
0.5
  1
baldor
100
AcDbAttributeDefinition
  3

  2
COMPANY
 70
     8
280
     0
  0
LINE
  5
116
330
F1
100
AcDbEntity
  8
AM_9
100
AcDbLine
 10
0.1037401613604313
 20
3.4375
 30
0.0
 11
-0.1037401613604313
 21
3.4375
 31
0.0
  0
LINE
  5
119
330
F1
100
AcDbEntity
  8
AM_7
100
AcDbLine
 10
-3.140625
 20
2.8125
 30
0.0
 11
-2.484375
 21
2.8125
 31
0.0
  0
LINE
  5
11A
330
F1
100
AcDbEntity
  8
AM_7
100
AcDbLine
 10
-2.8125
 20
2.484375
 30
0.0
 11
-2.8125
 21
3.140625
 31
0.0
  0
LINE
  5
11B
330
F1
100
AcDbEntity
  8
AM_7
100
AcDbLine
 10
2.484375
 20
2.8125
 30
0.0
 11
3.140625
 21
2.8125
 31
0.0
  0
LINE
  5
11C
330
F1
100
AcDbEntity
  8
AM_7
100
AcDbLine
 10
2.8125
 20
2.484375
 30
0.0
 11
2.8125
 21
3.140625
 31
0.0
  0
LINE
  5
11D
330
F1
100
AcDbEntity
  8
AM_7
100
AcDbLine
 10
2.484375
 20
-2.8125
 30
0.0
 11
3.140625
 21
-2.8125
 31
0.0
  0
LINE
  5
11E
330
F1
100
AcDbEntity
  8
AM_7
100
AcDbLine
 10
2.8125
 20
-3.140625
 30
0.0
 11
2.8125
 21
-2.484375
 31
0.0
  0
LINE
  5
11F
330
F1
100
AcDbEntity
  8
AM_7
100
AcDbLine
 10
-3.140625
 20
-2.8125
 30
0.0
 11
-2.484375
 21
-2.8125
 31
0.0
  0
LINE
  5
120
330
F1
100
AcDbEntity
  8
AM_7
100
AcDbLine
 10
-2.8125
 20
-3.140625
 30
0.0
 11
-2.8125
 21
-2.484375
 31
0.0
  0
LINE
  5
121
330
F1
100
AcDbEntity
  8
AM_7
100
AcDbLine
 10
-2.273617500000001
 20
0.0
 30
0.0
 11
2.273617500000001
 21
0.0
 31
0.0
  0
LINE
  5
122
330
F1
100
AcDbEntity
  8
AM_7
100
AcDbLine
 10
0.0
 20
-2.273617500000001
 30
0.0
 11
0.0
 21
2.273617500000001
 31
0.0
  0
LINE
  5
123
330
F1
100
AcDbEntity
  8
AM_7
100
AcDbLine
 10
0.0
 20
3.524591547338582
 30
0.0
 11
0.0
 21
2.983577755338582
 31
0.0
  0
LINE
  5
124
330
F1
100
AcDbEntity
  8
AM_4
100
AcDbLine
 10
-0.2525223706000493
 20
-3.282894622799989
 30
0.0
 11
-0.2617050191000226
 21
-3.288721525499982
 31
0.0
  0
LINE
  5
125
330
F1
100
AcDbEntity
  8
AM_4
100
AcDbLine
 10
-0.2617050191000226
 20
-3.288721525499982
 30
0.0
 11
-0.2739485216999935
 21
-3.291634975599993
 31
0.0
  0
LINE
  5
126
330
F1
100
AcDbEntity
  8
AM_4
100
AcDbLine
 10
-0.3290443050000261
 20
-3.18966423
 30
0.0
 11
-0.2739485216999935
 21
-3.18966423
 31
0.0
  0
LINE
  5
127
330
F1
100
AcDbEntity
  8
AM_4
100
AcDbLine
 10
-0.3290443050000261
 20
-3.291634975599993
 30
0.0
 11
-0.3290443050000261
 21
-3.18966423
 31
0.0
  0
LINE
  5
128
330
F1
100
AcDbEntity
  8
AM_4
100
AcDbLine
 10
-0.2739485216999935
 20
-3.18966423
 30
0.0
 11
-0.2617050191000226
 21
-3.19257768
 31
0.0
  0
LINE
  5
129
330
F1
100
AcDbEntity
  8
AM_4
100
AcDbLine
 10
-0.2617050191000226
 20
-3.19257768
 30
0.0
 11
-0.2525223706000493
 21
-3.19840458
 31
0.0
  0
LINE
  5
12A
330
F1
100
AcDbEntity
  8
AM_4
100
AcDbLine
 10
-0.2525223706000493
 20
-3.19840458
 30
0.0
 11
-0.2464006193000068
 21
-3.20714493
 31
0.0
  0
LINE
  5
12B
330
F1
100
AcDbEntity
  8
AM_4
100
AcDbLine
 10
-0.2464006193000068
 20
-3.20714493
 30
0.0
 11
-0.2433397436000182
 21
-3.21879873
 31
0.0
  0
LINE
  5
12C
330
F1
100
AcDbEntity
  8
AM_4
100
AcDbLine
 10
-0.2433397436000182
 20
-3.21879873
 30
0.0
 11
-0.2433397436000182
 21
-3.262500475300004
 31
0.0
  0
LINE
  5
12D
330
F1
100
AcDbEntity
  8
AM_4
100
AcDbLine
 10
-0.2433397436000182
 20
-3.262500475300004
 30
0.0
 11
-0.2464006193000068
 21
-3.274154275399996
 31
0.0
  0
LINE
  5
12E
330
F1
100
AcDbEntity
  8
AM_4
100
AcDbLine
 10
-0.2464006193000068
 20
-3.274154275399996
 30
0.0
 11
-0.2525223706000493
 21
-3.282894622799989
 31
0.0
  0
LINE
  5
12F
330
F1
100
AcDbEntity
  8
AM_4
100
AcDbLine
 10
-0.2739485216999935
 20
-3.291634975599993
 30
0.0
 11
-0.3290443050000261
 21
-3.291634975599993
 31
0.0
  0
LINE
  5
130
330
F1
100
AcDbEntity
  8
AM_4
100
AcDbLine
 10
-0.035200086200065
 20
-3.291634975599993
 30
0.0
 11
-0.035200086200065
 21
-3.18966423
 31
0.0
  0
LINE
  5
131
330
F1
100
AcDbEntity
  8
AM_4
100
AcDbLine
 10
-0.035200086200065
 20
-3.18966423
 30
0.0
 11
0.01989571
 21
-3.18966423
 31
0.0
  0
LINE
  5
132
330
F1
100
AcDbEntity
  8
AM_4
100
AcDbLine
 10
0.01989571
 20
-3.18966423
 30
0.0
 11
0.03213922
 21
-3.19257768
 31
0.0
  0
LINE
  5
133
330
F1
100
AcDbEntity
  8
AM_4
100
AcDbLine
 10
0.03213922
 20
-3.19257768
 30
0.0
 11
0.04132185
 21
-3.19840458
 31
0.0
  0
LINE
  5
134
330
F1
100
AcDbEntity
  8
AM_4
100
AcDbLine
 10
0.04132185
 20
-3.19840458
 30
0.0
 11
0.04744361
 21
-3.20714493
 31
0.0
  0
LINE
  5
135
330
F1
100
AcDbEntity
  8
AM_4
100
AcDbLine
 10
0.04744361
 20
-3.20714493
 30
0.0
 11
0.05050448
 21
-3.21879873
 31
0.0
  0
LINE
  5
136
330
F1
100
AcDbEntity
  8
AM_4
100
AcDbLine
 10
0.05050448
 20
-3.21879873
 30
0.0
 11
0.05050448
 21
-3.262500475300004
 31
0.0
  0
LINE
  5
137
330
F1
100
AcDbEntity
  8
AM_4
100
AcDbLine
 10
0.05050448
 20
-3.262500475300004
 30
0.0
 11
0.04744361
 21
-3.274154275399996
 31
0.0
  0
LINE
  5
138
330
F1
100
AcDbEntity
  8
AM_4
100
AcDbLine
 10
0.04744361
 20
-3.274154275399996
 30
0.0
 11
0.04132185
 21
-3.282894622799989
 31
0.0
  0
LINE
  5
139
330
F1
100
AcDbEntity
  8
AM_4
100
AcDbLine
 10
0.04132185
 20
-3.282894622799989
 30
0.0
 11
0.03213922
 21
-3.288721525499982
 31
0.0
  0
LINE
  5
13A
330
F1
100
AcDbEntity
  8
AM_4
100
AcDbLine
 10
0.03213922
 20
-3.288721525499982
 30
0.0
 11
0.01989571
 21
-3.291634975599993
 31
0.0
  0
LINE
  5
13B
330
F1
100
AcDbEntity
  8
AM_4
100
AcDbLine
 10
0.01989571
 20
-3.291634975599993
 30
0.0
 11
-0.035200086200065
 21
-3.291634975599993
 31
0.0
  0
LINE
  5
13C
330
F1
100
AcDbEntity
  8
AM_4
100
AcDbLine
 10
-0.1729395605000277
 20
-3.19840458
 30
0.0
 11
-0.1637569336000434
 21
-3.19257768
 31
0.0
  0
LINE
  5
13D
330
F1
100
AcDbEntity
  8
AM_4
100
AcDbLine
 10
-0.1790613334000591
 20
-3.20714493
 30
0.0
 11
-0.1729395605000277
 21
-3.19840458
 31
0.0
  0
LINE
  5
13E
330
F1
100
AcDbEntity
  8
AM_4
100
AcDbLine
 10
-0.1270264042000257
 20
-3.18966423
 30
0.0
 11
-0.1147829015999969
 21
-3.19257768
 31
0.0
  0
LINE
  5
13F
330
F1
100
AcDbEntity
  8
AM_4
100
AcDbLine
 10
-0.1637569336000434
 20
-3.19257768
 30
0.0
 11
-0.1515134310000146
 21
-3.18966423
 31
0.0
  0
LINE
  5
140
330
F1
100
AcDbEntity
  8
AM_4
100
AcDbLine
 10
-0.1515134310000146
 20
-3.18966423
 30
0.0
 11
-0.1270264042000257
 21
-3.18966423
 31
0.0
  0
LINE
  5
141
330
F1
100
AcDbEntity
  8
AM_4
100
AcDbLine
 10
-0.1821222090000572
 20
-3.21879873
 30
0.0
 11
-0.1790613334000591
 21
-3.20714493
 31
0.0
  0
LINE
  5
142
330
F1
100
AcDbEntity
  8
AM_4
100
AcDbLine
 10
-0.1821222090000572
 20
-3.262500475300004
 30
0.0
 11
-0.1821222090000572
 21
-3.21879873
 31
0.0
  0
LINE
  5
143
330
F1
100
AcDbEntity
  8
AM_4
100
AcDbLine
 10
-0.1790613334000591
 20
-3.274154275399996
 30
0.0
 11
-0.1821222090000572
 21
-3.262500475300004
 31
0.0
  0
LINE
  5
144
330
F1
100
AcDbEntity
  8
AM_4
100
AcDbLine
 10
-0.1729395605000277
 20
-3.282894622799989
 30
0.0
 11
-0.1790613334000591
 21
-3.274154275399996
 31
0.0
  0
LINE
  5
145
330
F1
100
AcDbEntity
  8
AM_4
100
AcDbLine
 10
-0.1637569336000434
 20
-3.288721525499982
 30
0.0
 11
-0.1729395605000277
 21
-3.282894622799989
 31
0.0
  0
LINE
  5
146
330
F1
100
AcDbEntity
  8
AM_4
100
AcDbLine
 10
-0.1515134310000146
 20
-3.291634975599993
 30
0.0
 11
-0.1637569336000434
 21
-3.288721525499982
 31
0.0
  0
LINE
  5
147
330
F1
100
AcDbEntity
  8
AM_4
100
AcDbLine
 10
-0.1270264042000257
 20
-3.291634975599993
 30
0.0
 11
-0.1515134310000146
 21
-3.291634975599993
 31
0.0
  0
LINE
  5
148
330
F1
100
AcDbEntity
  8
AM_4
100
AcDbLine
 10
-0.1147829015999969
 20
-3.288721525499982
 30
0.0
 11
-0.1270264042000257
 21
-3.291634975599993
 31
0.0
  0
LINE
  5
149
330
F1
100
AcDbEntity
  8
AM_4
100
AcDbLine
 10
-0.1056002639000449
 20
-3.282894622799989
 30
0.0
 11
-0.1147829015999969
 21
-3.288721525499982
 31
0.0
  0
LINE
  5
14A
330
F1
100
AcDbEntity
  8
AM_4
100
AcDbLine
 10
-0.0994785126000024
 20
-3.274154275399996
 30
0.0
 11
-0.1056002639000449
 21
-3.282894622799989
 31
0.0
  0
LINE
  5
14B
330
F1
100
AcDbEntity
  8
AM_4
100
AcDbLine
 10
-0.0964176369000162
 20
-3.262500475300004
 30
0.0
 11
-0.0994785126000024
 21
-3.274154275399996
 31
0.0
  0
LINE
  5
14C
330
F1
100
AcDbEntity
  8
AM_4
100
AcDbLine
 10
-0.0964176369000162
 20
-3.21879873
 30
0.0
 11
-0.0964176369000162
 21
-3.262500475300004
 31
0.0
  0
LINE
  5
14D
330
F1
100
AcDbEntity
  8
AM_4
100
AcDbLine
 10
-0.0994785126000024
 20
-3.20714493
 30
0.0
 11
-0.0964176369000162
 21
-3.21879873
 31
0.0
  0
LINE
  5
14E
330
F1
100
AcDbEntity
  8
AM_4
100
AcDbLine
 10
-0.1056002639000449
 20
-3.19840458
 30
0.0
 11
-0.0994785126000024
 21
-3.20714493
 31
0.0
  0
LINE
  5
14F
330
F1
100
AcDbEntity
  8
AM_4
100
AcDbLine
 10
-0.1147829015999969
 20
-3.19257768
 30
0.0
 11
-0.1056002639000449
 21
-3.19840458
 31
0.0
  0
LINE
  5
150
330
F1
100
AcDbEntity
  8
AM_4
100
AcDbLine
 10
-0.347409580399984
 20
-3.17218353
 30
0.0
 11
-0.2739485216999935
 21
-3.17218353
 31
0.0
  0
LINE
  5
151
330
F1
100
AcDbEntity
  8
AM_4
100
AcDbLine
 10
-0.258644143400034
 20
-3.306202220400012
 30
0.0
 11
-0.2739485216999935
 21
-3.309115670400006
 31
0.0
  0
LINE
  5
152
330
F1
100
AcDbEntity
  8
AM_4
100
AcDbLine
 10
0.18518309
 20
-3.306202220400012
 30
0.0
 11
0.1698787
 21
-3.309115670400006
 31
0.0
  0
LINE
  5
153
330
F1
100
AcDbEntity
  8
AM_4
100
AcDbLine
 10
-0.2464006193000068
 20
-3.300375320300009
 30
0.0
 11
-0.258644143400034
 21
-3.306202220400012
 31
0.0
  0
LINE
  5
154
330
F1
100
AcDbEntity
  8
AM_4
100
AcDbLine
 10
-0.234157116700034
 20
-3.288721525499982
 30
0.0
 11
-0.2464006193000068
 21
-3.300375320300009
 31
0.0
  0
LINE
  5
155
330
F1
100
AcDbEntity
  8
AM_4
100
AcDbLine
 10
-0.2280353653999914
 20
-3.27706772539999
 30
0.0
 11
-0.234157116700034
 21
-3.288721525499982
 31
0.0
  0
LINE
  5
156
330
F1
100
AcDbEntity
  8
AM_4
100
AcDbLine
 10
-0.347409580399984
 20
-3.309115670400006
 30
0.0
 11
-0.347409580399984
 21
-3.17218353
 31
0.0
  0
LINE
  5
157
330
F1
100
AcDbEntity
  8
AM_4
100
AcDbLine
 10
-0.2739485216999935
 20
-3.309115670400006
 30
0.0
 11
-0.347409580399984
 21
-3.309115670400006
 31
0.0
  0
LINE
  5
158
330
F1
100
AcDbEntity
  8
AM_4
100
AcDbLine
 10
-0.2739485216999935
 20
-3.17218353
 30
0.0
 11
-0.2586441434000339
 21
-3.175096980000001
 31
0.0
  0
LINE
  5
159
330
F1
100
AcDbEntity
  8
AM_4
100
AcDbLine
 10
-0.2586441434000339
 20
-3.175096980000001
 30
0.0
 11
-0.2464006193000068
 21
-3.18092388
 31
0.0
  0
LINE
  5
15A
330
F1
100
AcDbEntity
  8
AM_4
100
AcDbLine
 10
-0.2464006193000068
 20
-3.18092388
 30
0.0
 11
-0.234157116700034
 21
-3.19257768
 31
0.0
  0
LINE
  5
15B
330
F1
100
AcDbEntity
  8
AM_4
100
AcDbLine
 10
-0.234157116700034
 20
-3.19257768
 30
0.0
 11
-0.2280353653999914
 21
-3.20423148
 31
0.0
  0
LINE
  5
15C
330
F1
100
AcDbEntity
  8
AM_4
100
AcDbLine
 10
-0.2280353653999914
 20
-3.20423148
 30
0.0
 11
-0.2249744897000611
 21
-3.21879873
 31
0.0
  0
LINE
  5
15D
330
F1
100
AcDbEntity
  8
AM_4
100
AcDbLine
 10
-0.2249744897000611
 20
-3.21879873
 30
0.0
 11
-0.2249744897000611
 21
-3.262500475300004
 31
0.0
  0
LINE
  5
15E
330
F1
100
AcDbEntity
  8
AM_4
100
AcDbLine
 10
-0.2249744897000611
 20
-3.262500475300004
 30
0.0
 11
-0.2280353653999914
 21
-3.27706772539999
 31
0.0
  0
LINE
  5
15F
330
F1
100
AcDbEntity
  8
AM_4
100
AcDbLine
 10
-0.2004874629000166
 20
-3.262500475300004
 30
0.0
 11
-0.2004874629000166
 21
-3.21879873
 31
0.0
  0
LINE
  5
160
330
F1
100
AcDbEntity
  8
AM_4
100
AcDbLine
 10
-0.2004874629000166
 20
-3.21879873
 30
0.0
 11
-0.1974265873000162
 21
-3.20423148
 31
0.0
  0
LINE
  5
161
330
F1
100
AcDbEntity
  8
AM_4
100
AcDbLine
 10
-0.1974265873000162
 20
-3.20423148
 30
0.0
 11
-0.1913048360000301
 21
-3.192577680000001
 31
0.0
  0
LINE
  5
162
330
F1
100
AcDbEntity
  8
AM_4
100
AcDbLine
 10
-0.1913048360000301
 20
-3.192577680000001
 30
0.0
 11
-0.1790613334000591
 21
-3.18092388
 31
0.0
  0
LINE
  5
163
330
F1
100
AcDbEntity
  8
AM_4
100
AcDbLine
 10
-0.1790613334000591
 20
-3.18092388
 30
0.0
 11
-0.1668178092000414
 21
-3.17509698
 31
0.0
  0
LINE
  5
164
330
F1
100
AcDbEntity
  8
AM_4
100
AcDbLine
 10
-0.1668178092000414
 20
-3.17509698
 30
0.0
 11
-0.1515134310000146
 21
-3.17218353
 31
0.0
  0
LINE
  5
165
330
F1
100
AcDbEntity
  8
AM_4
100
AcDbLine
 10
-0.1515134310000146
 20
-3.17218353
 30
0.0
 11
-0.1270264042000257
 21
-3.17218353
 31
0.0
  0
LINE
  5
166
330
F1
100
AcDbEntity
  8
AM_4
100
AcDbLine
 10
-0.1270264042000257
 20
-3.17218353
 30
0.0
 11
-0.1117220152000316
 21
-3.17509698
 31
0.0
  0
LINE
  5
167
330
F1
100
AcDbEntity
  8
AM_4
100
AcDbLine
 10
-0.1117220152000316
 20
-3.17509698
 30
0.0
 11
-0.0994785126000024
 21
-3.18092388
 31
0.0
  0
LINE
  5
168
330
F1
100
AcDbEntity
  8
AM_4
100
AcDbLine
 10
-0.0994785126000024
 20
-3.18092388
 30
0.0
 11
-0.0872349992000083
 21
-3.19257768
 31
0.0
  0
LINE
  5
169
330
F1
100
AcDbEntity
  8
AM_4
100
AcDbLine
 10
-0.0872349992000083
 20
-3.19257768
 30
0.0
 11
-0.0811132479000217
 21
-3.20423148
 31
0.0
  0
LINE
  5
16A
330
F1
100
AcDbEntity
  8
AM_4
100
AcDbLine
 10
-0.0811132479000217
 20
-3.20423148
 30
0.0
 11
-0.0780523722000355
 21
-3.21879873
 31
0.0
  0
LINE
  5
16B
330
F1
100
AcDbEntity
  8
AM_4
100
AcDbLine
 10
-0.0780523722000355
 20
-3.21879873
 30
0.0
 11
-0.0780523722000355
 21
-3.262500475300004
 31
0.0
  0
LINE
  5
16C
330
F1
100
AcDbEntity
  8
AM_4
100
AcDbLine
 10
-0.0780523722000355
 20
-3.262500475300004
 30
0.0
 11
-0.0811132479000217
 21
-3.27706772539999
 31
0.0
  0
LINE
  5
16D
330
F1
100
AcDbEntity
  8
AM_4
100
AcDbLine
 10
-0.0811132479000217
 20
-3.27706772539999
 30
0.0
 11
-0.0872349992000083
 21
-3.288721525499982
 31
0.0
  0
LINE
  5
16E
330
F1
100
AcDbEntity
  8
AM_4
100
AcDbLine
 10
-0.0872349992000083
 20
-3.288721525499982
 30
0.0
 11
-0.0994785126000024
 21
-3.300375320300009
 31
0.0
  0
LINE
  5
16F
330
F1
100
AcDbEntity
  8
AM_4
100
AcDbLine
 10
-0.0994785126000024
 20
-3.300375320300009
 30
0.0
 11
-0.1117220152000316
 21
-3.306202220400012
 31
0.0
  0
LINE
  5
170
330
F1
100
AcDbEntity
  8
AM_4
100
AcDbLine
 10
-0.1117220152000316
 20
-3.306202220400012
 30
0.0
 11
-0.1270264042000257
 21
-3.309115670400006
 31
0.0
  0
LINE
  5
171
330
F1
100
AcDbEntity
  8
AM_4
100
AcDbLine
 10
-0.1270264042000257
 20
-3.309115670400006
 30
0.0
 11
-0.1515134310000146
 21
-3.309115670400006
 31
0.0
  0
LINE
  5
172
330
F1
100
AcDbEntity
  8
AM_4
100
AcDbLine
 10
-0.1515134310000146
 20
-3.309115670400006
 30
0.0
 11
-0.1668178092000414
 21
-3.306202220400012
 31
0.0
  0
LINE
  5
173
330
F1
100
AcDbEntity
  8
AM_4
100
AcDbLine
 10
-0.1668178092000414
 20
-3.306202220400012
 30
0.0
 11
-0.1790613334000591
 21
-3.300375320300009
 31
0.0
  0
LINE
  5
174
330
F1
100
AcDbEntity
  8
AM_4
100
AcDbLine
 10
-0.1790613334000591
 20
-3.300375320300009
 30
0.0
 11
-0.19130483600003
 21
-3.288721525499982
 31
0.0
  0
LINE
  5
175
330
F1
100
AcDbEntity
  8
AM_4
100
AcDbLine
 10
-0.19130483600003
 20
-3.288721525499982
 30
0.0
 11
-0.1974265873000162
 21
-3.27706772539999
 31
0.0
  0
LINE
  5
176
330
F1
100
AcDbEntity
  8
AM_4
100
AcDbLine
 10
-0.1974265873000162
 20
-3.27706772539999
 30
0.0
 11
-0.2004874629000166
 21
-3.262500475300004
 31
0.0
  0
LINE
  5
177
330
F1
100
AcDbEntity
  8
AM_4
100
AcDbLine
 10
0.01989571
 20
-3.309115670400006
 30
0.0
 11
-0.0535653508999878
 21
-3.309115670400006
 31
0.0
  0
LINE
  5
178
330
F1
100
AcDbEntity
  8
AM_4
100
AcDbLine
 10
-0.0535653508999878
 20
-3.309115670400006
 30
0.0
 11
-0.0535653508999878
 21
-3.17218353
 31
0.0
  0
LINE
  5
179
330
F1
100
AcDbEntity
  8
AM_4
100
AcDbLine
 10
-0.0535653508999878
 20
-3.17218353
 30
0.0
 11
0.01989571
 21
-3.17218353
 31
0.0
  0
LINE
  5
17A
330
F1
100
AcDbEntity
  8
AM_4
100
AcDbLine
 10
0.01989571
 20
-3.17218353
 30
0.0
 11
0.0352001
 21
-3.17509698
 31
0.0
  0
LINE
  5
17B
330
F1
100
AcDbEntity
  8
AM_4
100
AcDbLine
 10
0.0352001
 20
-3.17509698
 30
0.0
 11
0.04744361
 21
-3.18092388
 31
0.0
  0
LINE
  5
17C
330
F1
100
AcDbEntity
  8
AM_4
100
AcDbLine
 10
0.04744361
 20
-3.18092388
 30
0.0
 11
0.05968711
 21
-3.19257768
 31
0.0
  0
LINE
  5
17D
330
F1
100
AcDbEntity
  8
AM_4
100
AcDbLine
 10
0.05968711
 20
-3.19257768
 30
0.0
 11
0.06580887
 21
-3.20423148
 31
0.0
  0
LINE
  5
17E
330
F1
100
AcDbEntity
  8
AM_4
100
AcDbLine
 10
0.06580887
 20
-3.20423148
 30
0.0
 11
0.06886975
 21
-3.21879873
 31
0.0
  0
LINE
  5
17F
330
F1
100
AcDbEntity
  8
AM_4
100
AcDbLine
 10
0.06886975
 20
-3.21879873
 30
0.0
 11
0.06886975
 21
-3.262500475300004
 31
0.0
  0
LINE
  5
180
330
F1
100
AcDbEntity
  8
AM_4
100
AcDbLine
 10
0.06886975
 20
-3.262500475300004
 30
0.0
 11
0.06580887
 21
-3.27706772539999
 31
0.0
  0
LINE
  5
181
330
F1
100
AcDbEntity
  8
AM_4
100
AcDbLine
 10
0.06580887
 20
-3.27706772539999
 30
0.0
 11
0.05968711
 21
-3.288721525499982
 31
0.0
  0
LINE
  5
182
330
F1
100
AcDbEntity
  8
AM_4
100
AcDbLine
 10
0.05968711
 20
-3.288721525499982
 30
0.0
 11
0.04744361
 21
-3.300375320300009
 31
0.0
  0
LINE
  5
183
330
F1
100
AcDbEntity
  8
AM_4
100
AcDbLine
 10
0.04744361
 20
-3.300375320300009
 30
0.0
 11
0.0352001
 21
-3.306202220400012
 31
0.0
  0
LINE
  5
184
330
F1
100
AcDbEntity
  8
AM_4
100
AcDbLine
 10
0.0352001
 20
-3.306202220400012
 30
0.0
 11
0.01989571
 21
-3.309115670400006
 31
0.0
  0
LINE
  5
185
330
F1
100
AcDbEntity
  8
AM_4
100
AcDbLine
 10
0.09335677
 20
-3.262500475300004
 30
0.0
 11
0.09335677
 21
-3.21879873
 31
0.0
  0
LINE
  5
186
330
F1
100
AcDbEntity
  8
AM_4
100
AcDbLine
 10
0.09335677
 20
-3.21879873
 30
0.0
 11
0.09641765
 21
-3.20423148
 31
0.0
  0
LINE
  5
187
330
F1
100
AcDbEntity
  8
AM_4
100
AcDbLine
 10
0.09641765
 20
-3.20423148
 30
0.0
 11
0.1025394000000001
 21
-3.19257768
 31
0.0
  0
LINE
  5
188
330
F1
100
AcDbEntity
  8
AM_4
100
AcDbLine
 10
0.1025394000000001
 20
-3.19257768
 30
0.0
 11
0.11478291
 21
-3.18092388
 31
0.0
  0
LINE
  5
189
330
F1
100
AcDbEntity
  8
AM_4
100
AcDbLine
 10
0.11478291
 20
-3.18092388
 30
0.0
 11
0.12702642
 21
-3.17509698
 31
0.0
  0
LINE
  5
18A
330
F1
100
AcDbEntity
  8
AM_4
100
AcDbLine
 10
0.12702642
 20
-3.17509698
 30
0.0
 11
0.14233081
 21
-3.17218353
 31
0.0
  0
LINE
  5
18B
330
F1
100
AcDbEntity
  8
AM_4
100
AcDbLine
 10
0.14233081
 20
-3.17218353
 30
0.0
 11
0.1698787
 21
-3.17218353
 31
0.0
  0
LINE
  5
18C
330
F1
100
AcDbEntity
  8
AM_4
100
AcDbLine
 10
0.1698787
 20
-3.17218353
 30
0.0
 11
0.18518309
 21
-3.17509698
 31
0.0
  0
LINE
  5
18D
330
F1
100
AcDbEntity
  8
AM_4
100
AcDbLine
 10
0.18518309
 20
-3.17509698
 30
0.0
 11
0.19742659
 21
-3.18092388
 31
0.0
  0
LINE
  5
18E
330
F1
100
AcDbEntity
  8
AM_4
100
AcDbLine
 10
0.19742659
 20
-3.18092388
 30
0.0
 11
0.20967012
 21
-3.19257768
 31
0.0
  0
LINE
  5
18F
330
F1
100
AcDbEntity
  8
AM_4
100
AcDbLine
 10
0.20967012
 20
-3.19257768
 30
0.0
 11
0.21273099
 21
-3.20714493
 31
0.0
  0
LINE
  5
190
330
F1
100
AcDbEntity
  8
AM_4
100
AcDbLine
 10
0.21273099
 20
-3.20714493
 30
0.0
 11
0.19436572
 21
-3.20714493
 31
0.0
  0
LINE
  5
191
330
F1
100
AcDbEntity
  8
AM_4
100
AcDbLine
 10
0.19436572
 20
-3.20714493
 30
0.0
 11
0.19130484
 21
-3.19840458
 31
0.0
  0
LINE
  5
192
330
F1
100
AcDbEntity
  8
AM_4
100
AcDbLine
 10
0.19130484
 20
-3.19840458
 30
0.0
 11
0.18212221
 21
-3.19257768
 31
0.0
  0
LINE
  5
193
330
F1
100
AcDbEntity
  8
AM_4
100
AcDbLine
 10
0.18212221
 20
-3.19257768
 30
0.0
 11
0.1698787
 21
-3.18966423
 31
0.0
  0
LINE
  5
194
330
F1
100
AcDbEntity
  8
AM_4
100
AcDbLine
 10
0.1698787
 20
-3.18966423
 30
0.0
 11
0.14233081
 21
-3.18966423
 31
0.0
  0
LINE
  5
195
330
F1
100
AcDbEntity
  8
AM_4
100
AcDbLine
 10
0.14233081
 20
-3.18966423
 30
0.0
 11
0.13008729
 21
-3.19257768
 31
0.0
  0
LINE
  5
196
330
F1
100
AcDbEntity
  8
AM_4
100
AcDbLine
 10
0.13008729
 20
-3.19257768
 30
0.0
 11
0.12090467
 21
-3.19840458
 31
0.0
  0
LINE
  5
197
330
F1
100
AcDbEntity
  8
AM_4
100
AcDbLine
 10
0.12090467
 20
-3.19840458
 30
0.0
 11
0.11478291
 21
-3.20714493
 31
0.0
  0
LINE
  5
198
330
F1
100
AcDbEntity
  8
AM_4
100
AcDbLine
 10
0.11478291
 20
-3.20714493
 30
0.0
 11
0.11172203
 21
-3.21879873
 31
0.0
  0
LINE
  5
199
330
F1
100
AcDbEntity
  8
AM_4
100
AcDbLine
 10
0.11172203
 20
-3.21879873
 30
0.0
 11
0.11172203
 21
-3.262500475300004
 31
0.0
  0
LINE
  5
19A
330
F1
100
AcDbEntity
  8
AM_4
100
AcDbLine
 10
0.11172203
 20
-3.262500475300004
 30
0.0
 11
0.11478291
 21
-3.274154275399996
 31
0.0
  0
LINE
  5
19B
330
F1
100
AcDbEntity
  8
AM_4
100
AcDbLine
 10
0.11478291
 20
-3.274154275399996
 30
0.0
 11
0.12090467
 21
-3.282894622799989
 31
0.0
  0
LINE
  5
19C
330
F1
100
AcDbEntity
  8
AM_4
100
AcDbLine
 10
0.12090467
 20
-3.282894622799989
 30
0.0
 11
0.13008729
 21
-3.288721525499982
 31
0.0
  0
LINE
  5
19D
330
F1
100
AcDbEntity
  8
AM_4
100
AcDbLine
 10
0.13008729
 20
-3.288721525499982
 30
0.0
 11
0.14233081
 21
-3.291634975599993
 31
0.0
  0
LINE
  5
19E
330
F1
100
AcDbEntity
  8
AM_4
100
AcDbLine
 10
0.14233081
 20
-3.291634975599993
 30
0.0
 11
0.1698787
 21
-3.291634975599993
 31
0.0
  0
LINE
  5
19F
330
F1
100
AcDbEntity
  8
AM_4
100
AcDbLine
 10
0.1698787
 20
-3.291634975599993
 30
0.0
 11
0.18212221
 21
-3.288721525499982
 31
0.0
  0
LINE
  5
1A0
330
F1
100
AcDbEntity
  8
AM_4
100
AcDbLine
 10
0.18212221
 20
-3.288721525499982
 30
0.0
 11
0.19130484
 21
-3.282894622799989
 31
0.0
  0
LINE
  5
1A1
330
F1
100
AcDbEntity
  8
AM_4
100
AcDbLine
 10
0.19130484
 20
-3.282894622799989
 30
0.0
 11
0.19436572
 21
-3.274154275399996
 31
0.0
  0
LINE
  5
1A2
330
F1
100
AcDbEntity
  8
AM_4
100
AcDbLine
 10
0.19436572
 20
-3.274154275399996
 30
0.0
 11
0.19436572
 21
-3.250846675799993
 31
0.0
  0
LINE
  5
1A3
330
F1
100
AcDbEntity
  8
AM_4
100
AcDbLine
 10
0.19436572
 20
-3.250846675799993
 30
0.0
 11
0.16681783
 21
-3.250846675799993
 31
0.0
  0
LINE
  5
1A4
330
F1
100
AcDbEntity
  8
AM_4
100
AcDbLine
 10
0.16681783
 20
-3.250846675799993
 30
0.0
 11
0.16681783
 21
-3.23336598
 31
0.0
  0
LINE
  5
1A5
330
F1
100
AcDbEntity
  8
AM_4
100
AcDbLine
 10
0.16681783
 20
-3.23336598
 30
0.0
 11
0.21273099
 21
-3.23336598
 31
0.0
  0
LINE
  5
1A6
330
F1
100
AcDbEntity
  8
AM_4
100
AcDbLine
 10
0.21273099
 20
-3.23336598
 30
0.0
 11
0.21273099
 21
-3.27706772539999
 31
0.0
  0
LINE
  5
1A7
330
F1
100
AcDbEntity
  8
AM_4
100
AcDbLine
 10
0.21273099
 20
-3.27706772539999
 30
0.0
 11
0.20967012
 21
-3.288721525499982
 31
0.0
  0
LINE
  5
1A8
330
F1
100
AcDbEntity
  8
AM_4
100
AcDbLine
 10
0.20967012
 20
-3.288721525499982
 30
0.0
 11
0.19742659
 21
-3.300375320300009
 31
0.0
  0
LINE
  5
1A9
330
F1
100
AcDbEntity
  8
AM_4
100
AcDbLine
 10
0.19742659
 20
-3.300375320300009
 30
0.0
 11
0.18518309
 21
-3.306202220400012
 31
0.0
  0
LINE
  5
1AA
330
F1
100
AcDbEntity
  8
AM_4
100
AcDbLine
 10
0.1698787
 20
-3.309115670400006
 30
0.0
 11
0.14233081
 21
-3.309115670400006
 31
0.0
  0
LINE
  5
1AB
330
F1
100
AcDbEntity
  8
AM_4
100
AcDbLine
 10
0.14233081
 20
-3.309115670400006
 30
0.0
 11
0.12702642
 21
-3.306202220400012
 31
0.0
  0
LINE
  5
1AC
330
F1
100
AcDbEntity
  8
AM_4
100
AcDbLine
 10
0.12702642
 20
-3.306202220400012
 30
0.0
 11
0.11478291
 21
-3.300375320300009
 31
0.0
  0
LINE
  5
1AD
330
F1
100
AcDbEntity
  8
AM_4
100
AcDbLine
 10
0.11478291
 20
-3.300375320300009
 30
0.0
 11
0.1025394
 21
-3.288721525499982
 31
0.0
  0
LINE
  5
1AE
330
F1
100
AcDbEntity
  8
AM_4
100
AcDbLine
 10
0.1025394
 20
-3.288721525499982
 30
0.0
 11
0.09641765
 21
-3.27706772539999
 31
0.0
  0
LINE
  5
1AF
330
F1
100
AcDbEntity
  8
AM_4
100
AcDbLine
 10
0.09641765
 20
-3.27706772539999
 30
0.0
 11
0.09335677
 21
-3.262500475300004
 31
0.0
  0
LINE
  5
1B0
330
F1
100
AcDbEntity
  8
AM_4
100
AcDbLine
 10
0.34740959
 20
-3.309115670400006
 30
0.0
 11
0.237218
 21
-3.309115670400006
 31
0.0
  0
LINE
  5
1B1
330
F1
100
AcDbEntity
  8
AM_4
100
AcDbLine
 10
0.237218
 20
-3.309115670400006
 30
0.0
 11
0.237218
 21
-3.17218353
 31
0.0
  0
LINE
  5
1B2
330
F1
100
AcDbEntity
  8
AM_4
100
AcDbLine
 10
0.237218
 20
-3.17218353
 30
0.0
 11
0.34740959
 21
-3.17218353
 31
0.0
  0
LINE
  5
1B3
330
F1
100
AcDbEntity
  8
AM_4
100
AcDbLine
 10
0.34740959
 20
-3.17218353
 30
0.0
 11
0.34740959
 21
-3.18966423
 31
0.0
  0
LINE
  5
1B4
330
F1
100
AcDbEntity
  8
AM_4
100
AcDbLine
 10
0.34740959
 20
-3.18966423
 30
0.0
 11
0.25558328
 21
-3.18966423
 31
0.0
  0
LINE
  5
1B5
330
F1
100
AcDbEntity
  8
AM_4
100
AcDbLine
 10
0.25558328
 20
-3.18966423
 30
0.0
 11
0.25558328
 21
-3.22753908
 31
0.0
  0
LINE
  5
1B6
330
F1
100
AcDbEntity
  8
AM_4
100
AcDbLine
 10
0.25558328
 20
-3.22753908
 30
0.0
 11
0.33516609
 21
-3.22753908
 31
0.0
  0
LINE
  5
1B7
330
F1
100
AcDbEntity
  8
AM_4
100
AcDbLine
 10
0.33516609
 20
-3.22753908
 30
0.0
 11
0.33516609
 21
-3.245019776400017
 31
0.0
  0
LINE
  5
1B8
330
F1
100
AcDbEntity
  8
AM_4
100
AcDbLine
 10
0.33516609
 20
-3.245019776400017
 30
0.0
 11
0.25558328
 21
-3.245019776400017
 31
0.0
  0
LINE
  5
1B9
330
F1
100
AcDbEntity
  8
AM_4
100
AcDbLine
 10
0.25558328
 20
-3.245019776400017
 30
0.0
 11
0.25558328
 21
-3.291634975599993
 31
0.0
  0
LINE
  5
1BA
330
F1
100
AcDbEntity
  8
AM_4
100
AcDbLine
 10
0.25558328
 20
-3.291634975599993
 30
0.0
 11
0.34740959
 21
-3.291634975599993
 31
0.0
  0
LINE
  5
1BB
330
F1
100
AcDbEntity
  8
AM_4
100
AcDbLine
 10
0.34740959
 20
-3.291634975599993
 30
0.0
 11
0.34740959
 21
-3.309115670400006
 31
0.0
  0
LINE
  5
1BC
330
F1
100
AcDbEntity
  8
AM_4
100
AcDbLine
 10
-0.1037401613604313
 20
3.4375
 30
0.0
 11
-2.8125
 21
3.4375
 31
0.0
  0
LINE
  5
1BD
330
F1
100
AcDbEntity
  8
AM_4
100
AcDbLine
 10
2.8125
 20
3.4375
 30
0.0
 11
0.1037401613604313
 21
3.4375
 31
0.0
  0
ARC
  5
1BE
330
F1
100
AcDbEntity
  8
AM_4
100
AcDbCircle
 10
-2.798776651726348
 20
1.243530463539912
 30
0.0
 40
0.1376000000000808
100
AcDbArc
 50
18.78760569028942
 51
29.99999999999618
  0
ARC
  5
1BF
330
F1
100
AcDbEntity
  8
AM_4
100
AcDbCircle
 10
-1.243530463539942
 20
2.798776651726276
 30
0.0
 40
0.1376000000000016
100
AcDbArc
 50
240.0000000000002
 51
251.2123943097414
  0
ARC
  5
1C0
330
F1
100
AcDbEntity
  8
AM_4
100
AcDbCircle
 10
-2.8125
 20
2.8125
 30
0.0
 40
0.635000000000001
100
AcDbArc
 50
59.99999999999996
 51
79.81825161166324
  0
LINE
  5
1C1
330
F1
100
AcDbEntity
  8
AM_4
100
AcDbLine
 10
-2.495
 20
3.362426131403119
 30
0.0
 11
-1.312330463539943
 21
2.679611556165536
 31
0.0
  0
LINE
  5
1C2
330
F1
100
AcDbEntity
  8
AM_4
100
AcDbLine
 10
-2.679611556165535
 20
1.312330463539944
 30
0.0
 11
-3.362426131403118
 21
2.495
 31
0.0
  0
ARC
  5
1C3
330
F1
100
AcDbEntity
  8
AM_4
100
AcDbCircle
 10
-2.812500000000001
 20
2.812500000000001
 30
0.0
 40
0.6249999999999991
100
AcDbArc
 50
90.0
 51
180.0
  0
CIRCLE
  5
1C4
330
F1
100
AcDbEntity
  8
AM_4
100
AcDbCircle
 10
-2.8125
 20
2.8125
 30
0.0
 40
0.3125
  0
ARC
  5
1C5
330
F1
100
AcDbEntity
  8
AM_4
100
AcDbCircle
 10
-2.812500000000034
 20
2.812499999999988
 30
0.0
 40
0.6349999999999644
100
AcDbArc
 50
190.1817483883356
 51
210.0000000000006
  0
ARC
  5
1C6
330
F1
100
AcDbEntity
  8
AM_4
100
AcDbCircle
 10
1.243530463539929
 20
2.798776651726314
 30
0.0
 40
0.1376000000000417
100
AcDbArc
 50
288.787605690287
 51
299.999999999997
  0
ARC
  5
1C7
330
F1
100
AcDbEntity
  8
AM_4
100
AcDbCircle
 10
2.798776651726268
 20
1.243530463539945
 30
0.0
 40
0.1375999999999932
100
AcDbArc
 50
149.9999999999993
 51
161.2123943097409
  0
ARC
  5
1C8
330
F1
100
AcDbEntity
  8
AM_4
100
AcDbCircle
 10
2.812500000000001
 20
2.812500000000001
 30
0.0
 40
0.6249999999999991
100
AcDbArc
 50
0.0
 51
90.0
  0
LINE
  5
1C9
330
F1
100
AcDbEntity
  8
AM_4
100
AcDbLine
 10
1.312330463539944
 20
2.679611556165535
 30
0.0
 11
2.495
 21
3.362426131403118
 31
0.0
  0
ARC
  5
1CA
330
F1
100
AcDbEntity
  8
AM_4
100
AcDbCircle
 10
2.812499999999997
 20
2.812500000000008
 30
0.0
 40
0.6349999999999912
100
AcDbArc
 50
100.1817483883359
 51
120.0000000000002
  0
LINE
  5
1CB
330
F1
100
AcDbEntity
  8
AM_4
100
AcDbLine
 10
3.362426131403119
 20
2.495
 30
0.0
 11
2.679611556165536
 21
1.312330463539943
 31
0.0
  0
ARC
  5
1CC
330
F1
100
AcDbEntity
  8
AM_4
100
AcDbCircle
 10
2.812500000000026
 20
2.812499999999991
 30
0.0
 40
0.6349999999999734
100
AcDbArc
 50
329.9999999999995
 51
349.8182516116636
  0
CIRCLE
  5
1CD
330
F1
100
AcDbEntity
  8
AM_4
100
AcDbCircle
 10
2.8125
 20
2.8125
 30
0.0
 40
0.3125
  0
LINE
  5
1CE
330
F1
100
AcDbEntity
  8
AM_4
100
AcDbLine
 10
3.4375
 20
2.8125
 30
0.0
 11
3.4375
 21
-2.8125
 31
0.0
  0
ARC
  5
1CF
330
F1
100
AcDbEntity
  8
AM_4
100
AcDbCircle
 10
2.798776651726329
 20
-1.24353046353992
 30
0.0
 40
0.1376000000000598
100
AcDbArc
 50
198.787605690289
 51
209.9999999999973
  0
ARC
  5
1D0
330
F1
100
AcDbEntity
  8
AM_4
100
AcDbCircle
 10
1.243530463539947
 20
-2.798776651726258
 30
0.0
 40
0.1375999999999828
100
AcDbArc
 50
59.99999999999823
 51
71.21239430974026
  0
ARC
  5
1D1
330
F1
100
AcDbEntity
  8
AM_4
100
AcDbCircle
 10
2.812500000000007
 20
-2.812499999999999
 30
0.0
 40
0.6349999999999928
100
AcDbArc
 50
10.18174838833603
 51
30.00000000000021
  0
CIRCLE
  5
1D2
330
F1
100
AcDbEntity
  8
AM_4
100
AcDbCircle
 10
2.8125
 20
-2.8125
 30
0.0
 40
0.3125
  0
LINE
  5
1D3
330
F1
100
AcDbEntity
  8
AM_4
100
AcDbLine
 10
2.679611556165535
 20
-1.312330463539944
 30
0.0
 11
3.362426131403118
 21
-2.495
 31
0.0
  0
LINE
  5
1D4
330
F1
100
AcDbEntity
  8
AM_4
100
AcDbLine
 10
2.495
 20
-3.362426131403119
 30
0.0
 11
1.312330463539942
 21
-2.679611556165536
 31
0.0
  0
ARC
  5
1D5
330
F1
100
AcDbEntity
  8
AM_4
100
AcDbCircle
 10
2.812499999999997
 20
-2.81250000000001
 30
0.0
 40
0.6349999999999907
100
AcDbArc
 50
239.9999999999998
 51
259.8182516116634
  0
LINE
  5
1D6
330
F1
100
AcDbEntity
  8
AM_4
100
AcDbLine
 10
2.8125
 20
-3.4375
 30
0.0
 11
-2.8125
 21
-3.4375
 31
0.0
  0
ARC
  5
1D7
330
F1
100
AcDbEntity
  8
AM_4
100
AcDbCircle
 10
2.812500000000001
 20
-2.812500000000001
 30
0.0
 40
0.6249999999999991
100
AcDbArc
 50
270.0
 51
0.0
  0
ARC
  5
1D8
330
F1
100
AcDbEntity
  8
AM_4
100
AcDbCircle
 10
-1.243530463539911
 20
-2.79877665172635
 30
0.0
 40
0.137600000000083
100
AcDbArc
 50
108.7876056902893
 51
119.9999999999959
  0
ARC
  5
1D9
330
F1
100
AcDbEntity
  8
AM_4
100
AcDbCircle
 10
-2.798776651726262
 20
-1.243530463539946
 30
0.0
 40
0.1375999999999871
100
AcDbArc
 50
329.9999999999984
 51
341.2123943097403
  0
CIRCLE
  5
1DA
330
F1
100
AcDbEntity
  8
AM_4
100
AcDbCircle
 10
-2.8125
 20
-2.8125
 30
0.0
 40
0.3125
  0
LINE
  5
1DB
330
F1
100
AcDbEntity
  8
AM_4
100
AcDbLine
 10
-1.312330463539944
 20
-2.679611556165535
 30
0.0
 11
-2.495000000000001
 21
-3.362426131403118
 31
0.0
  0
LINE
  5
1DC
330
F1
100
AcDbEntity
  8
AM_4
100
AcDbLine
 10
-3.362426131403119
 20
-2.495
 30
0.0
 11
-2.679611556165536
 21
-1.312330463539943
 31
0.0
  0
ARC
  5
1DD
330
F1
100
AcDbEntity
  8
AM_4
100
AcDbCircle
 10
-2.81250000000001
 20
-2.812499999999997
 30
0.0
 40
0.6349999999999907
100
AcDbArc
 50
149.9999999999998
 51
169.8182516116635
  0
LINE
  5
1DE
330
F1
100
AcDbEntity
  8
AM_4
100
AcDbLine
 10
-3.4375
 20
-2.8125
 30
0.0
 11
-3.4375
 21
2.8125
 31
0.0
  0
ARC
  5
1DF
330
F1
100
AcDbEntity
  8
AM_4
100
AcDbCircle
 10
-2.8125
 20
-2.8125
 30
0.0
 40
0.6250000000000004
100
AcDbArc
 50
179.9999991462263
 51
270.0
  0
ARC
  5
1E0
330
F1
100
AcDbEntity
  8
AM_4
100
AcDbCircle
 10
-2.812499999999997
 20
-2.812500000000009
 30
0.0
 40
0.6349999999999905
100
AcDbArc
 50
280.181748388336
 51
300.0000000000002
  0
LWPOLYLINE
  5
1E1
330
F1
100
AcDbEntity
  8
AM_4
100
AcDbPolyline
 90
        6
 70
     0
 43
0.0
 10
2.673030009240302
 20
-1.187659702819283
 10
2.666332610270656
 20
-1.206216446295715
 10
2.661818881543466
 20
-1.230069819004203
 10
2.661622521524031
 20
-1.254598641730869
 10
2.666021928790454
 20
-1.279723605683639
 10
2.668508124072979
 20
-1.287846044355757
  0
LWPOLYLINE
  5
1E2
330
F1
100
AcDbEntity
  8
AM_4
100
AcDbPolyline
 90
        6
 70
     0
 43
0.0
 10
-1.187659702819283
 20
-2.673030009240303
 10
-1.206216446295715
 20
-2.666332610270656
 10
-1.230069819004203
 20
-2.661818881543466
 10
-1.254598641730869
 20
-2.661622521524031
 10
-1.279723605683639
 20
-2.666021928790454
 10
-1.287846044355756
 20
-2.668508124072979
  0
LWPOLYLINE
  5
1E3
330
F1
100
AcDbEntity
  8
AM_4
100
AcDbPolyline
 90
        6
 70
     0
 43
0.0
 10
-2.673030009240303
 20
1.187659702819283
 10
-2.666332610270657
 20
1.206216446295715
 10
-2.661818881543467
 20
1.230069819004202
 10
-2.661622521524031
 20
1.254598641730867
 10
-2.666021928790454
 20
1.279723605683638
 10
-2.668508124072979
 20
1.287846044355756
  0
LWPOLYLINE
  5
1E4
330
F1
100
AcDbEntity
  8
AM_4
100
AcDbPolyline
 90
        6
 70
     0
 43
0.0
 10
1.18765969152823
 20
2.673030014257055
 10
1.206216435911743
 20
2.666332613196177
 10
1.230069807186675
 20
2.661818882686595
 10
1.254598628196309
 20
2.661622520431809
 10
1.279723597315175
 20
2.666021926508946
 10
1.287846044355756
 20
2.66850812407298
  0
ARC
  5
1E5
330
F1
100
AcDbEntity
  8
AM_4
100
AcDbCircle
 10
-0.0000000000003139
 20
0.0000000000011742
 30
0.0
 40
2.924999999998799
100
AcDbArc
 50
96.18152873131339
 51
113.9561589094145
  0
LWPOLYLINE
  5
1E6
330
F1
100
AcDbEntity
  8
AM_4
100
AcDbPolyline
 90
        5
 70
     0
 43
0.0
 10
-1.287846044355692
 20
2.668508124072958
 10
-1.27246949658109
 20
2.664254191272105
 10
-1.238150849347507
 20
2.661281852729583
 10
-1.207266218255794
 20
2.666041334218193
 10
-1.187659702819281
 20
2.673030009240303
  0
ARC
  5
1E7
330
F1
100
AcDbEntity
  8
AM_4
100
AcDbCircle
 10
-0.0000000000003479
 20
0.0000000000002474
 30
0.0
 40
2.963019244318836
100
AcDbArc
 50
115.7623749924756
 51
154.2376250075208
  0
ARC
  5
1E8
330
F1
100
AcDbEntity
  8
AM_4
100
AcDbCircle
 10
-0.0000000000004139
 20
-0.0000000000000004
 30
0.0
 40
2.924999999999622
100
AcDbArc
 50
156.0438410905859
 51
203.956158909414
  0
LWPOLYLINE
  5
1E9
330
F1
100
AcDbEntity
  8
AM_4
100
AcDbPolyline
 90
        5
 70
     0
 43
0.0
 10
-2.668508124072958
 20
-1.287846044355693
 10
-2.664254191272105
 20
-1.272469496581089
 10
-2.661281852729583
 20
-1.238150849347507
 10
-2.666041334218193
 20
-1.207266218255798
 10
-2.673030009240304
 20
-1.187659702819281
  0
ARC
  5
1EA
330
F1
100
AcDbEntity
  8
AM_4
100
AcDbCircle
 10
-0.0000000000002425
 20
-0.0000000000003426
 30
0.0
 40
2.963019244318843
100
AcDbArc
 50
205.7623749924757
 51
244.2376250075208
  0
ARC
  5
1EB
330
F1
100
AcDbEntity
  8
AM_4
100
AcDbCircle
 10
0.0000000000000002
 20
-0.00000000000025
 30
0.0
 40
2.924999999999772
100
AcDbArc
 50
246.0438410905873
 51
293.9561589094127
  0
LWPOLYLINE
  5
1EC
330
F1
100
AcDbEntity
  8
AM_4
100
AcDbPolyline
 90
        5
 70
     0
 43
0.0
 10
1.287846044355693
 20
-2.668508124072958
 10
1.272469496581088
 20
-2.664254191272105
 10
1.238150849347505
 20
-2.661281852729583
 10
1.207266218255795
 20
-2.666041334218193
 10
1.187659702819283
 20
-2.673030009240303
  0
ARC
  5
1ED
330
F1
100
AcDbEntity
  8
AM_4
100
AcDbCircle
 10
0.0000000000003344
 20
-0.0000000000002345
 30
0.0
 40
2.963019244318854
100
AcDbArc
 50
295.7623749924757
 51
334.2376250075207
  0
ARC
  5
1EE
330
F1
100
AcDbEntity
  8
AM_4
100
AcDbCircle
 10
0.0000000000002531
 20
0.0000000000000004
 30
0.0
 40
2.924999999999768
100
AcDbArc
 50
336.0438410905871
 51
23.95615890941277
  0
LWPOLYLINE
  5
1EF
330
F1
100
AcDbEntity
  8
AM_4
100
AcDbPolyline
 90
        5
 70
     0
 43
0.0
 10
2.668508124072958
 20
1.287846044355692
 10
2.664254191272105
 20
1.272469496581089
 10
2.661281852729583
 20
1.238150849347505
 10
2.666041334218194
 20
1.207266218255793
 10
2.673030009240303
 20
1.187659702819282
  0
ARC
  5
1F0
330
F1
100
AcDbEntity
  8
AM_4
100
AcDbCircle
 10
0.0000000000002438
 20
0.0000000000003439
 30
0.0
 40
2.963019244318841
100
AcDbArc
 50
25.76237499247567
 51
64.2376250075208
  0
ARC
  5
1F1
330
F1
100
AcDbEntity
  8
AM_4
100
AcDbCircle
 10
-0.0000000000002
 20
-0.0000000000007474
 30
0.0
 40
2.925000000000765
100
AcDbArc
 50
66.0438413326127
 51
83.81847126868064
  0
LINE
  5
1F2
330
F1
100
AcDbEntity
  8
AM_4
100
AcDbLine
 10
0.15748032
 20
3.165354331338582
 30
0.0
 11
-0.15748032
 21
3.165354331338582
 31
0.0
  0
LINE
  5
1F3
330
F1
100
AcDbEntity
  8
AM_4
100
AcDbLine
 10
-0.1818426102881368
 20
3.171882187347061
 30
0.0
 11
-0.15748032
 21
3.165354331338582
 31
0.0
  0
LINE
  5
1F4
330
F1
100
AcDbEntity
  8
AM_4
100
AcDbLine
 10
0.15748032
 20
3.283464571338582
 30
0.0
 11
-0.15748032
 21
3.283464571338582
 31
0.0
  0
LINE
  5
1F5
330
F1
100
AcDbEntity
  8
AM_4
100
AcDbLine
 10
-0.15748032
 20
3.283464571338582
 30
0.0
 11
-0.1818426102881368
 21
3.276936715330103
 31
0.0
  0
LINE
  5
1F6
330
F1
100
AcDbEntity
  8
AM_4
100
AcDbLine
 10
0.1818426102881368
 20
3.276936715330103
 30
0.0
 11
0.15748032
 21
3.283464571338582
 31
0.0
  0
LINE
  5
1F7
330
F1
100
AcDbEntity
  8
AM_4
100
AcDbLine
 10
0.15748032
 20
3.165354331338582
 30
0.0
 11
0.1818426102881368
 21
3.171882187347061
 31
0.0
  0
LINE
  5
1F8
330
F1
100
AcDbEntity
  8
AM_4
100
AcDbLine
 10
0.0654127384443837
 20
3.500000011338583
 30
0.0
 11
-0.0654127384443837
 21
3.500000011338583
 31
0.0
  0
ARC
  5
1F9
330
F1
100
AcDbEntity
  8
AM_4
100
AcDbCircle
 10
-0.0654127384443837
 20
3.480314971338583
 30
0.0
 40
0.0196850399999993
100
AcDbArc
 50
90.0
 51
158.1985930228132
  0
ARC
  5
1FA
330
F1
100
AcDbEntity
  8
AM_4
100
AcDbCircle
 10
0.0654127384443837
 20
3.480314971338583
 30
0.0
 40
0.0196850399999992
100
AcDbArc
 50
21.80140697718683
 51
90.0
  0
LINE
  5
1FB
330
F1
100
AcDbEntity
  8
AM_4
100
AcDbLine
 10
-0.0836898395636919
 20
3.487625810857828
 30
0.0
 11
-0.104877570142083
 21
3.434656477684744
 31
0.0
  0
LINE
  5
1FC
330
F1
100
AcDbEntity
  8
AM_4
100
AcDbLine
 10
0.104877570142083
 20
3.434656477684744
 30
0.0
 11
0.0836898395636919
 21
3.487625810857828
 31
0.0
  0
LINE
  5
1FD
330
F1
100
AcDbEntity
  8
AM_4
100
AcDbLine
 10
0.0836898395636919
 20
3.487625810857828
 30
0.0
 11
-0.0836898395636919
 21
3.487625810857828
 31
0.0
  0
ARC
  5
1FE
330
F1
100
AcDbEntity
  8
AM_4
100
AcDbCircle
 10
-0.0866004690227751
 20
3.427345638165497
 30
0.0
 40
0.0196850399999999
100
AcDbArc
 50
158.1985930228057
 51
225.842926346777
  0
ARC
  5
1FF
330
F1
100
AcDbEntity
  8
AM_4
100
AcDbCircle
 10
0.0866004690227751
 20
3.427345638165497
 30
0.0
 40
0.0196850399999996
100
AcDbArc
 50
314.157073653223
 51
21.80140697719431
  0
LINE
  5
200
330
F1
100
AcDbEntity
  8
AM_4
100
AcDbLine
 10
0.104877570142083
 20
3.434656477684744
 30
0.0
 11
-0.104877570142083
 21
3.434656477684744
 31
0.0
  0
ARC
  5
201
330
F1
100
AcDbEntity
  8
AM_4
100
AcDbCircle
 10
-0.1498523720312508
 20
3.362204731338583
 30
0.0
 40
0.0711122120312506
100
AcDbArc
 50
303.8550321711157
 51
45.84291098964355
  0
ARC
  5
202
330
F1
100
AcDbEntity
  8
AM_4
100
AcDbCircle
 10
0.1498523720312508
 20
3.362204731338583
 30
0.0
 40
0.071112212031251
100
AcDbArc
 50
134.1570890103565
 51
236.1449678288843
  0
LINE
  5
203
330
F1
100
AcDbEntity
  8
AM_4
100
AcDbLine
 10
0.1003136150019667
 20
3.413222946242391
 30
0.0
 11
-0.1003136150019667
 21
3.413222946242391
 31
0.0
  0
LINE
  5
204
330
F1
100
AcDbEntity
  8
AM_4
100
AcDbLine
 10
-0.11023622
 20
3.165354331338582
 30
0.0
 11
-0.11023622
 21
3.14566928
 31
0.0
  0
LINE
  5
205
330
F1
100
AcDbEntity
  8
AM_4
100
AcDbLine
 10
0.11023622
 20
3.14566928
 30
0.0
 11
0.11023622
 21
3.165354331338582
 31
0.0
  0
LINE
  5
206
330
F1
100
AcDbEntity
  8
AM_4
100
AcDbLine
 10
-0.11023622
 20
3.303149611338583
 30
0.0
 11
-0.11023622
 21
3.283464571338582
 31
0.0
  0
LINE
  5
207
330
F1
100
AcDbEntity
  8
AM_4
100
AcDbLine
 10
0.11023622
 20
3.283464571338582
 30
0.0
 11
0.11023622
 21
3.303149611338583
 31
0.0
  0
LINE
  5
208
330
F1
100
AcDbEntity
  8
AM_4
100
AcDbLine
 10
0.11023622
 20
3.303149611338583
 30
0.0
 11
-0.11023622
 21
3.303149611338583
 31
0.0
  0
LINE
  5
209
330
F1
100
AcDbEntity
  8
AM_4
100
AcDbLine
 10
0.1818426102881368
 20
3.276936715330103
 30
0.0
 11
0.1363819577161026
 21
3.283464571338582
 31
0.0
  0
LINE
  5
20A
330
F1
100
AcDbEntity
  8
AM_4
100
AcDbLine
 10
0.1363819577161026
 20
3.165354331338582
 30
0.0
 11
0.1818426102881368
 21
3.171882187347061
 31
0.0
  0
LINE
  5
20B
330
F1
100
AcDbEntity
  8
AM_4
100
AcDbLine
 10
0.1818426102881368
 20
3.171882187347061
 30
0.0
 11
0.1818426102881368
 21
3.276936715330103
 31
0.0
  0
LINE
  5
20C
330
F1
100
AcDbEntity
  8
AM_4
100
AcDbLine
 10
0.1363819577161026
 20
3.283464571338582
 30
0.0
 11
0.0909213051440684
 21
3.276936715330103
 31
0.0
  0
LINE
  5
20D
330
F1
100
AcDbEntity
  8
AM_4
100
AcDbLine
 10
0.0909213051440684
 20
3.276936715330103
 30
0.0
 11
0.0
 21
3.283464571338582
 31
0.0
  0
LINE
  5
20E
330
F1
100
AcDbEntity
  8
AM_4
100
AcDbLine
 10
0.0909213051440684
 20
3.171882187347061
 30
0.0
 11
0.0909213051440684
 21
3.276936715330103
 31
0.0
  0
LWPOLYLINE
  5
20F
330
F1
100
AcDbEntity
  8
AM_4
100
AcDbPolyline
 90
        3
 70
     0
 43
0.0
 10
-0.0909213051440684
 20
3.171882187347061
 10
-0.0689029552938091
 20
3.169216559717645
 10
0.0
 20
3.165354331338582
  0
LWPOLYLINE
  5
210
330
F1
100
AcDbEntity
  8
AM_4
100
AcDbPolyline
 90
        3
 70
     0
 43
0.0
 10
0.0
 20
3.283464571338582
 10
-0.0689029552938091
 20
3.279602342959519
 10
-0.0909213051440684
 20
3.276936715330103
  0
LINE
  5
211
330
F1
100
AcDbEntity
  8
AM_4
100
AcDbLine
 10
-0.0909213051440684
 20
3.276936715330103
 30
0.0
 11
-0.1363819577161026
 21
3.283464571338582
 31
0.0
  0
LINE
  5
212
330
F1
100
AcDbEntity
  8
AM_4
100
AcDbLine
 10
-0.1363819577161026
 20
3.283464571338582
 30
0.0
 11
-0.1818426102881368
 21
3.276936715330103
 31
0.0
  0
LINE
  5
213
330
F1
100
AcDbEntity
  8
AM_4
100
AcDbLine
 10
-0.1818426102881368
 20
3.171882187347061
 30
0.0
 11
-0.1818426102881368
 21
3.276936715330103
 31
0.0
  0
LINE
  5
214
330
F1
100
AcDbEntity
  8
AM_4
100
AcDbLine
 10
-0.1818426102881368
 20
3.171882187347061
 30
0.0
 11
-0.1363819577161026
 21
3.165354331338582
 31
0.0
  0
LINE
  5
215
330
F1
100
AcDbEntity
  8
AM_4
100
AcDbLine
 10
-0.1363819577161026
 20
3.165354331338582
 30
0.0
 11
-0.0909213051440684
 21
3.171882187347061
 31
0.0
  0
LINE
  5
216
330
F1
100
AcDbEntity
  8
AM_4
100
AcDbLine
 10
-0.0909213051440684
 20
3.171882187347061
 30
0.0
 11
-0.0909213051440684
 21
3.276936715330103
 31
0.0
  0
LINE
  5
217
330
F1
100
AcDbEntity
  8
AM_4
100
AcDbLine
 10
0.0
 20
3.165354331338582
 30
0.0
 11
0.0909213051440684
 21
3.171882187347061
 31
0.0
  0
LINE
  5
218
330
F1
100
AcDbEntity
  8
AM_4
100
AcDbLine
 10
0.0909213051440684
 20
3.171882187347061
 30
0.0
 11
0.1363819577161026
 21
3.165354331338582
 31
0.0
  0
ARC
  5
219
330
F1
100
AcDbEntity
  8
AM_4
100
AcDbCircle
 10
0.0000000000007294
 20
-0.0000000000000389
 30
0.0
 40
2.92367314750821
100
AcDbArc
 50
96.18434504162694
 51
83.81565495840184
  0
LINE
  5
21A
330
F1
100
AcDbEntity
  8
AM_4
100
AcDbLine
 10
0.3149606400000001
 20
2.873194944468033
 30
0.0
 11
0.3149606400000001
 21
3.14566928
 31
0.0
  0
LINE
  5
21B
330
F1
100
AcDbEntity
  8
AM_4
100
AcDbLine
 10
-0.3149606400000001
 20
3.14566928
 30
0.0
 11
0.3149606400000001
 21
3.14566928
 31
0.0
  0
LINE
  5
21C
330
F1
100
AcDbEntity
  8
AM_4
100
AcDbLine
 10
-0.3149606400000001
 20
2.873194944468033
 30
0.0
 11
-0.3149606400000001
 21
3.14566928
 31
0.0
  0
CIRCLE
  5
21D
330
F1
100
AcDbEntity
  8
AM_4
100
AcDbCircle
 10
0.0
 20
0.0
 30
0.0
 40
2.165350000000001
  0
LINE
  5
21E
330
F1
100
AcDbEntity
  8
AM_4
100
AcDbLine
 10
-0.2755905599999999
 20
2.837661244372227
 30
0.0
 11
-0.2755905599999999
 21
3.14566928
 31
0.0
  0
LINE
  5
21F
330
F1
100
AcDbEntity
  8
AM_4
100
AcDbLine
 10
0.27559056
 20
2.837661244372227
 30
0.0
 11
0.27559056
 21
3.14566928
 31
0.0
  0
LINE
  5
220
330
F1
100
AcDbEntity
  8
AM_4
100
AcDbLine
 10
-0.314936656811008
 20
2.873149305031044
 30
0.0
 11
-0.2755905599999999
 21
2.837661244372227
 31
0.0
  0
ARC
  5
221
330
F1
100
AcDbEntity
  8
AM_4
100
AcDbCircle
 10
0.0000000000001635
 20
0.0000000000000088
 30
0.0
 40
2.890358459915261
100
AcDbArc
 50
96.25543140277983
 51
83.74456859722599
  0
LINE
  5
222
330
F1
100
AcDbEntity
  8
AM_4
100
AcDbLine
 10
0.27559056
 20
2.837661244372227
 30
0.0
 11
0.3149366568110432
 21
2.873149305031076
 31
0.0
  0
ARC
  5
223
330
F1
100
AcDbEntity
  8
AM_4
100
AcDbCircle
 10
0.0
 20
0.0000000000000002
 30
0.0
 40
2.851012363104244
100
AcDbArc
 50
95.54710690711687
 51
84.45289309288313
  0
ENDBLK
  5
F4
330
F1
100
AcDbEntity
  8
0
100
AcDbBlockEnd
  0
ENDSEC
  0
SECTION
  2
ENTITIES
  0
INSERT
  5
6F
330
1F
100
AcDbEntity
  8
0
100
AcDbBlockReference
  2
1_129656_0
 10
0.0
 20
0.0
 30
0.0
  0
POINT
  5
225
330
1F
100
AcDbEntity
  8
ConnectionPoints
100
AcDbPoint
 10
0.0000000000000001
 20
0.0
 30
-0.7487750000000004
  0
POINT
  5
226
330
1F
100
AcDbEntity
  8
ConnectionPoints
100
AcDbPoint
 10
0.0000000000000001
 20
0.0
 30
-1.5144
  0
POINT
  5
227
330
1F
100
AcDbEntity
  8
ConnectionPoints
100
AcDbPoint
 10
0.0
 20
0.0
 30
-1.5144
  0
ENDSEC
  0
SECTION
  2
OBJECTS
  0
DICTIONARY
  5
C
330
0
100
AcDbDictionary
281
     1
  3
ACAD_DETAILVIEWSTYLE
350
22F
  3
ACAD_GROUP
350
D
  3
ACAD_LAYOUT
350
1A
  3
ACAD_MATERIAL
350
43
  3
ACAD_MLEADERSTYLE
350
6B
  3
ACAD_MLINESTYLE
350
17
  3
ACAD_PLOTSETTINGS
350
19
  3
ACAD_PLOTSTYLENAME
350
E
  3
ACAD_SCALELIST
350
47
  3
ACAD_SECTIONVIEWSTYLE
350
230
  3
ACAD_TABLESTYLE
350
69
  3
ACAD_VISUALSTYLE
350
2A
  3
ACDB_RECOMPOSE_DATA
350
22C
  3
AcDbVariableDictionary
350
228
  0
SUN
  5
6D
330
29
100
AcDbSun
 90
        1
290
     0
 63
     7
421
 16777215
 40
1.0
291
     1
 91
  2455826
 92
 54000000
292
     0
 70
     2
 71
   256
280
     1
  0
DICTIONARY
  5
22F
102
{ACAD_REACTORS
330
C
102
}
330
C
100
AcDbDictionary
281
     1
  0
DICTIONARY
  5
D
102
{ACAD_REACTORS
330
C
102
}
330
C
100
AcDbDictionary
281
     1
  0
DICTIONARY
  5
1A
102
{ACAD_REACTORS
330
C
102
}
330
C
100
AcDbDictionary
281
     1
  3
Layout1
350
1E
  3
Layout2
350
26
  3
Model
350
22
  0
DICTIONARY
  5
43
102
{ACAD_REACTORS
330
C
102
}
330
C
100
AcDbDictionary
281
     1
  3
ByBlock
350
45
  3
ByLayer
350
44
  3
Global
350
46
  0
DICTIONARY
  5
6B
102
{ACAD_REACTORS
330
C
102
}
330
C
100
AcDbDictionary
281
     1
  3
Standard
350
6C
  0
DICTIONARY
  5
17
102
{ACAD_REACTORS
330
C
102
}
330
C
100
AcDbDictionary
281
     1
  3
Standard
350
18
  0
DICTIONARY
  5
19
102
{ACAD_REACTORS
330
C
102
}
330
C
100
AcDbDictionary
281
     1
  0
ACDBDICTIONARYWDFLT
  5
E
102
{ACAD_REACTORS
330
C
102
}
330
C
100
AcDbDictionary
281
     1
  3
Normal
350
F
100
AcDbDictionaryWithDefault
340
F
  0
DICTIONARY
  5
47
102
{ACAD_REACTORS
330
C
102
}
330
C
100
AcDbDictionary
281
     1
  3
A0
350
48
  3
A1
350
49
  3
A2
350
4A
  3
A3
350
4B
  3
A4
350
4C
  3
A5
350
4D
  3
A6
350
4E
  3
A7
350
4F
  3
A8
350
50
  3
A9
350
51
  3
B0
350
52
  3
B1
350
53
  3
B2
350
54
  3
B3
350
55
  3
B4
350
56
  3
B5
350
57
  3
B6
350
58
  3
B7
350
59
  3
B8
350
5A
  3
B9
350
5B
  3
C0
350
5C
  3
C1
350
5D
  3
C2
350
5E
  3
C3
350
5F
  3
C4
350
60
  3
C5
350
61
  3
C6
350
62
  3
C7
350
63
  3
C8
350
64
  3
C9
350
65
  3
D0
350
66
  3
D1
350
67
  3
D2
350
68
  0
DICTIONARY
  5
230
102
{ACAD_REACTORS
330
C
102
}
330
C
100
AcDbDictionary
281
     1
  0
DICTIONARY
  5
69
102
{ACAD_REACTORS
330
C
102
}
330
C
100
AcDbDictionary
281
     1
  3
Standard
350
6A
  0
DICTIONARY
  5
2A
102
{ACAD_REACTORS
330
C
102
}
330
C
100
AcDbDictionary
281
     1
  3
2dWireframe
350
2F
  3
Basic
350
32
  3
Brighten
350
36
  3
ColorChange
350
3A
  3
Conceptual
350
34
  3
Dim
350
35
  3
EdgeColorOff
350
3D
  3
Facepattern
350
39
  3
Flat
350
2B
  3
FlatWithEdges
350
2C
  3
Gouraud
350
2D
  3
GouraudWithEdges
350
2E
  3
Hidden
350
31
  3
JitterOff
350
3B
  3
Linepattern
350
38
  3
OverhangOff
350
3C
  3
Realistic
350
33
  3
Shaded
350
42
  3
Shaded with edges
350
41
  3
Shades of Gray
350
3E
  3
Sketchy
350
3F
  3
Thicken
350
37
  3
Wireframe
350
30
  3
X-Ray
350
40
  0
XRECORD
  5
22C
102
{ACAD_REACTORS
330
C
102
}
330
C
100
AcDbXrecord
280
     1
 90
        1
330
6A
  0
DICTIONARY
  5
228
102
{ACAD_REACTORS
330
C
102
}
330
C
100
AcDbDictionary
281
     1
  3
CANNOSCALE
350
229
  3
CMLEADERSTYLE
350
22E
  3
CTABLESTYLE
350
22D
  0
LAYOUT
  5
1E
102
{ACAD_REACTORS
330
1A
102
}
330
1A
100
AcDbPlotSettings
  1

  2
none_device
  4

  6

 40
0.0
 41
0.0
 42
0.0
 43
0.0
 44
0.0
 45
0.0
 46
0.0
 47
0.0
 48
0.0
 49
0.0
140
0.0
141
0.0
142
1.0
143
1.0
 70
   688
 72
     0
 73
     0
 74
     5
  7

 75
    16
 76
     0
 77
     2
 78
   300
147
1.0
148
0.0
149
0.0
100
AcDbLayout
  1
Layout1
 70
     1
 71
     1
 10
0.0
 20
0.0
 11
12.0
 21
9.0
 12
0.0
 22
0.0
 32
0.0
 14
1.000000000000000E+20
 24
1.000000000000000E+20
 34
1.000000000000000E+20
 15
-1.000000000000000E+20
 25
-1.000000000000000E+20
 35
-1.000000000000000E+20
146
0.0
 13
0.0
 23
0.0
 33
0.0
 16
1.0
 26
0.0
 36
0.0
 17
0.0
 27
1.0
 37
0.0
 76
     0
330
1B
  0
LAYOUT
  5
26
102
{ACAD_REACTORS
330
1A
102
}
330
1A
100
AcDbPlotSettings
  1

  2
none_device
  4

  6

 40
0.0
 41
0.0
 42
0.0
 43
0.0
 44
0.0
 45
0.0
 46
0.0
 47
0.0
 48
0.0
 49
0.0
140
0.0
141
0.0
142
1.0
143
1.0
 70
   688
 72
     0
 73
     0
 74
     5
  7

 75
    16
 76
     0
 77
     2
 78
   300
147
1.0
148
0.0
149
0.0
100
AcDbLayout
  1
Layout2
 70
     1
 71
     2
 10
0.0
 20
0.0
 11
0.0
 21
0.0
 12
0.0
 22
0.0
 32
0.0
 14
0.0
 24
0.0
 34
0.0
 15
0.0
 25
0.0
 35
0.0
146
0.0
 13
0.0
 23
0.0
 33
0.0
 16
1.0
 26
0.0
 36
0.0
 17
0.0
 27
1.0
 37
0.0
 76
     0
330
23
  0
LAYOUT
  5
22
102
{ACAD_REACTORS
330
1A
102
}
330
1A
100
AcDbPlotSettings
  1

  2
none_device
  4
Letter_(8.50_x_11.00_Inches)
  6

 40
6.35
 41
6.35
 42
6.35000508
 43
6.35000508
 44
215.9
 45
279.4
 46
0.0
 47
0.0
 48
0.0
 49
0.0
140
0.0
141
0.0
142
1.0
143
1.0
 70
  1712
 72
     0
 73
     0
 74
     0
  7

 75
     0
 76
     0
 77
     2
 78
   300
147
1.0
148
0.0
149
0.0
100
AcDbLayout
  1
Model
 70
     1
 71
     0
 10
0.0
 20
0.0
 11
12.0
 21
9.0
 12
0.0
 22
0.0
 32
0.0
 14
1.000000000000000E+20
 24
1.000000000000000E+20
 34
1.000000000000000E+20
 15
-1.000000000000000E+20
 25
-1.000000000000000E+20
 35
-1.000000000000000E+20
146
0.0
 13
0.0
 23
0.0
 33
0.0
 16
1.0
 26
0.0
 36
0.0
 17
0.0
 27
1.0
 37
0.0
 76
     0
330
1F
331
29
  0
MATERIAL
  5
45
102
{ACAD_REACTORS
330
43
102
}
330
43
100
AcDbMaterial
  1
ByBlock
 72
     1
 94
      127
  0
MATERIAL
  5
44
102
{ACAD_REACTORS
330
43
102
}
330
43
100
AcDbMaterial
  1
ByLayer
 72
     1
 94
      127
  0
MATERIAL
  5
46
102
{ACAD_REACTORS
330
43
102
}
330
43
100
AcDbMaterial
  1
Global
 72
     1
 94
      127
  0
MLEADERSTYLE
  5
6C
102
{ACAD_REACTORS
330
6B
102
}
330
6B
100
AcDbMLeaderStyle
179
     2
170
     2
171
     1
172
     0
 90
        2
 40
0.0
 41
0.0
173
     1
 91
-1056964608
340
14
 92
       -2
290
     1
 42
0.09
291
     1
 43
0.36
  3
Standard
341
0
 44
0.18
300

342
11
174
     1
178
     6
175
     1
176
     0
 93
-1056964608
 45
0.18
292
     0
297
     0
 46
0.18
343
0
 94
-1056964608
 47
1.0
 49
1.0
140
1.0
293
     1
141
0.0
294
     1
177
     0
142
1.0
295
     0
296
     0
143
0.125
271
     0
272
     9
273
     9
298
     0
  0
MLINESTYLE
  5
18
102
{ACAD_REACTORS
330
17
102
}
330
17
100
AcDbMlineStyle
  2
Standard
 70
     0
  3

 62
   256
 51
90.0
 52
90.0
 71
     2
 49
0.5
 62
   256
  6
BYLAYER
 49
-0.5
 62
   256
  6
BYLAYER
  0
ACDBPLACEHOLDER
  5
F
102
{ACAD_REACTORS
330
E
102
}
330
E
  0
SCALE
  5
48
102
{ACAD_REACTORS
330
47
102
}
330
47
100
AcDbScale
 70
     0
300
1:1
140
1.0
141
1.0
290
     1
  0
SCALE
  5
49
102
{ACAD_REACTORS
330
47
102
}
330
47
100
AcDbScale
 70
     0
300
1:2
140
1.0
141
2.0
290
     0
  0
SCALE
  5
4A
102
{ACAD_REACTORS
330
47
102
}
330
47
100
AcDbScale
 70
     0
300
1:4
140
1.0
141
4.0
290
     0
  0
SCALE
  5
4B
102
{ACAD_REACTORS
330
47
102
}
330
47
100
AcDbScale
 70
     0
300
1:5
140
1.0
141
5.0
290
     0
  0
SCALE
  5
4C
102
{ACAD_REACTORS
330
47
102
}
330
47
100
AcDbScale
 70
     0
300
1:8
140
1.0
141
8.0
290
     0
  0
SCALE
  5
4D
102
{ACAD_REACTORS
330
47
102
}
330
47
100
AcDbScale
 70
     0
300
1:10
140
1.0
141
10.0
290
     0
  0
SCALE
  5
4E
102
{ACAD_REACTORS
330
47
102
}
330
47
100
AcDbScale
 70
     0
300
1:16
140
1.0
141
16.0
290
     0
  0
SCALE
  5
4F
102
{ACAD_REACTORS
330
47
102
}
330
47
100
AcDbScale
 70
     0
300
1:20
140
1.0
141
20.0
290
     0
  0
SCALE
  5
50
102
{ACAD_REACTORS
330
47
102
}
330
47
100
AcDbScale
 70
     0
300
1:30
140
1.0
141
30.0
290
     0
  0
SCALE
  5
51
102
{ACAD_REACTORS
330
47
102
}
330
47
100
AcDbScale
 70
     0
300
1:40
140
1.0
141
40.0
290
     0
  0
SCALE
  5
52
102
{ACAD_REACTORS
330
47
102
}
330
47
100
AcDbScale
 70
     0
300
1:50
140
1.0
141
50.0
290
     0
  0
SCALE
  5
53
102
{ACAD_REACTORS
330
47
102
}
330
47
100
AcDbScale
 70
     0
300
1:100
140
1.0
141
100.0
290
     0
  0
SCALE
  5
54
102
{ACAD_REACTORS
330
47
102
}
330
47
100
AcDbScale
 70
     0
300
2:1
140
2.0
141
1.0
290
     0
  0
SCALE
  5
55
102
{ACAD_REACTORS
330
47
102
}
330
47
100
AcDbScale
 70
     0
300
4:1
140
4.0
141
1.0
290
     0
  0
SCALE
  5
56
102
{ACAD_REACTORS
330
47
102
}
330
47
100
AcDbScale
 70
     0
300
8:1
140
8.0
141
1.0
290
     0
  0
SCALE
  5
57
102
{ACAD_REACTORS
330
47
102
}
330
47
100
AcDbScale
 70
     0
300
10:1
140
10.0
141
1.0
290
     0
  0
SCALE
  5
58
102
{ACAD_REACTORS
330
47
102
}
330
47
100
AcDbScale
 70
     0
300
100:1
140
100.0
141
1.0
290
     0
  0
SCALE
  5
59
102
{ACAD_REACTORS
330
47
102
}
330
47
100
AcDbScale
 70
     0
300
1/128" = 1'-0"
140
0.0078125
141
12.0
290
     0
  0
SCALE
  5
5A
102
{ACAD_REACTORS
330
47
102
}
330
47
100
AcDbScale
 70
     0
300
1/64" = 1'-0"
140
0.015625
141
12.0
290
     0
  0
SCALE
  5
5B
102
{ACAD_REACTORS
330
47
102
}
330
47
100
AcDbScale
 70
     0
300
1/32" = 1'-0"
140
0.03125
141
12.0
290
     0
  0
SCALE
  5
5C
102
{ACAD_REACTORS
330
47
102
}
330
47
100
AcDbScale
 70
     0
300
1/16" = 1'-0"
140
0.0625
141
12.0
290
     0
  0
SCALE
  5
5D
102
{ACAD_REACTORS
330
47
102
}
330
47
100
AcDbScale
 70
     0
300
3/32" = 1'-0"
140
0.09375
141
12.0
290
     0
  0
SCALE
  5
5E
102
{ACAD_REACTORS
330
47
102
}
330
47
100
AcDbScale
 70
     0
300
1/8" = 1'-0"
140
0.125
141
12.0
290
     0
  0
SCALE
  5
5F
102
{ACAD_REACTORS
330
47
102
}
330
47
100
AcDbScale
 70
     0
300
3/16" = 1'-0"
140
0.1875
141
12.0
290
     0
  0
SCALE
  5
60
102
{ACAD_REACTORS
330
47
102
}
330
47
100
AcDbScale
 70
     0
300
1/4" = 1'-0"
140
0.25
141
12.0
290
     0
  0
SCALE
  5
61
102
{ACAD_REACTORS
330
47
102
}
330
47
100
AcDbScale
 70
     0
300
3/8" = 1'-0"
140
0.375
141
12.0
290
     0
  0
SCALE
  5
62
102
{ACAD_REACTORS
330
47
102
}
330
47
100
AcDbScale
 70
     0
300
1/2" = 1'-0"
140
0.5
141
12.0
290
     0
  0
SCALE
  5
63
102
{ACAD_REACTORS
330
47
102
}
330
47
100
AcDbScale
 70
     0
300
3/4" = 1'-0"
140
0.75
141
12.0
290
     0
  0
SCALE
  5
64
102
{ACAD_REACTORS
330
47
102
}
330
47
100
AcDbScale
 70
     0
300
1" = 1'-0"
140
1.0
141
12.0
290
     0
  0
SCALE
  5
65
102
{ACAD_REACTORS
330
47
102
}
330
47
100
AcDbScale
 70
     0
300
1-1/2" = 1'-0"
140
1.5
141
12.0
290
     0
  0
SCALE
  5
66
102
{ACAD_REACTORS
330
47
102
}
330
47
100
AcDbScale
 70
     0
300
3" = 1'-0"
140
3.0
141
12.0
290
     0
  0
SCALE
  5
67
102
{ACAD_REACTORS
330
47
102
}
330
47
100
AcDbScale
 70
     0
300
6" = 1'-0"
140
6.0
141
12.0
290
     0
  0
SCALE
  5
68
102
{ACAD_REACTORS
330
47
102
}
330
47
100
AcDbScale
 70
     0
300
1'-0" = 1'-0"
140
12.0
141
12.0
290
     0
  0
TABLESTYLE
  5
6A
102
{ACAD_REACTORS
330
69
102
}
102
{ACAD_XDICTIONARY
360
22A
102
}
330
69
100
AcDbTableStyle
  3
Standard
 70
     0
 71
     0
 40
0.06
 41
0.06
280
     0
281
     0
  7
Standard
140
0.18
170
     2
 62
     0
 63
   257
283
     0
 90
        4
 91
        0
  1

274
    -2
284
     1
 64
     0
275
    -2
285
     1
 65
     0
276
    -2
286
     1
 66
     0
277
    -2
287
     1
 67
     0
278
    -2
288
     1
 68
     0
279
    -2
289
     1
 69
     0
  7
Standard
140
0.25
170
     5
 62
     0
 63
   257
283
     0
 90
        4
 91
        0
  1

274
    -2
284
     1
 64
     0
275
    -2
285
     1
 65
     0
276
    -2
286
     1
 66
     0
277
    -2
287
     1
 67
     0
278
    -2
288
     1
 68
     0
279
    -2
289
     1
 69
     0
  7
Standard
140
0.18
170
     5
 62
     0
 63
   257
283
     0
 90
        4
 91
        0
  1

274
    -2
284
     1
 64
     0
275
    -2
285
     1
 65
     0
276
    -2
286
     1
 66
     0
277
    -2
287
     1
 67
     0
278
    -2
288
     1
 68
     0
279
    -2
289
     1
 69
     0
  0
VISUALSTYLE
  5
2F
102
{ACAD_REACTORS
330
2A
102
}
330
2A
100
AcDbVisualStyle
  2
2dWireframe
 70
     4
177
     3
291
     0
 70
    58
 90
        0
176
     1
 90
        2
176
     1
 90
        0
176
     1
 90
        0
176
     1
 40
0.6
176
     1
 40
30.0
176
     1
 62
     7
420
 16777215
176
     1
 90
        1
176
     1
 90
        4
176
     1
 62
     7
176
     1
 62
   257
176
     1
 90
        1
176
     1
 90
        1
176
     1
 40
1.0
176
     1
 90
        0
176
     1
 62
   257
176
     1
 40
1.0
176
     1
 90
        1
176
     1
 90
        6
176
     1
 90
        2
176
     1
 62
     7
176
     1
 90
        5
176
     1
 90
        0
176
     1
 90
        0
176
     1
290
     0
176
     1
 90
        1
176
     1
 40
0.0
176
     1
 90
        0
176
     1
290
     1
176
     1
290
     1
176
     1
290
     0
176
     1
290
     0
176
     1
290
     0
176
     1
290
     0
176
     1
290
     0
176
     1
290
     0
176
     1
290
     0
176
     1
 90
       50
176
     1
 40
0.0
176
     1
 40
1.0
176
     1
 90
        0
176
     1
 62
    18
420
        0
176
     1
 90
       50
176
     1
 90
        3
176
     1
 62
     5
420
      255
176
     1
290
     0
176
     1
 90
       50
176
     1
 90
       50
176
     1
 90
       50
176
     1
290
     0
176
     1
 90
       50
176
     1
 62
   256
176
     0
 40
1.0
176
     0
 90
        2
176
     1
  1
strokes_ogs.tif
176
     1
290
     0
176
     1
 40
1.0
176
     1
 40
1.0
176
     1
  0
VISUALSTYLE
  5
32
102
{ACAD_REACTORS
330
2A
102
}
330
2A
100
AcDbVisualStyle
  2
Basic
 70
     7
177
     3
291
     1
 70
    58
 90
        1
176
     1
 90
        0
176
     1
 90
        1
176
     1
 90
        0
176
     1
 40
0.6
176
     1
 40
30.0
176
     1
 62
     7
420
 16777215
176
     1
 90
        0
176
     1
 90
        4
176
     1
 62
     7
176
     1
 62
   257
176
     1
 90
        1
176
     1
 90
        1
176
     1
 40
1.0
176
     1
 90
        8
176
     1
 62
     7
176
     1
 40
1.0
176
     1
 90
        1
176
     1
 90
        6
176
     1
 90
        2
176
     1
 62
     7
176
     1
 90
        5
176
     1
 90
        0
176
     1
 90
        0
176
     1
290
     0
176
     1
 90
        1
176
     1
 40
0.0
176
     1
 90
        0
176
     1
290
     0
176
     1
290
     1
176
     1
290
     1
176
     1
290
     0
176
     1
290
     0
176
     1
290
     0
176
     1
290
     0
176
     1
290
     0
176
     1
290
     0
176
     1
 90
       50
176
     1
 40
0.0
176
     1
 40
1.0
176
     1
 90
        0
176
     1
 62
    18
420
        0
176
     1
 90
       50
176
     1
 90
        3
176
     1
 62
     5
420
      255
176
     1
290
     0
176
     1
 90
       50
176
     1
 90
       50
176
     1
 90
       50
176
     1
290
     0
176
     1
 90
       50
176
     1
 62
   256
176
     0
 40
1.0
176
     0
 90
        2
176
     1
  1
strokes_ogs.tif
176
     1
290
     0
176
     1
 40
1.0
176
     1
 40
1.0
176
     1
  0
VISUALSTYLE
  5
36
102
{ACAD_REACTORS
330
2A
102
}
330
2A
100
AcDbVisualStyle
  2
Brighten
 70
    12
177
     3
291
     1
 70
    58
 90
        2
176
     1
 90
        2
176
     1
 90
        0
176
     1
 90
        0
176
     1
 40
0.6
176
     1
 40
30.0
176
     1
 62
     7
420
 16777215
176
     1
 90
        1
176
     1
 90
        4
176
     1
 62
     7
176
     1
 62
   257
176
     1
 90
        1
176
     1
 90
        1
176
     1
 40
1.0
176
     1
 90
        8
176
     1
 62
     7
176
     1
 40
1.0
176
     1
 90
        1
176
     1
 90
        6
176
     1
 90
        2
176
     1
 62
     7
176
     1
 90
        5
176
     1
 90
        0
176
     1
 90
        0
176
     1
290
     0
176
     1
 90
        1
176
     1
 40
50.0
176
     1
 90
        0
176
     1
290
     0
176
     1
290
     1
176
     1
290
     1
176
     1
290
     0
176
     1
290
     0
176
     1
290
     0
176
     1
290
     0
176
     1
290
     0
176
     1
290
     0
176
     1
 90
       50
176
     1
 40
0.0
176
     1
 40
1.0
176
     1
 90
        0
176
     1
 62
    18
420
        0
176
     1
 90
       50
176
     1
 90
        3
176
     1
 62
     5
420
      255
176
     1
290
     0
176
     1
 90
       50
176
     1
 90
       50
176
     1
 90
       50
176
     1
290
     0
176
     1
 90
       50
176
     1
 62
   256
176
     0
 40
1.0
176
     0
 90
        2
176
     1
  1
strokes_ogs.tif
176
     1
290
     0
176
     1
 40
1.0
176
     1
 40
1.0
176
     1
  0
VISUALSTYLE
  5
3A
102
{ACAD_REACTORS
330
2A
102
}
330
2A
100
AcDbVisualStyle
  2
ColorChange
 70
    16
177
     3
291
     1
 70
    58
 90
        2
176
     1
 90
        2
176
     1
 90
        3
176
     1
 90
        0
176
     1
 40
0.6
176
     1
 40
30.0
176
     1
 62
     8
420
  8421504
176
     1
 90
        1
176
     1
 90
        4
176
     1
 62
     7
176
     1
 62
   257
176
     1
 90
        1
176
     1
 90
        1
176
     1
 40
1.0
176
     1
 90
        8
176
     1
 62
     8
420
  8421504
176
     1
 40
1.0
176
     1
 90
        1
176
     1
 90
        6
176
     1
 90
        2
176
     1
 62
     7
176
     1
 90
        5
176
     1
 90
        0
176
     1
 90
        0
176
     1
290
     0
176
     1
 90
        1
176
     1
 40
0.0
176
     1
 90
        0
176
     1
290
     0
176
     1
290
     1
176
     1
290
     1
176
     1
290
     0
176
     1
290
     0
176
     1
290
     0
176
     1
290
     0
176
     1
290
     0
176
     1
290
     0
176
     1
 90
       50
176
     1
 40
0.0
176
     1
 40
1.0
176
     1
 90
        0
176
     1
 62
    18
420
        0
176
     1
 90
       50
176
     1
 90
        3
176
     1
 62
     5
420
      255
176
     1
290
     0
176
     1
 90
       50
176
     1
 90
       50
176
     1
 90
       50
176
     1
290
     0
176
     1
 90
       50
176
     1
 62
   256
176
     0
 40
1.0
176
     0
 90
        2
176
     1
  1
strokes_ogs.tif
176
     1
290
     0
176
     1
 40
1.0
176
     1
 40
1.0
176
     1
  0
VISUALSTYLE
  5
34
102
{ACAD_REACTORS
330
2A
102
}
330
2A
100
AcDbVisualStyle
  2
Conceptual
 70
     9
177
     3
291
     0
 70
    58
 90
        3
176
     1
 90
        2
176
     1
 90
        0
176
     1
 90
        0
176
     1
 40
0.6
176
     1
 40
30.0
176
     1
 62
     7
420
 16777215
176
     1
 90
        2
176
     1
 90
        2
176
     1
 62
     7
176
     1
 62
   257
176
     1
 90
        1
176
     1
 90
        1
176
     1
 40
179.0
176
     1
 90
        8
176
     1
 62
     7
176
     1
 40
1.0
176
     1
 90
        1
176
     1
 90
        6
176
     1
 90
        2
176
     1
 62
     7
176
     1
 90
        3
176
     1
 90
        0
176
     1
 90
        0
176
     1
290
     0
176
     1
 90
        1
176
     1
 40
0.0
176
     1
 90
        0
176
     1
290
     0
176
     1
290
     1
176
     1
290
     1
176
     1
290
     0
176
     1
290
     0
176
     1
290
     0
176
     1
290
     0
176
     1
290
     0
176
     1
290
     0
176
     1
 90
       50
176
     1
 40
0.0
176
     1
 40
1.0
176
     1
 90
        0
176
     1
 62
    18
420
        0
176
     1
 90
       50
176
     1
 90
        3
176
     1
 62
     5
420
      255
176
     1
290
     0
176
     1
 90
       50
176
     1
 90
       50
176
     1
 90
       50
176
     1
290
     0
176
     1
 90
       50
176
     1
 62
   256
176
     0
 40
1.0
176
     0
 90
        2
176
     1
  1
strokes_ogs.tif
176
     1
290
     0
176
     1
 40
1.0
176
     1
 40
1.0
176
     1
  0
VISUALSTYLE
  5
35
102
{ACAD_REACTORS
330
2A
102
}
330
2A
100
AcDbVisualStyle
  2
Dim
 70
    11
177
     3
291
     1
 70
    58
 90
        2
176
     1
 90
        2
176
     1
 90
        0
176
     1
 90
        0
176
     1
 40
0.6
176
     1
 40
30.0
176
     1
 62
     7
420
 16777215
176
     1
 90
        1
176
     1
 90
        4
176
     1
 62
     7
176
     1
 62
   257
176
     1
 90
        1
176
     1
 90
        1
176
     1
 40
1.0
176
     1
 90
        8
176
     1
 62
     7
176
     1
 40
1.0
176
     1
 90
        1
176
     1
 90
        6
176
     1
 90
        2
176
     1
 62
     7
176
     1
 90
        5
176
     1
 90
        0
176
     1
 90
        0
176
     1
290
     0
176
     1
 90
        1
176
     1
 40
-50.0
176
     1
 90
        0
176
     1
290
     0
176
     1
290
     1
176
     1
290
     1
176
     1
290
     0
176
     1
290
     0
176
     1
290
     0
176
     1
290
     0
176
     1
290
     0
176
     1
290
     0
176
     1
 90
       50
176
     1
 40
0.0
176
     1
 40
1.0
176
     1
 90
        0
176
     1
 62
    18
420
        0
176
     1
 90
       50
176
     1
 90
        3
176
     1
 62
     5
420
      255
176
     1
290
     0
176
     1
 90
       50
176
     1
 90
       50
176
     1
 90
       50
176
     1
290
     0
176
     1
 90
       50
176
     1
 62
   256
176
     0
 40
1.0
176
     0
 90
        2
176
     1
  1
strokes_ogs.tif
176
     1
290
     0
176
     1
 40
1.0
176
     1
 40
1.0
176
     1
  0
VISUALSTYLE
  5
3D
102
{ACAD_REACTORS
330
2A
102
}
330
2A
100
AcDbVisualStyle
  2
EdgeColorOff
 70
    22
177
     3
291
     1
 70
    58
 90
        2
176
     0
 90
        2
176
     0
 90
        0
176
     0
 90
        0
176
     0
 40
0.6
176
     0
 40
30.0
176
     0
 62
     7
420
 16777215
176
     0
 90
        1
176
     0
 90
        4
176
     0
 62
     7
176
     0
 62
   257
176
     0
 90
        1
176
     0
 90
        1
176
     0
 40
1.0
176
     0
 90
        8
176
     2
 62
     7
176
     0
 40
1.0
176
     0
 90
        1
176
     0
 90
        6
176
     0
 90
        2
176
     0
 62
     7
176
     0
 90
        5
176
     0
 90
        0
176
     0
 90
        0
176
     0
290
     0
176
     0
 90
        1
176
     0
 40
0.0
176
     0
 90
        0
176
     0
290
     0
176
     0
290
     1
176
     0
290
     1
176
     0
290
     0
176
     0
290
     0
176
     0
290
     0
176
     0
290
     0
176
     0
290
     0
176
     0
290
     0
176
     0
 90
       50
176
     0
 40
0.0
176
     0
 40
1.0
176
     0
 90
        0
176
     0
 62
    18
420
        0
176
     0
 90
       50
176
     0
 90
        3
176
     0
 62
     5
420
      255
176
     0
290
     0
176
     0
 90
       50
176
     0
 90
       50
176
     0
 90
       50
176
     0
290
     0
176
     0
 90
       50
176
     0
 62
   256
176
     0
 40
1.0
176
     0
 90
        2
176
     0
  1
strokes_ogs.tif
176
     0
290
     0
176
     0
 40
1.0
176
     0
 40
1.0
176
     0
  0
VISUALSTYLE
  5
39
102
{ACAD_REACTORS
330
2A
102
}
330
2A
100
AcDbVisualStyle
  2
Facepattern
 70
    15
177
     3
291
     1
 70
    58
 90
        2
176
     1
 90
        2
176
     1
 90
        0
176
     1
 90
        0
176
     1
 40
0.6
176
     1
 40
30.0
176
     1
 62
     7
420
 16777215
176
     1
 90
        1
176
     1
 90
        4
176
     1
 62
     7
176
     1
 62
   257
176
     1
 90
        1
176
     1
 90
        1
176
     1
 40
1.0
176
     1
 90
        8
176
     1
 62
     7
176
     1
 40
1.0
176
     1
 90
        1
176
     1
 90
        6
176
     1
 90
        2
176
     1
 62
     7
176
     1
 90
        5
176
     1
 90
        0
176
     1
 90
        0
176
     1
290
     0
176
     1
 90
        1
176
     1
 40
0.0
176
     1
 90
        0
176
     1
290
     0
176
     1
290
     1
176
     1
290
     1
176
     1
290
     0
176
     1
290
     0
176
     1
290
     0
176
     1
290
     0
176
     1
290
     0
176
     1
290
     0
176
     1
 90
       50
176
     1
 40
0.0
176
     1
 40
1.0
176
     1
 90
        0
176
     1
 62
    18
420
        0
176
     1
 90
       50
176
     1
 90
        3
176
     1
 62
     5
420
      255
176
     1
290
     0
176
     1
 90
       50
176
     1
 90
       50
176
     1
 90
       50
176
     1
290
     0
176
     1
 90
       50
176
     1
 62
   256
176
     0
 40
1.0
176
     0
 90
        2
176
     1
  1
strokes_ogs.tif
176
     1
290
     0
176
     1
 40
1.0
176
     1
 40
1.0
176
     1
  0
VISUALSTYLE
  5
2B
102
{ACAD_REACTORS
330
2A
102
}
330
2A
100
AcDbVisualStyle
  2
Flat
 70
     0
177
     3
291
     1
 70
    58
 90
        2
176
     1
 90
        1
176
     1
 90
        1
176
     1
 90
        2
176
     1
 40
0.6
176
     1
 40
30.0
176
     1
 62
     7
420
 16777215
176
     1
 90
        0
176
     1
 90
        0
176
     1
 62
     7
176
     1
 62
   257
176
     1
 90
        1
176
     1
 90
        1
176
     1
 40
1.0
176
     1
 90
        8
176
     1
 62
     7
176
     1
 40
1.0
176
     1
 90
        1
176
     1
 90
        6
176
     1
 90
        2
176
     1
 62
     7
176
     1
 90
        5
176
     1
 90
        0
176
     1
 90
        0
176
     1
290
     0
176
     1
 90
       13
176
     1
 40
0.0
176
     1
 90
        0
176
     1
290
     0
176
     1
290
     1
176
     1
290
     1
176
     1
290
     0
176
     1
290
     0
176
     1
290
     0
176
     1
290
     0
176
     1
290
     0
176
     1
290
     0
176
     1
 90
       50
176
     1
 40
0.0
176
     1
 40
1.0
176
     1
 90
        0
176
     1
 62
    18
420
        0
176
     1
 90
       50
176
     1
 90
        3
176
     1
 62
     5
420
      255
176
     1
290
     0
176
     1
 90
       50
176
     1
 90
       50
176
     1
 90
       50
176
     1
290
     0
176
     1
 90
       50
176
     1
 62
   256
176
     0
 40
1.0
176
     0
 90
        2
176
     1
  1
strokes_ogs.tif
176
     1
290
     0
176
     1
 40
1.0
176
     1
 40
1.0
176
     1
  0
VISUALSTYLE
  5
2C
102
{ACAD_REACTORS
330
2A
102
}
330
2A
100
AcDbVisualStyle
  2
FlatWithEdges
 70
     1
177
     3
291
     1
 70
    58
 90
        2
176
     1
 90
        1
176
     1
 90
        1
176
     1
 90
        2
176
     1
 40
0.6
176
     1
 40
30.0
176
     1
 62
     7
420
 16777215
176
     1
 90
        1
176
     1
 90
        0
176
     1
 62
     7
176
     1
 62
   257
176
     1
 90
        1
176
     1
 90
        1
176
     1
 40
1.0
176
     1
 90
        0
176
     1
 62
   257
176
     1
 40
1.0
176
     1
 90
        1
176
     1
 90
        6
176
     1
 90
        2
176
     1
 62
     7
176
     1
 90
        5
176
     1
 90
        0
176
     1
 90
        0
176
     1
290
     0
176
     1
 90
       13
176
     1
 40
0.0
176
     1
 90
        0
176
     1
290
     0
176
     1
290
     1
176
     1
290
     1
176
     1
290
     0
176
     1
290
     0
176
     1
290
     0
176
     1
290
     0
176
     1
290
     0
176
     1
290
     0
176
     1
 90
       50
176
     1
 40
0.0
176
     1
 40
1.0
176
     1
 90
        0
176
     1
 62
    18
420
        0
176
     1
 90
       50
176
     1
 90
        3
176
     1
 62
     5
420
      255
176
     1
290
     0
176
     1
 90
       50
176
     1
 90
       50
176
     1
 90
       50
176
     1
290
     0
176
     1
 90
       50
176
     1
 62
   256
176
     0
 40
1.0
176
     0
 90
        2
176
     1
  1
strokes_ogs.tif
176
     1
290
     0
176
     1
 40
1.0
176
     1
 40
1.0
176
     1
  0
VISUALSTYLE
  5
2D
102
{ACAD_REACTORS
330
2A
102
}
330
2A
100
AcDbVisualStyle
  2
Gouraud
 70
     2
177
     3
291
     1
 70
    58
 90
        2
176
     1
 90
        2
176
     1
 90
        1
176
     1
 90
        2
176
     1
 40
0.6
176
     1
 40
30.0
176
     1
 62
     7
420
 16777215
176
     1
 90
        0
176
     1
 90
        0
176
     1
 62
     7
176
     1
 62
   257
176
     1
 90
        1
176
     1
 90
        1
176
     1
 40
1.0
176
     1
 90
        0
176
     1
 62
     7
176
     1
 40
1.0
176
     1
 90
        1
176
     1
 90
        6
176
     1
 90
        2
176
     1
 62
     7
176
     1
 90
        5
176
     1
 90
        0
176
     1
 90
        0
176
     1
290
     0
176
     1
 90
       13
176
     1
 40
0.0
176
     1
 90
        0
176
     1
290
     0
176
     1
290
     1
176
     1
290
     1
176
     1
290
     0
176
     1
290
     0
176
     1
290
     0
176
     1
290
     0
176
     1
290
     0
176
     1
290
     0
176
     1
 90
       50
176
     1
 40
0.0
176
     1
 40
1.0
176
     1
 90
        0
176
     1
 62
    18
420
        0
176
     1
 90
       50
176
     1
 90
        3
176
     1
 62
     5
420
      255
176
     1
290
     0
176
     1
 90
       50
176
     1
 90
       50
176
     1
 90
       50
176
     1
290
     0
176
     1
 90
       50
176
     1
 62
   256
176
     0
 40
1.0
176
     0
 90
        2
176
     1
  1
strokes_ogs.tif
176
     1
290
     0
176
     1
 40
1.0
176
     1
 40
1.0
176
     1
  0
VISUALSTYLE
  5
2E
102
{ACAD_REACTORS
330
2A
102
}
330
2A
100
AcDbVisualStyle
  2
GouraudWithEdges
 70
     3
177
     3
291
     1
 70
    58
 90
        2
176
     1
 90
        2
176
     1
 90
        1
176
     1
 90
        2
176
     1
 40
0.6
176
     1
 40
30.0
176
     1
 62
     7
420
 16777215
176
     1
 90
        1
176
     1
 90
        0
176
     1
 62
     7
176
     1
 62
   257
176
     1
 90
        1
176
     1
 90
        1
176
     1
 40
1.0
176
     1
 90
        0
176
     1
 62
   257
176
     1
 40
1.0
176
     1
 90
        1
176
     1
 90
        6
176
     1
 90
        2
176
     1
 62
     7
176
     1
 90
        5
176
     1
 90
        0
176
     1
 90
        0
176
     1
290
     0
176
     1
 90
       13
176
     1
 40
0.0
176
     1
 90
        0
176
     1
290
     0
176
     1
290
     1
176
     1
290
     1
176
     1
290
     0
176
     1
290
     0
176
     1
290
     0
176
     1
290
     0
176
     1
290
     0
176
     1
290
     0
176
     1
 90
       50
176
     1
 40
0.0
176
     1
 40
1.0
176
     1
 90
        0
176
     1
 62
    18
420
        0
176
     1
 90
       50
176
     1
 90
        3
176
     1
 62
     5
420
      255
176
     1
290
     0
176
     1
 90
       50
176
     1
 90
       50
176
     1
 90
       50
176
     1
290
     0
176
     1
 90
       50
176
     1
 62
   256
176
     0
 40
1.0
176
     0
 90
        2
176
     1
  1
strokes_ogs.tif
176
     1
290
     0
176
     1
 40
1.0
176
     1
 40
1.0
176
     1
  0
VISUALSTYLE
  5
31
102
{ACAD_REACTORS
330
2A
102
}
330
2A
100
AcDbVisualStyle
  2
Hidden
 70
     6
177
     3
291
     0
 70
    58
 90
        1
176
     1
 90
        2
176
     1
 90
        2
176
     1
 90
        0
176
     1
 40
0.6
176
     1
 40
30.0
176
     1
 62
     7
420
 16777215
176
     1
 90
        2
176
     1
 90
        2
176
     1
 62
     7
176
     1
 62
   257
176
     1
 90
        2
176
     1
 90
        1
176
     1
 40
40.0
176
     1
 90
        0
176
     1
 62
   257
176
     1
 40
1.0
176
     1
 90
        1
176
     1
 90
        6
176
     1
 90
        2
176
     1
 62
     7
176
     1
 90
        3
176
     1
 90
        0
176
     1
 90
        0
176
     1
290
     0
176
     1
 90
        1
176
     1
 40
0.0
176
     1
 90
        0
176
     1
290
     0
176
     1
290
     1
176
     1
290
     1
176
     1
290
     0
176
     1
290
     0
176
     1
290
     0
176
     1
290
     0
176
     1
290
     0
176
     1
290
     0
176
     1
 90
       50
176
     1
 40
0.0
176
     1
 40
1.0
176
     1
 90
        0
176
     1
 62
    18
420
        0
176
     1
 90
       50
176
     1
 90
        3
176
     1
 62
     5
420
      255
176
     1
290
     0
176
     1
 90
       50
176
     1
 90
       50
176
     1
 90
       50
176
     1
290
     0
176
     1
 90
       50
176
     1
 62
   256
176
     0
 40
1.0
176
     0
 90
        2
176
     1
  1
strokes_ogs.tif
176
     1
290
     0
176
     1
 40
1.0
176
     1
 40
1.0
176
     1
  0
VISUALSTYLE
  5
3B
102
{ACAD_REACTORS
330
2A
102
}
330
2A
100
AcDbVisualStyle
  2
JitterOff
 70
    20
177
     3
291
     1
 70
    58
 90
        2
176
     0
 90
        2
176
     0
 90
        0
176
     0
 90
        0
176
     0
 40
0.6
176
     0
 40
30.0
176
     0
 62
     7
420
 16777215
176
     0
 90
        1
176
     0
 90
        4
176
     0
 62
     7
176
     0
 62
   257
176
     0
 90
        1
176
     0
 90
        1
176
     0
 40
1.0
176
     0
 90
       10
176
     2
 62
     7
176
     0
 40
1.0
176
     0
 90
        1
176
     0
 90
        6
176
     0
 90
        2
176
     0
 62
     7
176
     0
 90
        5
176
     0
 90
        0
176
     0
 90
        0
176
     0
290
     0
176
     0
 90
        1
176
     0
 40
0.0
176
     0
 90
        0
176
     0
290
     0
176
     0
290
     1
176
     0
290
     1
176
     0
290
     0
176
     0
290
     0
176
     0
290
     0
176
     0
290
     0
176
     0
290
     0
176
     0
290
     0
176
     0
 90
       50
176
     0
 40
0.0
176
     0
 40
1.0
176
     0
 90
        0
176
     0
 62
    18
420
        0
176
     0
 90
       50
176
     0
 90
        3
176
     0
 62
     5
420
      255
176
     0
290
     0
176
     0
 90
       50
176
     0
 90
       50
176
     0
 90
       50
176
     0
290
     0
176
     0
 90
       50
176
     0
 62
   256
176
     0
 40
1.0
176
     0
 90
        2
176
     0
  1
strokes_ogs.tif
176
     0
290
     0
176
     0
 40
1.0
176
     0
 40
1.0
176
     0
  0
VISUALSTYLE
  5
38
102
{ACAD_REACTORS
330
2A
102
}
330
2A
100
AcDbVisualStyle
  2
Linepattern
 70
    14
177
     3
291
     1
 70
    58
 90
        2
176
     1
 90
        2
176
     1
 90
        0
176
     1
 90
        0
176
     1
 40
0.6
176
     1
 40
30.0
176
     1
 62
     7
420
 16777215
176
     1
 90
        1
176
     1
 90
        4
176
     1
 62
     7
176
     1
 62
   257
176
     1
 90
        7
176
     1
 90
        7
176
     1
 40
1.0
176
     1
 90
        8
176
     1
 62
     7
176
     1
 40
1.0
176
     1
 90
        1
176
     1
 90
        6
176
     1
 90
        2
176
     1
 62
     7
176
     1
 90
        5
176
     1
 90
        0
176
     1
 90
        0
176
     1
290
     0
176
     1
 90
        1
176
     1
 40
0.0
176
     1
 90
        0
176
     1
290
     0
176
     1
290
     1
176
     1
290
     1
176
     1
290
     0
176
     1
290
     0
176
     1
290
     0
176
     1
290
     0
176
     1
290
     0
176
     1
290
     0
176
     1
 90
       50
176
     1
 40
0.0
176
     1
 40
1.0
176
     1
 90
        0
176
     1
 62
    18
420
        0
176
     1
 90
       50
176
     1
 90
        3
176
     1
 62
     5
420
      255
176
     1
290
     0
176
     1
 90
       50
176
     1
 90
       50
176
     1
 90
       50
176
     1
290
     0
176
     1
 90
       50
176
     1
 62
   256
176
     0
 40
1.0
176
     0
 90
        2
176
     1
  1
strokes_ogs.tif
176
     1
290
     0
176
     1
 40
1.0
176
     1
 40
1.0
176
     1
  0
VISUALSTYLE
  5
3C
102
{ACAD_REACTORS
330
2A
102
}
330
2A
100
AcDbVisualStyle
  2
OverhangOff
 70
    21
177
     3
291
     1
 70
    58
 90
        2
176
     0
 90
        2
176
     0
 90
        0
176
     0
 90
        0
176
     0
 40
0.6
176
     0
 40
30.0
176
     0
 62
     7
420
 16777215
176
     0
 90
        1
176
     0
 90
        4
176
     0
 62
     7
176
     0
 62
   257
176
     0
 90
        1
176
     0
 90
        1
176
     0
 40
1.0
176
     0
 90
        9
176
     2
 62
     7
176
     0
 40
1.0
176
     0
 90
        1
176
     0
 90
        6
176
     0
 90
        2
176
     0
 62
     7
176
     0
 90
        5
176
     0
 90
        0
176
     0
 90
        0
176
     0
290
     0
176
     0
 90
        1
176
     0
 40
0.0
176
     0
 90
        0
176
     0
290
     0
176
     0
290
     1
176
     0
290
     1
176
     0
290
     0
176
     0
290
     0
176
     0
290
     0
176
     0
290
     0
176
     0
290
     0
176
     0
290
     0
176
     0
 90
       50
176
     0
 40
0.0
176
     0
 40
1.0
176
     0
 90
        0
176
     0
 62
    18
420
        0
176
     0
 90
       50
176
     0
 90
        3
176
     0
 62
     5
420
      255
176
     0
290
     0
176
     0
 90
       50
176
     0
 90
       50
176
     0
 90
       50
176
     0
290
     0
176
     0
 90
       50
176
     0
 62
   256
176
     0
 40
1.0
176
     0
 90
        2
176
     0
  1
strokes_ogs.tif
176
     0
290
     0
176
     0
 40
1.0
176
     0
 40
1.0
176
     0
  0
VISUALSTYLE
  5
33
102
{ACAD_REACTORS
330
2A
102
}
330
2A
100
AcDbVisualStyle
  2
Realistic
 70
     8
177
     3
291
     0
 70
    58
 90
        2
176
     1
 90
        3
176
     1
 90
        0
176
     1
 90
        2
176
     1
 40
0.6
176
     1
 40
30.0
176
     1
 62
     7
420
 16777215
176
     1
 90
        0
176
     1
 90
        0
176
     1
 62
     7
176
     1
 62
   257
176
     1
 90
        1
176
     1
 90
        1
176
     1
 40
1.0
176
     1
 90
        8
176
     1
 62
   257
176
     1
 40
1.0
176
     1
 90
        1
176
     1
 90
        6
176
     1
 90
        2
176
     1
 62
     7
176
     1
 90
        3
176
     1
 90
        0
176
     1
 90
        0
176
     1
290
     0
176
     1
 90
       13
176
     1
 40
0.0
176
     1
 90
        0
176
     1
290
     0
176
     1
290
     1
176
     1
290
     1
176
     1
290
     0
176
     1
290
     0
176
     1
290
     0
176
     1
290
     0
176
     1
290
     0
176
     1
290
     0
176
     1
 90
       50
176
     1
 40
0.0
176
     1
 40
1.0
176
     1
 90
        0
176
     1
 62
    18
420
        0
176
     1
 90
       50
176
     1
 90
        3
176
     1
 62
     5
420
      255
176
     1
290
     0
176
     1
 90
       50
176
     1
 90
       50
176
     1
 90
       50
176
     1
290
     0
176
     1
 90
       50
176
     1
 62
   256
176
     0
 40
1.0
176
     0
 90
        2
176
     1
  1
strokes_ogs.tif
176
     1
290
     0
176
     1
 40
1.0
176
     1
 40
1.0
176
     1
  0
VISUALSTYLE
  5
42
102
{ACAD_REACTORS
330
2A
102
}
330
2A
100
AcDbVisualStyle
  2
Shaded
 70
    27
177
     3
291
     0
 70
    58
 90
        2
176
     1
 90
        2
176
     1
 90
        1
176
     1
 90
        2
176
     1
 40
0.6
176
     1
 40
30.0
176
     1
 62
     7
420
 16777215
176
     1
 90
        0
176
     1
 90
        4
176
     1
 62
     7
176
     1
 62
   257
176
     1
 90
        1
176
     1
 90
        1
176
     1
 40
1.0
176
     1
 90
        8
176
     1
 62
   257
176
     1
 40
1.0
176
     1
 90
        1
176
     1
 90
        6
176
     1
 90
        2
176
     1
 62
     8
420
  7895160
176
     1
 90
        3
176
     1
 90
        0
176
     1
 90
        0
176
     1
290
     0
176
     1
 90
        5
176
     1
 40
0.0
176
     1
 90
        0
176
     1
290
     0
176
     1
290
     1
176
     1
290
     1
176
     1
290
     0
176
     1
290
     0
176
     1
290
     0
176
     1
290
     0
176
     1
290
     0
176
     1
290
     0
176
     1
 90
       50
176
     1
 40
0.0
176
     1
 40
1.0
176
     1
 90
        0
176
     1
 62
    18
420
        0
176
     1
 90
       50
176
     1
 90
        3
176
     1
 62
     5
420
      255
176
     1
290
     0
176
     1
 90
       50
176
     1
 90
       50
176
     1
 90
       50
176
     1
290
     0
176
     1
 90
       50
176
     1
 62
   256
176
     0
 40
1.0
176
     0
 90
        2
176
     1
  1
strokes_ogs.tif
176
     1
290
     0
176
     1
 40
1.0
176
     1
 40
1.0
176
     1
  0
VISUALSTYLE
  5
41
102
{ACAD_REACTORS
330
2A
102
}
330
2A
100
AcDbVisualStyle
  2
Shaded with edges
 70
    26
177
     3
291
     0
 70
    58
 90
        2
176
     1
 90
        2
176
     1
 90
        1
176
     1
 90
        2
176
     1
 40
0.6
176
     1
 40
30.0
176
     1
 62
     7
420
 16777215
176
     1
 90
        1
176
     1
 90
       10
176
     1
 62
     7
176
     1
 62
   257
176
     1
 90
        2
176
     1
 90
        1
176
     1
 40
1.0
176
     1
 90
        8
176
     1
 62
   257
176
     1
 40
1.0
176
     1
 90
        1
176
     1
 90
        6
176
     1
 90
        2
176
     1
 62
     7
176
     1
 90
        3
176
     1
 90
        0
176
     1
 90
        0
176
     1
290
     0
176
     1
 90
        5
176
     1
 40
0.0
176
     1
 90
        0
176
     1
290
     0
176
     1
290
     1
176
     1
290
     1
176
     1
290
     0
176
     1
290
     0
176
     1
290
     0
176
     1
290
     0
176
     1
290
     0
176
     1
290
     0
176
     1
 90
       50
176
     1
 40
0.0
176
     1
 40
1.0
176
     1
 90
        0
176
     1
 62
    18
420
        0
176
     1
 90
       50
176
     1
 90
        3
176
     1
 62
     5
420
      255
176
     1
290
     0
176
     1
 90
       50
176
     1
 90
       50
176
     1
 90
       50
176
     1
290
     0
176
     1
 90
       50
176
     1
 62
   256
176
     0
 40
1.0
176
     0
 90
        2
176
     1
  1
strokes_ogs.tif
176
     1
290
     0
176
     1
 40
1.0
176
     1
 40
1.0
176
     1
  0
VISUALSTYLE
  5
3E
102
{ACAD_REACTORS
330
2A
102
}
330
2A
100
AcDbVisualStyle
  2
Shades of Gray
 70
    23
177
     3
291
     0
 70
    58
 90
        2
176
     1
 90
        2
176
     1
 90
        3
176
     1
 90
        0
176
     1
 40
0.6
176
     1
 40
30.0
176
     1
 62
     7
420
 16777215
176
     1
 90
        2
176
     1
 90
        2
176
     1
 62
     7
176
     1
 62
     7
176
     1
 90
        1
176
     1
 90
        1
176
     1
 40
40.0
176
     1
 90
        8
176
     1
 62
     7
176
     1
 40
1.0
176
     1
 90
        1
176
     1
 90
        6
176
     1
 90
        2
176
     1
 62
     7
176
     1
 90
        3
176
     1
 90
        0
176
     1
 90
        0
176
     1
290
     0
176
     1
 90
        1
176
     1
 40
0.0
176
     1
 90
        0
176
     1
290
     0
176
     1
290
     1
176
     1
290
     1
176
     1
290
     0
176
     1
290
     0
176
     1
290
     0
176
     1
290
     0
176
     1
290
     0
176
     1
290
     0
176
     1
 90
       50
176
     1
 40
0.0
176
     1
 40
1.0
176
     1
 90
        0
176
     1
 62
    18
420
        0
176
     1
 90
       50
176
     1
 90
        3
176
     1
 62
     5
420
      255
176
     1
290
     0
176
     1
 90
       50
176
     1
 90
       50
176
     1
 90
       50
176
     1
290
     0
176
     1
 90
       50
176
     1
 62
   256
176
     0
 40
1.0
176
     0
 90
        2
176
     1
  1
strokes_ogs.tif
176
     1
290
     0
176
     1
 40
1.0
176
     1
 40
1.0
176
     1
  0
VISUALSTYLE
  5
3F
102
{ACAD_REACTORS
330
2A
102
}
330
2A
100
AcDbVisualStyle
  2
Sketchy
 70
    24
177
     3
291
     0
 70
    58
 90
        1
176
     1
 90
        2
176
     1
 90
        2
176
     1
 90
        0
176
     1
 40
0.6
176
     1
 40
30.0
176
     1
 62
     7
420
 16777215
176
     1
 90
        2
176
     1
 90
        2
176
     1
 62
     7
176
     1
 62
     7
176
     1
 90
        1
176
     1
 90
        1
176
     1
 40
40.0
176
     1
 90
       11
176
     1
 62
     7
176
     1
 40
1.0
176
     1
 90
        1
176
     1
 90
        6
176
     1
 90
        2
176
     1
 62
     7
176
     1
 90
        6
176
     1
 90
        0
176
     1
 90
        0
176
     1
290
     0
176
     1
 90
        1
176
     1
 40
0.0
176
     1
 90
        0
176
     1
290
     0
176
     1
290
     1
176
     1
290
     1
176
     1
290
     0
176
     1
290
     0
176
     1
290
     0
176
     1
290
     0
176
     1
290
     0
176
     1
290
     0
176
     1
 90
       50
176
     1
 40
0.0
176
     1
 40
1.0
176
     1
 90
        0
176
     1
 62
    18
420
        0
176
     1
 90
       50
176
     1
 90
        3
176
     1
 62
     5
420
      255
176
     1
290
     0
176
     1
 90
       50
176
     1
 90
       50
176
     1
 90
       50
176
     1
290
     0
176
     1
 90
       50
176
     1
 62
   256
176
     0
 40
1.0
176
     0
 90
        2
176
     1
  1
strokes_ogs.tif
176
     1
290
     0
176
     1
 40
1.0
176
     1
 40
1.0
176
     1
  0
VISUALSTYLE
  5
37
102
{ACAD_REACTORS
330
2A
102
}
330
2A
100
AcDbVisualStyle
  2
Thicken
 70
    13
177
     3
291
     1
 70
    58
 90
        2
176
     1
 90
        2
176
     1
 90
        0
176
     1
 90
        0
176
     1
 40
0.6
176
     1
 40
30.0
176
     1
 62
     7
420
 16777215
176
     1
 90
        1
176
     1
 90
        4
176
     1
 62
     7
176
     1
 62
   257
176
     1
 90
        1
176
     1
 90
        1
176
     1
 40
1.0
176
     1
 90
       12
176
     1
 62
     7
176
     1
 40
1.0
176
     1
 90
        1
176
     1
 90
        6
176
     1
 90
        2
176
     1
 62
     7
176
     1
 90
        5
176
     1
 90
        0
176
     1
 90
        0
176
     1
290
     0
176
     1
 90
        1
176
     1
 40
0.0
176
     1
 90
        0
176
     1
290
     0
176
     1
290
     1
176
     1
290
     1
176
     1
290
     0
176
     1
290
     0
176
     1
290
     0
176
     1
290
     0
176
     1
290
     0
176
     1
290
     0
176
     1
 90
       50
176
     1
 40
0.0
176
     1
 40
1.0
176
     1
 90
        0
176
     1
 62
    18
420
        0
176
     1
 90
       50
176
     1
 90
        3
176
     1
 62
     5
420
      255
176
     1
290
     0
176
     1
 90
       50
176
     1
 90
       50
176
     1
 90
       50
176
     1
290
     0
176
     1
 90
       50
176
     1
 62
   256
176
     0
 40
1.0
176
     0
 90
        2
176
     1
  1
strokes_ogs.tif
176
     1
290
     0
176
     1
 40
1.0
176
     1
 40
1.0
176
     1
  0
VISUALSTYLE
  5
30
102
{ACAD_REACTORS
330
2A
102
}
330
2A
100
AcDbVisualStyle
  2
Wireframe
 70
     5
177
     3
291
     0
 70
    58
 90
        0
176
     1
 90
        2
176
     1
 90
        0
176
     1
 90
        0
176
     1
 40
0.6
176
     1
 40
30.0
176
     1
 62
     7
420
 16777215
176
     1
 90
        1
176
     1
 90
        4
176
     1
 62
     7
176
     1
 62
   257
176
     1
 90
        1
176
     1
 90
        1
176
     1
 40
1.0
176
     1
 90
        0
176
     1
 62
   257
176
     1
 40
1.0
176
     1
 90
        1
176
     1
 90
        6
176
     1
 90
        2
176
     1
 62
     7
176
     1
 90
        3
176
     1
 90
        0
176
     1
 90
        0
176
     1
290
     0
176
     1
 90
        1
176
     1
 40
0.0
176
     1
 90
        0
176
     1
290
     0
176
     1
290
     1
176
     1
290
     1
176
     1
290
     0
176
     1
290
     0
176
     1
290
     0
176
     1
290
     0
176
     1
290
     0
176
     1
290
     0
176
     1
 90
       50
176
     1
 40
0.0
176
     1
 40
1.0
176
     1
 90
        0
176
     1
 62
    18
420
        0
176
     1
 90
       50
176
     1
 90
        3
176
     1
 62
     5
420
      255
176
     1
290
     0
176
     1
 90
       50
176
     1
 90
       50
176
     1
 90
       50
176
     1
290
     0
176
     1
 90
       50
176
     1
 62
   256
176
     0
 40
1.0
176
     0
 90
        2
176
     1
  1
strokes_ogs.tif
176
     1
290
     0
176
     1
 40
1.0
176
     1
 40
1.0
176
     1
  0
VISUALSTYLE
  5
40
102
{ACAD_REACTORS
330
2A
102
}
330
2A
100
AcDbVisualStyle
  2
X-Ray
 70
    25
177
     3
291
     0
 70
    58
 90
        2
176
     1
 90
        2
176
     1
 90
        1
176
     1
 90
        1
176
     1
 40
0.5
176
     1
 40
30.0
176
     1
 62
     7
420
 16777215
176
     1
 90
        1
176
     1
 90
        0
176
     1
 62
     7
176
     1
 62
   257
176
     1
 90
        1
176
     1
 90
        1
176
     1
 40
1.0
176
     1
 90
        8
176
     1
 62
     7
176
     1
 40
1.0
176
     1
 90
        1
176
     1
 90
        6
176
     1
 90
        2
176
     1
 62
     7
176
     1
 90
        3
176
     1
 90
        0
176
     1
 90
        0
176
     1
290
     0
176
     1
 90
       13
176
     1
 40
0.0
176
     1
 90
        0
176
     1
290
     0
176
     1
290
     1
176
     1
290
     1
176
     1
290
     0
176
     1
290
     0
176
     1
290
     0
176
     1
290
     0
176
     1
290
     0
176
     1
290
     0
176
     1
 90
       50
176
     1
 40
0.0
176
     1
 40
1.0
176
     1
 90
        0
176
     1
 62
    18
420
        0
176
     1
 90
       50
176
     1
 90
        3
176
     1
 62
     5
420
      255
176
     1
290
     0
176
     1
 90
       50
176
     1
 90
       50
176
     1
 90
       50
176
     1
290
     0
176
     1
 90
       50
176
     1
 62
   256
176
     0
 40
1.0
176
     0
 90
        2
176
     1
  1
strokes_ogs.tif
176
     1
290
     0
176
     1
 40
1.0
176
     1
 40
1.0
176
     1
  0
DICTIONARYVAR
  5
229
102
{ACAD_REACTORS
330
228
102
}
330
228
100
DictionaryVariables
280
     0
  1
1:1
  0
DICTIONARYVAR
  5
22E
102
{ACAD_REACTORS
330
228
102
}
330
228
100
DictionaryVariables
280
     0
  1
Standard
  0
DICTIONARYVAR
  5
22D
102
{ACAD_REACTORS
330
228
102
}
330
228
100
DictionaryVariables
280
     0
  1
Standard
  0
DICTIONARY
  5
22A
330
6A
100
AcDbDictionary
280
     1
281
     1
  3
ACAD_ROUNDTRIP_2008_TABLESTYLE_CELLSTYLEMAP
360
22B
  0
CELLSTYLEMAP
  5
22B
102
{ACAD_REACTORS
330
22A
102
}
330
22A
100
AcDbCellStyleMap
 90
        3
300
CELLSTYLE
  1
TABLEFORMAT_BEGIN
 90
        5
170
     1
 91
        0
 92
    32768
 62
   257
 93
        1
300
CONTENTFORMAT
  1
CONTENTFORMAT_BEGIN
 90
        0
 91
        0
 92
        4
 93
        0
300

 40
0.0
140
1.0
 94
        5
 62
     0
340
11
144
0.25
309
CONTENTFORMAT_END
171
     1
301
MARGIN
  1
CELLMARGIN_BEGIN
 40
0.06
 40
0.06
 40
0.06
 40
0.06
 40
0.06
 40
0.06
309
CELLMARGIN_END
 94
        6
 95
        1
302
GRIDFORMAT
  1
GRIDFORMAT_BEGIN
 90
        0
 91
        1
 62
     0
 92
       -2
340
14
 93
        0
 40
0.045
309
GRIDFORMAT_END
 95
        2
302
GRIDFORMAT
  1
GRIDFORMAT_BEGIN
 90
        0
 91
        1
 62
     0
 92
       -2
340
14
 93
        0
 40
0.045
309
GRIDFORMAT_END
 95
        4
302
GRIDFORMAT
  1
GRIDFORMAT_BEGIN
 90
        0
 91
        1
 62
     0
 92
       -2
340
14
 93
        0
 40
0.045
309
GRIDFORMAT_END
 95
        8
302
GRIDFORMAT
  1
GRIDFORMAT_BEGIN
 90
        0
 91
        1
 62
     0
 92
       -2
340
14
 93
        0
 40
0.045
309
GRIDFORMAT_END
 95
       16
302
GRIDFORMAT
  1
GRIDFORMAT_BEGIN
 90
        0
 91
        1
 62
     0
 92
       -2
340
14
 93
        0
 40
0.045
309
GRIDFORMAT_END
 95
       32
302
GRIDFORMAT
  1
GRIDFORMAT_BEGIN
 90
        0
 91
        1
 62
     0
 92
       -2
340
14
 93
        0
 40
0.045
309
GRIDFORMAT_END
309
TABLEFORMAT_END
  1
CELLSTYLE_BEGIN
 90
        1
 91
        1
300
_TITLE
309
CELLSTYLE_END
300
CELLSTYLE
  1
TABLEFORMAT_BEGIN
 90
        5
170
     1
 91
        0
 92
        0
 62
   257
 93
        1
300
CONTENTFORMAT
  1
CONTENTFORMAT_BEGIN
 90
        0
 91
        0
 92
        4
 93
        0
300

 40
0.0
140
1.0
 94
        5
 62
     0
340
11
144
0.18
309
CONTENTFORMAT_END
171
     1
301
MARGIN
  1
CELLMARGIN_BEGIN
 40
0.06
 40
0.06
 40
0.06
 40
0.06
 40
0.06
 40
0.06
309
CELLMARGIN_END
 94
        6
 95
        1
302
GRIDFORMAT
  1
GRIDFORMAT_BEGIN
 90
        0
 91
        1
 62
     0
 92
       -2
340
14
 93
        0
 40
0.045
309
GRIDFORMAT_END
 95
        2
302
GRIDFORMAT
  1
GRIDFORMAT_BEGIN
 90
        0
 91
        1
 62
     0
 92
       -2
340
14
 93
        0
 40
0.045
309
GRIDFORMAT_END
 95
        4
302
GRIDFORMAT
  1
GRIDFORMAT_BEGIN
 90
        0
 91
        1
 62
     0
 92
       -2
340
14
 93
        0
 40
0.045
309
GRIDFORMAT_END
 95
        8
302
GRIDFORMAT
  1
GRIDFORMAT_BEGIN
 90
        0
 91
        1
 62
     0
 92
       -2
340
14
 93
        0
 40
0.045
309
GRIDFORMAT_END
 95
       16
302
GRIDFORMAT
  1
GRIDFORMAT_BEGIN
 90
        0
 91
        1
 62
     0
 92
       -2
340
14
 93
        0
 40
0.045
309
GRIDFORMAT_END
 95
       32
302
GRIDFORMAT
  1
GRIDFORMAT_BEGIN
 90
        0
 91
        1
 62
     0
 92
       -2
340
14
 93
        0
 40
0.045
309
GRIDFORMAT_END
309
TABLEFORMAT_END
  1
CELLSTYLE_BEGIN
 90
        2
 91
        1
300
_HEADER
309
CELLSTYLE_END
300
CELLSTYLE
  1
TABLEFORMAT_BEGIN
 90
        5
170
     1
 91
        0
 92
        0
 62
   257
 93
        1
300
CONTENTFORMAT
  1
CONTENTFORMAT_BEGIN
 90
        0
 91
        0
 92
        4
 93
        0
300

 40
0.0
140
1.0
 94
        2
 62
     0
340
11
144
0.18
309
CONTENTFORMAT_END
171
     1
301
MARGIN
  1
CELLMARGIN_BEGIN
 40
0.06
 40
0.06
 40
0.06
 40
0.06
 40
0.06
 40
0.06
309
CELLMARGIN_END
 94
        6
 95
        1
302
GRIDFORMAT
  1
GRIDFORMAT_BEGIN
 90
        0
 91
        1
 62
     0
 92
       -2
340
14
 93
        0
 40
0.045
309
GRIDFORMAT_END
 95
        2
302
GRIDFORMAT
  1
GRIDFORMAT_BEGIN
 90
        0
 91
        1
 62
     0
 92
       -2
340
14
 93
        0
 40
0.045
309
GRIDFORMAT_END
 95
        4
302
GRIDFORMAT
  1
GRIDFORMAT_BEGIN
 90
        0
 91
        1
 62
     0
 92
       -2
340
14
 93
        0
 40
0.045
309
GRIDFORMAT_END
 95
        8
302
GRIDFORMAT
  1
GRIDFORMAT_BEGIN
 90
        0
 91
        1
 62
     0
 92
       -2
340
14
 93
        0
 40
0.045
309
GRIDFORMAT_END
 95
       16
302
GRIDFORMAT
  1
GRIDFORMAT_BEGIN
 90
        0
 91
        1
 62
     0
 92
       -2
340
14
 93
        0
 40
0.045
309
GRIDFORMAT_END
 95
       32
302
GRIDFORMAT
  1
GRIDFORMAT_BEGIN
 90
        0
 91
        1
 62
     0
 92
       -2
340
14
 93
        0
 40
0.045
309
GRIDFORMAT_END
309
TABLEFORMAT_END
  1
CELLSTYLE_BEGIN
 90
        3
 91
        2
300
_DATA
309
CELLSTYLE_END
  0
ENDSEC
  0
EOF