0
SECTION
  2
HEADER
  9
$ACADVER
  1
AC1027
  9
$ACADMAINTVER
 70
     8
  9
$DWGCODEPAGE
  3
ANSI_1252
  9
$REQUIREDVERSIONS
160
                 0
  9
$COMMENTS
  1
File was created by Cadenas
  9
$CUSTOMPROPERTYTAG
  1
NN
  9
$CUSTOMPROPERTY
  1
Grip Tight Four-Bolt Flange Inch Bore
  9
$CUSTOMPROPERTYTAG
  1
NT
  9
$CUSTOMPROPERTY
  1
GT Normal Duty 4 Bolt Flange Bearings
  9
$CUSTOMPROPERTYTAG
  1
NB
  9
$CUSTOMPROPERTY
  1
129655
  9
$CUSTOMPROPERTYTAG
  1
NBSYN
  9
$CUSTOMPROPERTY
  1
$PN.$LUBE.
  9
$CUSTOMPROPERTYTAG
  1
LINA
  9
$CUSTOMPROPERTY
  1
129655
  9
$CUSTOMPROPERTYTAG
  1
SERIES
  9
$CUSTOMPROPERTY
  1
211
  9
$CUSTOMPROPERTYTAG
  1
SS
  9
$CUSTOMPROPERTY
  1
2-3/16
  9
$CUSTOMPROPERTYTAG
  1
PN
  9
$CUSTOMPROPERTY
  1
129655
  9
$CUSTOMPROPERTYTAG
  1
DESCRIPTION
  9
$CUSTOMPROPERTY
  1
F4B-GT-203
  9
$CUSTOMPROPERTYTAG
  1
A
  9
$CUSTOMPROPERTY
  1
1-59/64
  9
$CUSTOMPROPERTYTAG
  1
B
  9
$CUSTOMPROPERTY
  1
6-1/2
  9
$CUSTOMPROPERTYTAG
  1
C
  9
$CUSTOMPROPERTY
  1
2-9/64
  9
$CUSTOMPROPERTYTAG
  1
D
  9
$CUSTOMPROPERTY
  1
5-1/8
  9
$CUSTOMPROPERTYTAG
  1
F
  9
$CUSTOMPROPERTY
  1
5/8
  9
$CUSTOMPROPERTYTAG
  1
H
  9
$CUSTOMPROPERTY
  1
11/16
  9
$CUSTOMPROPERTYTAG
  1
J
  9
$CUSTOMPROPERTY
  1
33/64
  9
$CUSTOMPROPERTYTAG
  1
L
  9
$CUSTOMPROPERTY
  1
3-1/4
  9
$CUSTOMPROPERTYTAG
  1
N
  9
$CUSTOMPROPERTY
  1
3-1/4
  9
$CUSTOMPROPERTYTAG
  1
Z
  9
$CUSTOMPROPERTY
  1
2-7/64
  9
$CUSTOMPROPERTYTAG
  1
COMPANY
  9
$CUSTOMPROPERTY
  1
baldor
  9
$INSBASE
 10
0.0
 20
0.0
 30
0.0
  9
$EXTMIN
 10
1.000000000000000E+20
 20
1.000000000000000E+20
 30
1.000000000000000E+20
  9
$EXTMAX
 10
-1.000000000000000E+20
 20
-1.000000000000000E+20
 30
-1.000000000000000E+20
  9
$LIMMIN
 10
0.0
 20
0.0
  9
$LIMMAX
 10
12.0
 20
9.0
  9
$ORTHOMODE
 70
     0
  9
$REGENMODE
 70
     1
  9
$FILLMODE
 70
     1
  9
$QTEXTMODE
 70
     0
  9
$MIRRTEXT
 70
     1
  9
$LTSCALE
 40
1.0
  9
$ATTMODE
 70
     1
  9
$TEXTSIZE
 40
0.2
  9
$TRACEWID
 40
0.05
  9
$TEXTSTYLE
  7
Standard
  9
$CLAYER
  8
0
  9
$CELTYPE
  6
ByLayer
  9
$CECOLOR
 62
   256
  9
$CELTSCALE
 40
1.0
  9
$DISPSILH
 70
     0
  9
$DIMSCALE
 40
1.0
  9
$DIMASZ
 40
0.18
  9
$DIMEXO
 40
0.0625
  9
$DIMDLI
 40
0.38
  9
$DIMRND
 40
0.0
  9
$DIMDLE
 40
0.0
  9
$DIMEXE
 40
0.18
  9
$DIMTP
 40
0.0
  9
$DIMTM
 40
0.0
  9
$DIMTXT
 40
0.18
  9
$DIMCEN
 40
0.09
  9
$DIMTSZ
 40
0.0
  9
$DIMTOL
 70
     0
  9
$DIMLIM
 70
     0
  9
$DIMTIH
 70
     1
  9
$DIMTOH
 70
     1
  9
$DIMSE1
 70
     0
  9
$DIMSE2
 70
     0
  9
$DIMTAD
 70
     0
  9
$DIMZIN
 70
     0
  9
$DIMBLK
  1

  9
$DIMASO
 70
     1
  9
$DIMSHO
 70
     1
  9
$DIMPOST
  1

  9
$DIMAPOST
  1

  9
$DIMALT
 70
     0
  9
$DIMALTD
 70
     2
  9
$DIMALTF
 40
25.4
  9
$DIMLFAC
 40
1.0
  9
$DIMTOFL
 70
     0
  9
$DIMTVP
 40
0.0
  9
$DIMTIX
 70
     0
  9
$DIMSOXD
 70
     0
  9
$DIMSAH
 70
     0
  9
$DIMBLK1
  1

  9
$DIMBLK2
  1

  9
$DIMSTYLE
  2
Standard
  9
$DIMCLRD
 70
     0
  9
$DIMCLRE
 70
     0
  9
$DIMCLRT
 70
     0
  9
$DIMTFAC
 40
1.0
  9
$DIMGAP
 40
0.09
  9
$DIMJUST
 70
     0
  9
$DIMSD1
 70
     0
  9
$DIMSD2
 70
     0
  9
$DIMTOLJ
 70
     1
  9
$DIMTZIN
 70
     0
  9
$DIMALTZ
 70
     0
  9
$DIMALTTZ
 70
     0
  9
$DIMUPT
 70
     0
  9
$DIMDEC
 70
     4
  9
$DIMTDEC
 70
     4
  9
$DIMALTU
 70
     2
  9
$DIMALTTD
 70
     2
  9
$DIMTXSTY
  7
Standard
  9
$DIMAUNIT
 70
     0
  9
$DIMADEC
 70
     0
  9
$DIMALTRND
 40
0.0
  9
$DIMAZIN
 70
     0
  9
$DIMDSEP
 70
    46
  9
$DIMATFIT
 70
     3
  9
$DIMFRAC
 70
     0
  9
$DIMLDRBLK
  1

  9
$DIMLUNIT
 70
     2
  9
$DIMLWD
 70
    -2
  9
$DIMLWE
 70
    -2
  9
$DIMTMOVE
 70
     0
  9
$DIMFXL
 40
1.0
  9
$DIMFXLON
 70
     0
  9
$DIMJOGANG
 40
0.7853981633974483
  9
$DIMTFILL
 70
     0
  9
$DIMTFILLCLR
 70
     0
  9
$DIMARCSYM
 70
     0
  9
$DIMLTYPE
  6

  9
$DIMLTEX1
  6

  9
$DIMLTEX2
  6

  9
$DIMTXTDIRECTION
 70
     0
  9
$LUNITS
 70
     2
  9
$LUPREC
 70
     4
  9
$SKETCHINC
 40
0.1
  9
$FILLETRAD
 40
0.5
  9
$AUNITS
 70
     0
  9
$AUPREC
 70
     0
  9
$MENU
  1
.
  9
$ELEVATION
 40
0.0
  9
$PELEVATION
 40
0.0
  9
$THICKNESS
 40
0.0
  9
$LIMCHECK
 70
     0
  9
$CHAMFERA
 40
0.0
  9
$CHAMFERB
 40
0.0
  9
$CHAMFERC
 40
0.0
  9
$CHAMFERD
 40
0.0
  9
$SKPOLY
 70
     0
  9
$TDCREATE
 40
2458168.977224792
  9
$TDUCREATE
 40
2458168.935558125
  9
$TDUPDATE
 40
2458168.977224977
  9
$TDUUPDATE
 40
2458168.93555831
  9
$TDINDWG
 40
0.0000000116
  9
$TDUSRTIMER
 40
0.0000000116
  9
$USRTIMER
 70
     1
  9
$ANGBASE
 50
0.0
  9
$ANGDIR
 70
     0
  9
$PDMODE
 70
     0
  9
$PDSIZE
 40
0.0
  9
$PLINEWID
 40
0.0
  9
$SPLFRAME
 70
     0
  9
$SPLINETYPE
 70
     6
  9
$SPLINESEGS
 70
     8
  9
$HANDSEED
  5
230
  9
$SURFTAB1
 70
     6
  9
$SURFTAB2
 70
     6
  9
$SURFTYPE
 70
     6
  9
$SURFU
 70
     6
  9
$SURFV
 70
     6
  9
$UCSBASE
  2

  9
$UCSNAME
  2

  9
$UCSORG
 10
0.0
 20
0.0
 30
0.0
  9
$UCSXDIR
 10
1.0
 20
0.0
 30
0.0
  9
$UCSYDIR
 10
0.0
 20
1.0
 30
0.0
  9
$UCSORTHOREF
  2

  9
$UCSORTHOVIEW
 70
     0
  9
$UCSORGTOP
 10
0.0
 20
0.0
 30
0.0
  9
$UCSORGBOTTOM
 10
0.0
 20
0.0
 30
0.0
  9
$UCSORGLEFT
 10
0.0
 20
0.0
 30
0.0
  9
$UCSORGRIGHT
 10
0.0
 20
0.0
 30
0.0
  9
$UCSORGFRONT
 10
0.0
 20
0.0
 30
0.0
  9
$UCSORGBACK
 10
0.0
 20
0.0
 30
0.0
  9
$PUCSBASE
  2

  9
$PUCSNAME
  2

  9
$PUCSORG
 10
0.0
 20
0.0
 30
0.0
  9
$PUCSXDIR
 10
1.0
 20
0.0
 30
0.0
  9
$PUCSYDIR
 10
0.0
 20
1.0
 30
0.0
  9
$PUCSORTHOREF
  2

  9
$PUCSORTHOVIEW
 70
     0
  9
$PUCSORGTOP
 10
0.0
 20
0.0
 30
0.0
  9
$PUCSORGBOTTOM
 10
0.0
 20
0.0
 30
0.0
  9
$PUCSORGLEFT
 10
0.0
 20
0.0
 30
0.0
  9
$PUCSORGRIGHT
 10
0.0
 20
0.0
 30
0.0
  9
$PUCSORGFRONT
 10
0.0
 20
0.0
 30
0.0
  9
$PUCSORGBACK
 10
0.0
 20
0.0
 30
0.0
  9
$USERI1
 70
     0
  9
$USERI2
 70
     0
  9
$USERI3
 70
     0
  9
$USERI4
 70
     0
  9
$USERI5
 70
     0
  9
$USERR1
 40
0.0
  9
$USERR2
 40
0.0
  9
$USERR3
 40
0.0
  9
$USERR4
 40
0.0
  9
$USERR5
 40
0.0
  9
$WORLDVIEW
 70
     1
  9
$SHADEDGE
 70
     3
  9
$SHADEDIF
 70
    70
  9
$TILEMODE
 70
     1
  9
$MAXACTVP
 70
    64
  9
$PINSBASE
 10
0.0
 20
0.0
 30
0.0
  9
$PLIMCHECK
 70
     0
  9
$PEXTMIN
 10
1.000000000000000E+20
 20
1.000000000000000E+20
 30
1.000000000000000E+20
  9
$PEXTMAX
 10
-1.000000000000000E+20
 20
-1.000000000000000E+20
 30
-1.000000000000000E+20
  9
$PLIMMIN
 10
0.0
 20
0.0
  9
$PLIMMAX
 10
12.0
 20
9.0
  9
$UNITMODE
 70
     0
  9
$VISRETAIN
 70
     1
  9
$PLINEGEN
 70
     0
  9
$PSLTSCALE
 70
     1
  9
$TREEDEPTH
 70
  3020
  9
$CMLSTYLE
  2
Standard
  9
$CMLJUST
 70
     0
  9
$CMLSCALE
 40
1.0
  9
$PROXYGRAPHICS
 70
     1
  9
$MEASUREMENT
 70
     0
  9
$CELWEIGHT
370
    -1
  9
$ENDCAPS
280
     0
  9
$JOINSTYLE
280
     0
  9
$LWDISPLAY
290
     0
  9
$INSUNITS
 70
     1
  9
$HYPERLINKBASE
  1

  9
$STYLESHEET
  1

  9
$XEDIT
290
     1
  9
$CEPSNTYPE
380
     0
  9
$PSTYLEMODE
290
     1
  9
$FINGERPRINTGUID
  2
{86A415D9-2A63-47B1-9F7C-EC49EE4A6851}
  9
$VERSIONGUID
  2
{FAEB1C32-E019-11D5-929B-00C0DF256EC4}
  9
$EXTNAMES
290
     1
  9
$PSVPSCALE
 40
0.0
  9
$OLESTARTUP
290
     0
  9
$SORTENTS
280
   127
  9
$INDEXCTL
280
     0
  9
$HIDETEXT
280
     1
  9
$XCLIPFRAME
280
     2
  9
$HALOGAP
280
     0
  9
$OBSCOLOR
 70
   257
  9
$OBSLTYPE
280
     0
  9
$INTERSECTIONDISPLAY
280
     0
  9
$INTERSECTIONCOLOR
 70
   257
  9
$DIMASSOC
280
     2
  9
$PROJECTNAME
  1

  9
$CAMERADISPLAY
290
     0
  9
$LENSLENGTH
 40
50.0
  9
$CAMERAHEIGHT
 40
0.0
  9
$STEPSPERSEC
 40
2.0
  9
$STEPSIZE
 40
6.0
  9
$3DDWFPREC
 40
2.0
  9
$PSOLWIDTH
 40
0.25
  9
$PSOLHEIGHT
 40
4.0
  9
$LOFTANG1
 40
1.570796326794897
  9
$LOFTANG2
 40
1.570796326794897
  9
$LOFTMAG1
 40
0.0
  9
$LOFTMAG2
 40
0.0
  9
$LOFTPARAM
 70
     7
  9
$LOFTNORMALS
280
     1
  9
$LATITUDE
 40
37.795
  9
$LONGITUDE
 40
-122.394
  9
$NORTHDIRECTION
 40
0.0
  9
$TIMEZONE
 70
 -8000
  9
$LIGHTGLYPHDISPLAY
280
     1
  9
$TILEMODELIGHTSYNCH
280
     1
  9
$CMATERIAL
347
44
  9
$SOLIDHIST
280
     0
  9
$SHOWHIST
280
     1
  9
$DWFFRAME
280
     2
  9
$DGNFRAME
280
     2
  9
$REALWORLDSCALE
290
     1
  9
$INTERFERECOLOR
 62
   256
  9
$CSHADOW
280
     0
  9
$SHADOWPLANELOCATION
 40
0.0
  0
ENDSEC
  0
SECTION
  2
CLASSES
  0
CLASS
  1
ACDBDICTIONARYWDFLT
  2
AcDbDictionaryWithDefault
  3
ObjectDBX Classes
 90
        0
 91
        4
280
     0
281
     0
  0
CLASS
  1
VISUALSTYLE
  2
AcDbVisualStyle
  3
ObjectDBX Classes
 90
     4095
 91
        4
280
     0
281
     0
  0
CLASS
  1
MATERIAL
  2
AcDbMaterial
  3
ObjectDBX Classes
 90
     1153
 91
        4
280
     0
281
     0
  0
CLASS
  1
SCALE
  2
AcDbScale
  3
ObjectDBX Classes
 90
     1153
 91
        4
280
     0
281
     0
  0
CLASS
  1
TABLESTYLE
  2
AcDbTableStyle
  3
ObjectDBX Classes
 90
     4095
 91
        4
280
     0
281
     0
  0
CLASS
  1
MLEADERSTYLE
  2
AcDbMLeaderStyle
  3
ACDB_MLEADERSTYLE_CLASS
 90
     4095
 91
        4
280
     0
281
     0
  0
CLASS
  1
SUN
  2
AcDbSun
  3
SCENEOE
 90
     1153
 91
        4
280
     0
281
     0
  0
CLASS
  1
DICTIONARYVAR
  2
AcDbDictionaryVar
  3
ObjectDBX Classes
 90
        0
 91
        4
280
     0
281
     0
  0
CLASS
  1
CELLSTYLEMAP
  2
AcDbCellStyleMap
  3
ObjectDBX Classes
 90
     1152
 91
        4
280
     0
281
     0
  0
ENDSEC
  0
SECTION
  2
TABLES
  0
TABLE
  2
VPORT
  5
8
330
0
100
AcDbSymbolTable
 70
     1
  0
VPORT
  5
29
330
8
100
AcDbSymbolTableRecord
100
AcDbViewportTableRecord
  2
*Active
 70
     0
 10
0.0
 20
0.0
 11
1.0
 21
1.0
 12
0.0
 22
0.0121082736692912
 13
0.0
 23
0.0
 14
0.5
 24
0.5
 15
0.5
 25
0.5
 16
0.0
 26
0.0
 36
1.0
 17
0.0
 27
0.0
 37
0.0
 40
6.654700878285354
 41
0.9962882060761057
 42
50.0
 43
0.0
 44
0.0
 50
0.0
 51
0.0
 71
     0
 72
   100
 73
     1
 74
     3
 75
     0
 76
     0
 77
     0
 78
     0
281
     0
 65
     1
110
0.0
120
0.0
130
0.0
111
1.0
121
0.0
131
0.0
112
0.0
122
1.0
132
0.0
 79
     0
146
0.0
348
2F
 60
     3
 61
     5
292
     1
282
     1
141
0.0
142
0.0
 63
   250
361
6D
  0
ENDTAB
  0
TABLE
  2
LTYPE
  5
5
330
0
100
AcDbSymbolTable
 70
     3
  0
LTYPE
  5
14
330
5
100
AcDbSymbolTableRecord
100
AcDbLinetypeTableRecord
  2
ByBlock
 70
     0
  3

 72
    65
 73
     0
 40
0.0
  0
LTYPE
  5
15
330
5
100
AcDbSymbolTableRecord
100
AcDbLinetypeTableRecord
  2
ByLayer
 70
     0
  3

 72
    65
 73
     0
 40
0.0
  0
LTYPE
  5
16
330
5
100
AcDbSymbolTableRecord
100
AcDbLinetypeTableRecord
  2
Continuous
 70
     0
  3
Solid line
 72
    65
 73
     0
 40
0.0
  0
LTYPE
  5
9D
330
5
100
AcDbSymbolTableRecord
100
AcDbLinetypeTableRecord
  2
Dashed
 70
     0
  3

 72
    65
 73
     2
 40
2.0
 49
1.0
 74
     0
 49
-1.0
 74
     0
  0
LTYPE
  5
118
330
5
100
AcDbSymbolTableRecord
100
AcDbLinetypeTableRecord
  2
Center
 70
     0
  3

 72
    65
 73
     4
 40
1.5
 49
0.45
 74
     0
 49
-0.5
 74
     0
 49
0.05
 74
     0
 49
-0.5
 74
     0
  0
ENDTAB
  0
TABLE
  2
LAYER
  5
2
330
0
100
AcDbSymbolTable
 70
     7
  0
LAYER
  5
10
330
2
100
AcDbSymbolTableRecord
100
AcDbLayerTableRecord
  2
0
 70
     0
 62
     7
  6
Continuous
370
    -3
390
F
347
46
348
0
  0
LAYER
  5
72
330
2
100
AcDbSymbolTableRecord
100
AcDbLayerTableRecord
  2
AM_6
 70
     0
 62
    -2
  6
Continuous
370
    35
390
F
347
46
348
0
  0
LAYER
  5
9E
330
2
100
AcDbSymbolTableRecord
100
AcDbLayerTableRecord
  2
AM_9
 70
     0
 62
     6
  6
Dashed
370
    25
390
F
347
46
348
0
  0
LAYER
  5
A8
330
2
100
AcDbSymbolTableRecord
100
AcDbLayerTableRecord
  2
AM_4
 70
     0
 62
     3
  6
Continuous
370
    25
390
F
347
46
348
0
  0
LAYER
  5
DA
330
2
100
AcDbSymbolTableRecord
100
AcDbLayerTableRecord
  2
AM_5
 70
     0
 62
     3
  6
Continuous
370
    25
390
F
347
46
348
0
  0
LAYER
  5
119
330
2
100
AcDbSymbolTableRecord
100
AcDbLayerTableRecord
  2
AM_7
 70
     0
 62
     7
  6
Center
370
    25
390
F
347
46
348
0
  0
LAYER
  5
223
330
2
100
AcDbSymbolTableRecord
100
AcDbLayerTableRecord
  2
ConnectionPoints
 70
     0
 62
     7
  6
Continuous
370
    50
390
F
347
46
348
0
  0
ENDTAB
  0
TABLE
  2
STYLE
  5
3
330
0
100
AcDbSymbolTable
 70
     1
  0
STYLE
  5
11
330
3
100
AcDbSymbolTableRecord
100
AcDbTextStyleTableRecord
  2
Standard
 70
     0
 40
0.0
 41
1.0
 50
0.0
 71
     0
 42
0.2
  3
txt
  4

  0
ENDTAB
  0
TABLE
  2
VIEW
  5
6
330
0
100
AcDbSymbolTable
 70
     0
  0
ENDTAB
  0
TABLE
  2
UCS
  5
7
330
0
100
AcDbSymbolTable
 70
     0
  0
ENDTAB
  0
TABLE
  2
APPID
  5
9
330
0
100
AcDbSymbolTable
 70
     1
  0
APPID
  5
12
330
9
100
AcDbSymbolTableRecord
100
AcDbRegAppTableRecord
  2
ACAD
 70
     0
  0
ENDTAB
  0
TABLE
  2
DIMSTYLE
  5
A
330
0
100
AcDbSymbolTable
 70
     1
100
AcDbDimStyleTable
  0
DIMSTYLE
105
27
330
A
100
AcDbSymbolTableRecord
100
AcDbDimStyleTableRecord
  2
Standard
 70
     0
178
     0
340
11
  0
ENDTAB
  0
TABLE
  2
BLOCK_RECORD
  5
1
330
0
100
AcDbSymbolTable
 70
     5
  0
BLOCK_RECORD
  5
1F
330
1
100
AcDbSymbolTableRecord
100
AcDbBlockTableRecord
  2
*Model_Space
340
22
 70
     0
280
     1
281
     0
  0
BLOCK_RECORD
  5
1B
330
1
100
AcDbSymbolTableRecord
100
AcDbBlockTableRecord
  2
*Paper_Space
340
1E
 70
     0
280
     1
281
     0
  0
BLOCK_RECORD
  5
23
330
1
100
AcDbSymbolTableRecord
100
AcDbBlockTableRecord
  2
*Paper_Space0
340
26
 70
     0
280
     1
281
     0
  0
BLOCK_RECORD
  5
6E
330
1
100
AcDbSymbolTableRecord
100
AcDbBlockTableRecord
  2
1_129655_0
340
0
102
{BLKREFS
331
6F
102
}
 70
     0
280
     1
281
     0
  0
BLOCK_RECORD
  5
87
330
1
100
AcDbSymbolTableRecord
100
AcDbBlockTableRecord
  2
2_129524I_0_in_129655_0
340
0
102
{BLKREFS
331
88
102
}
 70
     0
280
     1
281
     0
  0
BLOCK_RECORD
  5
B1
330
1
100
AcDbSymbolTableRecord
100
AcDbBlockTableRecord
  2
3_129920_0_in_129655_0
340
0
102
{BLKREFS
331
B2
102
}
 70
     0
280
     1
281
     0
  0
BLOCK_RECORD
  5
F3
330
1
100
AcDbSymbolTableRecord
100
AcDbBlockTableRecord
  2
4_129472I_0_in_129655_0
340
0
102
{BLKREFS
331
F4
102
}
 70
     0
280
     1
281
     0
  0
ENDTAB
  0
ENDSEC
  0
SECTION
  2
BLOCKS
  0
BLOCK
  5
20
330
1F
100
AcDbEntity
  8
0
100
AcDbBlockBegin
  2
*Model_Space
 70
     0
 10
0.0
 20
0.0
 30
0.0
  3
*Model_Space
  1

  0
ENDBLK
  5
21
330
1F
100
AcDbEntity
  8
0
100
AcDbBlockEnd
  0
BLOCK
  5
1C
330
1B
100
AcDbEntity
 67
     1
  8
0
100
AcDbBlockBegin
  2
*Paper_Space
 70
     0
 10
0.0
 20
0.0
 30
0.0
  3
*Paper_Space
  1

  0
ENDBLK
  5
1D
330
1B
100
AcDbEntity
 67
     1
  8
0
100
AcDbBlockEnd
  0
BLOCK
  5
24
330
23
100
AcDbEntity
  8
0
100
AcDbBlockBegin
  2
*Paper_Space0
 70
     0
 10
0.0
 20
0.0
 30
0.0
  3
*Paper_Space0
  1

  0
ENDBLK
  5
25
330
23
100
AcDbEntity
  8
0
100
AcDbBlockEnd
  0
BLOCK
  5
70
330
6E
100
AcDbEntity
  8
0
100
AcDbBlockBegin
  2
1_129655_0
 70
     2
 10
0.0
 20
0.0
 30
0.0
  3
1_129655_0
  1

  0
ATTDEF
  5
73
330
6E
100
AcDbEntity
  8
AM_6
100
AcDbText
 10
8.25
 20
3.274216547338582
 30
0.0
 40
0.5
  1
Grip Tight Four-Bolt Flange Inch Bore
100
AcDbAttributeDefinition
  3

  2
NN
 70
     8
280
     0
  0
ATTDEF
  5
74
330
6E
100
AcDbEntity
  8
AM_6
100
AcDbText
 10
8.25
 20
2.774216547338582
 30
0.0
 40
0.5
  1
GT Normal Duty 4 Bolt Flange Bearings
100
AcDbAttributeDefinition
  3

  2
NT
 70
     8
280
     0
  0
ATTDEF
  5
75
330
6E
100
AcDbEntity
  8
AM_6
100
AcDbText
 10
8.25
 20
2.274216547338582
 30
0.0
 40
0.5
  1
129655
100
AcDbAttributeDefinition
  3

  2
NB
 70
     8
280
     0
  0
ATTDEF
  5
76
330
6E
100
AcDbEntity
  8
AM_6
100
AcDbText
 10
8.25
 20
1.774216547338582
 30
0.0
 40
0.5
  1
$PN.$LUBE.
100
AcDbAttributeDefinition
  3

  2
NBSYN
 70
     8
280
     0
  0
ATTDEF
  5
77
330
6E
100
AcDbEntity
  8
AM_6
100
AcDbText
 10
8.25
 20
1.274216547338582
 30
0.0
 40
0.5
  1
129655
100
AcDbAttributeDefinition
  3

  2
LINA
 70
     8
280
     0
  0
ATTDEF
  5
78
330
6E
100
AcDbEntity
  8
AM_6
100
AcDbText
 10
8.25
 20
0.7742165473385825
 30
0.0
 40
0.5
  1
211
100
AcDbAttributeDefinition
  3

  2
SERIES
 70
     8
280
     0
  0
ATTDEF
  5
79
330
6E
100
AcDbEntity
  8
AM_6
100
AcDbText
 10
8.25
 20
0.2742165473385825
 30
0.0
 40
0.5
  1
2-3/16
100
AcDbAttributeDefinition
  3

  2
SS
 70
     8
280
     0
  0
ATTDEF
  5
7A
330
6E
100
AcDbEntity
  8
AM_6
100
AcDbText
 10
8.25
 20
-0.2257834526614175
 30
0.0
 40
0.5
  1
129655
100
AcDbAttributeDefinition
  3

  2
PN
 70
     8
280
     0
  0
ATTDEF
  5
7B
330
6E
100
AcDbEntity
  8
AM_6
100
AcDbText
 10
8.25
 20
-0.7257834526614175
 30
0.0
 40
0.5
  1
F4B-GT-203
100
AcDbAttributeDefinition
  3

  2
DESCRIPTION
 70
     8
280
     0
  0
ATTDEF
  5
7C
330
6E
100
AcDbEntity
  8
AM_6
100
AcDbText
 10
8.25
 20
-1.225783452661418
 30
0.0
 40
0.5
  1
1-59/64
100
AcDbAttributeDefinition
  3

  2
A
 70
     8
280
     0
  0
ATTDEF
  5
7D
330
6E
100
AcDbEntity
  8
AM_6
100
AcDbText
 10
8.25
 20
-1.725783452661418
 30
0.0
 40
0.5
  1
6-1/2
100
AcDbAttributeDefinition
  3

  2
B
 70
     8
280
     0
  0
ATTDEF
  5
7E
330
6E
100
AcDbEntity
  8
AM_6
100
AcDbText
 10
8.25
 20
-2.225783452661418
 30
0.0
 40
0.5
  1
2-9/64
100
AcDbAttributeDefinition
  3

  2
C
 70
     8
280
     0
  0
ATTDEF
  5
7F
330
6E
100
AcDbEntity
  8
AM_6
100
AcDbText
 10
8.25
 20
-2.725783452661418
 30
0.0
 40
0.5
  1
5-1/8
100
AcDbAttributeDefinition
  3

  2
D
 70
     8
280
     0
  0
ATTDEF
  5
80
330
6E
100
AcDbEntity
  8
AM_6
100
AcDbText
 10
8.25
 20
-3.225783452661418
 30
0.0
 40
0.5
  1
5/8
100
AcDbAttributeDefinition
  3

  2
F
 70
     8
280
     0
  0
ATTDEF
  5
81
330
6E
100
AcDbEntity
  8
AM_6
100
AcDbText
 10
8.25
 20
-3.725783452661418
 30
0.0
 40
0.5
  1
11/16
100
AcDbAttributeDefinition
  3

  2
H
 70
     8
280
     0
  0
ATTDEF
  5
82
330
6E
100
AcDbEntity
  8
AM_6
100
AcDbText
 10
8.25
 20
-4.225783452661418
 30
0.0
 40
0.5
  1
33/64
100
AcDbAttributeDefinition
  3

  2
J
 70
     8
280
     0
  0
ATTDEF
  5
83
330
6E
100
AcDbEntity
  8
AM_6
100
AcDbText
 10
8.25
 20
-4.725783452661418
 30
0.0
 40
0.5
  1
3-1/4
100
AcDbAttributeDefinition
  3

  2
L
 70
     8
280
     0
  0
ATTDEF
  5
84
330
6E
100
AcDbEntity
  8
AM_6
100
AcDbText
 10
8.25
 20
-5.225783452661418
 30
0.0
 40
0.5
  1
3-1/4
100
AcDbAttributeDefinition
  3

  2
N
 70
     8
280
     0
  0
ATTDEF
  5
85
330
6E
100
AcDbEntity
  8
AM_6
100
AcDbText
 10
8.25
 20
-5.725783452661418
 30
0.0
 40
0.5
  1
2-7/64
100
AcDbAttributeDefinition
  3

  2
Z
 70
     8
280
     0
  0
ATTDEF
  5
86
330
6E
100
AcDbEntity
  8
AM_6
100
AcDbText
 10
8.25
 20
-6.225783452661418
 30
0.0
 40
0.5
  1
baldor
100
AcDbAttributeDefinition
  3

  2
COMPANY
 70
     8
280
     0
  0
INSERT
  5
88
330
6E
100
AcDbEntity
  8
0
100
AcDbBlockReference
  2
2_129524I_0_in_129655_0
 10
0.0
 20
0.0
 30
0.0
  0
INSERT
  5
B2
330
6E
100
AcDbEntity
  8
0
100
AcDbBlockReference
  2
3_129920_0_in_129655_0
 10
0.0
 20
0.0
 30
0.0
  0
INSERT
  5
F4
330
6E
100
AcDbEntity
  8
0
100
AcDbBlockReference
  2
4_129472I_0_in_129655_0
 10
0.0
 20
0.0
 30
0.0
  0
ENDBLK
  5
71
330
6E
100
AcDbEntity
  8
0
100
AcDbBlockEnd
  0
BLOCK
  5
89
330
87
100
AcDbEntity
  8
0
100
AcDbBlockBegin
  2
2_129524I_0_in_129655_0
 70
     2
 10
0.0
 20
0.0
 30
0.0
  3
2_129524I_0_in_129655_0
  1

  0
ATTDEF
  5
8B
330
87
100
AcDbEntity
  8
AM_6
100
AcDbText
 10
6.951948624133559
 20
1.951948624133559
 30
0.0
 40
0.5
  1
INS-GT B
100
AcDbAttributeDefinition
  3

  2
NN
 70
     8
280
     0
  0
ATTDEF
  5
8C
330
87
100
AcDbEntity
  8
AM_6
100
AcDbText
 10
6.951948624133559
 20
1.451948624133559
 30
0.0
 40
0.5
  1
GT Normal Duty Bearing Inserts
100
AcDbAttributeDefinition
  3

  2
NT
 70
     8
280
     0
  0
ATTDEF
  5
8D
330
87
100
AcDbEntity
  8
AM_6
100
AcDbText
 10
6.951948624133559
 20
0.9519486241335593
 30
0.0
 40
0.5
  1
129524I
100
AcDbAttributeDefinition
  3

  2
NB
 70
     8
280
     0
  0
ATTDEF
  5
8E
330
87
100
AcDbEntity
  8
AM_6
100
AcDbText
 10
6.951948624133559
 20
0.4519486241335593
 30
0.0
 40
0.5
  1
$PN.I
100
AcDbAttributeDefinition
  3

  2
NBSYN
 70
     8
280
     0
  0
ATTDEF
  5
8F
330
87
100
AcDbEntity
  8
AM_6
100
AcDbText
 10
6.951948624133559
 20
-0.0480513758664407
 30
0.0
 40
0.5
  1
129524
100
AcDbAttributeDefinition
  3

  2
LINA
 70
     8
280
     0
  0
ATTDEF
  5
90
330
87
100
AcDbEntity
  8
AM_6
100
AcDbText
 10
6.951948624133559
 20
-0.5480513758664407
 30
0.0
 40
0.5
  1
211
100
AcDbAttributeDefinition
  3

  2
SERIES
 70
     8
280
     0
  0
ATTDEF
  5
91
330
87
100
AcDbEntity
  8
AM_6
100
AcDbText
 10
6.951948624133559
 20
-1.048051375866441
 30
0.0
 40
0.5
  1
129524
100
AcDbAttributeDefinition
  3

  2
PN
 70
     8
280
     0
  0
ATTDEF
  5
92
330
87
100
AcDbEntity
  8
AM_6
100
AcDbText
 10
6.951948624133559
 20
-1.548051375866441
 30
0.0
 40
0.5
  1
INS-GT-11
100
AcDbAttributeDefinition
  3

  2
DESCRIPTION
 70
     8
280
     0
  0
ATTDEF
  5
93
330
87
100
AcDbEntity
  8
AM_6
100
AcDbText
 10
6.951948624133559
 20
-2.048051375866441
 30
0.0
 40
0.5
  1
1.93
100
AcDbAttributeDefinition
  3

  2
A
 70
     8
280
     0
  0
ATTDEF
  5
94
330
87
100
AcDbEntity
  8
AM_6
100
AcDbText
 10
6.951948624133559
 20
-2.548051375866441
 30
0.0
 40
0.5
  1
0.87
100
AcDbAttributeDefinition
  3

  2
C
 70
     8
280
     0
  0
ATTDEF
  5
95
330
87
100
AcDbEntity
  8
AM_6
100
AcDbText
 10
6.951948624133559
 20
-3.048051375866441
 30
0.0
 40
0.5
  1
3.9370
100
AcDbAttributeDefinition
  3

  2
D
 70
     8
280
     0
  0
ATTDEF
  5
96
330
87
100
AcDbEntity
  8
AM_6
100
AcDbText
 10
6.951948624133559
 20
-3.548051375866441
 30
0.0
 40
0.5
  1
0.25
100
AcDbAttributeDefinition
  3

  2
J
 70
     8
280
     0
  0
ATTDEF
  5
97
330
87
100
AcDbEntity
  8
AM_6
100
AcDbText
 10
6.951948624133559
 20
-4.048051375866441
 30
0.0
 40
0.5
  1
3.43
100
AcDbAttributeDefinition
  3

  2
L
 70
     8
280
     0
  0
ATTDEF
  5
98
330
87
100
AcDbEntity
  8
AM_6
100
AcDbText
 10
6.951948624133559
 20
-4.548051375866441
 30
0.0
 40
0.5
  1
#10 - 32 x 1/4
100
AcDbAttributeDefinition
  3

  2
N
 70
     8
280
     0
  0
ATTDEF
  5
99
330
87
100
AcDbEntity
  8
AM_6
100
AcDbText
 10
6.951948624133559
 20
-5.048051375866441
 30
0.0
 40
0.5
  1
0.67000
100
AcDbAttributeDefinition
  3

  2
W
 70
     8
280
     0
  0
ATTDEF
  5
9A
330
87
100
AcDbEntity
  8
AM_6
100
AcDbText
 10
6.951948624133559
 20
-5.548051375866441
 30
0.0
 40
0.5
  1
1.32
100
AcDbAttributeDefinition
  3

  2
X
 70
     8
280
     0
  0
ATTDEF
  5
9B
330
87
100
AcDbEntity
  8
AM_6
100
AcDbText
 10
6.951948624133559
 20
-6.048051375866441
 30
0.0
 40
0.5
  1
1.26
100
AcDbAttributeDefinition
  3

  2
Y
 70
     8
280
     0
  0
ATTDEF
  5
9C
330
87
100
AcDbEntity
  8
AM_6
100
AcDbText
 10
6.951948624133559
 20
-6.548051375866441
 30
0.0
 40
0.5
  1
baldor
100
AcDbAttributeDefinition
  3

  2
COMPANY
 70
     8
280
     0
  0
CIRCLE
  5
9F
330
87
100
AcDbEntity
  8
AM_9
100
AcDbCircle
 10
0.0000000000000001
 20
0.0
 30
0.0
 40
1.317787322075736
  0
CIRCLE
  5
A0
330
87
100
AcDbEntity
  8
AM_9
100
AcDbCircle
 10
0.0000000000000001
 20
0.0
 30
0.0
 40
1.8815
  0
CIRCLE
  5
A1
330
87
100
AcDbEntity
  8
AM_9
100
AcDbCircle
 10
0.0000000000000001
 20
0.0
 30
0.0
 40
1.916509545833585
  0
CIRCLE
  5
A2
330
87
100
AcDbEntity
  8
AM_9
100
AcDbCircle
 10
0.0000000000000001
 20
0.0
 30
0.0
 40
1.401944395444444
  0
CIRCLE
  5
A3
330
87
100
AcDbEntity
  8
AM_9
100
AcDbCircle
 10
0.0000000000000001
 20
0.0
 30
0.0
 40
1.279444346444444
  0
CIRCLE
  5
A4
330
87
100
AcDbEntity
  8
AM_9
100
AcDbCircle
 10
0.0000000000000001
 20
0.0
 30
0.0
 40
1.489644444444445
  0
ARC
  5
A5
330
87
100
AcDbEntity
  8
AM_9
100
AcDbCircle
 10
0.0000000000000002
 20
-0.0000000000000001
 30
0.0
 40
1.524444444444444
100
AcDbArc
 50
5.023992301309935
 51
114.9760076986901
  0
ARC
  5
A6
330
87
100
AcDbEntity
  8
AM_9
100
AcDbCircle
 10
0.0000000000000002
 20
0.0
 30
0.0
 40
1.524444444444444
100
AcDbArc
 50
125.0239923013099
 51
234.9760076986901
  0
ARC
  5
A7
330
87
100
AcDbEntity
  8
AM_9
100
AcDbCircle
 10
0.0000000000000003
 20
-0.0000000000000004
 30
0.0
 40
1.524444444444444
100
AcDbArc
 50
245.0239923013099
 51
354.97600769869
  0
CIRCLE
  5
A9
330
87
100
AcDbEntity
  8
AM_4
100
AcDbCircle
 10
0.0000000000000001
 20
0.0
 30
0.0
 40
1.943375942409455
  0
CIRCLE
  5
AA
330
87
100
AcDbEntity
  8
AM_4
100
AcDbCircle
 10
0.0000000000000001
 20
0.0
 30
0.0
 40
1.951948624133559
  0
CIRCLE
  5
AB
330
87
100
AcDbEntity
  8
AM_4
100
AcDbCircle
 10
0.0000000000000001
 20
0.0
 30
0.0
 40
1.924873961284066
  0
CIRCLE
  5
AC
330
87
100
AcDbEntity
  8
AM_4
100
AcDbCircle
 10
0.0000000000000001
 20
0.0
 30
0.0
 40
1.890434308300557
  0
CIRCLE
  5
AD
330
87
100
AcDbEntity
  8
AM_4
100
AcDbCircle
 10
0.0000000000000001
 20
0.0
 30
0.0
 40
1.858036329583617
  0
ARC
  5
AE
330
87
100
AcDbEntity
  8
AM_4
100
AcDbCircle
 10
-0.0000000000000027
 20
0.0000000000000031
 30
0.0
 40
1.52444444444444
100
AcDbArc
 50
114.9760076986901
 51
125.0239923013099
  0
ARC
  5
AF
330
87
100
AcDbEntity
  8
AM_4
100
AcDbCircle
 10
-0.0000000000000204
 20
-0.000000000000036
 30
0.0
 40
1.524444444444403
100
AcDbArc
 50
234.97600769869
 51
245.0239923013101
  0
ARC
  5
B0
330
87
100
AcDbEntity
  8
AM_4
100
AcDbCircle
 10
-0.000000000000004
 20
0.0
 30
0.0
 40
1.524444444444448
100
AcDbArc
 50
354.9760076986901
 51
5.023992301309863
  0
ENDBLK
  5
8A
330
87
100
AcDbEntity
  8
0
100
AcDbBlockEnd
  0
BLOCK
  5
B3
330
B1
100
AcDbEntity
  8
0
100
AcDbBlockBegin
  2
3_129920_0_in_129655_0
 70
     2
 10
0.0
 20
0.0
 30
0.0
  3
3_129920_0_in_129655_0
  1

  0
ATTDEF
  5
B5
330
B1
100
AcDbEntity
  8
AM_6
100
AcDbText
 10
6.619506946573555
 20
1.624613588121566
 30
0.0
 40
0.5
  1
Grip Tight Normal Duty Adapter and Nut Inch Bore
100
AcDbAttributeDefinition
  3

  2
NN
 70
     8
280
     0
  0
ATTDEF
  5
B6
330
B1
100
AcDbEntity
  8
AM_6
100
AcDbText
 10
6.619506946573555
 20
1.124613588121566
 30
0.0
 40
0.5
  1
GT and GTM Adapter & Lock Nut Assemblies
100
AcDbAttributeDefinition
  3

  2
NT
 70
     8
280
     0
  0
ATTDEF
  5
B7
330
B1
100
AcDbEntity
  8
AM_6
100
AcDbText
 10
6.619506946573555
 20
0.6246135881215658
 30
0.0
 40
0.5
  1
129920
100
AcDbAttributeDefinition
  3

  2
NB
 70
     8
280
     0
  0
ATTDEF
  5
B8
330
B1
100
AcDbEntity
  8
AM_6
100
AcDbText
 10
6.619506946573555
 20
0.1246135881215658
 30
0.0
 40
0.5
  1
$PN.
100
AcDbAttributeDefinition
  3

  2
NBSYN
 70
     8
280
     0
  0
ATTDEF
  5
B9
330
B1
100
AcDbEntity
  8
AM_6
100
AcDbText
 10
6.619506946573555
 20
-0.3753864118784342
 30
0.0
 40
0.5
  1
129920
100
AcDbAttributeDefinition
  3

  2
LINA
 70
     8
280
     0
  0
ATTDEF
  5
BA
330
B1
100
AcDbEntity
  8
AM_6
100
AcDbText
 10
6.619506946573555
 20
-0.8753864118784342
 30
0.0
 40
0.5
  1
211
100
AcDbAttributeDefinition
  3

  2
SERIES
 70
     8
280
     0
  0
ATTDEF
  5
BB
330
B1
100
AcDbEntity
  8
AM_6
100
AcDbText
 10
6.619506946573555
 20
-1.375386411878434
 30
0.0
 40
0.5
  1
2-3/16
100
AcDbAttributeDefinition
  3

  2
SS
 70
     8
280
     0
  0
ATTDEF
  5
BC
330
B1
100
AcDbEntity
  8
AM_6
100
AcDbText
 10
6.619506946573555
 20
-1.875386411878434
 30
0.0
 40
0.5
  1
129920
100
AcDbAttributeDefinition
  3

  2
PN
 70
     8
280
     0
  0
ATTDEF
  5
BD
330
B1
100
AcDbEntity
  8
AM_6
100
AcDbText
 10
6.619506946573555
 20
-2.375386411878434
 30
0.0
 40
0.5
  1
AN-GT-11-203
100
AcDbAttributeDefinition
  3

  2
DESCRIPTION
 70
     8
280
     0
  0
ATTDEF
  5
BE
330
B1
100
AcDbEntity
  8
AM_6
100
AcDbText
 10
6.619506946573555
 20
-2.875386411878434
 30
0.0
 40
0.5
  1
1-59/64
100
AcDbAttributeDefinition
  3

  2
A
 70
     8
280
     0
  0
ATTDEF
  5
BF
330
B1
100
AcDbEntity
  8
AM_6
100
AcDbText
 10
6.619506946573555
 20
-3.375386411878434
 30
0.0
 40
0.5
  1
0.9449
100
AcDbAttributeDefinition
  3

  2
C
 70
     8
280
     0
  0
ATTDEF
  5
C0
330
B1
100
AcDbEntity
  8
AM_6
100
AcDbText
 10
6.619506946573555
 20
-3.875386411878434
 30
0.0
 40
0.5
  1
3.9370
100
AcDbAttributeDefinition
  3

  2
D
 70
     8
280
     0
  0
ATTDEF
  5
C1
330
B1
100
AcDbEntity
  8
AM_6
100
AcDbText
 10
6.619506946573555
 20
-4.375386411878434
 30
0.0
 40
0.5
  1
0.267
100
AcDbAttributeDefinition
  3

  2
J
 70
     8
280
     0
  0
ATTDEF
  5
C2
330
B1
100
AcDbEntity
  8
AM_6
100
AcDbText
 10
6.619506946573555
 20
-4.875386411878434
 30
0.0
 40
0.5
  1
3-1/4
100
AcDbAttributeDefinition
  3

  2
L
 70
     8
280
     0
  0
ATTDEF
  5
C3
330
B1
100
AcDbEntity
  8
AM_6
100
AcDbText
 10
6.619506946573555
 20
-5.375386411878434
 30
0.0
 40
0.5
  1
10 - 32 x 1/4
100
AcDbAttributeDefinition
  3

  2
N
 70
     8
280
     0
  0
ATTDEF
  5
C4
330
B1
100
AcDbEntity
  8
AM_6
100
AcDbText
 10
6.619506946573555
 20
-5.875386411878434
 30
0.0
 40
0.5
  1
45/64
100
AcDbAttributeDefinition
  3

  2
W
 70
     8
280
     0
  0
ATTDEF
  5
C5
330
B1
100
AcDbEntity
  8
AM_6
100
AcDbText
 10
6.619506946573555
 20
-6.375386411878434
 30
0.0
 40
0.5
  1
1-3/16
100
AcDbAttributeDefinition
  3

  2
X
 70
     8
280
     0
  0
ATTDEF
  5
C6
330
B1
100
AcDbEntity
  8
AM_6
100
AcDbText
 10
6.619506946573555
 20
-6.875386411878434
 30
0.0
 40
0.5
  1
1-7/32
100
AcDbAttributeDefinition
  3

  2
Y
 70
     8
280
     0
  0
ATTDEF
  5
C7
330
B1
100
AcDbEntity
  8
AM_6
100
AcDbText
 10
6.619506946573555
 20
-7.375386411878434
 30
0.0
 40
0.5
  1
baldor
100
AcDbAttributeDefinition
  3

  2
COMPANY
 70
     8
280
     0
  0
LINE
  5
C8
330
B1
100
AcDbEntity
  8
AM_9
100
AcDbLine
 10
-0.0499999999999999
 20
1.211270051876932
 30
0.0
 11
-0.0499999999999999
 21
1.251407431527677
 31
0.0
  0
LINE
  5
C9
330
B1
100
AcDbEntity
  8
AM_9
100
AcDbLine
 10
0.0500000000000001
 20
1.211270051876932
 30
0.0
 11
0.0500000000000001
 21
1.251407431527677
 31
0.0
  0
ARC
  5
CA
330
B1
100
AcDbEntity
  8
AM_9
100
AcDbCircle
 10
0.0000000000000001
 20
0.0
 30
0.0
 40
1.252405908514766
100
AcDbArc
 50
92.288036581387
 51
87.711963418613
  0
LWPOLYLINE
  5
CB
330
B1
100
AcDbEntity
  8
AM_9
100
AcDbPolyline
 90
        3
 70
     0
 43
0.0
 10
-0.0499999999999999
 20
1.2131975747764
 10
-0.0263026282501109
 20
1.213998149507004
 10
0.0500000000000001
 20
1.2131975747764
  0
CIRCLE
  5
CC
330
B1
100
AcDbEntity
  8
AM_9
100
AcDbCircle
 10
0.0000000000000001
 20
0.0
 30
0.0
 40
1.328373015873014
  0
CIRCLE
  5
CD
330
B1
100
AcDbEntity
  8
AM_9
100
AcDbCircle
 10
0.0000000000000001
 20
0.0
 30
0.0
 40
1.444444444444444
  0
LINE
  5
CE
330
B1
100
AcDbEntity
  8
AM_9
100
AcDbLine
 10
-1.60245
 20
-0.0724499999999998
 30
0.0
 11
-1.2413
 21
-0.0724499999999998
 31
0.0
  0
LINE
  5
CF
330
B1
100
AcDbEntity
  8
AM_9
100
AcDbLine
 10
-1.2413
 20
0.0724499999999998
 30
0.0
 11
-1.60245
 21
0.0724499999999998
 31
0.0
  0
LINE
  5
D0
330
B1
100
AcDbEntity
  8
AM_9
100
AcDbLine
 10
0.0500000000000001
 20
1.212301587301587
 30
0.0
 11
-0.0499999999999999
 21
1.212301587301587
 31
0.0
  0
LINE
  5
D1
330
B1
100
AcDbEntity
  8
AM_9
100
AcDbLine
 10
-1.60245
 20
0.0724499999999998
 30
0.0
 11
-1.621952834906265
 21
0.091952834906265
 31
0.0
  0
LINE
  5
D2
330
B1
100
AcDbEntity
  8
AM_9
100
AcDbLine
 10
-1.621732842657526
 20
-0.0917328426575256
 30
0.0
 11
-1.60245
 21
-0.0724499999999998
 31
0.0
  0
LINE
  5
D3
330
B1
100
AcDbEntity
  8
AM_9
100
AcDbLine
 10
-1.60245
 20
0.0724499999999998
 30
0.0
 11
-1.60245
 21
-0.0724499999999998
 31
0.0
  0
LINE
  5
D4
330
B1
100
AcDbEntity
  8
AM_9
100
AcDbLine
 10
-1.623746925467218
 20
0.0638037775978467
 30
0.0
 11
-1.622372440178363
 21
0.0923724274321172
 31
0.0
  0
LINE
  5
D5
330
B1
100
AcDbEntity
  8
AM_9
100
AcDbLine
 10
-1.622372439503753
 20
-0.0923724392805585
 30
0.0
 11
-1.623784432160667
 21
-0.0628420072297223
 31
0.0
  0
LINE
  5
D6
330
B1
100
AcDbEntity
  8
AM_9
100
AcDbLine
 10
-1.2413
 20
-0.0724499999999998
 30
0.0
 11
-1.21875
 21
-0.0949999999999999
 31
0.0
  0
LINE
  5
D7
330
B1
100
AcDbEntity
  8
AM_9
100
AcDbLine
 10
-1.21875
 20
0.0949999999999999
 30
0.0
 11
-1.2413
 21
0.0724499999999998
 31
0.0
  0
LINE
  5
D8
330
B1
100
AcDbEntity
  8
AM_9
100
AcDbLine
 10
-1.21875
 20
0.0949999999999999
 30
0.0
 11
-1.21875
 21
-0.0949999999999999
 31
0.0
  0
LINE
  5
D9
330
B1
100
AcDbEntity
  8
AM_9
100
AcDbLine
 10
-1.2413
 20
0.0724499999999998
 30
0.0
 11
-1.2413
 21
-0.0724499999999998
 31
0.0
  0
LINE
  5
DB
330
B1
100
AcDbEntity
  8
AM_5
100
AcDbLine
 10
-1.622220700151493
 20
-0.0949999999999999
 30
0.0
 11
-1.21875
 21
-0.0949999999999999
 31
0.0
  0
LINE
  5
DC
330
B1
100
AcDbEntity
  8
AM_5
100
AcDbLine
 10
-1.622220700151493
 20
0.0950000000000001
 30
0.0
 11
-1.21875
 21
0.0950000000000001
 31
0.0
  0
LINE
  5
DD
330
B1
100
AcDbEntity
  8
AM_4
100
AcDbLine
 10
-0.0499999999999999
 20
1.211270051876932
 30
0.0
 11
-0.0499999999999999
 21
1.092606545147886
 31
0.0
  0
ARC
  5
DE
330
B1
100
AcDbEntity
  8
AM_4
100
AcDbCircle
 10
0.0000000000000001
 20
0.0000000000000001
 30
0.0
 40
1.09375
100
AcDbArc
 50
92.62014877185597
 51
87.37985122814403
  0
LINE
  5
DF
330
B1
100
AcDbEntity
  8
AM_4
100
AcDbLine
 10
0.0500000000000001
 20
1.211270051876932
 30
0.0
 11
0.0500000000000001
 21
1.092606545147886
 31
0.0
  0
LWPOLYLINE
  5
E0
330
B1
100
AcDbEntity
  8
AM_4
100
AcDbPolyline
 90
        7
 70
     0
 43
0.0
 10
-1.623784432160667
 20
-0.0628420072297223
 10
-1.623920454050646
 20
-0.0592229593649447
 10
-1.62468596716113
 20
-0.0319453926208662
 10
-1.62499916936709
 20
-0.0016430326434985
 10
-1.624754639650975
 20
0.0282375801482803
 10
-1.624071857854355
 20
0.0549144837497562
 10
-1.623746925467218
 20
0.0638037775978467
  0
LINE
  5
E1
330
B1
100
AcDbEntity
  8
AM_4
100
AcDbLine
 10
1.51666639149945
 20
-0.1335
 30
0.0
 11
1.619506946573555
 21
-0.1335
 31
0.0
  0
LINE
  5
E2
330
B1
100
AcDbEntity
  8
AM_4
100
AcDbLine
 10
-0.6941390818815547
 20
-1.469284157338066
 30
0.0
 11
-0.6427188043445019
 21
-1.380221624104598
 31
0.0
  0
ARC
  5
E3
330
B1
100
AcDbEntity
  8
AM_4
100
AcDbCircle
 10
0.0000000000000002
 20
-0.0000000000000007
 30
0.0
 40
1.624999999999999
100
AcDbArc
 50
244.7123796690046
 51
355.2876203309953
  0
LINE
  5
E4
330
B1
100
AcDbEntity
  8
AM_4
100
AcDbLine
 10
1.619506946573555
 20
0.1335
 30
0.0
 11
1.51666639149945
 21
0.1335
 31
0.0
  0
ARC
  5
E5
330
B1
100
AcDbEntity
  8
AM_4
100
AcDbCircle
 10
0.0000000000000007
 20
0.0000000000000012
 30
0.0
 40
1.624999999999999
100
AcDbArc
 50
4.712379669004559
 51
115.2876203309954
  0
LINE
  5
E6
330
B1
100
AcDbEntity
  8
AM_4
100
AcDbLine
 10
-0.6427188043445028
 20
1.380221624104598
 30
0.0
 11
-0.6941390818815555
 21
1.469284157338066
 31
0.0
  0
LINE
  5
E7
330
B1
100
AcDbEntity
  8
AM_4
100
AcDbLine
 10
-0.8739475871549469
 20
-1.246721624104599
 30
0.0
 11
-0.9253678646919994
 21
-1.335784157338066
 31
0.0
  0
ARC
  5
E8
330
B1
100
AcDbEntity
  8
AM_4
100
AcDbCircle
 10
-0.0000000000000004
 20
0.0
 30
0.0
 40
1.625
100
AcDbArc
 50
124.7123796690046
 51
177.7993658874057
  0
LWPOLYLINE
  5
E9
330
B1
100
AcDbEntity
  8
AM_4
100
AcDbPolyline
 90
        5
 70
     0
 43
0.0
 10
-1.623801548684257
 20
0.0623981609553294
 10
-1.617162539901848
 20
0.0401264555278246
 10
-1.61322476947599
 20
0.0156699007615675
 10
-1.615167694026311
 20
-0.0303283341884596
 10
-1.623801548684257
 20
-0.0623981609553275
  0
ARC
  5
EA
330
B1
100
AcDbEntity
  8
AM_4
100
AcDbCircle
 10
-0.0000000000000027
 20
-0.000000000000001
 30
0.0
 40
1.624999999999997
100
AcDbArc
 50
182.2006341125942
 51
235.2876203309954
  0
LINE
  5
EB
330
B1
100
AcDbEntity
  8
AM_4
100
AcDbLine
 10
-0.9253678646920003
 20
1.335784157338066
 30
0.0
 11
-0.8739475871549477
 21
1.246721624104598
 31
0.0
  0
CIRCLE
  5
EC
330
B1
100
AcDbEntity
  8
AM_4
100
AcDbCircle
 10
0.0000000000000001
 20
0.0
 30
0.0
 40
1.212301587301587
  0
LINE
  5
ED
330
B1
100
AcDbEntity
  8
AM_4
100
AcDbLine
 10
-0.6427188043445019
 20
-1.380221624104598
 30
0.0
 11
-0.8739475871549469
 21
-1.246721624104599
 31
0.0
  0
ARC
  5
EE
330
B1
100
AcDbEntity
  8
AM_4
100
AcDbCircle
 10
0.0000000000000001
 20
-0.0000000000000007
 30
0.0
 40
1.587204
100
AcDbArc
 50
244.8248581892462
 51
355.1751418107538
  0
LINE
  5
EF
330
B1
100
AcDbEntity
  8
AM_4
100
AcDbLine
 10
1.51666639149945
 20
0.1335
 30
0.0
 11
1.51666639149945
 21
-0.1335
 31
0.0
  0
ARC
  5
F0
330
B1
100
AcDbEntity
  8
AM_4
100
AcDbCircle
 10
0.0000000000000002
 20
0.0000000000000002
 30
0.0
 40
1.587204
100
AcDbArc
 50
4.824858189246235
 51
115.1751418107538
  0
LINE
  5
F1
330
B1
100
AcDbEntity
  8
AM_4
100
AcDbLine
 10
-0.8739475871549477
 20
1.246721624104598
 30
0.0
 11
-0.6427188043445028
 21
1.380221624104598
 31
0.0
  0
ARC
  5
F2
330
B1
100
AcDbEntity
  8
AM_4
100
AcDbCircle
 10
0.0
 20
0.0000000000000002
 30
0.0
 40
1.587204
100
AcDbArc
 50
124.8248581892463
 51
235.1751418107537
  0
ENDBLK
  5
B4
330
B1
100
AcDbEntity
  8
0
100
AcDbBlockEnd
  0
BLOCK
  5
F5
330
F3
100
AcDbEntity
  8
0
100
AcDbBlockBegin
  2
4_129472I_0_in_129655_0
 70
     2
 10
0.0
 20
0.0
 30
0.0
  3
4_129472I_0_in_129655_0
  1

  0
ATTDEF
  5
F7
330
F3
100
AcDbEntity
  8
AM_6
100
AcDbText
 10
8.25
 20
3.274216547338582
 30
0.0
 40
0.5
  1
GT Normal Duty 4 Bolt Flange Bearings
100
AcDbAttributeDefinition
  3

  2
NN
 70
     8
280
     0
  0
ATTDEF
  5
F8
330
F3
100
AcDbEntity
  8
AM_6
100
AcDbText
 10
8.25
 20
2.774216547338582
 30
0.0
 40
0.5
  1
Grip Tight Adapter Ball Bearings
100
AcDbAttributeDefinition
  3

  2
NT
 70
     8
280
     0
  0
ATTDEF
  5
F9
330
F3
100
AcDbEntity
  8
AM_6
100
AcDbText
 10
8.25
 20
2.274216547338582
 30
0.0
 40
0.5
  1
129472I
100
AcDbAttributeDefinition
  3

  2
NB
 70
     8
280
     0
  0
ATTDEF
  5
FA
330
F3
100
AcDbEntity
  8
AM_6
100
AcDbText
 10
8.25
 20
1.774216547338582
 30
0.0
 40
0.5
  1
$PN.$LUBE.I
100
AcDbAttributeDefinition
  3

  2
NBSYN
 70
     8
280
     0
  0
ATTDEF
  5
FB
330
F3
100
AcDbEntity
  8
AM_6
100
AcDbText
 10
8.25
 20
1.274216547338582
 30
0.0
 40
0.5
  1
129472
100
AcDbAttributeDefinition
  3

  2
LINA
 70
     8
280
     0
  0
ATTDEF
  5
FC
330
F3
100
AcDbEntity
  8
AM_6
100
AcDbText
 10
8.25
 20
0.7742165473385825
 30
0.0
 40
0.5
  1
211
100
AcDbAttributeDefinition
  3

  2
SERIES
 70
     8
280
     0
  0
ATTDEF
  5
FD
330
F3
100
AcDbEntity
  8
AM_6
100
AcDbText
 10
8.25
 20
0.2742165473385825
 30
0.0
 40
0.5
  1
3.9370
100
AcDbAttributeDefinition
  3

  2
BOD
 70
     8
280
     0
  0
ATTDEF
  5
FE
330
F3
100
AcDbEntity
  8
AM_6
100
AcDbText
 10
8.25
 20
-0.2257834526614175
 30
0.0
 40
0.5
  1
129472
100
AcDbAttributeDefinition
  3

  2
PN
 70
     8
280
     0
  0
ATTDEF
  5
FF
330
F3
100
AcDbEntity
  8
AM_6
100
AcDbText
 10
8.25
 20
-0.7257834526614175
 30
0.0
 40
0.5
  1
F4B-GT-11
100
AcDbAttributeDefinition
  3

  2
DESCRIPTION
 70
     8
280
     0
  0
ATTDEF
  5
100
330
F3
100
AcDbEntity
  8
AM_6
100
AcDbText
 10
8.25
 20
-1.225783452661418
 30
0.0
 40
0.5
  1
With Lube
100
AcDbAttributeDefinition
  3

  2
LUBE
 70
     8
280
     0
  0
ATTDEF
  5
101
330
F3
100
AcDbEntity
  8
AM_6
100
AcDbText
 10
8.25
 20
-1.725783452661418
 30
0.0
 40
0.5
  1
10.1
100
AcDbAttributeDefinition
  3

  2
WEIGHT
 70
     8
280
     0
  0
ATTDEF
  5
102
330
F3
100
AcDbEntity
  8
AM_6
100
AcDbText
 10
8.25
 20
-2.225783452661418
 30
0.0
 40
0.5
  1
1-59/64
100
AcDbAttributeDefinition
  3

  2
A
 70
     8
280
     0
  0
ATTDEF
  5
103
330
F3
100
AcDbEntity
  8
AM_6
100
AcDbText
 10
8.25
 20
-2.725783452661418
 30
0.0
 40
0.5
  1
1.9219
100
AcDbAttributeDefinition
  3

  2
A1
 70
     8
280
     0
  0
ATTDEF
  5
104
330
F3
100
AcDbEntity
  8
AM_6
100
AcDbText
 10
8.25
 20
-3.225783452661418
 30
0.0
 40
0.5
  1
6-1/2
100
AcDbAttributeDefinition
  3

  2
B
 70
     8
280
     0
  0
ATTDEF
  5
105
330
F3
100
AcDbEntity
  8
AM_6
100
AcDbText
 10
8.25
 20
-3.725783452661418
 30
0.0
 40
0.5
  1
6.500
100
AcDbAttributeDefinition
  3

  2
B1
 70
     8
280
     0
  0
ATTDEF
  5
106
330
F3
100
AcDbEntity
  8
AM_6
100
AcDbText
 10
8.25
 20
-4.225783452661418
 30
0.0
 40
0.5
  1
2-9/64
100
AcDbAttributeDefinition
  3

  2
C
 70
     8
280
     0
  0
ATTDEF
  5
107
330
F3
100
AcDbEntity
  8
AM_6
100
AcDbText
 10
8.25
 20
-4.725783452661418
 30
0.0
 40
0.5
  1
2.141
100
AcDbAttributeDefinition
  3

  2
C1
 70
     8
280
     0
  0
ATTDEF
  5
108
330
F3
100
AcDbEntity
  8
AM_6
100
AcDbText
 10
8.25
 20
-5.225783452661418
 30
0.0
 40
0.5
  1
5-1/8
100
AcDbAttributeDefinition
  3

  2
D
 70
     8
280
     0
  0
ATTDEF
  5
109
330
F3
100
AcDbEntity
  8
AM_6
100
AcDbText
 10
8.25
 20
-5.725783452661418
 30
0.0
 40
0.5
  1
5.125
100
AcDbAttributeDefinition
  3

  2
D1
 70
     8
280
     0
  0
ATTDEF
  5
10A
330
F3
100
AcDbEntity
  8
AM_6
100
AcDbText
 10
8.25
 20
-6.225783452661418
 30
0.0
 40
0.5
  1
5/8
100
AcDbAttributeDefinition
  3

  2
F
 70
     8
280
     0
  0
ATTDEF
  5
10B
330
F3
100
AcDbEntity
  8
AM_6
100
AcDbText
 10
8.25
 20
-6.725783452661418
 30
0.0
 40
0.5
  1
0.625
100
AcDbAttributeDefinition
  3

  2
F1
 70
     8
280
     0
  0
ATTDEF
  5
10C
330
F3
100
AcDbEntity
  8
AM_6
100
AcDbText
 10
8.25
 20
-7.225783452661418
 30
0.0
 40
0.5
  1
11/16
100
AcDbAttributeDefinition
  3

  2
H
 70
     8
280
     0
  0
ATTDEF
  5
10D
330
F3
100
AcDbEntity
  8
AM_6
100
AcDbText
 10
8.25
 20
-7.725783452661418
 30
0.0
 40
0.5
  1
0.688
100
AcDbAttributeDefinition
  3

  2
H1
 70
     8
280
     0
  0
ATTDEF
  5
10E
330
F3
100
AcDbEntity
  8
AM_6
100
AcDbText
 10
8.25
 20
-8.225783452661418
 30
0.0
 40
0.5
  1
33/64
100
AcDbAttributeDefinition
  3

  2
J
 70
     8
280
     0
  0
ATTDEF
  5
10F
330
F3
100
AcDbEntity
  8
AM_6
100
AcDbText
 10
8.25
 20
-8.725783452661418
 30
0.0
 40
0.5
  1
0.516
100
AcDbAttributeDefinition
  3

  2
J1
 70
     8
280
     0
  0
ATTDEF
  5
110
330
F3
100
AcDbEntity
  8
AM_6
100
AcDbText
 10
8.25
 20
-9.225783452661418
 30
0.0
 40
0.5
  1
3-1/4
100
AcDbAttributeDefinition
  3

  2
L
 70
     8
280
     0
  0
ATTDEF
  5
111
330
F3
100
AcDbEntity
  8
AM_6
100
AcDbText
 10
8.25
 20
-9.725783452661418
 30
0.0
 40
0.5
  1
3.250
100
AcDbAttributeDefinition
  3

  2
L1
 70
     8
280
     0
  0
ATTDEF
  5
112
330
F3
100
AcDbEntity
  8
AM_6
100
AcDbText
 10
8.25
 20
-10.22578345266142
 30
0.0
 40
0.5
  1
3-1/4
100
AcDbAttributeDefinition
  3

  2
N
 70
     8
280
     0
  0
ATTDEF
  5
113
330
F3
100
AcDbEntity
  8
AM_6
100
AcDbText
 10
8.25
 20
-10.72578345266142
 30
0.0
 40
0.5
  1
3.250
100
AcDbAttributeDefinition
  3

  2
N1
 70
     8
280
     0
  0
ATTDEF
  5
114
330
F3
100
AcDbEntity
  8
AM_6
100
AcDbText
 10
8.25
 20
-11.22578345266142
 30
0.0
 40
0.5
  1
2-7/64
100
AcDbAttributeDefinition
  3

  2
Z
 70
     8
280
     0
  0
ATTDEF
  5
115
330
F3
100
AcDbEntity
  8
AM_6
100
AcDbText
 10
8.25
 20
-11.72578345266142
 30
0.0
 40
0.5
  1
2.109
100
AcDbAttributeDefinition
  3

  2
Z1
 70
     8
280
     0
  0
ATTDEF
  5
116
330
F3
100
AcDbEntity
  8
AM_6
100
AcDbText
 10
8.25
 20
-12.22578345266142
 30
0.0
 40
0.5
  1
Infotext
100
AcDbAttributeDefinition
  3

  2
INFO
 70
     8
280
     0
  0
ATTDEF
  5
117
330
F3
100
AcDbEntity
  8
AM_6
100
AcDbText
 10
8.25
 20
-12.72578345266142
 30
0.0
 40
0.5
  1
baldor
100
AcDbAttributeDefinition
  3

  2
COMPANY
 70
     8
280
     0
  0
LINE
  5
11A
330
F3
100
AcDbEntity
  8
AM_7
100
AcDbLine
 10
-2.890625
 20
-2.5625
 30
0.0
 11
-2.234375
 21
-2.5625
 31
0.0
  0
LINE
  5
11B
330
F3
100
AcDbEntity
  8
AM_7
100
AcDbLine
 10
-2.5625
 20
-2.890625
 30
0.0
 11
-2.5625
 21
-2.234375
 31
0.0
  0
LINE
  5
11C
330
F3
100
AcDbEntity
  8
AM_7
100
AcDbLine
 10
2.234375
 20
-2.5625
 30
0.0
 11
2.890625
 21
-2.5625
 31
0.0
  0
LINE
  5
11D
330
F3
100
AcDbEntity
  8
AM_7
100
AcDbLine
 10
2.5625
 20
-2.890625
 30
0.0
 11
2.5625
 21
-2.234375
 31
0.0
  0
LINE
  5
11E
330
F3
100
AcDbEntity
  8
AM_7
100
AcDbLine
 10
2.234375
 20
2.5625
 30
0.0
 11
2.890625
 21
2.5625
 31
0.0
  0
LINE
  5
11F
330
F3
100
AcDbEntity
  8
AM_7
100
AcDbLine
 10
2.5625
 20
2.234375
 30
0.0
 11
2.5625
 21
2.890625
 31
0.0
  0
LINE
  5
120
330
F3
100
AcDbEntity
  8
AM_7
100
AcDbLine
 10
-2.890625
 20
2.5625
 30
0.0
 11
-2.234375
 21
2.5625
 31
0.0
  0
LINE
  5
121
330
F3
100
AcDbEntity
  8
AM_7
100
AcDbLine
 10
-2.5625
 20
2.234375
 30
0.0
 11
-2.5625
 21
2.890625
 31
0.0
  0
LINE
  5
122
330
F3
100
AcDbEntity
  8
AM_7
100
AcDbLine
 10
-2.066925
 20
0.0
 30
0.0
 11
2.066925
 21
0.0
 31
0.0
  0
LINE
  5
123
330
F3
100
AcDbEntity
  8
AM_7
100
AcDbLine
 10
0.0
 20
-2.066925
 30
0.0
 11
0.0
 21
2.066925
 31
0.0
  0
LINE
  5
124
330
F3
100
AcDbEntity
  8
AM_7
100
AcDbLine
 10
0.0
 20
3.274216547338582
 30
0.0
 11
0.0
 21
2.741452755338584
 31
0.0
  0
LINE
  5
125
330
F3
100
AcDbEntity
  8
AM_4
100
AcDbLine
 10
-0.2525223706000493
 20
-3.095394622799989
 30
0.0
 11
-0.2617050191000226
 21
-3.101221525499982
 31
0.0
  0
LINE
  5
126
330
F3
100
AcDbEntity
  8
AM_4
100
AcDbLine
 10
-0.2464006193000068
 20
-3.086654275399996
 30
0.0
 11
-0.2525223706000493
 21
-3.095394622799989
 31
0.0
  0
LINE
  5
127
330
F3
100
AcDbEntity
  8
AM_4
100
AcDbLine
 10
-0.3290443050000261
 20
-3.104134975599993
 30
0.0
 11
-0.3290443050000261
 21
-3.00216423
 31
0.0
  0
LINE
  5
128
330
F3
100
AcDbEntity
  8
AM_4
100
AcDbLine
 10
-0.3290443050000261
 20
-3.00216423
 30
0.0
 11
-0.2739485216999935
 21
-3.00216423
 31
0.0
  0
LINE
  5
129
330
F3
100
AcDbEntity
  8
AM_4
100
AcDbLine
 10
-0.2739485216999935
 20
-3.00216423
 30
0.0
 11
-0.2617050191000226
 21
-3.00507768
 31
0.0
  0
LINE
  5
12A
330
F3
100
AcDbEntity
  8
AM_4
100
AcDbLine
 10
-0.2617050191000226
 20
-3.00507768
 30
0.0
 11
-0.2525223706000493
 21
-3.01090458
 31
0.0
  0
LINE
  5
12B
330
F3
100
AcDbEntity
  8
AM_4
100
AcDbLine
 10
-0.2525223706000493
 20
-3.01090458
 30
0.0
 11
-0.2464006193000068
 21
-3.01964493
 31
0.0
  0
LINE
  5
12C
330
F3
100
AcDbEntity
  8
AM_4
100
AcDbLine
 10
-0.2464006193000068
 20
-3.01964493
 30
0.0
 11
-0.2433397436000182
 21
-3.03129873
 31
0.0
  0
LINE
  5
12D
330
F3
100
AcDbEntity
  8
AM_4
100
AcDbLine
 10
-0.2433397436000182
 20
-3.03129873
 30
0.0
 11
-0.2433397436000182
 21
-3.075000475300004
 31
0.0
  0
LINE
  5
12E
330
F3
100
AcDbEntity
  8
AM_4
100
AcDbLine
 10
-0.2433397436000182
 20
-3.075000475300004
 30
0.0
 11
-0.2464006193000068
 21
-3.086654275399996
 31
0.0
  0
LINE
  5
12F
330
F3
100
AcDbEntity
  8
AM_4
100
AcDbLine
 10
-0.2617050191000226
 20
-3.101221525499982
 30
0.0
 11
-0.2739485216999935
 21
-3.104134975599993
 31
0.0
  0
LINE
  5
130
330
F3
100
AcDbEntity
  8
AM_4
100
AcDbLine
 10
-0.2739485216999935
 20
-3.104134975599993
 30
0.0
 11
-0.3290443050000261
 21
-3.104134975599993
 31
0.0
  0
LINE
  5
131
330
F3
100
AcDbEntity
  8
AM_4
100
AcDbLine
 10
-0.035200086200065
 20
-3.104134975599993
 30
0.0
 11
-0.035200086200065
 21
-3.00216423
 31
0.0
  0
LINE
  5
132
330
F3
100
AcDbEntity
  8
AM_4
100
AcDbLine
 10
-0.035200086200065
 20
-3.00216423
 30
0.0
 11
0.01989571
 21
-3.00216423
 31
0.0
  0
LINE
  5
133
330
F3
100
AcDbEntity
  8
AM_4
100
AcDbLine
 10
0.01989571
 20
-3.00216423
 30
0.0
 11
0.03213922
 21
-3.00507768
 31
0.0
  0
LINE
  5
134
330
F3
100
AcDbEntity
  8
AM_4
100
AcDbLine
 10
0.03213922
 20
-3.00507768
 30
0.0
 11
0.04132185
 21
-3.01090458
 31
0.0
  0
LINE
  5
135
330
F3
100
AcDbEntity
  8
AM_4
100
AcDbLine
 10
0.04132185
 20
-3.01090458
 30
0.0
 11
0.04744361
 21
-3.01964493
 31
0.0
  0
LINE
  5
136
330
F3
100
AcDbEntity
  8
AM_4
100
AcDbLine
 10
0.04744361
 20
-3.01964493
 30
0.0
 11
0.05050448
 21
-3.03129873
 31
0.0
  0
LINE
  5
137
330
F3
100
AcDbEntity
  8
AM_4
100
AcDbLine
 10
0.05050448
 20
-3.03129873
 30
0.0
 11
0.05050448
 21
-3.075000475300004
 31
0.0
  0
LINE
  5
138
330
F3
100
AcDbEntity
  8
AM_4
100
AcDbLine
 10
0.05050448
 20
-3.075000475300004
 30
0.0
 11
0.04744361
 21
-3.086654275399996
 31
0.0
  0
LINE
  5
139
330
F3
100
AcDbEntity
  8
AM_4
100
AcDbLine
 10
0.04744361
 20
-3.086654275399996
 30
0.0
 11
0.04132185
 21
-3.095394622799989
 31
0.0
  0
LINE
  5
13A
330
F3
100
AcDbEntity
  8
AM_4
100
AcDbLine
 10
0.04132185
 20
-3.095394622799989
 30
0.0
 11
0.03213922
 21
-3.101221525499982
 31
0.0
  0
LINE
  5
13B
330
F3
100
AcDbEntity
  8
AM_4
100
AcDbLine
 10
0.03213922
 20
-3.101221525499982
 30
0.0
 11
0.01989571
 21
-3.104134975599993
 31
0.0
  0
LINE
  5
13C
330
F3
100
AcDbEntity
  8
AM_4
100
AcDbLine
 10
0.01989571
 20
-3.104134975599993
 30
0.0
 11
-0.035200086200065
 21
-3.104134975599993
 31
0.0
  0
LINE
  5
13D
330
F3
100
AcDbEntity
  8
AM_4
100
AcDbLine
 10
-0.1056002639000449
 20
-3.01090458
 30
0.0
 11
-0.0994785126000024
 21
-3.01964493
 31
0.0
  0
LINE
  5
13E
330
F3
100
AcDbEntity
  8
AM_4
100
AcDbLine
 10
-0.1147829015999969
 20
-3.00507768
 30
0.0
 11
-0.1056002639000449
 21
-3.01090458
 31
0.0
  0
LINE
  5
13F
330
F3
100
AcDbEntity
  8
AM_4
100
AcDbLine
 10
-0.1637569336000434
 20
-3.00507768
 30
0.0
 11
-0.1515134310000146
 21
-3.00216423
 31
0.0
  0
LINE
  5
140
330
F3
100
AcDbEntity
  8
AM_4
100
AcDbLine
 10
-0.1515134310000146
 20
-3.00216423
 30
0.0
 11
-0.1270264042000257
 21
-3.00216423
 31
0.0
  0
LINE
  5
141
330
F3
100
AcDbEntity
  8
AM_4
100
AcDbLine
 10
-0.1270264042000257
 20
-3.00216423
 30
0.0
 11
-0.1147829015999969
 21
-3.00507768
 31
0.0
  0
LINE
  5
142
330
F3
100
AcDbEntity
  8
AM_4
100
AcDbLine
 10
-0.1821222090000572
 20
-3.03129873
 30
0.0
 11
-0.1790613334000591
 21
-3.01964493
 31
0.0
  0
LINE
  5
143
330
F3
100
AcDbEntity
  8
AM_4
100
AcDbLine
 10
-0.1821222090000572
 20
-3.075000475300004
 30
0.0
 11
-0.1821222090000572
 21
-3.03129873
 31
0.0
  0
LINE
  5
144
330
F3
100
AcDbEntity
  8
AM_4
100
AcDbLine
 10
-0.1790613334000591
 20
-3.086654275399996
 30
0.0
 11
-0.1821222090000572
 21
-3.075000475300004
 31
0.0
  0
LINE
  5
145
330
F3
100
AcDbEntity
  8
AM_4
100
AcDbLine
 10
-0.1729395605000277
 20
-3.095394622799989
 30
0.0
 11
-0.1790613334000591
 21
-3.086654275399996
 31
0.0
  0
LINE
  5
146
330
F3
100
AcDbEntity
  8
AM_4
100
AcDbLine
 10
-0.1637569336000434
 20
-3.101221525499982
 30
0.0
 11
-0.1729395605000277
 21
-3.095394622799989
 31
0.0
  0
LINE
  5
147
330
F3
100
AcDbEntity
  8
AM_4
100
AcDbLine
 10
-0.1515134310000146
 20
-3.104134975599993
 30
0.0
 11
-0.1637569336000434
 21
-3.101221525499982
 31
0.0
  0
LINE
  5
148
330
F3
100
AcDbEntity
  8
AM_4
100
AcDbLine
 10
-0.1270264042000257
 20
-3.104134975599993
 30
0.0
 11
-0.1515134310000146
 21
-3.104134975599993
 31
0.0
  0
LINE
  5
149
330
F3
100
AcDbEntity
  8
AM_4
100
AcDbLine
 10
-0.1147829015999969
 20
-3.101221525499982
 30
0.0
 11
-0.1270264042000257
 21
-3.104134975599993
 31
0.0
  0
LINE
  5
14A
330
F3
100
AcDbEntity
  8
AM_4
100
AcDbLine
 10
-0.1056002639000449
 20
-3.095394622799989
 30
0.0
 11
-0.1147829015999969
 21
-3.101221525499982
 31
0.0
  0
LINE
  5
14B
330
F3
100
AcDbEntity
  8
AM_4
100
AcDbLine
 10
-0.0994785126000024
 20
-3.086654275399996
 30
0.0
 11
-0.1056002639000449
 21
-3.095394622799989
 31
0.0
  0
LINE
  5
14C
330
F3
100
AcDbEntity
  8
AM_4
100
AcDbLine
 10
-0.0964176369000162
 20
-3.075000475300004
 30
0.0
 11
-0.0994785126000024
 21
-3.086654275399996
 31
0.0
  0
LINE
  5
14D
330
F3
100
AcDbEntity
  8
AM_4
100
AcDbLine
 10
-0.0964176369000162
 20
-3.03129873
 30
0.0
 11
-0.0964176369000162
 21
-3.075000475300004
 31
0.0
  0
LINE
  5
14E
330
F3
100
AcDbEntity
  8
AM_4
100
AcDbLine
 10
-0.0994785126000024
 20
-3.01964493
 30
0.0
 11
-0.0964176369000162
 21
-3.03129873
 31
0.0
  0
LINE
  5
14F
330
F3
100
AcDbEntity
  8
AM_4
100
AcDbLine
 10
-0.1729395605000277
 20
-3.01090458
 30
0.0
 11
-0.1637569336000434
 21
-3.00507768
 31
0.0
  0
LINE
  5
150
330
F3
100
AcDbEntity
  8
AM_4
100
AcDbLine
 10
-0.1790613334000591
 20
-3.01964493
 30
0.0
 11
-0.1729395605000277
 21
-3.01090458
 31
0.0
  0
LINE
  5
151
330
F3
100
AcDbEntity
  8
AM_4
100
AcDbLine
 10
-0.347409580399984
 20
-3.121615670400006
 30
0.0
 11
-0.347409580399984
 21
-2.98468353
 31
0.0
  0
LINE
  5
152
330
F3
100
AcDbEntity
  8
AM_4
100
AcDbLine
 10
-0.258644143400034
 20
-3.118702220400012
 30
0.0
 11
-0.2739485216999935
 21
-3.121615670400006
 31
0.0
  0
LINE
  5
153
330
F3
100
AcDbEntity
  8
AM_4
100
AcDbLine
 10
-0.347409580399984
 20
-2.98468353
 30
0.0
 11
-0.2739485216999935
 21
-2.98468353
 31
0.0
  0
LINE
  5
154
330
F3
100
AcDbEntity
  8
AM_4
100
AcDbLine
 10
-0.2739485216999935
 20
-3.121615670400006
 30
0.0
 11
-0.347409580399984
 21
-3.121615670400006
 31
0.0
  0
LINE
  5
155
330
F3
100
AcDbEntity
  8
AM_4
100
AcDbLine
 10
-0.2464006193000068
 20
-3.112875320300008
 30
0.0
 11
-0.258644143400034
 21
-3.118702220400012
 31
0.0
  0
LINE
  5
156
330
F3
100
AcDbEntity
  8
AM_4
100
AcDbLine
 10
0.20967012
 20
-3.101221525499982
 30
0.0
 11
0.19742659
 21
-3.112875320300008
 31
0.0
  0
LINE
  5
157
330
F3
100
AcDbEntity
  8
AM_4
100
AcDbLine
 10
-0.2739485216999935
 20
-2.98468353
 30
0.0
 11
-0.258644143400034
 21
-2.98759698
 31
0.0
  0
LINE
  5
158
330
F3
100
AcDbEntity
  8
AM_4
100
AcDbLine
 10
-0.258644143400034
 20
-2.98759698
 30
0.0
 11
-0.2464006193000068
 21
-2.99342388
 31
0.0
  0
LINE
  5
159
330
F3
100
AcDbEntity
  8
AM_4
100
AcDbLine
 10
-0.2464006193000068
 20
-2.99342388
 30
0.0
 11
-0.234157116700034
 21
-3.00507768
 31
0.0
  0
LINE
  5
15A
330
F3
100
AcDbEntity
  8
AM_4
100
AcDbLine
 10
-0.234157116700034
 20
-3.00507768
 30
0.0
 11
-0.2280353653999914
 21
-3.016731479999999
 31
0.0
  0
LINE
  5
15B
330
F3
100
AcDbEntity
  8
AM_4
100
AcDbLine
 10
-0.2280353653999914
 20
-3.016731479999999
 30
0.0
 11
-0.2249744897000611
 21
-3.03129873
 31
0.0
  0
LINE
  5
15C
330
F3
100
AcDbEntity
  8
AM_4
100
AcDbLine
 10
-0.2249744897000611
 20
-3.03129873
 30
0.0
 11
-0.2249744897000611
 21
-3.075000475300004
 31
0.0
  0
LINE
  5
15D
330
F3
100
AcDbEntity
  8
AM_4
100
AcDbLine
 10
-0.2249744897000611
 20
-3.075000475300004
 30
0.0
 11
-0.2280353653999914
 21
-3.08956772539999
 31
0.0
  0
LINE
  5
15E
330
F3
100
AcDbEntity
  8
AM_4
100
AcDbLine
 10
-0.2280353653999914
 20
-3.08956772539999
 30
0.0
 11
-0.234157116700034
 21
-3.101221525499982
 31
0.0
  0
LINE
  5
15F
330
F3
100
AcDbEntity
  8
AM_4
100
AcDbLine
 10
-0.234157116700034
 20
-3.101221525499982
 30
0.0
 11
-0.2464006193000068
 21
-3.112875320300008
 31
0.0
  0
LINE
  5
160
330
F3
100
AcDbEntity
  8
AM_4
100
AcDbLine
 10
-0.2004874629000166
 20
-3.075000475300004
 30
0.0
 11
-0.2004874629000166
 21
-3.03129873
 31
0.0
  0
LINE
  5
161
330
F3
100
AcDbEntity
  8
AM_4
100
AcDbLine
 10
-0.2004874629000166
 20
-3.03129873
 30
0.0
 11
-0.1974265873000162
 21
-3.016731479999999
 31
0.0
  0
LINE
  5
162
330
F3
100
AcDbEntity
  8
AM_4
100
AcDbLine
 10
-0.1974265873000162
 20
-3.016731479999999
 30
0.0
 11
-0.1913048360000302
 21
-3.00507768
 31
0.0
  0
LINE
  5
163
330
F3
100
AcDbEntity
  8
AM_4
100
AcDbLine
 10
-0.1913048360000302
 20
-3.00507768
 30
0.0
 11
-0.1790613334000591
 21
-2.99342388
 31
0.0
  0
LINE
  5
164
330
F3
100
AcDbEntity
  8
AM_4
100
AcDbLine
 10
-0.1790613334000591
 20
-2.99342388
 30
0.0
 11
-0.1668178092000414
 21
-2.98759698
 31
0.0
  0
LINE
  5
165
330
F3
100
AcDbEntity
  8
AM_4
100
AcDbLine
 10
-0.1668178092000414
 20
-2.98759698
 30
0.0
 11
-0.1515134310000146
 21
-2.98468353
 31
0.0
  0
LINE
  5
166
330
F3
100
AcDbEntity
  8
AM_4
100
AcDbLine
 10
-0.1515134310000146
 20
-2.98468353
 30
0.0
 11
-0.1270264042000257
 21
-2.98468353
 31
0.0
  0
LINE
  5
167
330
F3
100
AcDbEntity
  8
AM_4
100
AcDbLine
 10
-0.1270264042000257
 20
-2.98468353
 30
0.0
 11
-0.1117220152000316
 21
-2.98759698
 31
0.0
  0
LINE
  5
168
330
F3
100
AcDbEntity
  8
AM_4
100
AcDbLine
 10
-0.1117220152000316
 20
-2.98759698
 30
0.0
 11
-0.0994785126000024
 21
-2.99342388
 31
0.0
  0
LINE
  5
169
330
F3
100
AcDbEntity
  8
AM_4
100
AcDbLine
 10
-0.0994785126000024
 20
-2.99342388
 30
0.0
 11
-0.0872349992000083
 21
-3.00507768
 31
0.0
  0
LINE
  5
16A
330
F3
100
AcDbEntity
  8
AM_4
100
AcDbLine
 10
-0.0872349992000083
 20
-3.00507768
 30
0.0
 11
-0.0811132479000217
 21
-3.016731479999999
 31
0.0
  0
LINE
  5
16B
330
F3
100
AcDbEntity
  8
AM_4
100
AcDbLine
 10
-0.0811132479000217
 20
-3.016731479999999
 30
0.0
 11
-0.0780523722000355
 21
-3.03129873
 31
0.0
  0
LINE
  5
16C
330
F3
100
AcDbEntity
  8
AM_4
100
AcDbLine
 10
-0.0780523722000355
 20
-3.03129873
 30
0.0
 11
-0.0780523722000355
 21
-3.075000475300004
 31
0.0
  0
LINE
  5
16D
330
F3
100
AcDbEntity
  8
AM_4
100
AcDbLine
 10
-0.0780523722000355
 20
-3.075000475300004
 30
0.0
 11
-0.0811132479000217
 21
-3.08956772539999
 31
0.0
  0
LINE
  5
16E
330
F3
100
AcDbEntity
  8
AM_4
100
AcDbLine
 10
-0.0811132479000217
 20
-3.08956772539999
 30
0.0
 11
-0.0872349992000083
 21
-3.101221525499982
 31
0.0
  0
LINE
  5
16F
330
F3
100
AcDbEntity
  8
AM_4
100
AcDbLine
 10
-0.0872349992000083
 20
-3.101221525499982
 30
0.0
 11
-0.0994785126000024
 21
-3.112875320300008
 31
0.0
  0
LINE
  5
170
330
F3
100
AcDbEntity
  8
AM_4
100
AcDbLine
 10
-0.0994785126000024
 20
-3.112875320300008
 30
0.0
 11
-0.1117220152000316
 21
-3.118702220400012
 31
0.0
  0
LINE
  5
171
330
F3
100
AcDbEntity
  8
AM_4
100
AcDbLine
 10
-0.1117220152000316
 20
-3.118702220400012
 30
0.0
 11
-0.1270264042000257
 21
-3.121615670400006
 31
0.0
  0
LINE
  5
172
330
F3
100
AcDbEntity
  8
AM_4
100
AcDbLine
 10
-0.1270264042000257
 20
-3.121615670400006
 30
0.0
 11
-0.1515134310000146
 21
-3.121615670400006
 31
0.0
  0
LINE
  5
173
330
F3
100
AcDbEntity
  8
AM_4
100
AcDbLine
 10
-0.1515134310000146
 20
-3.121615670400006
 30
0.0
 11
-0.1668178092000414
 21
-3.118702220400012
 31
0.0
  0
LINE
  5
174
330
F3
100
AcDbEntity
  8
AM_4
100
AcDbLine
 10
-0.1668178092000414
 20
-3.118702220400012
 30
0.0
 11
-0.1790613334000591
 21
-3.112875320300008
 31
0.0
  0
LINE
  5
175
330
F3
100
AcDbEntity
  8
AM_4
100
AcDbLine
 10
-0.1790613334000591
 20
-3.112875320300008
 30
0.0
 11
-0.19130483600003
 21
-3.101221525499982
 31
0.0
  0
LINE
  5
176
330
F3
100
AcDbEntity
  8
AM_4
100
AcDbLine
 10
-0.19130483600003
 20
-3.101221525499982
 30
0.0
 11
-0.1974265873000162
 21
-3.08956772539999
 31
0.0
  0
LINE
  5
177
330
F3
100
AcDbEntity
  8
AM_4
100
AcDbLine
 10
-0.1974265873000162
 20
-3.08956772539999
 30
0.0
 11
-0.2004874629000166
 21
-3.075000475300004
 31
0.0
  0
LINE
  5
178
330
F3
100
AcDbEntity
  8
AM_4
100
AcDbLine
 10
0.01989571
 20
-3.121615670400006
 30
0.0
 11
-0.0535653508999878
 21
-3.121615670400006
 31
0.0
  0
LINE
  5
179
330
F3
100
AcDbEntity
  8
AM_4
100
AcDbLine
 10
-0.0535653508999878
 20
-3.121615670400006
 30
0.0
 11
-0.0535653508999878
 21
-2.98468353
 31
0.0
  0
LINE
  5
17A
330
F3
100
AcDbEntity
  8
AM_4
100
AcDbLine
 10
-0.0535653508999878
 20
-2.98468353
 30
0.0
 11
0.01989571
 21
-2.98468353
 31
0.0
  0
LINE
  5
17B
330
F3
100
AcDbEntity
  8
AM_4
100
AcDbLine
 10
0.01989571
 20
-2.98468353
 30
0.0
 11
0.0352001
 21
-2.98759698
 31
0.0
  0
LINE
  5
17C
330
F3
100
AcDbEntity
  8
AM_4
100
AcDbLine
 10
0.0352001
 20
-2.98759698
 30
0.0
 11
0.04744361
 21
-2.99342388
 31
0.0
  0
LINE
  5
17D
330
F3
100
AcDbEntity
  8
AM_4
100
AcDbLine
 10
0.04744361
 20
-2.99342388
 30
0.0
 11
0.05968711
 21
-3.00507768
 31
0.0
  0
LINE
  5
17E
330
F3
100
AcDbEntity
  8
AM_4
100
AcDbLine
 10
0.05968711
 20
-3.00507768
 30
0.0
 11
0.06580887
 21
-3.016731479999999
 31
0.0
  0
LINE
  5
17F
330
F3
100
AcDbEntity
  8
AM_4
100
AcDbLine
 10
0.06580887
 20
-3.016731479999999
 30
0.0
 11
0.06886975
 21
-3.03129873
 31
0.0
  0
LINE
  5
180
330
F3
100
AcDbEntity
  8
AM_4
100
AcDbLine
 10
0.06886975
 20
-3.03129873
 30
0.0
 11
0.06886975
 21
-3.075000475300004
 31
0.0
  0
LINE
  5
181
330
F3
100
AcDbEntity
  8
AM_4
100
AcDbLine
 10
0.06886975
 20
-3.075000475300004
 30
0.0
 11
0.06580887
 21
-3.08956772539999
 31
0.0
  0
LINE
  5
182
330
F3
100
AcDbEntity
  8
AM_4
100
AcDbLine
 10
0.06580887
 20
-3.08956772539999
 30
0.0
 11
0.05968711
 21
-3.101221525499982
 31
0.0
  0
LINE
  5
183
330
F3
100
AcDbEntity
  8
AM_4
100
AcDbLine
 10
0.05968711
 20
-3.101221525499982
 30
0.0
 11
0.04744361
 21
-3.112875320300008
 31
0.0
  0
LINE
  5
184
330
F3
100
AcDbEntity
  8
AM_4
100
AcDbLine
 10
0.04744361
 20
-3.112875320300008
 30
0.0
 11
0.0352001
 21
-3.118702220400012
 31
0.0
  0
LINE
  5
185
330
F3
100
AcDbEntity
  8
AM_4
100
AcDbLine
 10
0.0352001
 20
-3.118702220400012
 30
0.0
 11
0.01989571
 21
-3.121615670400006
 31
0.0
  0
LINE
  5
186
330
F3
100
AcDbEntity
  8
AM_4
100
AcDbLine
 10
0.09335677
 20
-3.075000475300004
 30
0.0
 11
0.09335677
 21
-3.03129873
 31
0.0
  0
LINE
  5
187
330
F3
100
AcDbEntity
  8
AM_4
100
AcDbLine
 10
0.09335677
 20
-3.03129873
 30
0.0
 11
0.09641765
 21
-3.016731479999999
 31
0.0
  0
LINE
  5
188
330
F3
100
AcDbEntity
  8
AM_4
100
AcDbLine
 10
0.09641765
 20
-3.016731479999999
 30
0.0
 11
0.1025393999999997
 21
-3.00507768
 31
0.0
  0
LINE
  5
189
330
F3
100
AcDbEntity
  8
AM_4
100
AcDbLine
 10
0.1025393999999997
 20
-3.00507768
 30
0.0
 11
0.11478291
 21
-2.99342388
 31
0.0
  0
LINE
  5
18A
330
F3
100
AcDbEntity
  8
AM_4
100
AcDbLine
 10
0.11478291
 20
-2.99342388
 30
0.0
 11
0.12702642
 21
-2.98759698
 31
0.0
  0
LINE
  5
18B
330
F3
100
AcDbEntity
  8
AM_4
100
AcDbLine
 10
0.12702642
 20
-2.98759698
 30
0.0
 11
0.14233081
 21
-2.98468353
 31
0.0
  0
LINE
  5
18C
330
F3
100
AcDbEntity
  8
AM_4
100
AcDbLine
 10
0.14233081
 20
-2.98468353
 30
0.0
 11
0.1698787
 21
-2.98468353
 31
0.0
  0
LINE
  5
18D
330
F3
100
AcDbEntity
  8
AM_4
100
AcDbLine
 10
0.1698787
 20
-2.98468353
 30
0.0
 11
0.18518309
 21
-2.98759698
 31
0.0
  0
LINE
  5
18E
330
F3
100
AcDbEntity
  8
AM_4
100
AcDbLine
 10
0.18518309
 20
-2.98759698
 30
0.0
 11
0.19742659
 21
-2.99342388
 31
0.0
  0
LINE
  5
18F
330
F3
100
AcDbEntity
  8
AM_4
100
AcDbLine
 10
0.19742659
 20
-2.99342388
 30
0.0
 11
0.20967012
 21
-3.00507768
 31
0.0
  0
LINE
  5
190
330
F3
100
AcDbEntity
  8
AM_4
100
AcDbLine
 10
0.20967012
 20
-3.00507768
 30
0.0
 11
0.21273099
 21
-3.01964493
 31
0.0
  0
LINE
  5
191
330
F3
100
AcDbEntity
  8
AM_4
100
AcDbLine
 10
0.21273099
 20
-3.01964493
 30
0.0
 11
0.19436572
 21
-3.01964493
 31
0.0
  0
LINE
  5
192
330
F3
100
AcDbEntity
  8
AM_4
100
AcDbLine
 10
0.19436572
 20
-3.01964493
 30
0.0
 11
0.19130484
 21
-3.01090458
 31
0.0
  0
LINE
  5
193
330
F3
100
AcDbEntity
  8
AM_4
100
AcDbLine
 10
0.19130484
 20
-3.01090458
 30
0.0
 11
0.18212221
 21
-3.00507768
 31
0.0
  0
LINE
  5
194
330
F3
100
AcDbEntity
  8
AM_4
100
AcDbLine
 10
0.18212221
 20
-3.00507768
 30
0.0
 11
0.1698787
 21
-3.00216423
 31
0.0
  0
LINE
  5
195
330
F3
100
AcDbEntity
  8
AM_4
100
AcDbLine
 10
0.1698787
 20
-3.00216423
 30
0.0
 11
0.14233081
 21
-3.00216423
 31
0.0
  0
LINE
  5
196
330
F3
100
AcDbEntity
  8
AM_4
100
AcDbLine
 10
0.14233081
 20
-3.00216423
 30
0.0
 11
0.13008729
 21
-3.00507768
 31
0.0
  0
LINE
  5
197
330
F3
100
AcDbEntity
  8
AM_4
100
AcDbLine
 10
0.13008729
 20
-3.00507768
 30
0.0
 11
0.12090467
 21
-3.01090458
 31
0.0
  0
LINE
  5
198
330
F3
100
AcDbEntity
  8
AM_4
100
AcDbLine
 10
0.12090467
 20
-3.01090458
 30
0.0
 11
0.11478291
 21
-3.01964493
 31
0.0
  0
LINE
  5
199
330
F3
100
AcDbEntity
  8
AM_4
100
AcDbLine
 10
0.11478291
 20
-3.01964493
 30
0.0
 11
0.11172203
 21
-3.03129873
 31
0.0
  0
LINE
  5
19A
330
F3
100
AcDbEntity
  8
AM_4
100
AcDbLine
 10
0.11172203
 20
-3.03129873
 30
0.0
 11
0.11172203
 21
-3.075000475300004
 31
0.0
  0
LINE
  5
19B
330
F3
100
AcDbEntity
  8
AM_4
100
AcDbLine
 10
0.11172203
 20
-3.075000475300004
 30
0.0
 11
0.11478291
 21
-3.086654275399996
 31
0.0
  0
LINE
  5
19C
330
F3
100
AcDbEntity
  8
AM_4
100
AcDbLine
 10
0.11478291
 20
-3.086654275399996
 30
0.0
 11
0.12090467
 21
-3.095394622799989
 31
0.0
  0
LINE
  5
19D
330
F3
100
AcDbEntity
  8
AM_4
100
AcDbLine
 10
0.12090467
 20
-3.095394622799989
 30
0.0
 11
0.13008729
 21
-3.101221525499982
 31
0.0
  0
LINE
  5
19E
330
F3
100
AcDbEntity
  8
AM_4
100
AcDbLine
 10
0.13008729
 20
-3.101221525499982
 30
0.0
 11
0.14233081
 21
-3.104134975599993
 31
0.0
  0
LINE
  5
19F
330
F3
100
AcDbEntity
  8
AM_4
100
AcDbLine
 10
0.14233081
 20
-3.104134975599993
 30
0.0
 11
0.1698787
 21
-3.104134975599993
 31
0.0
  0
LINE
  5
1A0
330
F3
100
AcDbEntity
  8
AM_4
100
AcDbLine
 10
0.1698787
 20
-3.104134975599993
 30
0.0
 11
0.18212221
 21
-3.101221525499982
 31
0.0
  0
LINE
  5
1A1
330
F3
100
AcDbEntity
  8
AM_4
100
AcDbLine
 10
0.18212221
 20
-3.101221525499982
 30
0.0
 11
0.19130484
 21
-3.095394622799989
 31
0.0
  0
LINE
  5
1A2
330
F3
100
AcDbEntity
  8
AM_4
100
AcDbLine
 10
0.19130484
 20
-3.095394622799989
 30
0.0
 11
0.19436572
 21
-3.086654275399996
 31
0.0
  0
LINE
  5
1A3
330
F3
100
AcDbEntity
  8
AM_4
100
AcDbLine
 10
0.19436572
 20
-3.086654275399996
 30
0.0
 11
0.19436572
 21
-3.063346675799993
 31
0.0
  0
LINE
  5
1A4
330
F3
100
AcDbEntity
  8
AM_4
100
AcDbLine
 10
0.19436572
 20
-3.063346675799993
 30
0.0
 11
0.16681783
 21
-3.063346675799993
 31
0.0
  0
LINE
  5
1A5
330
F3
100
AcDbEntity
  8
AM_4
100
AcDbLine
 10
0.16681783
 20
-3.063346675799993
 30
0.0
 11
0.16681783
 21
-3.04586598
 31
0.0
  0
LINE
  5
1A6
330
F3
100
AcDbEntity
  8
AM_4
100
AcDbLine
 10
0.16681783
 20
-3.04586598
 30
0.0
 11
0.21273099
 21
-3.04586598
 31
0.0
  0
LINE
  5
1A7
330
F3
100
AcDbEntity
  8
AM_4
100
AcDbLine
 10
0.21273099
 20
-3.04586598
 30
0.0
 11
0.21273099
 21
-3.08956772539999
 31
0.0
  0
LINE
  5
1A8
330
F3
100
AcDbEntity
  8
AM_4
100
AcDbLine
 10
0.21273099
 20
-3.08956772539999
 30
0.0
 11
0.20967012
 21
-3.101221525499982
 31
0.0
  0
LINE
  5
1A9
330
F3
100
AcDbEntity
  8
AM_4
100
AcDbLine
 10
0.19742659
 20
-3.112875320300008
 30
0.0
 11
0.18518309
 21
-3.118702220400012
 31
0.0
  0
LINE
  5
1AA
330
F3
100
AcDbEntity
  8
AM_4
100
AcDbLine
 10
0.18518309
 20
-3.118702220400012
 30
0.0
 11
0.1698787
 21
-3.121615670400006
 31
0.0
  0
LINE
  5
1AB
330
F3
100
AcDbEntity
  8
AM_4
100
AcDbLine
 10
0.1698787
 20
-3.121615670400006
 30
0.0
 11
0.14233081
 21
-3.121615670400006
 31
0.0
  0
LINE
  5
1AC
330
F3
100
AcDbEntity
  8
AM_4
100
AcDbLine
 10
0.14233081
 20
-3.121615670400006
 30
0.0
 11
0.12702642
 21
-3.118702220400012
 31
0.0
  0
LINE
  5
1AD
330
F3
100
AcDbEntity
  8
AM_4
100
AcDbLine
 10
0.12702642
 20
-3.118702220400012
 30
0.0
 11
0.11478291
 21
-3.112875320300008
 31
0.0
  0
LINE
  5
1AE
330
F3
100
AcDbEntity
  8
AM_4
100
AcDbLine
 10
0.11478291
 20
-3.112875320300008
 30
0.0
 11
0.1025394
 21
-3.101221525499982
 31
0.0
  0
LINE
  5
1AF
330
F3
100
AcDbEntity
  8
AM_4
100
AcDbLine
 10
0.1025394
 20
-3.101221525499982
 30
0.0
 11
0.09641765
 21
-3.08956772539999
 31
0.0
  0
LINE
  5
1B0
330
F3
100
AcDbEntity
  8
AM_4
100
AcDbLine
 10
0.09641765
 20
-3.08956772539999
 30
0.0
 11
0.09335677
 21
-3.075000475300004
 31
0.0
  0
LINE
  5
1B1
330
F3
100
AcDbEntity
  8
AM_4
100
AcDbLine
 10
0.34740959
 20
-3.121615670400006
 30
0.0
 11
0.237218
 21
-3.121615670400006
 31
0.0
  0
LINE
  5
1B2
330
F3
100
AcDbEntity
  8
AM_4
100
AcDbLine
 10
0.237218
 20
-3.121615670400006
 30
0.0
 11
0.237218
 21
-2.98468353
 31
0.0
  0
LINE
  5
1B3
330
F3
100
AcDbEntity
  8
AM_4
100
AcDbLine
 10
0.237218
 20
-2.98468353
 30
0.0
 11
0.34740959
 21
-2.98468353
 31
0.0
  0
LINE
  5
1B4
330
F3
100
AcDbEntity
  8
AM_4
100
AcDbLine
 10
0.34740959
 20
-2.98468353
 30
0.0
 11
0.34740959
 21
-3.00216423
 31
0.0
  0
LINE
  5
1B5
330
F3
100
AcDbEntity
  8
AM_4
100
AcDbLine
 10
0.34740959
 20
-3.00216423
 30
0.0
 11
0.25558328
 21
-3.00216423
 31
0.0
  0
LINE
  5
1B6
330
F3
100
AcDbEntity
  8
AM_4
100
AcDbLine
 10
0.25558328
 20
-3.00216423
 30
0.0
 11
0.25558328
 21
-3.04003908
 31
0.0
  0
LINE
  5
1B7
330
F3
100
AcDbEntity
  8
AM_4
100
AcDbLine
 10
0.25558328
 20
-3.04003908
 30
0.0
 11
0.33516609
 21
-3.04003908
 31
0.0
  0
LINE
  5
1B8
330
F3
100
AcDbEntity
  8
AM_4
100
AcDbLine
 10
0.33516609
 20
-3.04003908
 30
0.0
 11
0.33516609
 21
-3.057519776400016
 31
0.0
  0
LINE
  5
1B9
330
F3
100
AcDbEntity
  8
AM_4
100
AcDbLine
 10
0.33516609
 20
-3.057519776400016
 30
0.0
 11
0.25558328
 21
-3.057519776400016
 31
0.0
  0
LINE
  5
1BA
330
F3
100
AcDbEntity
  8
AM_4
100
AcDbLine
 10
0.25558328
 20
-3.057519776400016
 30
0.0
 11
0.25558328
 21
-3.104134975599993
 31
0.0
  0
LINE
  5
1BB
330
F3
100
AcDbEntity
  8
AM_4
100
AcDbLine
 10
0.25558328
 20
-3.104134975599993
 30
0.0
 11
0.34740959
 21
-3.104134975599993
 31
0.0
  0
LINE
  5
1BC
330
F3
100
AcDbEntity
  8
AM_4
100
AcDbLine
 10
0.34740959
 20
-3.104134975599993
 30
0.0
 11
0.34740959
 21
-3.121615670400006
 31
0.0
  0
ARC
  5
1BD
330
F3
100
AcDbEntity
  8
AM_4
100
AcDbCircle
 10
-0.9931532422411549
 20
-2.620727646556519
 30
0.0
 40
0.1375999999999497
100
AcDbArc
 50
111.9051609839393
 51
120.000000000003
  0
ARC
  5
1BE
330
F3
100
AcDbEntity
  8
AM_4
100
AcDbCircle
 10
-2.620727646556657
 20
-0.9931532422410898
 30
0.0
 40
0.1376000000001006
100
AcDbArc
 50
330.0000000000028
 51
338.0948390160574
  0
ARC
  5
1BF
330
F3
100
AcDbEntity
  8
AM_4
100
AcDbCircle
 10
-2.562499999999998
 20
-2.562499999999999
 30
0.0
 40
0.6875000000000018
100
AcDbArc
 50
180.0
 51
270.0
  0
LINE
  5
1C0
330
F3
100
AcDbEntity
  8
AM_4
100
AcDbLine
 10
-3.25
 20
-2.5625
 30
0.0
 11
-3.25
 21
2.562500010244547
 31
0.0
  0
ARC
  5
1C1
330
F3
100
AcDbEntity
  8
AM_4
100
AcDbCircle
 10
-2.5625
 20
-2.562500000000008
 30
0.0
 40
0.6974999999999922
100
AcDbArc
 50
279.7137240966757
 51
300.0000000000004
  0
ARC
  5
1C2
330
F3
100
AcDbEntity
  8
AM_4
100
AcDbCircle
 10
-2.562499999999977
 20
-2.562500000000009
 30
0.0
 40
0.6975000000000253
100
AcDbArc
 50
150.0000000000003
 51
170.2862759033234
  0
LINE
  5
1C3
330
F3
100
AcDbEntity
  8
AM_4
100
AcDbLine
 10
-3.166552719139647
 20
-2.213749999999999
 30
0.0
 11
-2.501562550995828
 21
-1.061953242241134
 31
0.0
  0
LINE
  5
1C4
330
F3
100
AcDbEntity
  8
AM_4
100
AcDbLine
 10
-1.061953242241136
 20
-2.501562550995828
 30
0.0
 11
-2.213750000000001
 21
-3.166552719139645
 31
0.0
  0
CIRCLE
  5
1C5
330
F3
100
AcDbEntity
  8
AM_4
100
AcDbCircle
 10
-2.5625
 20
-2.5625
 30
0.0
 40
0.3125
  0
ARC
  5
1C6
330
F3
100
AcDbEntity
  8
AM_4
100
AcDbCircle
 10
2.620727646556519
 20
-0.9931532422411549
 30
0.0
 40
0.1375999999999497
100
AcDbArc
 50
201.9051609839393
 51
210.0000000000031
  0
ARC
  5
1C7
330
F3
100
AcDbEntity
  8
AM_4
100
AcDbCircle
 10
0.9931532422411042
 20
-2.62072764655663
 30
0.0
 40
0.13760000000007
100
AcDbArc
 50
60.00000000000232
 51
68.094839016059
  0
LINE
  5
1C8
330
F3
100
AcDbEntity
  8
AM_4
100
AcDbLine
 10
2.5625
 20
-3.25
 30
0.0
 11
-2.562499999999999
 21
-3.25
 31
0.0
  0
ARC
  5
1C9
330
F3
100
AcDbEntity
  8
AM_4
100
AcDbCircle
 10
2.5625
 20
-2.5625
 30
0.0
 40
0.6875
100
AcDbArc
 50
270.0
 51
0.0000008537736463
  0
ARC
  5
1CA
330
F3
100
AcDbEntity
  8
AM_4
100
AcDbCircle
 10
2.562499999999985
 20
-2.562500000000008
 30
0.0
 40
0.6975000000000162
100
AcDbArc
 50
9.713724096675953
 51
29.9999999999999
  0
ARC
  5
1CB
330
F3
100
AcDbEntity
  8
AM_4
100
AcDbCircle
 10
2.562500000000012
 20
-2.562499999999969
 30
0.0
 40
0.6975000000000336
100
AcDbArc
 50
240.0000000000004
 51
260.2862759033233
  0
LINE
  5
1CC
330
F3
100
AcDbEntity
  8
AM_4
100
AcDbLine
 10
2.21375
 20
-3.166552719139647
 30
0.0
 11
1.061953242241134
 21
-2.501562550995828
 31
0.0
  0
LINE
  5
1CD
330
F3
100
AcDbEntity
  8
AM_4
100
AcDbLine
 10
2.501562550995828
 20
-1.061953242241136
 30
0.0
 11
3.166552719139645
 21
-2.213750000000001
 31
0.0
  0
CIRCLE
  5
1CE
330
F3
100
AcDbEntity
  8
AM_4
100
AcDbCircle
 10
2.5625
 20
-2.5625
 30
0.0
 40
0.3125
  0
ARC
  5
1CF
330
F3
100
AcDbEntity
  8
AM_4
100
AcDbCircle
 10
0.9931532422411549
 20
2.620727646556519
 30
0.0
 40
0.1375999999999497
100
AcDbArc
 50
291.9051609839393
 51
300.000000000003
  0
ARC
  5
1D0
330
F3
100
AcDbEntity
  8
AM_4
100
AcDbCircle
 10
2.620727646556627
 20
0.9931532422411059
 30
0.0
 40
0.1376000000000671
100
AcDbArc
 50
150.0000000000022
 51
158.094839016059
  0
ARC
  5
1D1
330
F3
100
AcDbEntity
  8
AM_4
100
AcDbCircle
 10
2.5625
 20
2.562500000000001
 30
0.0
 40
0.6874999999999996
100
AcDbArc
 50
0.0
 51
90.0
  0
LINE
  5
1D2
330
F3
100
AcDbEntity
  8
AM_4
100
AcDbLine
 10
3.25
 20
2.562499999999999
 30
0.0
 11
3.25
 21
-2.56249998975545
 31
0.0
  0
ARC
  5
1D3
330
F3
100
AcDbEntity
  8
AM_4
100
AcDbCircle
 10
2.562499999999971
 20
2.562500000000012
 30
0.0
 40
0.6975000000000322
100
AcDbArc
 50
330.0000000000003
 51
350.2862759033233
  0
ARC
  5
1D4
330
F3
100
AcDbEntity
  8
AM_4
100
AcDbCircle
 10
2.562500000000002
 20
2.5625
 30
0.0
 40
0.6975000000000005
100
AcDbArc
 50
99.71372409667576
 51
120.0000000000002
  0
LINE
  5
1D5
330
F3
100
AcDbEntity
  8
AM_4
100
AcDbLine
 10
1.061953242241136
 20
2.501562550995828
 30
0.0
 11
2.21375
 21
3.166552719139645
 31
0.0
  0
LINE
  5
1D6
330
F3
100
AcDbEntity
  8
AM_4
100
AcDbLine
 10
3.166552719139647
 20
2.213749999999999
 30
0.0
 11
2.501562550995828
 21
1.061953242241135
 31
0.0
  0
CIRCLE
  5
1D7
330
F3
100
AcDbEntity
  8
AM_4
100
AcDbCircle
 10
2.5625
 20
2.5625
 30
0.0
 40
0.3125
  0
ARC
  5
1D8
330
F3
100
AcDbEntity
  8
AM_4
100
AcDbCircle
 10
-2.620727646556558
 20
0.993153242241138
 30
0.0
 40
0.1375999999999914
100
AcDbArc
 50
21.90516098393984
 51
30.00000000000123
  0
ARC
  5
1D9
330
F3
100
AcDbEntity
  8
AM_4
100
AcDbCircle
 10
-0.9931532422411055
 20
2.620727646556627
 30
0.0
 40
0.1376000000000672
100
AcDbArc
 50
240.0000000000021
 51
248.094839016059
  0
ARC
  5
1DA
330
F3
100
AcDbEntity
  8
AM_4
100
AcDbCircle
 10
-2.5625
 20
2.562499999999999
 30
0.0
 40
0.6875000000000009
100
AcDbArc
 50
90.0
 51
179.9999987925817
  0
LINE
  5
1DB
330
F3
100
AcDbEntity
  8
AM_4
100
AcDbLine
 10
-2.5625
 20
3.25
 30
0.0
 11
2.5625
 21
3.25
 31
0.0
  0
ARC
  5
1DC
330
F3
100
AcDbEntity
  8
AM_4
100
AcDbCircle
 10
-2.562500000000006
 20
2.562499999999987
 30
0.0
 40
0.6975000000000157
100
AcDbArc
 50
60.00000000000009
 51
80.28627590332346
  0
ARC
  5
1DD
330
F3
100
AcDbEntity
  8
AM_4
100
AcDbCircle
 10
-2.562499999999994
 20
2.562500000000004
 30
0.0
 40
0.6975000000000063
100
AcDbArc
 50
189.7137240966757
 51
210.0
  0
LINE
  5
1DE
330
F3
100
AcDbEntity
  8
AM_4
100
AcDbLine
 10
-2.213749999999999
 20
3.166552719139647
 30
0.0
 11
-1.061953242241135
 21
2.501562550995828
 31
0.0
  0
LINE
  5
1DF
330
F3
100
AcDbEntity
  8
AM_4
100
AcDbLine
 10
-2.501562550995828
 20
1.061953242241136
 30
0.0
 11
-3.166552719139645
 21
2.21375
 31
0.0
  0
CIRCLE
  5
1E0
330
F3
100
AcDbEntity
  8
AM_4
100
AcDbCircle
 10
-2.5625
 20
2.5625
 30
0.0
 40
0.3125
  0
LWPOLYLINE
  5
1E1
330
F3
100
AcDbEntity
  8
AM_4
100
AcDbPolyline
 90
        6
 70
     0
 43
0.0
 10
0.944392132510036
 20
2.492057082021427
 10
0.9632941149573753
 20
2.486406417713721
 10
0.9873702883779686
 20
2.483231422729727
 10
1.011885731324711
 20
2.484408704905988
 10
1.036336972149319
 20
2.490079548708886
 10
1.044487860963181
 20
2.493062001527599
  0
LWPOLYLINE
  5
1E2
330
F3
100
AcDbEntity
  8
AM_4
100
AcDbPolyline
 90
        6
 70
     0
 43
0.0
 10
-2.492057082021427
 20
0.9443921325100361
 10
-2.486406417713721
 20
0.9632941149573754
 10
-2.483231422729727
 20
0.9873702883779685
 10
-2.484408704905988
 20
1.011885731324711
 10
-2.490079548708886
 20
1.036336972149319
 10
-2.493062001527599
 20
1.044487860963181
  0
LWPOLYLINE
  5
1E3
330
F3
100
AcDbEntity
  8
AM_4
100
AcDbPolyline
 90
        6
 70
     0
 43
0.0
 10
2.492057082021427
 20
-0.9443921325100363
 10
2.486406417713721
 20
-0.9632941149573757
 10
2.483231422729727
 20
-0.9873702883779685
 10
2.484408704905988
 20
-1.011885731324711
 10
2.490079548708885
 20
-1.036336972149319
 10
2.493062001527599
 20
-1.044487860963182
  0
LWPOLYLINE
  5
1E4
330
F3
100
AcDbEntity
  8
AM_4
100
AcDbPolyline
 90
        6
 70
     0
 43
0.0
 10
-0.9443921325100362
 20
-2.492057082021427
 10
-0.9632941149573754
 20
-2.486406417713721
 10
-0.9873702883779686
 20
-2.483231422729727
 10
-1.011885731324711
 20
-2.484408704905988
 10
-1.036336972149319
 20
-2.490079548708886
 10
-1.044487860963181
 20
-2.493062001527599
  0
ARC
  5
1E5
330
F3
100
AcDbEntity
  8
AM_4
100
AcDbCircle
 10
-0.000000000000303
 20
0.0000000000012341
 30
0.0
 40
2.664999999998738
100
AcDbArc
 50
96.78731368866659
 51
110.7547480146503
  0
LWPOLYLINE
  5
1E6
330
F3
100
AcDbEntity
  8
AM_4
100
AcDbPolyline
 90
        6
 70
     0
 43
0.0
 10
-1.04448786096318
 20
2.493062001527599
 10
-1.044130595360936
 20
2.492918924362426
 10
-1.018172542135008
 20
2.48542134724711
 10
-0.9780627647193654
 20
2.483957629783281
 10
-0.9543676723360086
 20
2.488707043743445
 10
-0.9443921325100348
 20
2.492057082021427
  0
ARC
  5
1E7
330
F3
100
AcDbEntity
  8
AM_4
100
AcDbCircle
 10
0.0000000000000038
 20
-0.0000000000000044
 30
0.0
 40
2.703019244319261
100
AcDbArc
 50
112.7316289424656
 51
157.2683710575344
  0
ARC
  5
1E8
330
F3
100
AcDbEntity
  8
AM_4
100
AcDbCircle
 10
0.0000000000005307
 20
-0.0000000000000006
 30
0.0
 40
2.665000000000497
100
AcDbArc
 50
159.245251985357
 51
200.7547480146429
  0
LWPOLYLINE
  5
1E9
330
F3
100
AcDbEntity
  8
AM_4
100
AcDbPolyline
 90
        6
 70
     0
 43
0.0
 10
-2.493062001527599
 20
-1.04448786096318
 10
-2.492918924362426
 20
-1.044130595360935
 10
-2.48542134724711
 20
-1.018172542135008
 10
-2.483957629783281
 20
-0.9780627647193654
 10
-2.488707043743445
 20
-0.9543676723360082
 10
-2.492057082021428
 20
-0.9443921325100337
  0
ARC
  5
1EA
330
F3
100
AcDbEntity
  8
AM_4
100
AcDbCircle
 10
-0.0000000000000009
 20
-0.0000000000000011
 30
0.0
 40
2.703019244319254
100
AcDbArc
 50
202.7316289424655
 51
247.2683710575345
  0
ARC
  5
1EB
330
F3
100
AcDbEntity
  8
AM_4
100
AcDbCircle
 10
-0.0000000000000001
 20
0.0000000000003295
 30
0.0
 40
2.665000000000308
100
AcDbArc
 50
249.2452519853555
 51
290.7547480146444
  0
LWPOLYLINE
  5
1EC
330
F3
100
AcDbEntity
  8
AM_4
100
AcDbPolyline
 90
        6
 70
     0
 43
0.0
 10
1.04448786096318
 20
-2.4930620015276
 10
1.044130595360935
 20
-2.492918924362426
 10
1.018172542135008
 20
-2.48542134724711
 10
0.9780627647193659
 20
-2.483957629783281
 10
0.9543676723360112
 20
-2.488707043743444
 10
0.9443921325100327
 20
-2.492057082021428
  0
ARC
  5
1ED
330
F3
100
AcDbEntity
  8
AM_4
100
AcDbCircle
 10
-0.0000000000000011
 20
0.0000000000000004
 30
0.0
 40
2.703019244319257
100
AcDbArc
 50
292.7316289424655
 51
337.2683710575345
  0
ARC
  5
1EE
330
F3
100
AcDbEntity
  8
AM_4
100
AcDbCircle
 10
0.0000000000001026
 20
-0.0000000000000003
 30
0.0
 40
2.664999999999904
100
AcDbArc
 50
339.2452519853522
 51
20.75474801464776
  0
LWPOLYLINE
  5
1EF
330
F3
100
AcDbEntity
  8
AM_4
100
AcDbPolyline
 90
        6
 70
     0
 43
0.0
 10
2.493062001527599
 20
1.04448786096318
 10
2.492918924362426
 20
1.044130595360936
 10
2.48542134724711
 20
1.018172542135009
 10
2.483957629783281
 20
0.9780627647193654
 10
2.488707043743445
 20
0.9543676723360085
 10
2.492057082021427
 20
0.9443921325100345
  0
ARC
  5
1F0
330
F3
100
AcDbEntity
  8
AM_4
100
AcDbCircle
 10
-0.0000000000000022
 20
-0.0000000000000024
 30
0.0
 40
2.703019244319259
100
AcDbArc
 50
22.73162894246558
 51
67.26837105753442
  0
ARC
  5
1F1
330
F3
100
AcDbEntity
  8
AM_4
100
AcDbCircle
 10
-0.0000000000010931
 20
-0.0000000000044458
 30
0.0
 40
2.665000000004545
100
AcDbArc
 50
69.24525198536489
 51
83.21268631131804
  0
LINE
  5
1F2
330
F3
100
AcDbEntity
  8
AM_4
100
AcDbLine
 10
0.15748032
 20
3.033464571338582
 30
0.0
 11
-0.15748032
 21
3.033464571338582
 31
0.0
  0
LINE
  5
1F3
330
F3
100
AcDbEntity
  8
AM_4
100
AcDbLine
 10
-0.15748032
 20
3.033464571338582
 30
0.0
 11
-0.1818426102881368
 21
3.026936715330103
 31
0.0
  0
LINE
  5
1F4
330
F3
100
AcDbEntity
  8
AM_4
100
AcDbLine
 10
0.15748032
 20
2.915354331338582
 30
0.0
 11
-0.15748032
 21
2.915354331338582
 31
0.0
  0
LINE
  5
1F5
330
F3
100
AcDbEntity
  8
AM_4
100
AcDbLine
 10
-0.1818426102881368
 20
2.921882187347061
 30
0.0
 11
-0.15748032
 21
2.915354331338582
 31
0.0
  0
LINE
  5
1F6
330
F3
100
AcDbEntity
  8
AM_4
100
AcDbLine
 10
0.1818426102881368
 20
3.026936715330103
 30
0.0
 11
0.15748032
 21
3.033464571338582
 31
0.0
  0
LINE
  5
1F7
330
F3
100
AcDbEntity
  8
AM_4
100
AcDbLine
 10
0.15748032
 20
2.915354331338582
 30
0.0
 11
0.1818426102881368
 21
2.921882187347061
 31
0.0
  0
ARC
  5
1F8
330
F3
100
AcDbEntity
  8
AM_4
100
AcDbCircle
 10
-0.0654127384443837
 20
3.230314971338583
 30
0.0
 40
0.0196850399999993
100
AcDbArc
 50
90.0
 51
158.1985930228132
  0
ARC
  5
1F9
330
F3
100
AcDbEntity
  8
AM_4
100
AcDbCircle
 10
0.0654127384443837
 20
3.230314971338583
 30
0.0
 40
0.0196850399999992
100
AcDbArc
 50
21.80140697718683
 51
90.0
  0
LINE
  5
1FA
330
F3
100
AcDbEntity
  8
AM_4
100
AcDbLine
 10
-0.0836898395636919
 20
3.237625810857828
 30
0.0
 11
-0.1048775701420836
 21
3.184656477684744
 31
0.0
  0
LINE
  5
1FB
330
F3
100
AcDbEntity
  8
AM_4
100
AcDbLine
 10
0.1048775701420836
 20
3.184656477684744
 30
0.0
 11
0.0836898395636919
 21
3.237625810857828
 31
0.0
  0
LINE
  5
1FC
330
F3
100
AcDbEntity
  8
AM_4
100
AcDbLine
 10
0.0836898395636919
 20
3.237625810857828
 30
0.0
 11
-0.0836898395636919
 21
3.237625810857828
 31
0.0
  0
ARC
  5
1FD
330
F3
100
AcDbEntity
  8
AM_4
100
AcDbCircle
 10
-0.0866004690227752
 20
3.177345638165497
 30
0.0
 40
0.0196850400000002
100
AcDbArc
 50
158.1985930228074
 51
225.8429143191019
  0
ARC
  5
1FE
330
F3
100
AcDbEntity
  8
AM_4
100
AcDbCircle
 10
0.0866004690227753
 20
3.177345638165497
 30
0.0
 40
0.0196850400000002
100
AcDbArc
 50
314.1570856808981
 51
21.80140697719263
  0
LINE
  5
1FF
330
F3
100
AcDbEntity
  8
AM_4
100
AcDbLine
 10
0.1048775701420836
 20
3.184656477684744
 30
0.0
 11
-0.1048775701420836
 21
3.184656477684744
 31
0.0
  0
LINE
  5
200
330
F3
100
AcDbEntity
  8
AM_4
100
AcDbLine
 10
-0.11023622
 20
2.915354331338582
 30
0.0
 11
-0.11023622
 21
2.89566928
 31
0.0
  0
LINE
  5
201
330
F3
100
AcDbEntity
  8
AM_4
100
AcDbLine
 10
0.11023622
 20
2.89566928
 30
0.0
 11
0.11023622
 21
2.915354331338582
 31
0.0
  0
LINE
  5
202
330
F3
100
AcDbEntity
  8
AM_4
100
AcDbLine
 10
-0.1102362200000001
 20
3.053149611338581
 30
0.0
 11
-0.1102362200000001
 21
3.033464571338582
 31
0.0
  0
LINE
  5
203
330
F3
100
AcDbEntity
  8
AM_4
100
AcDbLine
 10
0.1102362200000001
 20
3.033464571338582
 30
0.0
 11
0.1102362200000001
 21
3.053149611338581
 31
0.0
  0
ARC
  5
204
330
F3
100
AcDbEntity
  8
AM_4
100
AcDbCircle
 10
-0.1498523720312511
 20
3.112204731338581
 30
0.0
 40
0.0711122120312509
100
AcDbArc
 50
303.8550321711154
 51
45.84291431910446
  0
ARC
  5
205
330
F3
100
AcDbEntity
  8
AM_4
100
AcDbCircle
 10
0.1498523720312511
 20
3.112204731338581
 30
0.0
 40
0.0711122120312512
100
AcDbArc
 50
134.1570856808955
 51
236.1449678288846
  0
LINE
  5
206
330
F3
100
AcDbEntity
  8
AM_4
100
AcDbLine
 10
0.1102362200000002
 20
3.053149611338581
 30
0.0
 11
-0.1102362200000002
 21
3.053149611338581
 31
0.0
  0
LINE
  5
207
330
F3
100
AcDbEntity
  8
AM_4
100
AcDbLine
 10
0.1003136179666382
 20
3.163222949121089
 30
0.0
 11
-0.1003136179666382
 21
3.163222949121089
 31
0.0
  0
LINE
  5
208
330
F3
100
AcDbEntity
  8
AM_4
100
AcDbLine
 10
0.1818426102881368
 20
3.026936715330103
 30
0.0
 11
0.1363819577161026
 21
3.033464571338582
 31
0.0
  0
LINE
  5
209
330
F3
100
AcDbEntity
  8
AM_4
100
AcDbLine
 10
0.1363819577161026
 20
2.915354331338582
 30
0.0
 11
0.1818426102881368
 21
2.921882187347061
 31
0.0
  0
LINE
  5
20A
330
F3
100
AcDbEntity
  8
AM_4
100
AcDbLine
 10
0.1818426102881368
 20
2.921882187347061
 30
0.0
 11
0.1818426102881368
 21
3.026936715330103
 31
0.0
  0
LINE
  5
20B
330
F3
100
AcDbEntity
  8
AM_4
100
AcDbLine
 10
0.0909213051440684
 20
2.921882187347061
 30
0.0
 11
0.1363819577161026
 21
2.915354331338582
 31
0.0
  0
LINE
  5
20C
330
F3
100
AcDbEntity
  8
AM_4
100
AcDbLine
 10
0.1363819577161026
 20
3.033464571338582
 30
0.0
 11
0.0909213051440684
 21
3.026936715330103
 31
0.0
  0
LINE
  5
20D
330
F3
100
AcDbEntity
  8
AM_4
100
AcDbLine
 10
0.0909213051440684
 20
3.026936715330103
 30
0.0
 11
0.0
 21
3.033464571338582
 31
0.0
  0
LWPOLYLINE
  5
20E
330
F3
100
AcDbEntity
  8
AM_4
100
AcDbPolyline
 90
        3
 70
     0
 43
0.0
 10
0.0
 20
3.033464571338582
 10
-0.0689029552938094
 20
3.029602342959519
 10
-0.0909213051440684
 20
3.026936715330103
  0
LWPOLYLINE
  5
20F
330
F3
100
AcDbEntity
  8
AM_4
100
AcDbPolyline
 90
        3
 70
     0
 43
0.0
 10
-0.0909213051440684
 20
2.921882187347061
 10
-0.0689029552938094
 20
2.919216559717645
 10
0.0
 20
2.915354331338582
  0
LINE
  5
210
330
F3
100
AcDbEntity
  8
AM_4
100
AcDbLine
 10
0.0
 20
2.915354331338582
 30
0.0
 11
0.0909213051440684
 21
2.921882187347061
 31
0.0
  0
LINE
  5
211
330
F3
100
AcDbEntity
  8
AM_4
100
AcDbLine
 10
0.0909213051440684
 20
2.921882187347061
 30
0.0
 11
0.0909213051440684
 21
3.026936715330103
 31
0.0
  0
LINE
  5
212
330
F3
100
AcDbEntity
  8
AM_4
100
AcDbLine
 10
-0.0909213051440684
 20
3.026936715330103
 30
0.0
 11
-0.1363819577161026
 21
3.033464571338582
 31
0.0
  0
LINE
  5
213
330
F3
100
AcDbEntity
  8
AM_4
100
AcDbLine
 10
-0.1363819577161026
 20
3.033464571338582
 30
0.0
 11
-0.1818426102881368
 21
3.026936715330103
 31
0.0
  0
LINE
  5
214
330
F3
100
AcDbEntity
  8
AM_4
100
AcDbLine
 10
-0.1818426102881368
 20
2.921882187347061
 30
0.0
 11
-0.1818426102881368
 21
3.026936715330103
 31
0.0
  0
LINE
  5
215
330
F3
100
AcDbEntity
  8
AM_4
100
AcDbLine
 10
-0.1818426102881368
 20
2.921882187347061
 30
0.0
 11
-0.1363819577161026
 21
2.915354331338582
 31
0.0
  0
LINE
  5
216
330
F3
100
AcDbEntity
  8
AM_4
100
AcDbLine
 10
-0.1363819577161026
 20
2.915354331338582
 30
0.0
 11
-0.0909213051440684
 21
2.921882187347061
 31
0.0
  0
LINE
  5
217
330
F3
100
AcDbEntity
  8
AM_4
100
AcDbLine
 10
-0.0909213051440684
 20
2.921882187347061
 30
0.0
 11
-0.0909213051440684
 21
3.026936715330103
 31
0.0
  0
ARC
  5
218
330
F3
100
AcDbEntity
  8
AM_4
100
AcDbCircle
 10
-0.0000000000000001
 20
0.0000000000000004
 30
0.0
 40
2.663673147508249
100
AcDbArc
 50
96.79071056181726
 51
83.20928943818275
  0
LINE
  5
219
330
F3
100
AcDbEntity
  8
AM_4
100
AcDbLine
 10
0.3149606400000001
 20
2.615878599621031
 30
0.0
 11
0.3149606400000001
 21
2.89566928
 31
0.0
  0
LINE
  5
21A
330
F3
100
AcDbEntity
  8
AM_4
100
AcDbLine
 10
-0.3149606400000001
 20
2.615878599621031
 30
0.0
 11
-0.3149606400000001
 21
2.89566928
 31
0.0
  0
LINE
  5
21B
330
F3
100
AcDbEntity
  8
AM_4
100
AcDbLine
 10
-0.3149606400000001
 20
2.89566928
 30
0.0
 11
0.3149606400000001
 21
2.89566928
 31
0.0
  0
LINE
  5
21C
330
F3
100
AcDbEntity
  8
AM_4
100
AcDbLine
 10
-0.314936656811008
 20
2.615833159678575
 30
0.0
 11
-0.27559056
 21
2.58070416736076
 31
0.0
  0
ARC
  5
21D
330
F3
100
AcDbEntity
  8
AM_4
100
AcDbCircle
 10
0.0000000000001381
 20
0.0000000000000082
 30
0.0
 40
2.634723556101728
100
AcDbArc
 50
96.86515684605565
 51
83.13484315394969
  0
LINE
  5
21E
330
F3
100
AcDbEntity
  8
AM_4
100
AcDbLine
 10
0.27559056
 20
2.58070416736076
 30
0.0
 11
0.3149366568110409
 21
2.615833159678605
 31
0.0
  0
CIRCLE
  5
21F
330
F3
100
AcDbEntity
  8
AM_4
100
AcDbCircle
 10
0.0
 20
0.0
 30
0.0
 40
1.9685
  0
LINE
  5
220
330
F3
100
AcDbEntity
  8
AM_4
100
AcDbLine
 10
-0.27559056
 20
2.58070416736076
 30
0.0
 11
-0.27559056
 21
2.89566928
 31
0.0
  0
ARC
  5
221
330
F3
100
AcDbEntity
  8
AM_4
100
AcDbCircle
 10
0.0
 20
-0.0000000000000002
 30
0.0
 40
2.595377459290711
100
AcDbArc
 50
96.09545274797946
 51
83.90454725202055
  0
LINE
  5
222
330
F3
100
AcDbEntity
  8
AM_4
100
AcDbLine
 10
0.27559056
 20
2.58070416736076
 30
0.0
 11
0.27559056
 21
2.89566928
 31
0.0
  0
ENDBLK
  5
F6
330
F3
100
AcDbEntity
  8
0
100
AcDbBlockEnd
  0
ENDSEC
  0
SECTION
  2
ENTITIES
  0
INSERT
  5
6F
330
1F
100
AcDbEntity
  8
0
100
AcDbBlockReference
  2
1_129655_0
 10
0.0
 20
0.0
 30
0.0
  0
POINT
  5
224
330
1F
100
AcDbEntity
  8
ConnectionPoints
100
AcDbPoint
 10
0.0000000000000001
 20
0.0
 30
-0.6707749999999999
  0
POINT
  5
225
330
1F
100
AcDbEntity
  8
ConnectionPoints
100
AcDbPoint
 10
0.0000000000000001
 20
0.0
 30
-1.3739
  0
POINT
  5
226
330
1F
100
AcDbEntity
  8
ConnectionPoints
100
AcDbPoint
 10
0.0
 20
0.0
 30
-1.3739
  0
ENDSEC
  0
SECTION
  2
OBJECTS
  0
DICTIONARY
  5
C
330
0
100
AcDbDictionary
281
     1
  3
ACAD_DETAILVIEWSTYLE
350
22E
  3
ACAD_GROUP
350
D
  3
ACAD_LAYOUT
350
1A
  3
ACAD_MATERIAL
350
43
  3
ACAD_MLEADERSTYLE
350
6B
  3
ACAD_MLINESTYLE
350
17
  3
ACAD_PLOTSETTINGS
350
19
  3
ACAD_PLOTSTYLENAME
350
E
  3
ACAD_SCALELIST
350
47
  3
ACAD_SECTIONVIEWSTYLE
350
22F
  3
ACAD_TABLESTYLE
350
69
  3
ACAD_VISUALSTYLE
350
2A
  3
ACDB_RECOMPOSE_DATA
350
22B
  3
AcDbVariableDictionary
350
227
  0
SUN
  5
6D
330
29
100
AcDbSun
 90
        1
290
     0
 63
     7
421
 16777215
 40
1.0
291
     1
 91
  2455826
 92
 54000000
292
     0
 70
     2
 71
   256
280
     1
  0
DICTIONARY
  5
22E
102
{ACAD_REACTORS
330
C
102
}
330
C
100
AcDbDictionary
281
     1
  0
DICTIONARY
  5
D
102
{ACAD_REACTORS
330
C
102
}
330
C
100
AcDbDictionary
281
     1
  0
DICTIONARY
  5
1A
102
{ACAD_REACTORS
330
C
102
}
330
C
100
AcDbDictionary
281
     1
  3
Layout1
350
1E
  3
Layout2
350
26
  3
Model
350
22
  0
DICTIONARY
  5
43
102
{ACAD_REACTORS
330
C
102
}
330
C
100
AcDbDictionary
281
     1
  3
ByBlock
350
45
  3
ByLayer
350
44
  3
Global
350
46
  0
DICTIONARY
  5
6B
102
{ACAD_REACTORS
330
C
102
}
330
C
100
AcDbDictionary
281
     1
  3
Standard
350
6C
  0
DICTIONARY
  5
17
102
{ACAD_REACTORS
330
C
102
}
330
C
100
AcDbDictionary
281
     1
  3
Standard
350
18
  0
DICTIONARY
  5
19
102
{ACAD_REACTORS
330
C
102
}
330
C
100
AcDbDictionary
281
     1
  0
ACDBDICTIONARYWDFLT
  5
E
102
{ACAD_REACTORS
330
C
102
}
330
C
100
AcDbDictionary
281
     1
  3
Normal
350
F
100
AcDbDictionaryWithDefault
340
F
  0
DICTIONARY
  5
47
102
{ACAD_REACTORS
330
C
102
}
330
C
100
AcDbDictionary
281
     1
  3
A0
350
48
  3
A1
350
49
  3
A2
350
4A
  3
A3
350
4B
  3
A4
350
4C
  3
A5
350
4D
  3
A6
350
4E
  3
A7
350
4F
  3
A8
350
50
  3
A9
350
51
  3
B0
350
52
  3
B1
350
53
  3
B2
350
54
  3
B3
350
55
  3
B4
350
56
  3
B5
350
57
  3
B6
350
58
  3
B7
350
59
  3
B8
350
5A
  3
B9
350
5B
  3
C0
350
5C
  3
C1
350
5D
  3
C2
350
5E
  3
C3
350
5F
  3
C4
350
60
  3
C5
350
61
  3
C6
350
62
  3
C7
350
63
  3
C8
350
64
  3
C9
350
65
  3
D0
350
66
  3
D1
350
67
  3
D2
350
68
  0
DICTIONARY
  5
22F
102
{ACAD_REACTORS
330
C
102
}
330
C
100
AcDbDictionary
281
     1
  0
DICTIONARY
  5
69
102
{ACAD_REACTORS
330
C
102
}
330
C
100
AcDbDictionary
281
     1
  3
Standard
350
6A
  0
DICTIONARY
  5
2A
102
{ACAD_REACTORS
330
C
102
}
330
C
100
AcDbDictionary
281
     1
  3
2dWireframe
350
2F
  3
Basic
350
32
  3
Brighten
350
36
  3
ColorChange
350
3A
  3
Conceptual
350
34
  3
Dim
350
35
  3
EdgeColorOff
350
3D
  3
Facepattern
350
39
  3
Flat
350
2B
  3
FlatWithEdges
350
2C
  3
Gouraud
350
2D
  3
GouraudWithEdges
350
2E
  3
Hidden
350
31
  3
JitterOff
350
3B
  3
Linepattern
350
38
  3
OverhangOff
350
3C
  3
Realistic
350
33
  3
Shaded
350
42
  3
Shaded with edges
350
41
  3
Shades of Gray
350
3E
  3
Sketchy
350
3F
  3
Thicken
350
37
  3
Wireframe
350
30
  3
X-Ray
350
40
  0
XRECORD
  5
22B
102
{ACAD_REACTORS
330
C
102
}
330
C
100
AcDbXrecord
280
     1
 90
        1
330
6A
  0
DICTIONARY
  5
227
102
{ACAD_REACTORS
330
C
102
}
330
C
100
AcDbDictionary
281
     1
  3
CANNOSCALE
350
228
  3
CMLEADERSTYLE
350
22D
  3
CTABLESTYLE
350
22C
  0
LAYOUT
  5
1E
102
{ACAD_REACTORS
330
1A
102
}
330
1A
100
AcDbPlotSettings
  1

  2
none_device
  4

  6

 40
0.0
 41
0.0
 42
0.0
 43
0.0
 44
0.0
 45
0.0
 46
0.0
 47
0.0
 48
0.0
 49
0.0
140
0.0
141
0.0
142
1.0
143
1.0
 70
   688
 72
     0
 73
     0
 74
     5
  7

 75
    16
 76
     0
 77
     2
 78
   300
147
1.0
148
0.0
149
0.0
100
AcDbLayout
  1
Layout1
 70
     1
 71
     1
 10
0.0
 20
0.0
 11
12.0
 21
9.0
 12
0.0
 22
0.0
 32
0.0
 14
1.000000000000000E+20
 24
1.000000000000000E+20
 34
1.000000000000000E+20
 15
-1.000000000000000E+20
 25
-1.000000000000000E+20
 35
-1.000000000000000E+20
146
0.0
 13
0.0
 23
0.0
 33
0.0
 16
1.0
 26
0.0
 36
0.0
 17
0.0
 27
1.0
 37
0.0
 76
     0
330
1B
  0
LAYOUT
  5
26
102
{ACAD_REACTORS
330
1A
102
}
330
1A
100
AcDbPlotSettings
  1

  2
none_device
  4

  6

 40
0.0
 41
0.0
 42
0.0
 43
0.0
 44
0.0
 45
0.0
 46
0.0
 47
0.0
 48
0.0
 49
0.0
140
0.0
141
0.0
142
1.0
143
1.0
 70
   688
 72
     0
 73
     0
 74
     5
  7

 75
    16
 76
     0
 77
     2
 78
   300
147
1.0
148
0.0
149
0.0
100
AcDbLayout
  1
Layout2
 70
     1
 71
     2
 10
0.0
 20
0.0
 11
0.0
 21
0.0
 12
0.0
 22
0.0
 32
0.0
 14
0.0
 24
0.0
 34
0.0
 15
0.0
 25
0.0
 35
0.0
146
0.0
 13
0.0
 23
0.0
 33
0.0
 16
1.0
 26
0.0
 36
0.0
 17
0.0
 27
1.0
 37
0.0
 76
     0
330
23
  0
LAYOUT
  5
22
102
{ACAD_REACTORS
330
1A
102
}
330
1A
100
AcDbPlotSettings
  1

  2
none_device
  4
Letter_(8.50_x_11.00_Inches)
  6

 40
6.35
 41
6.35
 42
6.35000508
 43
6.35000508
 44
215.9
 45
279.4
 46
0.0
 47
0.0
 48
0.0
 49
0.0
140
0.0
141
0.0
142
1.0
143
1.0
 70
  1712
 72
     0
 73
     0
 74
     0
  7

 75
     0
 76
     0
 77
     2
 78
   300
147
1.0
148
0.0
149
0.0
100
AcDbLayout
  1
Model
 70
     1
 71
     0
 10
0.0
 20
0.0
 11
12.0
 21
9.0
 12
0.0
 22
0.0
 32
0.0
 14
1.000000000000000E+20
 24
1.000000000000000E+20
 34
1.000000000000000E+20
 15
-1.000000000000000E+20
 25
-1.000000000000000E+20
 35
-1.000000000000000E+20
146
0.0
 13
0.0
 23
0.0
 33
0.0
 16
1.0
 26
0.0
 36
0.0
 17
0.0
 27
1.0
 37
0.0
 76
     0
330
1F
331
29
  0
MATERIAL
  5
45
102
{ACAD_REACTORS
330
43
102
}
330
43
100
AcDbMaterial
  1
ByBlock
 72
     1
 94
      127
  0
MATERIAL
  5
44
102
{ACAD_REACTORS
330
43
102
}
330
43
100
AcDbMaterial
  1
ByLayer
 72
     1
 94
      127
  0
MATERIAL
  5
46
102
{ACAD_REACTORS
330
43
102
}
330
43
100
AcDbMaterial
  1
Global
 72
     1
 94
      127
  0
MLEADERSTYLE
  5
6C
102
{ACAD_REACTORS
330
6B
102
}
330
6B
100
AcDbMLeaderStyle
179
     2
170
     2
171
     1
172
     0
 90
        2
 40
0.0
 41
0.0
173
     1
 91
-1056964608
340
14
 92
       -2
290
     1
 42
0.09
291
     1
 43
0.36
  3
Standard
341
0
 44
0.18
300

342
11
174
     1
178
     6
175
     1
176
     0
 93
-1056964608
 45
0.18
292
     0
297
     0
 46
0.18
343
0
 94
-1056964608
 47
1.0
 49
1.0
140
1.0
293
     1
141
0.0
294
     1
177
     0
142
1.0
295
     0
296
     0
143
0.125
271
     0
272
     9
273
     9
298
     0
  0
MLINESTYLE
  5
18
102
{ACAD_REACTORS
330
17
102
}
330
17
100
AcDbMlineStyle
  2
Standard
 70
     0
  3

 62
   256
 51
90.0
 52
90.0
 71
     2
 49
0.5
 62
   256
  6
BYLAYER
 49
-0.5
 62
   256
  6
BYLAYER
  0
ACDBPLACEHOLDER
  5
F
102
{ACAD_REACTORS
330
E
102
}
330
E
  0
SCALE
  5
48
102
{ACAD_REACTORS
330
47
102
}
330
47
100
AcDbScale
 70
     0
300
1:1
140
1.0
141
1.0
290
     1
  0
SCALE
  5
49
102
{ACAD_REACTORS
330
47
102
}
330
47
100
AcDbScale
 70
     0
300
1:2
140
1.0
141
2.0
290
     0
  0
SCALE
  5
4A
102
{ACAD_REACTORS
330
47
102
}
330
47
100
AcDbScale
 70
     0
300
1:4
140
1.0
141
4.0
290
     0
  0
SCALE
  5
4B
102
{ACAD_REACTORS
330
47
102
}
330
47
100
AcDbScale
 70
     0
300
1:5
140
1.0
141
5.0
290
     0
  0
SCALE
  5
4C
102
{ACAD_REACTORS
330
47
102
}
330
47
100
AcDbScale
 70
     0
300
1:8
140
1.0
141
8.0
290
     0
  0
SCALE
  5
4D
102
{ACAD_REACTORS
330
47
102
}
330
47
100
AcDbScale
 70
     0
300
1:10
140
1.0
141
10.0
290
     0
  0
SCALE
  5
4E
102
{ACAD_REACTORS
330
47
102
}
330
47
100
AcDbScale
 70
     0
300
1:16
140
1.0
141
16.0
290
     0
  0
SCALE
  5
4F
102
{ACAD_REACTORS
330
47
102
}
330
47
100
AcDbScale
 70
     0
300
1:20
140
1.0
141
20.0
290
     0
  0
SCALE
  5
50
102
{ACAD_REACTORS
330
47
102
}
330
47
100
AcDbScale
 70
     0
300
1:30
140
1.0
141
30.0
290
     0
  0
SCALE
  5
51
102
{ACAD_REACTORS
330
47
102
}
330
47
100
AcDbScale
 70
     0
300
1:40
140
1.0
141
40.0
290
     0
  0
SCALE
  5
52
102
{ACAD_REACTORS
330
47
102
}
330
47
100
AcDbScale
 70
     0
300
1:50
140
1.0
141
50.0
290
     0
  0
SCALE
  5
53
102
{ACAD_REACTORS
330
47
102
}
330
47
100
AcDbScale
 70
     0
300
1:100
140
1.0
141
100.0
290
     0
  0
SCALE
  5
54
102
{ACAD_REACTORS
330
47
102
}
330
47
100
AcDbScale
 70
     0
300
2:1
140
2.0
141
1.0
290
     0
  0
SCALE
  5
55
102
{ACAD_REACTORS
330
47
102
}
330
47
100
AcDbScale
 70
     0
300
4:1
140
4.0
141
1.0
290
     0
  0
SCALE
  5
56
102
{ACAD_REACTORS
330
47
102
}
330
47
100
AcDbScale
 70
     0
300
8:1
140
8.0
141
1.0
290
     0
  0
SCALE
  5
57
102
{ACAD_REACTORS
330
47
102
}
330
47
100
AcDbScale
 70
     0
300
10:1
140
10.0
141
1.0
290
     0
  0
SCALE
  5
58
102
{ACAD_REACTORS
330
47
102
}
330
47
100
AcDbScale
 70
     0
300
100:1
140
100.0
141
1.0
290
     0
  0
SCALE
  5
59
102
{ACAD_REACTORS
330
47
102
}
330
47
100
AcDbScale
 70
     0
300
1/128" = 1'-0"
140
0.0078125
141
12.0
290
     0
  0
SCALE
  5
5A
102
{ACAD_REACTORS
330
47
102
}
330
47
100
AcDbScale
 70
     0
300
1/64" = 1'-0"
140
0.015625
141
12.0
290
     0
  0
SCALE
  5
5B
102
{ACAD_REACTORS
330
47
102
}
330
47
100
AcDbScale
 70
     0
300
1/32" = 1'-0"
140
0.03125
141
12.0
290
     0
  0
SCALE
  5
5C
102
{ACAD_REACTORS
330
47
102
}
330
47
100
AcDbScale
 70
     0
300
1/16" = 1'-0"
140
0.0625
141
12.0
290
     0
  0
SCALE
  5
5D
102
{ACAD_REACTORS
330
47
102
}
330
47
100
AcDbScale
 70
     0
300
3/32" = 1'-0"
140
0.09375
141
12.0
290
     0
  0
SCALE
  5
5E
102
{ACAD_REACTORS
330
47
102
}
330
47
100
AcDbScale
 70
     0
300
1/8" = 1'-0"
140
0.125
141
12.0
290
     0
  0
SCALE
  5
5F
102
{ACAD_REACTORS
330
47
102
}
330
47
100
AcDbScale
 70
     0
300
3/16" = 1'-0"
140
0.1875
141
12.0
290
     0
  0
SCALE
  5
60
102
{ACAD_REACTORS
330
47
102
}
330
47
100
AcDbScale
 70
     0
300
1/4" = 1'-0"
140
0.25
141
12.0
290
     0
  0
SCALE
  5
61
102
{ACAD_REACTORS
330
47
102
}
330
47
100
AcDbScale
 70
     0
300
3/8" = 1'-0"
140
0.375
141
12.0
290
     0
  0
SCALE
  5
62
102
{ACAD_REACTORS
330
47
102
}
330
47
100
AcDbScale
 70
     0
300
1/2" = 1'-0"
140
0.5
141
12.0
290
     0
  0
SCALE
  5
63
102
{ACAD_REACTORS
330
47
102
}
330
47
100
AcDbScale
 70
     0
300
3/4" = 1'-0"
140
0.75
141
12.0
290
     0
  0
SCALE
  5
64
102
{ACAD_REACTORS
330
47
102
}
330
47
100
AcDbScale
 70
     0
300
1" = 1'-0"
140
1.0
141
12.0
290
     0
  0
SCALE
  5
65
102
{ACAD_REACTORS
330
47
102
}
330
47
100
AcDbScale
 70
     0
300
1-1/2" = 1'-0"
140
1.5
141
12.0
290
     0
  0
SCALE
  5
66
102
{ACAD_REACTORS
330
47
102
}
330
47
100
AcDbScale
 70
     0
300
3" = 1'-0"
140
3.0
141
12.0
290
     0
  0
SCALE
  5
67
102
{ACAD_REACTORS
330
47
102
}
330
47
100
AcDbScale
 70
     0
300
6" = 1'-0"
140
6.0
141
12.0
290
     0
  0
SCALE
  5
68
102
{ACAD_REACTORS
330
47
102
}
330
47
100
AcDbScale
 70
     0
300
1'-0" = 1'-0"
140
12.0
141
12.0
290
     0
  0
TABLESTYLE
  5
6A
102
{ACAD_REACTORS
330
69
102
}
102
{ACAD_XDICTIONARY
360
229
102
}
330
69
100
AcDbTableStyle
  3
Standard
 70
     0
 71
     0
 40
0.06
 41
0.06
280
     0
281
     0
  7
Standard
140
0.18
170
     2
 62
     0
 63
   257
283
     0
 90
        4
 91
        0
  1

274
    -2
284
     1
 64
     0
275
    -2
285
     1
 65
     0
276
    -2
286
     1
 66
     0
277
    -2
287
     1
 67
     0
278
    -2
288
     1
 68
     0
279
    -2
289
     1
 69
     0
  7
Standard
140
0.25
170
     5
 62
     0
 63
   257
283
     0
 90
        4
 91
        0
  1

274
    -2
284
     1
 64
     0
275
    -2
285
     1
 65
     0
276
    -2
286
     1
 66
     0
277
    -2
287
     1
 67
     0
278
    -2
288
     1
 68
     0
279
    -2
289
     1
 69
     0
  7
Standard
140
0.18
170
     5
 62
     0
 63
   257
283
     0
 90
        4
 91
        0
  1

274
    -2
284
     1
 64
     0
275
    -2
285
     1
 65
     0
276
    -2
286
     1
 66
     0
277
    -2
287
     1
 67
     0
278
    -2
288
     1
 68
     0
279
    -2
289
     1
 69
     0
  0
VISUALSTYLE
  5
2F
102
{ACAD_REACTORS
330
2A
102
}
330
2A
100
AcDbVisualStyle
  2
2dWireframe
 70
     4
177
     3
291
     0
 70
    58
 90
        0
176
     1
 90
        2
176
     1
 90
        0
176
     1
 90
        0
176
     1
 40
0.6
176
     1
 40
30.0
176
     1
 62
     7
420
 16777215
176
     1
 90
        1
176
     1
 90
        4
176
     1
 62
     7
176
     1
 62
   257
176
     1
 90
        1
176
     1
 90
        1
176
     1
 40
1.0
176
     1
 90
        0
176
     1
 62
   257
176
     1
 40
1.0
176
     1
 90
        1
176
     1
 90
        6
176
     1
 90
        2
176
     1
 62
     7
176
     1
 90
        5
176
     1
 90
        0
176
     1
 90
        0
176
     1
290
     0
176
     1
 90
        1
176
     1
 40
0.0
176
     1
 90
        0
176
     1
290
     1
176
     1
290
     1
176
     1
290
     0
176
     1
290
     0
176
     1
290
     0
176
     1
290
     0
176
     1
290
     0
176
     1
290
     0
176
     1
290
     0
176
     1
 90
       50
176
     1
 40
0.0
176
     1
 40
1.0
176
     1
 90
        0
176
     1
 62
    18
420
        0
176
     1
 90
       50
176
     1
 90
        3
176
     1
 62
     5
420
      255
176
     1
290
     0
176
     1
 90
       50
176
     1
 90
       50
176
     1
 90
       50
176
     1
290
     0
176
     1
 90
       50
176
     1
 62
   256
176
     0
 40
1.0
176
     0
 90
        2
176
     1
  1
strokes_ogs.tif
176
     1
290
     0
176
     1
 40
1.0
176
     1
 40
1.0
176
     1
  0
VISUALSTYLE
  5
32
102
{ACAD_REACTORS
330
2A
102
}
330
2A
100
AcDbVisualStyle
  2
Basic
 70
     7
177
     3
291
     1
 70
    58
 90
        1
176
     1
 90
        0
176
     1
 90
        1
176
     1
 90
        0
176
     1
 40
0.6
176
     1
 40
30.0
176
     1
 62
     7
420
 16777215
176
     1
 90
        0
176
     1
 90
        4
176
     1
 62
     7
176
     1
 62
   257
176
     1
 90
        1
176
     1
 90
        1
176
     1
 40
1.0
176
     1
 90
        8
176
     1
 62
     7
176
     1
 40
1.0
176
     1
 90
        1
176
     1
 90
        6
176
     1
 90
        2
176
     1
 62
     7
176
     1
 90
        5
176
     1
 90
        0
176
     1
 90
        0
176
     1
290
     0
176
     1
 90
        1
176
     1
 40
0.0
176
     1
 90
        0
176
     1
290
     0
176
     1
290
     1
176
     1
290
     1
176
     1
290
     0
176
     1
290
     0
176
     1
290
     0
176
     1
290
     0
176
     1
290
     0
176
     1
290
     0
176
     1
 90
       50
176
     1
 40
0.0
176
     1
 40
1.0
176
     1
 90
        0
176
     1
 62
    18
420
        0
176
     1
 90
       50
176
     1
 90
        3
176
     1
 62
     5
420
      255
176
     1
290
     0
176
     1
 90
       50
176
     1
 90
       50
176
     1
 90
       50
176
     1
290
     0
176
     1
 90
       50
176
     1
 62
   256
176
     0
 40
1.0
176
     0
 90
        2
176
     1
  1
strokes_ogs.tif
176
     1
290
     0
176
     1
 40
1.0
176
     1
 40
1.0
176
     1
  0
VISUALSTYLE
  5
36
102
{ACAD_REACTORS
330
2A
102
}
330
2A
100
AcDbVisualStyle
  2
Brighten
 70
    12
177
     3
291
     1
 70
    58
 90
        2
176
     1
 90
        2
176
     1
 90
        0
176
     1
 90
        0
176
     1
 40
0.6
176
     1
 40
30.0
176
     1
 62
     7
420
 16777215
176
     1
 90
        1
176
     1
 90
        4
176
     1
 62
     7
176
     1
 62
   257
176
     1
 90
        1
176
     1
 90
        1
176
     1
 40
1.0
176
     1
 90
        8
176
     1
 62
     7
176
     1
 40
1.0
176
     1
 90
        1
176
     1
 90
        6
176
     1
 90
        2
176
     1
 62
     7
176
     1
 90
        5
176
     1
 90
        0
176
     1
 90
        0
176
     1
290
     0
176
     1
 90
        1
176
     1
 40
50.0
176
     1
 90
        0
176
     1
290
     0
176
     1
290
     1
176
     1
290
     1
176
     1
290
     0
176
     1
290
     0
176
     1
290
     0
176
     1
290
     0
176
     1
290
     0
176
     1
290
     0
176
     1
 90
       50
176
     1
 40
0.0
176
     1
 40
1.0
176
     1
 90
        0
176
     1
 62
    18
420
        0
176
     1
 90
       50
176
     1
 90
        3
176
     1
 62
     5
420
      255
176
     1
290
     0
176
     1
 90
       50
176
     1
 90
       50
176
     1
 90
       50
176
     1
290
     0
176
     1
 90
       50
176
     1
 62
   256
176
     0
 40
1.0
176
     0
 90
        2
176
     1
  1
strokes_ogs.tif
176
     1
290
     0
176
     1
 40
1.0
176
     1
 40
1.0
176
     1
  0
VISUALSTYLE
  5
3A
102
{ACAD_REACTORS
330
2A
102
}
330
2A
100
AcDbVisualStyle
  2
ColorChange
 70
    16
177
     3
291
     1
 70
    58
 90
        2
176
     1
 90
        2
176
     1
 90
        3
176
     1
 90
        0
176
     1
 40
0.6
176
     1
 40
30.0
176
     1
 62
     8
420
  8421504
176
     1
 90
        1
176
     1
 90
        4
176
     1
 62
     7
176
     1
 62
   257
176
     1
 90
        1
176
     1
 90
        1
176
     1
 40
1.0
176
     1
 90
        8
176
     1
 62
     8
420
  8421504
176
     1
 40
1.0
176
     1
 90
        1
176
     1
 90
        6
176
     1
 90
        2
176
     1
 62
     7
176
     1
 90
        5
176
     1
 90
        0
176
     1
 90
        0
176
     1
290
     0
176
     1
 90
        1
176
     1
 40
0.0
176
     1
 90
        0
176
     1
290
     0
176
     1
290
     1
176
     1
290
     1
176
     1
290
     0
176
     1
290
     0
176
     1
290
     0
176
     1
290
     0
176
     1
290
     0
176
     1
290
     0
176
     1
 90
       50
176
     1
 40
0.0
176
     1
 40
1.0
176
     1
 90
        0
176
     1
 62
    18
420
        0
176
     1
 90
       50
176
     1
 90
        3
176
     1
 62
     5
420
      255
176
     1
290
     0
176
     1
 90
       50
176
     1
 90
       50
176
     1
 90
       50
176
     1
290
     0
176
     1
 90
       50
176
     1
 62
   256
176
     0
 40
1.0
176
     0
 90
        2
176
     1
  1
strokes_ogs.tif
176
     1
290
     0
176
     1
 40
1.0
176
     1
 40
1.0
176
     1
  0
VISUALSTYLE
  5
34
102
{ACAD_REACTORS
330
2A
102
}
330
2A
100
AcDbVisualStyle
  2
Conceptual
 70
     9
177
     3
291
     0
 70
    58
 90
        3
176
     1
 90
        2
176
     1
 90
        0
176
     1
 90
        0
176
     1
 40
0.6
176
     1
 40
30.0
176
     1
 62
     7
420
 16777215
176
     1
 90
        2
176
     1
 90
        2
176
     1
 62
     7
176
     1
 62
   257
176
     1
 90
        1
176
     1
 90
        1
176
     1
 40
179.0
176
     1
 90
        8
176
     1
 62
     7
176
     1
 40
1.0
176
     1
 90
        1
176
     1
 90
        6
176
     1
 90
        2
176
     1
 62
     7
176
     1
 90
        3
176
     1
 90
        0
176
     1
 90
        0
176
     1
290
     0
176
     1
 90
        1
176
     1
 40
0.0
176
     1
 90
        0
176
     1
290
     0
176
     1
290
     1
176
     1
290
     1
176
     1
290
     0
176
     1
290
     0
176
     1
290
     0
176
     1
290
     0
176
     1
290
     0
176
     1
290
     0
176
     1
 90
       50
176
     1
 40
0.0
176
     1
 40
1.0
176
     1
 90
        0
176
     1
 62
    18
420
        0
176
     1
 90
       50
176
     1
 90
        3
176
     1
 62
     5
420
      255
176
     1
290
     0
176
     1
 90
       50
176
     1
 90
       50
176
     1
 90
       50
176
     1
290
     0
176
     1
 90
       50
176
     1
 62
   256
176
     0
 40
1.0
176
     0
 90
        2
176
     1
  1
strokes_ogs.tif
176
     1
290
     0
176
     1
 40
1.0
176
     1
 40
1.0
176
     1
  0
VISUALSTYLE
  5
35
102
{ACAD_REACTORS
330
2A
102
}
330
2A
100
AcDbVisualStyle
  2
Dim
 70
    11
177
     3
291
     1
 70
    58
 90
        2
176
     1
 90
        2
176
     1
 90
        0
176
     1
 90
        0
176
     1
 40
0.6
176
     1
 40
30.0
176
     1
 62
     7
420
 16777215
176
     1
 90
        1
176
     1
 90
        4
176
     1
 62
     7
176
     1
 62
   257
176
     1
 90
        1
176
     1
 90
        1
176
     1
 40
1.0
176
     1
 90
        8
176
     1
 62
     7
176
     1
 40
1.0
176
     1
 90
        1
176
     1
 90
        6
176
     1
 90
        2
176
     1
 62
     7
176
     1
 90
        5
176
     1
 90
        0
176
     1
 90
        0
176
     1
290
     0
176
     1
 90
        1
176
     1
 40
-50.0
176
     1
 90
        0
176
     1
290
     0
176
     1
290
     1
176
     1
290
     1
176
     1
290
     0
176
     1
290
     0
176
     1
290
     0
176
     1
290
     0
176
     1
290
     0
176
     1
290
     0
176
     1
 90
       50
176
     1
 40
0.0
176
     1
 40
1.0
176
     1
 90
        0
176
     1
 62
    18
420
        0
176
     1
 90
       50
176
     1
 90
        3
176
     1
 62
     5
420
      255
176
     1
290
     0
176
     1
 90
       50
176
     1
 90
       50
176
     1
 90
       50
176
     1
290
     0
176
     1
 90
       50
176
     1
 62
   256
176
     0
 40
1.0
176
     0
 90
        2
176
     1
  1
strokes_ogs.tif
176
     1
290
     0
176
     1
 40
1.0
176
     1
 40
1.0
176
     1
  0
VISUALSTYLE
  5
3D
102
{ACAD_REACTORS
330
2A
102
}
330
2A
100
AcDbVisualStyle
  2
EdgeColorOff
 70
    22
177
     3
291
     1
 70
    58
 90
        2
176
     0
 90
        2
176
     0
 90
        0
176
     0
 90
        0
176
     0
 40
0.6
176
     0
 40
30.0
176
     0
 62
     7
420
 16777215
176
     0
 90
        1
176
     0
 90
        4
176
     0
 62
     7
176
     0
 62
   257
176
     0
 90
        1
176
     0
 90
        1
176
     0
 40
1.0
176
     0
 90
        8
176
     2
 62
     7
176
     0
 40
1.0
176
     0
 90
        1
176
     0
 90
        6
176
     0
 90
        2
176
     0
 62
     7
176
     0
 90
        5
176
     0
 90
        0
176
     0
 90
        0
176
     0
290
     0
176
     0
 90
        1
176
     0
 40
0.0
176
     0
 90
        0
176
     0
290
     0
176
     0
290
     1
176
     0
290
     1
176
     0
290
     0
176
     0
290
     0
176
     0
290
     0
176
     0
290
     0
176
     0
290
     0
176
     0
290
     0
176
     0
 90
       50
176
     0
 40
0.0
176
     0
 40
1.0
176
     0
 90
        0
176
     0
 62
    18
420
        0
176
     0
 90
       50
176
     0
 90
        3
176
     0
 62
     5
420
      255
176
     0
290
     0
176
     0
 90
       50
176
     0
 90
       50
176
     0
 90
       50
176
     0
290
     0
176
     0
 90
       50
176
     0
 62
   256
176
     0
 40
1.0
176
     0
 90
        2
176
     0
  1
strokes_ogs.tif
176
     0
290
     0
176
     0
 40
1.0
176
     0
 40
1.0
176
     0
  0
VISUALSTYLE
  5
39
102
{ACAD_REACTORS
330
2A
102
}
330
2A
100
AcDbVisualStyle
  2
Facepattern
 70
    15
177
     3
291
     1
 70
    58
 90
        2
176
     1
 90
        2
176
     1
 90
        0
176
     1
 90
        0
176
     1
 40
0.6
176
     1
 40
30.0
176
     1
 62
     7
420
 16777215
176
     1
 90
        1
176
     1
 90
        4
176
     1
 62
     7
176
     1
 62
   257
176
     1
 90
        1
176
     1
 90
        1
176
     1
 40
1.0
176
     1
 90
        8
176
     1
 62
     7
176
     1
 40
1.0
176
     1
 90
        1
176
     1
 90
        6
176
     1
 90
        2
176
     1
 62
     7
176
     1
 90
        5
176
     1
 90
        0
176
     1
 90
        0
176
     1
290
     0
176
     1
 90
        1
176
     1
 40
0.0
176
     1
 90
        0
176
     1
290
     0
176
     1
290
     1
176
     1
290
     1
176
     1
290
     0
176
     1
290
     0
176
     1
290
     0
176
     1
290
     0
176
     1
290
     0
176
     1
290
     0
176
     1
 90
       50
176
     1
 40
0.0
176
     1
 40
1.0
176
     1
 90
        0
176
     1
 62
    18
420
        0
176
     1
 90
       50
176
     1
 90
        3
176
     1
 62
     5
420
      255
176
     1
290
     0
176
     1
 90
       50
176
     1
 90
       50
176
     1
 90
       50
176
     1
290
     0
176
     1
 90
       50
176
     1
 62
   256
176
     0
 40
1.0
176
     0
 90
        2
176
     1
  1
strokes_ogs.tif
176
     1
290
     0
176
     1
 40
1.0
176
     1
 40
1.0
176
     1
  0
VISUALSTYLE
  5
2B
102
{ACAD_REACTORS
330
2A
102
}
330
2A
100
AcDbVisualStyle
  2
Flat
 70
     0
177
     3
291
     1
 70
    58
 90
        2
176
     1
 90
        1
176
     1
 90
        1
176
     1
 90
        2
176
     1
 40
0.6
176
     1
 40
30.0
176
     1
 62
     7
420
 16777215
176
     1
 90
        0
176
     1
 90
        0
176
     1
 62
     7
176
     1
 62
   257
176
     1
 90
        1
176
     1
 90
        1
176
     1
 40
1.0
176
     1
 90
        8
176
     1
 62
     7
176
     1
 40
1.0
176
     1
 90
        1
176
     1
 90
        6
176
     1
 90
        2
176
     1
 62
     7
176
     1
 90
        5
176
     1
 90
        0
176
     1
 90
        0
176
     1
290
     0
176
     1
 90
       13
176
     1
 40
0.0
176
     1
 90
        0
176
     1
290
     0
176
     1
290
     1
176
     1
290
     1
176
     1
290
     0
176
     1
290
     0
176
     1
290
     0
176
     1
290
     0
176
     1
290
     0
176
     1
290
     0
176
     1
 90
       50
176
     1
 40
0.0
176
     1
 40
1.0
176
     1
 90
        0
176
     1
 62
    18
420
        0
176
     1
 90
       50
176
     1
 90
        3
176
     1
 62
     5
420
      255
176
     1
290
     0
176
     1
 90
       50
176
     1
 90
       50
176
     1
 90
       50
176
     1
290
     0
176
     1
 90
       50
176
     1
 62
   256
176
     0
 40
1.0
176
     0
 90
        2
176
     1
  1
strokes_ogs.tif
176
     1
290
     0
176
     1
 40
1.0
176
     1
 40
1.0
176
     1
  0
VISUALSTYLE
  5
2C
102
{ACAD_REACTORS
330
2A
102
}
330
2A
100
AcDbVisualStyle
  2
FlatWithEdges
 70
     1
177
     3
291
     1
 70
    58
 90
        2
176
     1
 90
        1
176
     1
 90
        1
176
     1
 90
        2
176
     1
 40
0.6
176
     1
 40
30.0
176
     1
 62
     7
420
 16777215
176
     1
 90
        1
176
     1
 90
        0
176
     1
 62
     7
176
     1
 62
   257
176
     1
 90
        1
176
     1
 90
        1
176
     1
 40
1.0
176
     1
 90
        0
176
     1
 62
   257
176
     1
 40
1.0
176
     1
 90
        1
176
     1
 90
        6
176
     1
 90
        2
176
     1
 62
     7
176
     1
 90
        5
176
     1
 90
        0
176
     1
 90
        0
176
     1
290
     0
176
     1
 90
       13
176
     1
 40
0.0
176
     1
 90
        0
176
     1
290
     0
176
     1
290
     1
176
     1
290
     1
176
     1
290
     0
176
     1
290
     0
176
     1
290
     0
176
     1
290
     0
176
     1
290
     0
176
     1
290
     0
176
     1
 90
       50
176
     1
 40
0.0
176
     1
 40
1.0
176
     1
 90
        0
176
     1
 62
    18
420
        0
176
     1
 90
       50
176
     1
 90
        3
176
     1
 62
     5
420
      255
176
     1
290
     0
176
     1
 90
       50
176
     1
 90
       50
176
     1
 90
       50
176
     1
290
     0
176
     1
 90
       50
176
     1
 62
   256
176
     0
 40
1.0
176
     0
 90
        2
176
     1
  1
strokes_ogs.tif
176
     1
290
     0
176
     1
 40
1.0
176
     1
 40
1.0
176
     1
  0
VISUALSTYLE
  5
2D
102
{ACAD_REACTORS
330
2A
102
}
330
2A
100
AcDbVisualStyle
  2
Gouraud
 70
     2
177
     3
291
     1
 70
    58
 90
        2
176
     1
 90
        2
176
     1
 90
        1
176
     1
 90
        2
176
     1
 40
0.6
176
     1
 40
30.0
176
     1
 62
     7
420
 16777215
176
     1
 90
        0
176
     1
 90
        0
176
     1
 62
     7
176
     1
 62
   257
176
     1
 90
        1
176
     1
 90
        1
176
     1
 40
1.0
176
     1
 90
        0
176
     1
 62
     7
176
     1
 40
1.0
176
     1
 90
        1
176
     1
 90
        6
176
     1
 90
        2
176
     1
 62
     7
176
     1
 90
        5
176
     1
 90
        0
176
     1
 90
        0
176
     1
290
     0
176
     1
 90
       13
176
     1
 40
0.0
176
     1
 90
        0
176
     1
290
     0
176
     1
290
     1
176
     1
290
     1
176
     1
290
     0
176
     1
290
     0
176
     1
290
     0
176
     1
290
     0
176
     1
290
     0
176
     1
290
     0
176
     1
 90
       50
176
     1
 40
0.0
176
     1
 40
1.0
176
     1
 90
        0
176
     1
 62
    18
420
        0
176
     1
 90
       50
176
     1
 90
        3
176
     1
 62
     5
420
      255
176
     1
290
     0
176
     1
 90
       50
176
     1
 90
       50
176
     1
 90
       50
176
     1
290
     0
176
     1
 90
       50
176
     1
 62
   256
176
     0
 40
1.0
176
     0
 90
        2
176
     1
  1
strokes_ogs.tif
176
     1
290
     0
176
     1
 40
1.0
176
     1
 40
1.0
176
     1
  0
VISUALSTYLE
  5
2E
102
{ACAD_REACTORS
330
2A
102
}
330
2A
100
AcDbVisualStyle
  2
GouraudWithEdges
 70
     3
177
     3
291
     1
 70
    58
 90
        2
176
     1
 90
        2
176
     1
 90
        1
176
     1
 90
        2
176
     1
 40
0.6
176
     1
 40
30.0
176
     1
 62
     7
420
 16777215
176
     1
 90
        1
176
     1
 90
        0
176
     1
 62
     7
176
     1
 62
   257
176
     1
 90
        1
176
     1
 90
        1
176
     1
 40
1.0
176
     1
 90
        0
176
     1
 62
   257
176
     1
 40
1.0
176
     1
 90
        1
176
     1
 90
        6
176
     1
 90
        2
176
     1
 62
     7
176
     1
 90
        5
176
     1
 90
        0
176
     1
 90
        0
176
     1
290
     0
176
     1
 90
       13
176
     1
 40
0.0
176
     1
 90
        0
176
     1
290
     0
176
     1
290
     1
176
     1
290
     1
176
     1
290
     0
176
     1
290
     0
176
     1
290
     0
176
     1
290
     0
176
     1
290
     0
176
     1
290
     0
176
     1
 90
       50
176
     1
 40
0.0
176
     1
 40
1.0
176
     1
 90
        0
176
     1
 62
    18
420
        0
176
     1
 90
       50
176
     1
 90
        3
176
     1
 62
     5
420
      255
176
     1
290
     0
176
     1
 90
       50
176
     1
 90
       50
176
     1
 90
       50
176
     1
290
     0
176
     1
 90
       50
176
     1
 62
   256
176
     0
 40
1.0
176
     0
 90
        2
176
     1
  1
strokes_ogs.tif
176
     1
290
     0
176
     1
 40
1.0
176
     1
 40
1.0
176
     1
  0
VISUALSTYLE
  5
31
102
{ACAD_REACTORS
330
2A
102
}
330
2A
100
AcDbVisualStyle
  2
Hidden
 70
     6
177
     3
291
     0
 70
    58
 90
        1
176
     1
 90
        2
176
     1
 90
        2
176
     1
 90
        0
176
     1
 40
0.6
176
     1
 40
30.0
176
     1
 62
     7
420
 16777215
176
     1
 90
        2
176
     1
 90
        2
176
     1
 62
     7
176
     1
 62
   257
176
     1
 90
        2
176
     1
 90
        1
176
     1
 40
40.0
176
     1
 90
        0
176
     1
 62
   257
176
     1
 40
1.0
176
     1
 90
        1
176
     1
 90
        6
176
     1
 90
        2
176
     1
 62
     7
176
     1
 90
        3
176
     1
 90
        0
176
     1
 90
        0
176
     1
290
     0
176
     1
 90
        1
176
     1
 40
0.0
176
     1
 90
        0
176
     1
290
     0
176
     1
290
     1
176
     1
290
     1
176
     1
290
     0
176
     1
290
     0
176
     1
290
     0
176
     1
290
     0
176
     1
290
     0
176
     1
290
     0
176
     1
 90
       50
176
     1
 40
0.0
176
     1
 40
1.0
176
     1
 90
        0
176
     1
 62
    18
420
        0
176
     1
 90
       50
176
     1
 90
        3
176
     1
 62
     5
420
      255
176
     1
290
     0
176
     1
 90
       50
176
     1
 90
       50
176
     1
 90
       50
176
     1
290
     0
176
     1
 90
       50
176
     1
 62
   256
176
     0
 40
1.0
176
     0
 90
        2
176
     1
  1
strokes_ogs.tif
176
     1
290
     0
176
     1
 40
1.0
176
     1
 40
1.0
176
     1
  0
VISUALSTYLE
  5
3B
102
{ACAD_REACTORS
330
2A
102
}
330
2A
100
AcDbVisualStyle
  2
JitterOff
 70
    20
177
     3
291
     1
 70
    58
 90
        2
176
     0
 90
        2
176
     0
 90
        0
176
     0
 90
        0
176
     0
 40
0.6
176
     0
 40
30.0
176
     0
 62
     7
420
 16777215
176
     0
 90
        1
176
     0
 90
        4
176
     0
 62
     7
176
     0
 62
   257
176
     0
 90
        1
176
     0
 90
        1
176
     0
 40
1.0
176
     0
 90
       10
176
     2
 62
     7
176
     0
 40
1.0
176
     0
 90
        1
176
     0
 90
        6
176
     0
 90
        2
176
     0
 62
     7
176
     0
 90
        5
176
     0
 90
        0
176
     0
 90
        0
176
     0
290
     0
176
     0
 90
        1
176
     0
 40
0.0
176
     0
 90
        0
176
     0
290
     0
176
     0
290
     1
176
     0
290
     1
176
     0
290
     0
176
     0
290
     0
176
     0
290
     0
176
     0
290
     0
176
     0
290
     0
176
     0
290
     0
176
     0
 90
       50
176
     0
 40
0.0
176
     0
 40
1.0
176
     0
 90
        0
176
     0
 62
    18
420
        0
176
     0
 90
       50
176
     0
 90
        3
176
     0
 62
     5
420
      255
176
     0
290
     0
176
     0
 90
       50
176
     0
 90
       50
176
     0
 90
       50
176
     0
290
     0
176
     0
 90
       50
176
     0
 62
   256
176
     0
 40
1.0
176
     0
 90
        2
176
     0
  1
strokes_ogs.tif
176
     0
290
     0
176
     0
 40
1.0
176
     0
 40
1.0
176
     0
  0
VISUALSTYLE
  5
38
102
{ACAD_REACTORS
330
2A
102
}
330
2A
100
AcDbVisualStyle
  2
Linepattern
 70
    14
177
     3
291
     1
 70
    58
 90
        2
176
     1
 90
        2
176
     1
 90
        0
176
     1
 90
        0
176
     1
 40
0.6
176
     1
 40
30.0
176
     1
 62
     7
420
 16777215
176
     1
 90
        1
176
     1
 90
        4
176
     1
 62
     7
176
     1
 62
   257
176
     1
 90
        7
176
     1
 90
        7
176
     1
 40
1.0
176
     1
 90
        8
176
     1
 62
     7
176
     1
 40
1.0
176
     1
 90
        1
176
     1
 90
        6
176
     1
 90
        2
176
     1
 62
     7
176
     1
 90
        5
176
     1
 90
        0
176
     1
 90
        0
176
     1
290
     0
176
     1
 90
        1
176
     1
 40
0.0
176
     1
 90
        0
176
     1
290
     0
176
     1
290
     1
176
     1
290
     1
176
     1
290
     0
176
     1
290
     0
176
     1
290
     0
176
     1
290
     0
176
     1
290
     0
176
     1
290
     0
176
     1
 90
       50
176
     1
 40
0.0
176
     1
 40
1.0
176
     1
 90
        0
176
     1
 62
    18
420
        0
176
     1
 90
       50
176
     1
 90
        3
176
     1
 62
     5
420
      255
176
     1
290
     0
176
     1
 90
       50
176
     1
 90
       50
176
     1
 90
       50
176
     1
290
     0
176
     1
 90
       50
176
     1
 62
   256
176
     0
 40
1.0
176
     0
 90
        2
176
     1
  1
strokes_ogs.tif
176
     1
290
     0
176
     1
 40
1.0
176
     1
 40
1.0
176
     1
  0
VISUALSTYLE
  5
3C
102
{ACAD_REACTORS
330
2A
102
}
330
2A
100
AcDbVisualStyle
  2
OverhangOff
 70
    21
177
     3
291
     1
 70
    58
 90
        2
176
     0
 90
        2
176
     0
 90
        0
176
     0
 90
        0
176
     0
 40
0.6
176
     0
 40
30.0
176
     0
 62
     7
420
 16777215
176
     0
 90
        1
176
     0
 90
        4
176
     0
 62
     7
176
     0
 62
   257
176
     0
 90
        1
176
     0
 90
        1
176
     0
 40
1.0
176
     0
 90
        9
176
     2
 62
     7
176
     0
 40
1.0
176
     0
 90
        1
176
     0
 90
        6
176
     0
 90
        2
176
     0
 62
     7
176
     0
 90
        5
176
     0
 90
        0
176
     0
 90
        0
176
     0
290
     0
176
     0
 90
        1
176
     0
 40
0.0
176
     0
 90
        0
176
     0
290
     0
176
     0
290
     1
176
     0
290
     1
176
     0
290
     0
176
     0
290
     0
176
     0
290
     0
176
     0
290
     0
176
     0
290
     0
176
     0
290
     0
176
     0
 90
       50
176
     0
 40
0.0
176
     0
 40
1.0
176
     0
 90
        0
176
     0
 62
    18
420
        0
176
     0
 90
       50
176
     0
 90
        3
176
     0
 62
     5
420
      255
176
     0
290
     0
176
     0
 90
       50
176
     0
 90
       50
176
     0
 90
       50
176
     0
290
     0
176
     0
 90
       50
176
     0
 62
   256
176
     0
 40
1.0
176
     0
 90
        2
176
     0
  1
strokes_ogs.tif
176
     0
290
     0
176
     0
 40
1.0
176
     0
 40
1.0
176
     0
  0
VISUALSTYLE
  5
33
102
{ACAD_REACTORS
330
2A
102
}
330
2A
100
AcDbVisualStyle
  2
Realistic
 70
     8
177
     3
291
     0
 70
    58
 90
        2
176
     1
 90
        3
176
     1
 90
        0
176
     1
 90
        2
176
     1
 40
0.6
176
     1
 40
30.0
176
     1
 62
     7
420
 16777215
176
     1
 90
        0
176
     1
 90
        0
176
     1
 62
     7
176
     1
 62
   257
176
     1
 90
        1
176
     1
 90
        1
176
     1
 40
1.0
176
     1
 90
        8
176
     1
 62
   257
176
     1
 40
1.0
176
     1
 90
        1
176
     1
 90
        6
176
     1
 90
        2
176
     1
 62
     7
176
     1
 90
        3
176
     1
 90
        0
176
     1
 90
        0
176
     1
290
     0
176
     1
 90
       13
176
     1
 40
0.0
176
     1
 90
        0
176
     1
290
     0
176
     1
290
     1
176
     1
290
     1
176
     1
290
     0
176
     1
290
     0
176
     1
290
     0
176
     1
290
     0
176
     1
290
     0
176
     1
290
     0
176
     1
 90
       50
176
     1
 40
0.0
176
     1
 40
1.0
176
     1
 90
        0
176
     1
 62
    18
420
        0
176
     1
 90
       50
176
     1
 90
        3
176
     1
 62
     5
420
      255
176
     1
290
     0
176
     1
 90
       50
176
     1
 90
       50
176
     1
 90
       50
176
     1
290
     0
176
     1
 90
       50
176
     1
 62
   256
176
     0
 40
1.0
176
     0
 90
        2
176
     1
  1
strokes_ogs.tif
176
     1
290
     0
176
     1
 40
1.0
176
     1
 40
1.0
176
     1
  0
VISUALSTYLE
  5
42
102
{ACAD_REACTORS
330
2A
102
}
330
2A
100
AcDbVisualStyle
  2
Shaded
 70
    27
177
     3
291
     0
 70
    58
 90
        2
176
     1
 90
        2
176
     1
 90
        1
176
     1
 90
        2
176
     1
 40
0.6
176
     1
 40
30.0
176
     1
 62
     7
420
 16777215
176
     1
 90
        0
176
     1
 90
        4
176
     1
 62
     7
176
     1
 62
   257
176
     1
 90
        1
176
     1
 90
        1
176
     1
 40
1.0
176
     1
 90
        8
176
     1
 62
   257
176
     1
 40
1.0
176
     1
 90
        1
176
     1
 90
        6
176
     1
 90
        2
176
     1
 62
     8
420
  7895160
176
     1
 90
        3
176
     1
 90
        0
176
     1
 90
        0
176
     1
290
     0
176
     1
 90
        5
176
     1
 40
0.0
176
     1
 90
        0
176
     1
290
     0
176
     1
290
     1
176
     1
290
     1
176
     1
290
     0
176
     1
290
     0
176
     1
290
     0
176
     1
290
     0
176
     1
290
     0
176
     1
290
     0
176
     1
 90
       50
176
     1
 40
0.0
176
     1
 40
1.0
176
     1
 90
        0
176
     1
 62
    18
420
        0
176
     1
 90
       50
176
     1
 90
        3
176
     1
 62
     5
420
      255
176
     1
290
     0
176
     1
 90
       50
176
     1
 90
       50
176
     1
 90
       50
176
     1
290
     0
176
     1
 90
       50
176
     1
 62
   256
176
     0
 40
1.0
176
     0
 90
        2
176
     1
  1
strokes_ogs.tif
176
     1
290
     0
176
     1
 40
1.0
176
     1
 40
1.0
176
     1
  0
VISUALSTYLE
  5
41
102
{ACAD_REACTORS
330
2A
102
}
330
2A
100
AcDbVisualStyle
  2
Shaded with edges
 70
    26
177
     3
291
     0
 70
    58
 90
        2
176
     1
 90
        2
176
     1
 90
        1
176
     1
 90
        2
176
     1
 40
0.6
176
     1
 40
30.0
176
     1
 62
     7
420
 16777215
176
     1
 90
        1
176
     1
 90
       10
176
     1
 62
     7
176
     1
 62
   257
176
     1
 90
        2
176
     1
 90
        1
176
     1
 40
1.0
176
     1
 90
        8
176
     1
 62
   257
176
     1
 40
1.0
176
     1
 90
        1
176
     1
 90
        6
176
     1
 90
        2
176
     1
 62
     7
176
     1
 90
        3
176
     1
 90
        0
176
     1
 90
        0
176
     1
290
     0
176
     1
 90
        5
176
     1
 40
0.0
176
     1
 90
        0
176
     1
290
     0
176
     1
290
     1
176
     1
290
     1
176
     1
290
     0
176
     1
290
     0
176
     1
290
     0
176
     1
290
     0
176
     1
290
     0
176
     1
290
     0
176
     1
 90
       50
176
     1
 40
0.0
176
     1
 40
1.0
176
     1
 90
        0
176
     1
 62
    18
420
        0
176
     1
 90
       50
176
     1
 90
        3
176
     1
 62
     5
420
      255
176
     1
290
     0
176
     1
 90
       50
176
     1
 90
       50
176
     1
 90
       50
176
     1
290
     0
176
     1
 90
       50
176
     1
 62
   256
176
     0
 40
1.0
176
     0
 90
        2
176
     1
  1
strokes_ogs.tif
176
     1
290
     0
176
     1
 40
1.0
176
     1
 40
1.0
176
     1
  0
VISUALSTYLE
  5
3E
102
{ACAD_REACTORS
330
2A
102
}
330
2A
100
AcDbVisualStyle
  2
Shades of Gray
 70
    23
177
     3
291
     0
 70
    58
 90
        2
176
     1
 90
        2
176
     1
 90
        3
176
     1
 90
        0
176
     1
 40
0.6
176
     1
 40
30.0
176
     1
 62
     7
420
 16777215
176
     1
 90
        2
176
     1
 90
        2
176
     1
 62
     7
176
     1
 62
     7
176
     1
 90
        1
176
     1
 90
        1
176
     1
 40
40.0
176
     1
 90
        8
176
     1
 62
     7
176
     1
 40
1.0
176
     1
 90
        1
176
     1
 90
        6
176
     1
 90
        2
176
     1
 62
     7
176
     1
 90
        3
176
     1
 90
        0
176
     1
 90
        0
176
     1
290
     0
176
     1
 90
        1
176
     1
 40
0.0
176
     1
 90
        0
176
     1
290
     0
176
     1
290
     1
176
     1
290
     1
176
     1
290
     0
176
     1
290
     0
176
     1
290
     0
176
     1
290
     0
176
     1
290
     0
176
     1
290
     0
176
     1
 90
       50
176
     1
 40
0.0
176
     1
 40
1.0
176
     1
 90
        0
176
     1
 62
    18
420
        0
176
     1
 90
       50
176
     1
 90
        3
176
     1
 62
     5
420
      255
176
     1
290
     0
176
     1
 90
       50
176
     1
 90
       50
176
     1
 90
       50
176
     1
290
     0
176
     1
 90
       50
176
     1
 62
   256
176
     0
 40
1.0
176
     0
 90
        2
176
     1
  1
strokes_ogs.tif
176
     1
290
     0
176
     1
 40
1.0
176
     1
 40
1.0
176
     1
  0
VISUALSTYLE
  5
3F
102
{ACAD_REACTORS
330
2A
102
}
330
2A
100
AcDbVisualStyle
  2
Sketchy
 70
    24
177
     3
291
     0
 70
    58
 90
        1
176
     1
 90
        2
176
     1
 90
        2
176
     1
 90
        0
176
     1
 40
0.6
176
     1
 40
30.0
176
     1
 62
     7
420
 16777215
176
     1
 90
        2
176
     1
 90
        2
176
     1
 62
     7
176
     1
 62
     7
176
     1
 90
        1
176
     1
 90
        1
176
     1
 40
40.0
176
     1
 90
       11
176
     1
 62
     7
176
     1
 40
1.0
176
     1
 90
        1
176
     1
 90
        6
176
     1
 90
        2
176
     1
 62
     7
176
     1
 90
        6
176
     1
 90
        0
176
     1
 90
        0
176
     1
290
     0
176
     1
 90
        1
176
     1
 40
0.0
176
     1
 90
        0
176
     1
290
     0
176
     1
290
     1
176
     1
290
     1
176
     1
290
     0
176
     1
290
     0
176
     1
290
     0
176
     1
290
     0
176
     1
290
     0
176
     1
290
     0
176
     1
 90
       50
176
     1
 40
0.0
176
     1
 40
1.0
176
     1
 90
        0
176
     1
 62
    18
420
        0
176
     1
 90
       50
176
     1
 90
        3
176
     1
 62
     5
420
      255
176
     1
290
     0
176
     1
 90
       50
176
     1
 90
       50
176
     1
 90
       50
176
     1
290
     0
176
     1
 90
       50
176
     1
 62
   256
176
     0
 40
1.0
176
     0
 90
        2
176
     1
  1
strokes_ogs.tif
176
     1
290
     0
176
     1
 40
1.0
176
     1
 40
1.0
176
     1
  0
VISUALSTYLE
  5
37
102
{ACAD_REACTORS
330
2A
102
}
330
2A
100
AcDbVisualStyle
  2
Thicken
 70
    13
177
     3
291
     1
 70
    58
 90
        2
176
     1
 90
        2
176
     1
 90
        0
176
     1
 90
        0
176
     1
 40
0.6
176
     1
 40
30.0
176
     1
 62
     7
420
 16777215
176
     1
 90
        1
176
     1
 90
        4
176
     1
 62
     7
176
     1
 62
   257
176
     1
 90
        1
176
     1
 90
        1
176
     1
 40
1.0
176
     1
 90
       12
176
     1
 62
     7
176
     1
 40
1.0
176
     1
 90
        1
176
     1
 90
        6
176
     1
 90
        2
176
     1
 62
     7
176
     1
 90
        5
176
     1
 90
        0
176
     1
 90
        0
176
     1
290
     0
176
     1
 90
        1
176
     1
 40
0.0
176
     1
 90
        0
176
     1
290
     0
176
     1
290
     1
176
     1
290
     1
176
     1
290
     0
176
     1
290
     0
176
     1
290
     0
176
     1
290
     0
176
     1
290
     0
176
     1
290
     0
176
     1
 90
       50
176
     1
 40
0.0
176
     1
 40
1.0
176
     1
 90
        0
176
     1
 62
    18
420
        0
176
     1
 90
       50
176
     1
 90
        3
176
     1
 62
     5
420
      255
176
     1
290
     0
176
     1
 90
       50
176
     1
 90
       50
176
     1
 90
       50
176
     1
290
     0
176
     1
 90
       50
176
     1
 62
   256
176
     0
 40
1.0
176
     0
 90
        2
176
     1
  1
strokes_ogs.tif
176
     1
290
     0
176
     1
 40
1.0
176
     1
 40
1.0
176
     1
  0
VISUALSTYLE
  5
30
102
{ACAD_REACTORS
330
2A
102
}
330
2A
100
AcDbVisualStyle
  2
Wireframe
 70
     5
177
     3
291
     0
 70
    58
 90
        0
176
     1
 90
        2
176
     1
 90
        0
176
     1
 90
        0
176
     1
 40
0.6
176
     1
 40
30.0
176
     1
 62
     7
420
 16777215
176
     1
 90
        1
176
     1
 90
        4
176
     1
 62
     7
176
     1
 62
   257
176
     1
 90
        1
176
     1
 90
        1
176
     1
 40
1.0
176
     1
 90
        0
176
     1
 62
   257
176
     1
 40
1.0
176
     1
 90
        1
176
     1
 90
        6
176
     1
 90
        2
176
     1
 62
     7
176
     1
 90
        3
176
     1
 90
        0
176
     1
 90
        0
176
     1
290
     0
176
     1
 90
        1
176
     1
 40
0.0
176
     1
 90
        0
176
     1
290
     0
176
     1
290
     1
176
     1
290
     1
176
     1
290
     0
176
     1
290
     0
176
     1
290
     0
176
     1
290
     0
176
     1
290
     0
176
     1
290
     0
176
     1
 90
       50
176
     1
 40
0.0
176
     1
 40
1.0
176
     1
 90
        0
176
     1
 62
    18
420
        0
176
     1
 90
       50
176
     1
 90
        3
176
     1
 62
     5
420
      255
176
     1
290
     0
176
     1
 90
       50
176
     1
 90
       50
176
     1
 90
       50
176
     1
290
     0
176
     1
 90
       50
176
     1
 62
   256
176
     0
 40
1.0
176
     0
 90
        2
176
     1
  1
strokes_ogs.tif
176
     1
290
     0
176
     1
 40
1.0
176
     1
 40
1.0
176
     1
  0
VISUALSTYLE
  5
40
102
{ACAD_REACTORS
330
2A
102
}
330
2A
100
AcDbVisualStyle
  2
X-Ray
 70
    25
177
     3
291
     0
 70
    58
 90
        2
176
     1
 90
        2
176
     1
 90
        1
176
     1
 90
        1
176
     1
 40
0.5
176
     1
 40
30.0
176
     1
 62
     7
420
 16777215
176
     1
 90
        1
176
     1
 90
        0
176
     1
 62
     7
176
     1
 62
   257
176
     1
 90
        1
176
     1
 90
        1
176
     1
 40
1.0
176
     1
 90
        8
176
     1
 62
     7
176
     1
 40
1.0
176
     1
 90
        1
176
     1
 90
        6
176
     1
 90
        2
176
     1
 62
     7
176
     1
 90
        3
176
     1
 90
        0
176
     1
 90
        0
176
     1
290
     0
176
     1
 90
       13
176
     1
 40
0.0
176
     1
 90
        0
176
     1
290
     0
176
     1
290
     1
176
     1
290
     1
176
     1
290
     0
176
     1
290
     0
176
     1
290
     0
176
     1
290
     0
176
     1
290
     0
176
     1
290
     0
176
     1
 90
       50
176
     1
 40
0.0
176
     1
 40
1.0
176
     1
 90
        0
176
     1
 62
    18
420
        0
176
     1
 90
       50
176
     1
 90
        3
176
     1
 62
     5
420
      255
176
     1
290
     0
176
     1
 90
       50
176
     1
 90
       50
176
     1
 90
       50
176
     1
290
     0
176
     1
 90
       50
176
     1
 62
   256
176
     0
 40
1.0
176
     0
 90
        2
176
     1
  1
strokes_ogs.tif
176
     1
290
     0
176
     1
 40
1.0
176
     1
 40
1.0
176
     1
  0
DICTIONARYVAR
  5
228
102
{ACAD_REACTORS
330
227
102
}
330
227
100
DictionaryVariables
280
     0
  1
1:1
  0
DICTIONARYVAR
  5
22D
102
{ACAD_REACTORS
330
227
102
}
330
227
100
DictionaryVariables
280
     0
  1
Standard
  0
DICTIONARYVAR
  5
22C
102
{ACAD_REACTORS
330
227
102
}
330
227
100
DictionaryVariables
280
     0
  1
Standard
  0
DICTIONARY
  5
229
330
6A
100
AcDbDictionary
280
     1
281
     1
  3
ACAD_ROUNDTRIP_2008_TABLESTYLE_CELLSTYLEMAP
360
22A
  0
CELLSTYLEMAP
  5
22A
102
{ACAD_REACTORS
330
229
102
}
330
229
100
AcDbCellStyleMap
 90
        3
300
CELLSTYLE
  1
TABLEFORMAT_BEGIN
 90
        5
170
     1
 91
        0
 92
    32768
 62
   257
 93
        1
300
CONTENTFORMAT
  1
CONTENTFORMAT_BEGIN
 90
        0
 91
        0
 92
        4
 93
        0
300

 40
0.0
140
1.0
 94
        5
 62
     0
340
11
144
0.25
309
CONTENTFORMAT_END
171
     1
301
MARGIN
  1
CELLMARGIN_BEGIN
 40
0.06
 40
0.06
 40
0.06
 40
0.06
 40
0.06
 40
0.06
309
CELLMARGIN_END
 94
        6
 95
        1
302
GRIDFORMAT
  1
GRIDFORMAT_BEGIN
 90
        0
 91
        1
 62
     0
 92
       -2
340
14
 93
        0
 40
0.045
309
GRIDFORMAT_END
 95
        2
302
GRIDFORMAT
  1
GRIDFORMAT_BEGIN
 90
        0
 91
        1
 62
     0
 92
       -2
340
14
 93
        0
 40
0.045
309
GRIDFORMAT_END
 95
        4
302
GRIDFORMAT
  1
GRIDFORMAT_BEGIN
 90
        0
 91
        1
 62
     0
 92
       -2
340
14
 93
        0
 40
0.045
309
GRIDFORMAT_END
 95
        8
302
GRIDFORMAT
  1
GRIDFORMAT_BEGIN
 90
        0
 91
        1
 62
     0
 92
       -2
340
14
 93
        0
 40
0.045
309
GRIDFORMAT_END
 95
       16
302
GRIDFORMAT
  1
GRIDFORMAT_BEGIN
 90
        0
 91
        1
 62
     0
 92
       -2
340
14
 93
        0
 40
0.045
309
GRIDFORMAT_END
 95
       32
302
GRIDFORMAT
  1
GRIDFORMAT_BEGIN
 90
        0
 91
        1
 62
     0
 92
       -2
340
14
 93
        0
 40
0.045
309
GRIDFORMAT_END
309
TABLEFORMAT_END
  1
CELLSTYLE_BEGIN
 90
        1
 91
        1
300
_TITLE
309
CELLSTYLE_END
300
CELLSTYLE
  1
TABLEFORMAT_BEGIN
 90
        5
170
     1
 91
        0
 92
        0
 62
   257
 93
        1
300
CONTENTFORMAT
  1
CONTENTFORMAT_BEGIN
 90
        0
 91
        0
 92
        4
 93
        0
300

 40
0.0
140
1.0
 94
        5
 62
     0
340
11
144
0.18
309
CONTENTFORMAT_END
171
     1
301
MARGIN
  1
CELLMARGIN_BEGIN
 40
0.06
 40
0.06
 40
0.06
 40
0.06
 40
0.06
 40
0.06
309
CELLMARGIN_END
 94
        6
 95
        1
302
GRIDFORMAT
  1
GRIDFORMAT_BEGIN
 90
        0
 91
        1
 62
     0
 92
       -2
340
14
 93
        0
 40
0.045
309
GRIDFORMAT_END
 95
        2
302
GRIDFORMAT
  1
GRIDFORMAT_BEGIN
 90
        0
 91
        1
 62
     0
 92
       -2
340
14
 93
        0
 40
0.045
309
GRIDFORMAT_END
 95
        4
302
GRIDFORMAT
  1
GRIDFORMAT_BEGIN
 90
        0
 91
        1
 62
     0
 92
       -2
340
14
 93
        0
 40
0.045
309
GRIDFORMAT_END
 95
        8
302
GRIDFORMAT
  1
GRIDFORMAT_BEGIN
 90
        0
 91
        1
 62
     0
 92
       -2
340
14
 93
        0
 40
0.045
309
GRIDFORMAT_END
 95
       16
302
GRIDFORMAT
  1
GRIDFORMAT_BEGIN
 90
        0
 91
        1
 62
     0
 92
       -2
340
14
 93
        0
 40
0.045
309
GRIDFORMAT_END
 95
       32
302
GRIDFORMAT
  1
GRIDFORMAT_BEGIN
 90
        0
 91
        1
 62
     0
 92
       -2
340
14
 93
        0
 40
0.045
309
GRIDFORMAT_END
309
TABLEFORMAT_END
  1
CELLSTYLE_BEGIN
 90
        2
 91
        1
300
_HEADER
309
CELLSTYLE_END
300
CELLSTYLE
  1
TABLEFORMAT_BEGIN
 90
        5
170
     1
 91
        0
 92
        0
 62
   257
 93
        1
300
CONTENTFORMAT
  1
CONTENTFORMAT_BEGIN
 90
        0
 91
        0
 92
        4
 93
        0
300

 40
0.0
140
1.0
 94
        2
 62
     0
340
11
144
0.18
309
CONTENTFORMAT_END
171
     1
301
MARGIN
  1
CELLMARGIN_BEGIN
 40
0.06
 40
0.06
 40
0.06
 40
0.06
 40
0.06
 40
0.06
309
CELLMARGIN_END
 94
        6
 95
        1
302
GRIDFORMAT
  1
GRIDFORMAT_BEGIN
 90
        0
 91
        1
 62
     0
 92
       -2
340
14
 93
        0
 40
0.045
309
GRIDFORMAT_END
 95
        2
302
GRIDFORMAT
  1
GRIDFORMAT_BEGIN
 90
        0
 91
        1
 62
     0
 92
       -2
340
14
 93
        0
 40
0.045
309
GRIDFORMAT_END
 95
        4
302
GRIDFORMAT
  1
GRIDFORMAT_BEGIN
 90
        0
 91
        1
 62
     0
 92
       -2
340
14
 93
        0
 40
0.045
309
GRIDFORMAT_END
 95
        8
302
GRIDFORMAT
  1
GRIDFORMAT_BEGIN
 90
        0
 91
        1
 62
     0
 92
       -2
340
14
 93
        0
 40
0.045
309
GRIDFORMAT_END
 95
       16
302
GRIDFORMAT
  1
GRIDFORMAT_BEGIN
 90
        0
 91
        1
 62
     0
 92
       -2
340
14
 93
        0
 40
0.045
309
GRIDFORMAT_END
 95
       32
302
GRIDFORMAT
  1
GRIDFORMAT_BEGIN
 90
        0
 91
        1
 62
     0
 92
       -2
340
14
 93
        0
 40
0.045
309
GRIDFORMAT_END
309
TABLEFORMAT_END
  1
CELLSTYLE_BEGIN
 90
        3
 91
        2
300
_DATA
309
CELLSTYLE_END
  0
ENDSEC
  0
EOF