0
SECTION
  2
HEADER
  9
$ACADVER
  1
AC1027
  9
$ACADMAINTVER
 70
     8
  9
$DWGCODEPAGE
  3
ANSI_1252
  9
$REQUIREDVERSIONS
160
                 0
  9
$COMMENTS
  1
File was created by Cadenas
  9
$CUSTOMPROPERTYTAG
  1
NN
  9
$CUSTOMPROPERTY
  1
Grip Tight Four-Bolt Flange Inch Bore
  9
$CUSTOMPROPERTYTAG
  1
NT
  9
$CUSTOMPROPERTY
  1
GT Normal Duty 4 Bolt Flange Bearings
  9
$CUSTOMPROPERTYTAG
  1
NB
  9
$CUSTOMPROPERTY
  1
129651
  9
$CUSTOMPROPERTYTAG
  1
NBSYN
  9
$CUSTOMPROPERTY
  1
$PN.$LUBE.
  9
$CUSTOMPROPERTYTAG
  1
LINA
  9
$CUSTOMPROPERTY
  1
129651
  9
$CUSTOMPROPERTYTAG
  1
SERIES
  9
$CUSTOMPROPERTY
  1
209
  9
$CUSTOMPROPERTYTAG
  1
SS
  9
$CUSTOMPROPERTY
  1
1-11/16
  9
$CUSTOMPROPERTYTAG
  1
PN
  9
$CUSTOMPROPERTY
  1
129651
  9
$CUSTOMPROPERTYTAG
  1
DESCRIPTION
  9
$CUSTOMPROPERTY
  1
F4B-GT-111
  9
$CUSTOMPROPERTYTAG
  1
A
  9
$CUSTOMPROPERTY
  1
1-27/32
  9
$CUSTOMPROPERTYTAG
  1
B
  9
$CUSTOMPROPERTY
  1
5-3/8
  9
$CUSTOMPROPERTYTAG
  1
C
  9
$CUSTOMPROPERTY
  1
2
  9
$CUSTOMPROPERTYTAG
  1
D
  9
$CUSTOMPROPERTY
  1
4-1/8
  9
$CUSTOMPROPERTYTAG
  1
F
  9
$CUSTOMPROPERTY
  1
1/2
  9
$CUSTOMPROPERTYTAG
  1
H
  9
$CUSTOMPROPERTY
  1
5/8
  9
$CUSTOMPROPERTYTAG
  1
J
  9
$CUSTOMPROPERTY
  1
9/16
  9
$CUSTOMPROPERTYTAG
  1
L
  9
$CUSTOMPROPERTY
  1
2-43/64
  9
$CUSTOMPROPERTYTAG
  1
N
  9
$CUSTOMPROPERTY
  1
2-3/4
  9
$CUSTOMPROPERTYTAG
  1
Z
  9
$CUSTOMPROPERTY
  1
1-31/32
  9
$CUSTOMPROPERTYTAG
  1
COMPANY
  9
$CUSTOMPROPERTY
  1
baldor
  9
$INSBASE
 10
0.0
 20
0.0
 30
0.0
  9
$EXTMIN
 10
1.000000000000000E+20
 20
1.000000000000000E+20
 30
1.000000000000000E+20
  9
$EXTMAX
 10
-1.000000000000000E+20
 20
-1.000000000000000E+20
 30
-1.000000000000000E+20
  9
$LIMMIN
 10
0.0
 20
0.0
  9
$LIMMAX
 10
12.0
 20
9.0
  9
$ORTHOMODE
 70
     0
  9
$REGENMODE
 70
     1
  9
$FILLMODE
 70
     1
  9
$QTEXTMODE
 70
     0
  9
$MIRRTEXT
 70
     1
  9
$LTSCALE
 40
1.0
  9
$ATTMODE
 70
     1
  9
$TEXTSIZE
 40
0.2
  9
$TRACEWID
 40
0.05
  9
$TEXTSTYLE
  7
Standard
  9
$CLAYER
  8
0
  9
$CELTYPE
  6
ByLayer
  9
$CECOLOR
 62
   256
  9
$CELTSCALE
 40
1.0
  9
$DISPSILH
 70
     0
  9
$DIMSCALE
 40
1.0
  9
$DIMASZ
 40
0.18
  9
$DIMEXO
 40
0.0625
  9
$DIMDLI
 40
0.38
  9
$DIMRND
 40
0.0
  9
$DIMDLE
 40
0.0
  9
$DIMEXE
 40
0.18
  9
$DIMTP
 40
0.0
  9
$DIMTM
 40
0.0
  9
$DIMTXT
 40
0.18
  9
$DIMCEN
 40
0.09
  9
$DIMTSZ
 40
0.0
  9
$DIMTOL
 70
     0
  9
$DIMLIM
 70
     0
  9
$DIMTIH
 70
     1
  9
$DIMTOH
 70
     1
  9
$DIMSE1
 70
     0
  9
$DIMSE2
 70
     0
  9
$DIMTAD
 70
     0
  9
$DIMZIN
 70
     0
  9
$DIMBLK
  1

  9
$DIMASO
 70
     1
  9
$DIMSHO
 70
     1
  9
$DIMPOST
  1

  9
$DIMAPOST
  1

  9
$DIMALT
 70
     0
  9
$DIMALTD
 70
     2
  9
$DIMALTF
 40
25.4
  9
$DIMLFAC
 40
1.0
  9
$DIMTOFL
 70
     0
  9
$DIMTVP
 40
0.0
  9
$DIMTIX
 70
     0
  9
$DIMSOXD
 70
     0
  9
$DIMSAH
 70
     0
  9
$DIMBLK1
  1

  9
$DIMBLK2
  1

  9
$DIMSTYLE
  2
Standard
  9
$DIMCLRD
 70
     0
  9
$DIMCLRE
 70
     0
  9
$DIMCLRT
 70
     0
  9
$DIMTFAC
 40
1.0
  9
$DIMGAP
 40
0.09
  9
$DIMJUST
 70
     0
  9
$DIMSD1
 70
     0
  9
$DIMSD2
 70
     0
  9
$DIMTOLJ
 70
     1
  9
$DIMTZIN
 70
     0
  9
$DIMALTZ
 70
     0
  9
$DIMALTTZ
 70
     0
  9
$DIMUPT
 70
     0
  9
$DIMDEC
 70
     4
  9
$DIMTDEC
 70
     4
  9
$DIMALTU
 70
     2
  9
$DIMALTTD
 70
     2
  9
$DIMTXSTY
  7
Standard
  9
$DIMAUNIT
 70
     0
  9
$DIMADEC
 70
     0
  9
$DIMALTRND
 40
0.0
  9
$DIMAZIN
 70
     0
  9
$DIMDSEP
 70
    46
  9
$DIMATFIT
 70
     3
  9
$DIMFRAC
 70
     0
  9
$DIMLDRBLK
  1

  9
$DIMLUNIT
 70
     2
  9
$DIMLWD
 70
    -2
  9
$DIMLWE
 70
    -2
  9
$DIMTMOVE
 70
     0
  9
$DIMFXL
 40
1.0
  9
$DIMFXLON
 70
     0
  9
$DIMJOGANG
 40
0.7853981633974483
  9
$DIMTFILL
 70
     0
  9
$DIMTFILLCLR
 70
     0
  9
$DIMARCSYM
 70
     0
  9
$DIMLTYPE
  6

  9
$DIMLTEX1
  6

  9
$DIMLTEX2
  6

  9
$DIMTXTDIRECTION
 70
     0
  9
$LUNITS
 70
     2
  9
$LUPREC
 70
     4
  9
$SKETCHINC
 40
0.1
  9
$FILLETRAD
 40
0.5
  9
$AUNITS
 70
     0
  9
$AUPREC
 70
     0
  9
$MENU
  1
.
  9
$ELEVATION
 40
0.0
  9
$PELEVATION
 40
0.0
  9
$THICKNESS
 40
0.0
  9
$LIMCHECK
 70
     0
  9
$CHAMFERA
 40
0.0
  9
$CHAMFERB
 40
0.0
  9
$CHAMFERC
 40
0.0
  9
$CHAMFERD
 40
0.0
  9
$SKPOLY
 70
     0
  9
$TDCREATE
 40
2458168.994327893
  9
$TDUCREATE
 40
2458168.952661227
  9
$TDUPDATE
 40
2458168.994328079
  9
$TDUUPDATE
 40
2458168.952661412
  9
$TDINDWG
 40
0.0000000116
  9
$TDUSRTIMER
 40
0.0000000116
  9
$USRTIMER
 70
     1
  9
$ANGBASE
 50
0.0
  9
$ANGDIR
 70
     0
  9
$PDMODE
 70
     0
  9
$PDSIZE
 40
0.0
  9
$PLINEWID
 40
0.0
  9
$SPLFRAME
 70
     0
  9
$SPLINETYPE
 70
     6
  9
$SPLINESEGS
 70
     8
  9
$HANDSEED
  5
233
  9
$SURFTAB1
 70
     6
  9
$SURFTAB2
 70
     6
  9
$SURFTYPE
 70
     6
  9
$SURFU
 70
     6
  9
$SURFV
 70
     6
  9
$UCSBASE
  2

  9
$UCSNAME
  2

  9
$UCSORG
 10
0.0
 20
0.0
 30
0.0
  9
$UCSXDIR
 10
1.0
 20
0.0
 30
0.0
  9
$UCSYDIR
 10
0.0
 20
1.0
 30
0.0
  9
$UCSORTHOREF
  2

  9
$UCSORTHOVIEW
 70
     0
  9
$UCSORGTOP
 10
0.0
 20
0.0
 30
0.0
  9
$UCSORGBOTTOM
 10
0.0
 20
0.0
 30
0.0
  9
$UCSORGLEFT
 10
0.0
 20
0.0
 30
0.0
  9
$UCSORGRIGHT
 10
0.0
 20
0.0
 30
0.0
  9
$UCSORGFRONT
 10
0.0
 20
0.0
 30
0.0
  9
$UCSORGBACK
 10
0.0
 20
0.0
 30
0.0
  9
$PUCSBASE
  2

  9
$PUCSNAME
  2

  9
$PUCSORG
 10
0.0
 20
0.0
 30
0.0
  9
$PUCSXDIR
 10
1.0
 20
0.0
 30
0.0
  9
$PUCSYDIR
 10
0.0
 20
1.0
 30
0.0
  9
$PUCSORTHOREF
  2

  9
$PUCSORTHOVIEW
 70
     0
  9
$PUCSORGTOP
 10
0.0
 20
0.0
 30
0.0
  9
$PUCSORGBOTTOM
 10
0.0
 20
0.0
 30
0.0
  9
$PUCSORGLEFT
 10
0.0
 20
0.0
 30
0.0
  9
$PUCSORGRIGHT
 10
0.0
 20
0.0
 30
0.0
  9
$PUCSORGFRONT
 10
0.0
 20
0.0
 30
0.0
  9
$PUCSORGBACK
 10
0.0
 20
0.0
 30
0.0
  9
$USERI1
 70
     0
  9
$USERI2
 70
     0
  9
$USERI3
 70
     0
  9
$USERI4
 70
     0
  9
$USERI5
 70
     0
  9
$USERR1
 40
0.0
  9
$USERR2
 40
0.0
  9
$USERR3
 40
0.0
  9
$USERR4
 40
0.0
  9
$USERR5
 40
0.0
  9
$WORLDVIEW
 70
     1
  9
$SHADEDGE
 70
     3
  9
$SHADEDIF
 70
    70
  9
$TILEMODE
 70
     1
  9
$MAXACTVP
 70
    64
  9
$PINSBASE
 10
0.0
 20
0.0
 30
0.0
  9
$PLIMCHECK
 70
     0
  9
$PEXTMIN
 10
1.000000000000000E+20
 20
1.000000000000000E+20
 30
1.000000000000000E+20
  9
$PEXTMAX
 10
-1.000000000000000E+20
 20
-1.000000000000000E+20
 30
-1.000000000000000E+20
  9
$PLIMMIN
 10
0.0
 20
0.0
  9
$PLIMMAX
 10
12.0
 20
9.0
  9
$UNITMODE
 70
     0
  9
$VISRETAIN
 70
     1
  9
$PLINEGEN
 70
     0
  9
$PSLTSCALE
 70
     1
  9
$TREEDEPTH
 70
  3020
  9
$CMLSTYLE
  2
Standard
  9
$CMLJUST
 70
     0
  9
$CMLSCALE
 40
1.0
  9
$PROXYGRAPHICS
 70
     1
  9
$MEASUREMENT
 70
     0
  9
$CELWEIGHT
370
    -1
  9
$ENDCAPS
280
     0
  9
$JOINSTYLE
280
     0
  9
$LWDISPLAY
290
     0
  9
$INSUNITS
 70
     1
  9
$HYPERLINKBASE
  1

  9
$STYLESHEET
  1

  9
$XEDIT
290
     1
  9
$CEPSNTYPE
380
     0
  9
$PSTYLEMODE
290
     1
  9
$FINGERPRINTGUID
  2
{3871BE83-F5D6-4419-95E8-EE6039CE0BEC}
  9
$VERSIONGUID
  2
{FAEB1C32-E019-11D5-929B-00C0DF256EC4}
  9
$EXTNAMES
290
     1
  9
$PSVPSCALE
 40
0.0
  9
$OLESTARTUP
290
     0
  9
$SORTENTS
280
   127
  9
$INDEXCTL
280
     0
  9
$HIDETEXT
280
     1
  9
$XCLIPFRAME
280
     2
  9
$HALOGAP
280
     0
  9
$OBSCOLOR
 70
   257
  9
$OBSLTYPE
280
     0
  9
$INTERSECTIONDISPLAY
280
     0
  9
$INTERSECTIONCOLOR
 70
   257
  9
$DIMASSOC
280
     2
  9
$PROJECTNAME
  1

  9
$CAMERADISPLAY
290
     0
  9
$LENSLENGTH
 40
50.0
  9
$CAMERAHEIGHT
 40
0.0
  9
$STEPSPERSEC
 40
2.0
  9
$STEPSIZE
 40
6.0
  9
$3DDWFPREC
 40
2.0
  9
$PSOLWIDTH
 40
0.25
  9
$PSOLHEIGHT
 40
4.0
  9
$LOFTANG1
 40
1.570796326794897
  9
$LOFTANG2
 40
1.570796326794897
  9
$LOFTMAG1
 40
0.0
  9
$LOFTMAG2
 40
0.0
  9
$LOFTPARAM
 70
     7
  9
$LOFTNORMALS
280
     1
  9
$LATITUDE
 40
37.795
  9
$LONGITUDE
 40
-122.394
  9
$NORTHDIRECTION
 40
0.0
  9
$TIMEZONE
 70
 -8000
  9
$LIGHTGLYPHDISPLAY
280
     1
  9
$TILEMODELIGHTSYNCH
280
     1
  9
$CMATERIAL
347
44
  9
$SOLIDHIST
280
     0
  9
$SHOWHIST
280
     1
  9
$DWFFRAME
280
     2
  9
$DGNFRAME
280
     2
  9
$REALWORLDSCALE
290
     1
  9
$INTERFERECOLOR
 62
   256
  9
$CSHADOW
280
     0
  9
$SHADOWPLANELOCATION
 40
0.0
  0
ENDSEC
  0
SECTION
  2
CLASSES
  0
CLASS
  1
ACDBDICTIONARYWDFLT
  2
AcDbDictionaryWithDefault
  3
ObjectDBX Classes
 90
        0
 91
        4
280
     0
281
     0
  0
CLASS
  1
VISUALSTYLE
  2
AcDbVisualStyle
  3
ObjectDBX Classes
 90
     4095
 91
        4
280
     0
281
     0
  0
CLASS
  1
MATERIAL
  2
AcDbMaterial
  3
ObjectDBX Classes
 90
     1153
 91
        4
280
     0
281
     0
  0
CLASS
  1
SCALE
  2
AcDbScale
  3
ObjectDBX Classes
 90
     1153
 91
        4
280
     0
281
     0
  0
CLASS
  1
TABLESTYLE
  2
AcDbTableStyle
  3
ObjectDBX Classes
 90
     4095
 91
        4
280
     0
281
     0
  0
CLASS
  1
MLEADERSTYLE
  2
AcDbMLeaderStyle
  3
ACDB_MLEADERSTYLE_CLASS
 90
     4095
 91
        4
280
     0
281
     0
  0
CLASS
  1
SUN
  2
AcDbSun
  3
SCENEOE
 90
     1153
 91
        4
280
     0
281
     0
  0
CLASS
  1
DICTIONARYVAR
  2
AcDbDictionaryVar
  3
ObjectDBX Classes
 90
        0
 91
        4
280
     0
281
     0
  0
CLASS
  1
CELLSTYLEMAP
  2
AcDbCellStyleMap
  3
ObjectDBX Classes
 90
     1152
 91
        4
280
     0
281
     0
  0
ENDSEC
  0
SECTION
  2
TABLES
  0
TABLE
  2
VPORT
  5
8
330
0
100
AcDbSymbolTable
 70
     1
  0
VPORT
  5
29
330
8
100
AcDbSymbolTableRecord
100
AcDbViewportTableRecord
  2
*Active
 70
     0
 10
0.0
 20
0.0
 11
1.0
 21
1.0
 12
0.0
 22
0.0427957736692921
 13
0.0
 23
0.0
 14
0.5
 24
0.5
 15
0.5
 25
0.5
 16
0.0
 26
0.0
 36
1.0
 17
0.0
 27
0.0
 37
0.0
 40
5.569803378285358
 41
0.9843255906257441
 42
50.0
 43
0.0
 44
0.0
 50
0.0
 51
0.0
 71
     0
 72
   100
 73
     1
 74
     3
 75
     0
 76
     0
 77
     0
 78
     0
281
     0
 65
     1
110
0.0
120
0.0
130
0.0
111
1.0
121
0.0
131
0.0
112
0.0
122
1.0
132
0.0
 79
     0
146
0.0
348
2F
 60
     3
 61
     5
292
     1
282
     1
141
0.0
142
0.0
 63
   250
361
6D
  0
ENDTAB
  0
TABLE
  2
LTYPE
  5
5
330
0
100
AcDbSymbolTable
 70
     3
  0
LTYPE
  5
14
330
5
100
AcDbSymbolTableRecord
100
AcDbLinetypeTableRecord
  2
ByBlock
 70
     0
  3

 72
    65
 73
     0
 40
0.0
  0
LTYPE
  5
15
330
5
100
AcDbSymbolTableRecord
100
AcDbLinetypeTableRecord
  2
ByLayer
 70
     0
  3

 72
    65
 73
     0
 40
0.0
  0
LTYPE
  5
16
330
5
100
AcDbSymbolTableRecord
100
AcDbLinetypeTableRecord
  2
Continuous
 70
     0
  3
Solid line
 72
    65
 73
     0
 40
0.0
  0
LTYPE
  5
9D
330
5
100
AcDbSymbolTableRecord
100
AcDbLinetypeTableRecord
  2
Dashed
 70
     0
  3

 72
    65
 73
     2
 40
2.0
 49
1.0
 74
     0
 49
-1.0
 74
     0
  0
LTYPE
  5
119
330
5
100
AcDbSymbolTableRecord
100
AcDbLinetypeTableRecord
  2
Center
 70
     0
  3

 72
    65
 73
     4
 40
1.5
 49
0.45
 74
     0
 49
-0.5
 74
     0
 49
0.05
 74
     0
 49
-0.5
 74
     0
  0
ENDTAB
  0
TABLE
  2
LAYER
  5
2
330
0
100
AcDbSymbolTable
 70
     7
  0
LAYER
  5
10
330
2
100
AcDbSymbolTableRecord
100
AcDbLayerTableRecord
  2
0
 70
     0
 62
     7
  6
Continuous
370
    -3
390
F
347
46
348
0
  0
LAYER
  5
72
330
2
100
AcDbSymbolTableRecord
100
AcDbLayerTableRecord
  2
AM_6
 70
     0
 62
    -2
  6
Continuous
370
    35
390
F
347
46
348
0
  0
LAYER
  5
9E
330
2
100
AcDbSymbolTableRecord
100
AcDbLayerTableRecord
  2
AM_9
 70
     0
 62
     6
  6
Dashed
370
    25
390
F
347
46
348
0
  0
LAYER
  5
A8
330
2
100
AcDbSymbolTableRecord
100
AcDbLayerTableRecord
  2
AM_4
 70
     0
 62
     3
  6
Continuous
370
    25
390
F
347
46
348
0
  0
LAYER
  5
D9
330
2
100
AcDbSymbolTableRecord
100
AcDbLayerTableRecord
  2
AM_5
 70
     0
 62
     3
  6
Continuous
370
    25
390
F
347
46
348
0
  0
LAYER
  5
11A
330
2
100
AcDbSymbolTableRecord
100
AcDbLayerTableRecord
  2
AM_7
 70
     0
 62
     7
  6
Center
370
    25
390
F
347
46
348
0
  0
LAYER
  5
226
330
2
100
AcDbSymbolTableRecord
100
AcDbLayerTableRecord
  2
ConnectionPoints
 70
     0
 62
     7
  6
Continuous
370
    50
390
F
347
46
348
0
  0
ENDTAB
  0
TABLE
  2
STYLE
  5
3
330
0
100
AcDbSymbolTable
 70
     1
  0
STYLE
  5
11
330
3
100
AcDbSymbolTableRecord
100
AcDbTextStyleTableRecord
  2
Standard
 70
     0
 40
0.0
 41
1.0
 50
0.0
 71
     0
 42
0.2
  3
txt
  4

  0
ENDTAB
  0
TABLE
  2
VIEW
  5
6
330
0
100
AcDbSymbolTable
 70
     0
  0
ENDTAB
  0
TABLE
  2
UCS
  5
7
330
0
100
AcDbSymbolTable
 70
     0
  0
ENDTAB
  0
TABLE
  2
APPID
  5
9
330
0
100
AcDbSymbolTable
 70
     1
  0
APPID
  5
12
330
9
100
AcDbSymbolTableRecord
100
AcDbRegAppTableRecord
  2
ACAD
 70
     0
  0
ENDTAB
  0
TABLE
  2
DIMSTYLE
  5
A
330
0
100
AcDbSymbolTable
 70
     1
100
AcDbDimStyleTable
  0
DIMSTYLE
105
27
330
A
100
AcDbSymbolTableRecord
100
AcDbDimStyleTableRecord
  2
Standard
 70
     0
178
     0
340
11
  0
ENDTAB
  0
TABLE
  2
BLOCK_RECORD
  5
1
330
0
100
AcDbSymbolTable
 70
     5
  0
BLOCK_RECORD
  5
1F
330
1
100
AcDbSymbolTableRecord
100
AcDbBlockTableRecord
  2
*Model_Space
340
22
 70
     0
280
     1
281
     0
  0
BLOCK_RECORD
  5
1B
330
1
100
AcDbSymbolTableRecord
100
AcDbBlockTableRecord
  2
*Paper_Space
340
1E
 70
     0
280
     1
281
     0
  0
BLOCK_RECORD
  5
23
330
1
100
AcDbSymbolTableRecord
100
AcDbBlockTableRecord
  2
*Paper_Space0
340
26
 70
     0
280
     1
281
     0
  0
BLOCK_RECORD
  5
6E
330
1
100
AcDbSymbolTableRecord
100
AcDbBlockTableRecord
  2
1_129651_0
340
0
102
{BLKREFS
331
6F
102
}
 70
     0
280
     1
281
     0
  0
BLOCK_RECORD
  5
87
330
1
100
AcDbSymbolTableRecord
100
AcDbBlockTableRecord
  2
2_129522I_0_in_129651_0
340
0
102
{BLKREFS
331
88
102
}
 70
     0
280
     1
281
     0
  0
BLOCK_RECORD
  5
B1
330
1
100
AcDbSymbolTableRecord
100
AcDbBlockTableRecord
  2
3_129916_0_in_129651_0
340
0
102
{BLKREFS
331
B2
102
}
 70
     0
280
     1
281
     0
  0
BLOCK_RECORD
  5
F3
330
1
100
AcDbSymbolTableRecord
100
AcDbBlockTableRecord
  2
4_129470I_0_in_129651_0
340
0
102
{BLKREFS
331
F4
102
}
 70
     0
280
     1
281
     0
  0
ENDTAB
  0
ENDSEC
  0
SECTION
  2
BLOCKS
  0
BLOCK
  5
20
330
1F
100
AcDbEntity
  8
0
100
AcDbBlockBegin
  2
*Model_Space
 70
     0
 10
0.0
 20
0.0
 30
0.0
  3
*Model_Space
  1

  0
ENDBLK
  5
21
330
1F
100
AcDbEntity
  8
0
100
AcDbBlockEnd
  0
BLOCK
  5
1C
330
1B
100
AcDbEntity
 67
     1
  8
0
100
AcDbBlockBegin
  2
*Paper_Space
 70
     0
 10
0.0
 20
0.0
 30
0.0
  3
*Paper_Space
  1

  0
ENDBLK
  5
1D
330
1B
100
AcDbEntity
 67
     1
  8
0
100
AcDbBlockEnd
  0
BLOCK
  5
24
330
23
100
AcDbEntity
  8
0
100
AcDbBlockBegin
  2
*Paper_Space0
 70
     0
 10
0.0
 20
0.0
 30
0.0
  3
*Paper_Space0
  1

  0
ENDBLK
  5
25
330
23
100
AcDbEntity
  8
0
100
AcDbBlockEnd
  0
BLOCK
  5
70
330
6E
100
AcDbEntity
  8
0
100
AcDbBlockBegin
  2
1_129651_0
 70
     2
 10
0.0
 20
0.0
 30
0.0
  3
1_129651_0
  1

  0
ATTDEF
  5
73
330
6E
100
AcDbEntity
  8
AM_6
100
AcDbText
 10
7.6875
 20
2.773091547338585
 30
0.0
 40
0.5
  1
Grip Tight Four-Bolt Flange Inch Bore
100
AcDbAttributeDefinition
  3

  2
NN
 70
     8
280
     0
  0
ATTDEF
  5
74
330
6E
100
AcDbEntity
  8
AM_6
100
AcDbText
 10
7.6875
 20
2.273091547338585
 30
0.0
 40
0.5
  1
GT Normal Duty 4 Bolt Flange Bearings
100
AcDbAttributeDefinition
  3

  2
NT
 70
     8
280
     0
  0
ATTDEF
  5
75
330
6E
100
AcDbEntity
  8
AM_6
100
AcDbText
 10
7.6875
 20
1.773091547338585
 30
0.0
 40
0.5
  1
129651
100
AcDbAttributeDefinition
  3

  2
NB
 70
     8
280
     0
  0
ATTDEF
  5
76
330
6E
100
AcDbEntity
  8
AM_6
100
AcDbText
 10
7.6875
 20
1.273091547338585
 30
0.0
 40
0.5
  1
$PN.$LUBE.
100
AcDbAttributeDefinition
  3

  2
NBSYN
 70
     8
280
     0
  0
ATTDEF
  5
77
330
6E
100
AcDbEntity
  8
AM_6
100
AcDbText
 10
7.6875
 20
0.7730915473385847
 30
0.0
 40
0.5
  1
129651
100
AcDbAttributeDefinition
  3

  2
LINA
 70
     8
280
     0
  0
ATTDEF
  5
78
330
6E
100
AcDbEntity
  8
AM_6
100
AcDbText
 10
7.6875
 20
0.2730915473385847
 30
0.0
 40
0.5
  1
209
100
AcDbAttributeDefinition
  3

  2
SERIES
 70
     8
280
     0
  0
ATTDEF
  5
79
330
6E
100
AcDbEntity
  8
AM_6
100
AcDbText
 10
7.6875
 20
-0.2269084526614153
 30
0.0
 40
0.5
  1
1-11/16
100
AcDbAttributeDefinition
  3

  2
SS
 70
     8
280
     0
  0
ATTDEF
  5
7A
330
6E
100
AcDbEntity
  8
AM_6
100
AcDbText
 10
7.6875
 20
-0.7269084526614153
 30
0.0
 40
0.5
  1
129651
100
AcDbAttributeDefinition
  3

  2
PN
 70
     8
280
     0
  0
ATTDEF
  5
7B
330
6E
100
AcDbEntity
  8
AM_6
100
AcDbText
 10
7.6875
 20
-1.226908452661415
 30
0.0
 40
0.5
  1
F4B-GT-111
100
AcDbAttributeDefinition
  3

  2
DESCRIPTION
 70
     8
280
     0
  0
ATTDEF
  5
7C
330
6E
100
AcDbEntity
  8
AM_6
100
AcDbText
 10
7.6875
 20
-1.726908452661415
 30
0.0
 40
0.5
  1
1-27/32
100
AcDbAttributeDefinition
  3

  2
A
 70
     8
280
     0
  0
ATTDEF
  5
7D
330
6E
100
AcDbEntity
  8
AM_6
100
AcDbText
 10
7.6875
 20
-2.226908452661415
 30
0.0
 40
0.5
  1
5-3/8
100
AcDbAttributeDefinition
  3

  2
B
 70
     8
280
     0
  0
ATTDEF
  5
7E
330
6E
100
AcDbEntity
  8
AM_6
100
AcDbText
 10
7.6875
 20
-2.726908452661415
 30
0.0
 40
0.5
  1
2
100
AcDbAttributeDefinition
  3

  2
C
 70
     8
280
     0
  0
ATTDEF
  5
7F
330
6E
100
AcDbEntity
  8
AM_6
100
AcDbText
 10
7.6875
 20
-3.226908452661415
 30
0.0
 40
0.5
  1
4-1/8
100
AcDbAttributeDefinition
  3

  2
D
 70
     8
280
     0
  0
ATTDEF
  5
80
330
6E
100
AcDbEntity
  8
AM_6
100
AcDbText
 10
7.6875
 20
-3.726908452661415
 30
0.0
 40
0.5
  1
1/2
100
AcDbAttributeDefinition
  3

  2
F
 70
     8
280
     0
  0
ATTDEF
  5
81
330
6E
100
AcDbEntity
  8
AM_6
100
AcDbText
 10
7.6875
 20
-4.226908452661416
 30
0.0
 40
0.5
  1
5/8
100
AcDbAttributeDefinition
  3

  2
H
 70
     8
280
     0
  0
ATTDEF
  5
82
330
6E
100
AcDbEntity
  8
AM_6
100
AcDbText
 10
7.6875
 20
-4.726908452661416
 30
0.0
 40
0.5
  1
9/16
100
AcDbAttributeDefinition
  3

  2
J
 70
     8
280
     0
  0
ATTDEF
  5
83
330
6E
100
AcDbEntity
  8
AM_6
100
AcDbText
 10
7.6875
 20
-5.226908452661416
 30
0.0
 40
0.5
  1
2-43/64
100
AcDbAttributeDefinition
  3

  2
L
 70
     8
280
     0
  0
ATTDEF
  5
84
330
6E
100
AcDbEntity
  8
AM_6
100
AcDbText
 10
7.6875
 20
-5.726908452661416
 30
0.0
 40
0.5
  1
2-3/4
100
AcDbAttributeDefinition
  3

  2
N
 70
     8
280
     0
  0
ATTDEF
  5
85
330
6E
100
AcDbEntity
  8
AM_6
100
AcDbText
 10
7.6875
 20
-6.226908452661416
 30
0.0
 40
0.5
  1
1-31/32
100
AcDbAttributeDefinition
  3

  2
Z
 70
     8
280
     0
  0
ATTDEF
  5
86
330
6E
100
AcDbEntity
  8
AM_6
100
AcDbText
 10
7.6875
 20
-6.726908452661416
 30
0.0
 40
0.5
  1
baldor
100
AcDbAttributeDefinition
  3

  2
COMPANY
 70
     8
280
     0
  0
INSERT
  5
88
330
6E
100
AcDbEntity
  8
0
100
AcDbBlockReference
  2
2_129522I_0_in_129651_0
 10
0.0
 20
0.0
 30
0.0
  0
INSERT
  5
B2
330
6E
100
AcDbEntity
  8
0
100
AcDbBlockReference
  2
3_129916_0_in_129651_0
 10
0.0
 20
0.0
 30
0.0
  0
INSERT
  5
F4
330
6E
100
AcDbEntity
  8
0
100
AcDbBlockReference
  2
4_129470I_0_in_129651_0
 10
0.0
 20
0.0
 30
0.0
  0
ENDBLK
  5
71
330
6E
100
AcDbEntity
  8
0
100
AcDbBlockEnd
  0
BLOCK
  5
89
330
87
100
AcDbEntity
  8
0
100
AcDbBlockBegin
  2
2_129522I_0_in_129651_0
 70
     2
 10
0.0
 20
0.0
 30
0.0
  3
2_129522I_0_in_129651_0
  1

  0
ATTDEF
  5
8B
330
87
100
AcDbEntity
  8
AM_6
100
AcDbText
 10
6.65669862413356
 20
1.656698624133559
 30
0.0
 40
0.5
  1
INS-GT B
100
AcDbAttributeDefinition
  3

  2
NN
 70
     8
280
     0
  0
ATTDEF
  5
8C
330
87
100
AcDbEntity
  8
AM_6
100
AcDbText
 10
6.65669862413356
 20
1.156698624133559
 30
0.0
 40
0.5
  1
GT Normal Duty Bearing Inserts
100
AcDbAttributeDefinition
  3

  2
NT
 70
     8
280
     0
  0
ATTDEF
  5
8D
330
87
100
AcDbEntity
  8
AM_6
100
AcDbText
 10
6.65669862413356
 20
0.6566986241335591
 30
0.0
 40
0.5
  1
129522I
100
AcDbAttributeDefinition
  3

  2
NB
 70
     8
280
     0
  0
ATTDEF
  5
8E
330
87
100
AcDbEntity
  8
AM_6
100
AcDbText
 10
6.65669862413356
 20
0.1566986241335591
 30
0.0
 40
0.5
  1
$PN.I
100
AcDbAttributeDefinition
  3

  2
NBSYN
 70
     8
280
     0
  0
ATTDEF
  5
8F
330
87
100
AcDbEntity
  8
AM_6
100
AcDbText
 10
6.65669862413356
 20
-0.3433013758664409
 30
0.0
 40
0.5
  1
129522
100
AcDbAttributeDefinition
  3

  2
LINA
 70
     8
280
     0
  0
ATTDEF
  5
90
330
87
100
AcDbEntity
  8
AM_6
100
AcDbText
 10
6.65669862413356
 20
-0.8433013758664409
 30
0.0
 40
0.5
  1
209
100
AcDbAttributeDefinition
  3

  2
SERIES
 70
     8
280
     0
  0
ATTDEF
  5
91
330
87
100
AcDbEntity
  8
AM_6
100
AcDbText
 10
6.65669862413356
 20
-1.343301375866441
 30
0.0
 40
0.5
  1
129522
100
AcDbAttributeDefinition
  3

  2
PN
 70
     8
280
     0
  0
ATTDEF
  5
92
330
87
100
AcDbEntity
  8
AM_6
100
AcDbText
 10
6.65669862413356
 20
-1.843301375866441
 30
0.0
 40
0.5
  1
INS-GT-09
100
AcDbAttributeDefinition
  3

  2
DESCRIPTION
 70
     8
280
     0
  0
ATTDEF
  5
93
330
87
100
AcDbEntity
  8
AM_6
100
AcDbText
 10
6.65669862413356
 20
-2.343301375866441
 30
0.0
 40
0.5
  1
1.85
100
AcDbAttributeDefinition
  3

  2
A
 70
     8
280
     0
  0
ATTDEF
  5
94
330
87
100
AcDbEntity
  8
AM_6
100
AcDbText
 10
6.65669862413356
 20
-2.843301375866441
 30
0.0
 40
0.5
  1
0.87
100
AcDbAttributeDefinition
  3

  2
C
 70
     8
280
     0
  0
ATTDEF
  5
95
330
87
100
AcDbEntity
  8
AM_6
100
AcDbText
 10
6.65669862413356
 20
-3.343301375866441
 30
0.0
 40
0.5
  1
3.3465
100
AcDbAttributeDefinition
  3

  2
D
 70
     8
280
     0
  0
ATTDEF
  5
96
330
87
100
AcDbEntity
  8
AM_6
100
AcDbText
 10
6.65669862413356
 20
-3.843301375866441
 30
0.0
 40
0.5
  1
0.25
100
AcDbAttributeDefinition
  3

  2
J
 70
     8
280
     0
  0
ATTDEF
  5
97
330
87
100
AcDbEntity
  8
AM_6
100
AcDbText
 10
6.65669862413356
 20
-4.34330137586644
 30
0.0
 40
0.5
  1
2.86
100
AcDbAttributeDefinition
  3

  2
L
 70
     8
280
     0
  0
ATTDEF
  5
98
330
87
100
AcDbEntity
  8
AM_6
100
AcDbText
 10
6.65669862413356
 20
-4.84330137586644
 30
0.0
 40
0.5
  1
#10 - 32 x 1/4
100
AcDbAttributeDefinition
  3

  2
N
 70
     8
280
     0
  0
ATTDEF
  5
99
330
87
100
AcDbEntity
  8
AM_6
100
AcDbText
 10
6.65669862413356
 20
-5.34330137586644
 30
0.0
 40
0.5
  1
0.62000
100
AcDbAttributeDefinition
  3

  2
W
 70
     8
280
     0
  0
ATTDEF
  5
9A
330
87
100
AcDbEntity
  8
AM_6
100
AcDbText
 10
6.65669862413356
 20
-5.84330137586644
 30
0.0
 40
0.5
  1
1.26
100
AcDbAttributeDefinition
  3

  2
X
 70
     8
280
     0
  0
ATTDEF
  5
9B
330
87
100
AcDbEntity
  8
AM_6
100
AcDbText
 10
6.65669862413356
 20
-6.34330137586644
 30
0.0
 40
0.5
  1
1.23
100
AcDbAttributeDefinition
  3

  2
Y
 70
     8
280
     0
  0
ATTDEF
  5
9C
330
87
100
AcDbEntity
  8
AM_6
100
AcDbText
 10
6.65669862413356
 20
-6.84330137586644
 30
0.0
 40
0.5
  1
baldor
100
AcDbAttributeDefinition
  3

  2
COMPANY
 70
     8
280
     0
  0
CIRCLE
  5
9F
330
87
100
AcDbEntity
  8
AM_9
100
AcDbCircle
 10
0.0000000000000001
 20
0.0
 30
0.0
 40
1.102811140132194
  0
CIRCLE
  5
A0
330
87
100
AcDbEntity
  8
AM_9
100
AcDbCircle
 10
0.0000000000000001
 20
0.0
 30
0.0
 40
1.58625
  0
CIRCLE
  5
A1
330
87
100
AcDbEntity
  8
AM_9
100
AcDbCircle
 10
0.0000000000000001
 20
0.0
 30
0.0
 40
1.621259545833585
  0
CIRCLE
  5
A2
330
87
100
AcDbEntity
  8
AM_9
100
AcDbCircle
 10
0.0000000000000001
 20
0.0
 30
0.0
 40
1.168968213111111
  0
CIRCLE
  5
A3
330
87
100
AcDbEntity
  8
AM_9
100
AcDbCircle
 10
0.0000000000000001
 20
0.0
 30
0.0
 40
1.066825315111111
  0
CIRCLE
  5
A4
330
87
100
AcDbEntity
  8
AM_9
100
AcDbCircle
 10
0.0000000000000001
 20
0.0
 30
0.0
 40
1.236311111111111
  0
ARC
  5
A5
330
87
100
AcDbEntity
  8
AM_9
100
AcDbCircle
 10
0.0000000000000002
 20
0.0
 30
0.0
 40
1.271111111111111
100
AcDbArc
 50
5.598246852624981
 51
114.401753147375
  0
ARC
  5
A6
330
87
100
AcDbEntity
  8
AM_9
100
AcDbCircle
 10
-0.0000000000000002
 20
0.0000000000000001
 30
0.0
 40
1.271111111111111
100
AcDbArc
 50
125.598246852625
 51
234.4017531473751
  0
ARC
  5
A7
330
87
100
AcDbEntity
  8
AM_9
100
AcDbCircle
 10
0.0000000000000001
 20
0.0000000000000002
 30
0.0
 40
1.271111111111111
100
AcDbArc
 50
245.598246852625
 51
354.401753147375
  0
CIRCLE
  5
A9
330
87
100
AcDbEntity
  8
AM_4
100
AcDbCircle
 10
0.0000000000000001
 20
0.0
 30
0.0
 40
1.656698624133559
  0
CIRCLE
  5
AA
330
87
100
AcDbEntity
  8
AM_4
100
AcDbCircle
 10
0.0000000000000001
 20
0.0
 30
0.0
 40
1.648125942409455
  0
CIRCLE
  5
AB
330
87
100
AcDbEntity
  8
AM_4
100
AcDbCircle
 10
0.0000000000000001
 20
0.0
 30
0.0
 40
1.629623961347176
  0
CIRCLE
  5
AC
330
87
100
AcDbEntity
  8
AM_4
100
AcDbCircle
 10
0.0000000000000001
 20
0.0
 30
0.0
 40
1.595184308300556
  0
CIRCLE
  5
AD
330
87
100
AcDbEntity
  8
AM_4
100
AcDbCircle
 10
0.0000000000000001
 20
0.0
 30
0.0
 40
1.562786330102177
  0
ARC
  5
AE
330
87
100
AcDbEntity
  8
AM_4
100
AcDbCircle
 10
0.0000000000000044
 20
-0.0000000000000091
 30
0.0
 40
1.271111111111121
100
AcDbArc
 50
114.401753147375
 51
125.5982468526249
  0
ARC
  5
AF
330
87
100
AcDbEntity
  8
AM_4
100
AcDbCircle
 10
0.0000000000000056
 20
0.000000000000008
 30
0.0
 40
1.271111111111121
100
AcDbArc
 50
234.4017531473751
 51
245.5982468526249
  0
ARC
  5
B0
330
87
100
AcDbEntity
  8
AM_4
100
AcDbCircle
 10
-0.0000000000000275
 20
0.0
 30
0.0
 40
1.271111111111139
100
AcDbArc
 50
354.4017531473751
 51
5.598246852624849
  0
ENDBLK
  5
8A
330
87
100
AcDbEntity
  8
0
100
AcDbBlockEnd
  0
BLOCK
  5
B3
330
B1
100
AcDbEntity
  8
0
100
AcDbBlockBegin
  2
3_129916_0_in_129651_0
 70
     2
 10
0.0
 20
0.0
 30
0.0
  3
3_129916_0_in_129651_0
  1

  0
ATTDEF
  5
B5
330
B1
100
AcDbEntity
  8
AM_6
100
AcDbText
 10
6.330170291318465
 20
1.335931074693355
 30
0.0
 40
0.5
  1
Grip Tight Normal Duty Adapter and Nut Inch Bore
100
AcDbAttributeDefinition
  3

  2
NN
 70
     8
280
     0
  0
ATTDEF
  5
B6
330
B1
100
AcDbEntity
  8
AM_6
100
AcDbText
 10
6.330170291318465
 20
0.8359310746933548
 30
0.0
 40
0.5
  1
GT and GTM Adapter & Lock Nut Assemblies
100
AcDbAttributeDefinition
  3

  2
NT
 70
     8
280
     0
  0
ATTDEF
  5
B7
330
B1
100
AcDbEntity
  8
AM_6
100
AcDbText
 10
6.330170291318465
 20
0.3359310746933548
 30
0.0
 40
0.5
  1
129916
100
AcDbAttributeDefinition
  3

  2
NB
 70
     8
280
     0
  0
ATTDEF
  5
B8
330
B1
100
AcDbEntity
  8
AM_6
100
AcDbText
 10
6.330170291318465
 20
-0.1640689253066452
 30
0.0
 40
0.5
  1
$PN.
100
AcDbAttributeDefinition
  3

  2
NBSYN
 70
     8
280
     0
  0
ATTDEF
  5
B9
330
B1
100
AcDbEntity
  8
AM_6
100
AcDbText
 10
6.330170291318465
 20
-0.6640689253066452
 30
0.0
 40
0.5
  1
129916
100
AcDbAttributeDefinition
  3

  2
LINA
 70
     8
280
     0
  0
ATTDEF
  5
BA
330
B1
100
AcDbEntity
  8
AM_6
100
AcDbText
 10
6.330170291318465
 20
-1.164068925306645
 30
0.0
 40
0.5
  1
209
100
AcDbAttributeDefinition
  3

  2
SERIES
 70
     8
280
     0
  0
ATTDEF
  5
BB
330
B1
100
AcDbEntity
  8
AM_6
100
AcDbText
 10
6.330170291318465
 20
-1.664068925306645
 30
0.0
 40
0.5
  1
1-11/16
100
AcDbAttributeDefinition
  3

  2
SS
 70
     8
280
     0
  0
ATTDEF
  5
BC
330
B1
100
AcDbEntity
  8
AM_6
100
AcDbText
 10
6.330170291318465
 20
-2.164068925306645
 30
0.0
 40
0.5
  1
129916
100
AcDbAttributeDefinition
  3

  2
PN
 70
     8
280
     0
  0
ATTDEF
  5
BD
330
B1
100
AcDbEntity
  8
AM_6
100
AcDbText
 10
6.330170291318465
 20
-2.664068925306645
 30
0.0
 40
0.5
  1
AN-GT-09-111
100
AcDbAttributeDefinition
  3

  2
DESCRIPTION
 70
     8
280
     0
  0
ATTDEF
  5
BE
330
B1
100
AcDbEntity
  8
AM_6
100
AcDbText
 10
6.330170291318465
 20
-3.164068925306645
 30
0.0
 40
0.5
  1
1-27/32
100
AcDbAttributeDefinition
  3

  2
A
 70
     8
280
     0
  0
ATTDEF
  5
BF
330
B1
100
AcDbEntity
  8
AM_6
100
AcDbText
 10
6.330170291318465
 20
-3.664068925306645
 30
0.0
 40
0.5
  1
0.8661
100
AcDbAttributeDefinition
  3

  2
C
 70
     8
280
     0
  0
ATTDEF
  5
C0
330
B1
100
AcDbEntity
  8
AM_6
100
AcDbText
 10
6.330170291318465
 20
-4.164068925306645
 30
0.0
 40
0.5
  1
3.3465
100
AcDbAttributeDefinition
  3

  2
D
 70
     8
280
     0
  0
ATTDEF
  5
C1
330
B1
100
AcDbEntity
  8
AM_6
100
AcDbText
 10
6.330170291318465
 20
-4.664068925306645
 30
0.0
 40
0.5
  1
0.248
100
AcDbAttributeDefinition
  3

  2
J
 70
     8
280
     0
  0
ATTDEF
  5
C2
330
B1
100
AcDbEntity
  8
AM_6
100
AcDbText
 10
6.330170291318465
 20
-5.164068925306645
 30
0.0
 40
0.5
  1
2-43/64
100
AcDbAttributeDefinition
  3

  2
L
 70
     8
280
     0
  0
ATTDEF
  5
C3
330
B1
100
AcDbEntity
  8
AM_6
100
AcDbText
 10
6.330170291318465
 20
-5.664068925306645
 30
0.0
 40
0.5
  1
10 - 32 x 1/4
100
AcDbAttributeDefinition
  3

  2
N
 70
     8
280
     0
  0
ATTDEF
  5
C4
330
B1
100
AcDbEntity
  8
AM_6
100
AcDbText
 10
6.330170291318465
 20
-6.164068925306645
 30
0.0
 40
0.5
  1
21/32
100
AcDbAttributeDefinition
  3

  2
W
 70
     8
280
     0
  0
ATTDEF
  5
C5
330
B1
100
AcDbEntity
  8
AM_6
100
AcDbText
 10
6.330170291318465
 20
-6.664068925306645
 30
0.0
 40
0.5
  1
1-5/32
100
AcDbAttributeDefinition
  3

  2
X
 70
     8
280
     0
  0
ATTDEF
  5
C6
330
B1
100
AcDbEntity
  8
AM_6
100
AcDbText
 10
6.330170291318465
 20
-7.164068925306645
 30
0.0
 40
0.5
  1
1-3/16
100
AcDbAttributeDefinition
  3

  2
Y
 70
     8
280
     0
  0
ATTDEF
  5
C7
330
B1
100
AcDbEntity
  8
AM_6
100
AcDbText
 10
6.330170291318465
 20
-7.664068925306645
 30
0.0
 40
0.5
  1
baldor
100
AcDbAttributeDefinition
  3

  2
COMPANY
 70
     8
280
     0
  0
LINE
  5
C8
330
B1
100
AcDbEntity
  8
AM_9
100
AcDbLine
 10
0.0500000000000001
 20
0.9966587375143907
 30
0.0
 11
0.0500000000000001
 21
1.03350119403169
 31
0.0
  0
LINE
  5
C9
330
B1
100
AcDbEntity
  8
AM_9
100
AcDbLine
 10
-0.0499999999999999
 20
0.9966587375143907
 30
0.0
 11
-0.0499999999999999
 21
1.03350119403169
 31
0.0
  0
ARC
  5
CA
330
B1
100
AcDbEntity
  8
AM_9
100
AcDbCircle
 10
0.0000000000000001
 20
-0.0000000000000001
 30
0.0
 40
1.034709968090058
100
AcDbArc
 50
92.76976656096889
 51
87.23023343903112
  0
CIRCLE
  5
CB
330
B1
100
AcDbEntity
  8
AM_9
100
AcDbCircle
 10
0.0000000000000001
 20
0.0
 30
0.0
 40
1.092075892857143
  0
CIRCLE
  5
CC
330
B1
100
AcDbEntity
  8
AM_9
100
AcDbCircle
 10
0.0000000000000001
 20
0.0
 30
0.0
 40
1.1875
  0
LINE
  5
CD
330
B1
100
AcDbEntity
  8
AM_9
100
AcDbLine
 10
-1.3133875
 20
-0.0724499999999998
 30
0.0
 11
-1.024503125
 21
-0.0724499999999998
 31
0.0
  0
LINE
  5
CE
330
B1
100
AcDbEntity
  8
AM_9
100
AcDbLine
 10
-1.024503125
 20
0.0724499999999998
 30
0.0
 11
-1.3133875
 21
0.0724499999999998
 31
0.0
  0
LINE
  5
CF
330
B1
100
AcDbEntity
  8
AM_9
100
AcDbLine
 10
-1.024503125
 20
-0.0724499999999998
 30
0.0
 11
-1.001953125
 21
-0.0949999999999999
 31
0.0
  0
LINE
  5
D0
330
B1
100
AcDbEntity
  8
AM_9
100
AcDbLine
 10
-1.001953125
 20
0.0949999999999999
 30
0.0
 11
-1.024503125
 21
0.0724499999999998
 31
0.0
  0
LINE
  5
D1
330
B1
100
AcDbEntity
  8
AM_9
100
AcDbLine
 10
-1.001953125
 20
0.0949999999999999
 30
0.0
 11
-1.001953125
 21
-0.0949999999999999
 31
0.0
  0
LINE
  5
D2
330
B1
100
AcDbEntity
  8
AM_9
100
AcDbLine
 10
-1.024503125
 20
0.0724499999999998
 30
0.0
 11
-1.024503125
 21
-0.0724499999999998
 31
0.0
  0
LINE
  5
D3
330
B1
100
AcDbEntity
  8
AM_9
100
AcDbLine
 10
-1.3133875
 20
0.0724499999999998
 30
0.0
 11
-1.332266817013929
 21
0.0913293170139291
 31
0.0
  0
LINE
  5
D4
330
B1
100
AcDbEntity
  8
AM_9
100
AcDbLine
 10
-1.332682874943385
 20
-0.091745374943385
 30
0.0
 11
-1.3133875
 21
-0.0724499999999998
 31
0.0
  0
LINE
  5
D5
330
B1
100
AcDbEntity
  8
AM_9
100
AcDbLine
 10
-1.3133875
 20
0.0724499999999998
 30
0.0
 11
-1.3133875
 21
-0.0724499999999998
 31
0.0
  0
LWPOLYLINE
  5
D6
330
B1
100
AcDbEntity
  8
AM_9
100
AcDbPolyline
 90
        5
 70
     0
 43
0.0
 10
-1.335112951314985
 20
0.0469298533691068
 10
-1.334294849093667
 20
0.0662288425714977
 10
-1.333337727654533
 20
0.0833037089168167
 10
-1.332805783030466
 20
0.0914207231802305
 10
-1.332776993212757
 20
0.0918394809927235
  0
LINE
  5
D7
330
B1
100
AcDbEntity
  8
AM_9
100
AcDbLine
 10
-1.33442556010465
 20
-0.0635407620794828
 30
0.0
 11
-1.335117182399109
 21
-0.0468093277981621
 31
0.0
  0
LINE
  5
D8
330
B1
100
AcDbEntity
  8
AM_9
100
AcDbLine
 10
-1.332776992534397
 20
-0.0918394908371042
 30
0.0
 11
-1.33442556010465
 21
-0.0635407620794828
 31
0.0
  0
LINE
  5
DA
330
B1
100
AcDbEntity
  8
AM_5
100
AcDbLine
 10
-1.332555441212954
 20
-0.0949999999999999
 30
0.0
 11
-1.001953125
 21
-0.0949999999999999
 31
0.0
  0
LINE
  5
DB
330
B1
100
AcDbEntity
  8
AM_5
100
AcDbLine
 10
-1.332555441212954
 20
0.0950000000000001
 30
0.0
 11
-1.001953125
 21
0.0950000000000001
 31
0.0
  0
LWPOLYLINE
  5
DC
330
B1
100
AcDbEntity
  8
AM_4
100
AcDbPolyline
 90
        6
 70
     0
 43
0.0
 10
-1.335117182399109
 20
-0.0468093277981621
 10
-1.335177184201761
 20
-0.0450654046171648
 10
-1.335843599075823
 20
-0.0158392775846615
 10
-1.335860601754623
 20
0.0143337568706445
 10
-1.335262164034195
 20
0.0424730173753754
 10
-1.335112951314985
 20
0.0469298533691068
  0
LINE
  5
DD
330
B1
100
AcDbEntity
  8
AM_4
100
AcDbLine
 10
-0.772472295728503
 20
1.089961263641138
 30
0.0
 11
-0.7308245369596692
 21
1.017825229432145
 31
0.0
  0
LINE
  5
DE
330
B1
100
AcDbEntity
  8
AM_4
100
AcDbLine
 10
-0.7308245369596688
 20
-1.017825229432146
 30
0.0
 11
-0.7724722957285025
 21
-1.089961263641138
 31
0.0
  0
ARC
  5
DF
330
B1
100
AcDbEntity
  8
AM_4
100
AcDbCircle
 10
-0.0000000000000011
 20
0.0000000000000001
 30
0.0
 40
1.335937499999999
100
AcDbArc
 50
125.3257865106883
 51
177.9969349085745
  0
LWPOLYLINE
  5
E0
330
B1
100
AcDbEntity
  8
AM_4
100
AcDbPolyline
 90
        5
 70
     0
 43
0.0
 10
-1.335121186890075
 20
0.0466949700020129
 10
-1.330964517398062
 20
0.0248317012479007
 10
-1.329340240356722
 20
0.0015177936210992
 10
-1.330679503085307
 20
-0.0225599630181107
 10
-1.335121186890075
 20
-0.0466949700020134
  0
ARC
  5
E1
330
B1
100
AcDbEntity
  8
AM_4
100
AcDbCircle
 10
-0.0000000000000007
 20
0.0000000000000001
 30
0.0
 40
1.335937499999999
100
AcDbArc
 50
182.0030650914254
 51
234.6742134893117
  0
LINE
  5
E2
330
B1
100
AcDbEntity
  8
AM_4
100
AcDbLine
 10
-0.5160502368211285
 20
1.141825229432145
 30
0.0
 11
-0.5576979955899626
 21
1.213961263641138
 31
0.0
  0
LINE
  5
E3
330
B1
100
AcDbEntity
  8
AM_4
100
AcDbLine
 10
1.330170291318465
 20
0.124
 30
0.0
 11
1.246874773780797
 21
0.124
 31
0.0
  0
ARC
  5
E4
330
B1
100
AcDbEntity
  8
AM_4
100
AcDbCircle
 10
-0.0000000000000001
 20
-0.0000000000000002
 30
0.0
 40
1.3359375
100
AcDbArc
 50
5.325786510688423
 51
114.6742134893116
  0
LINE
  5
E5
330
B1
100
AcDbEntity
  8
AM_4
100
AcDbLine
 10
-0.5576979955899619
 20
-1.213961263641138
 30
0.0
 11
-0.5160502368211282
 21
-1.141825229432146
 31
0.0
  0
LINE
  5
E6
330
B1
100
AcDbEntity
  8
AM_4
100
AcDbLine
 10
1.246874773780797
 20
-0.124
 30
0.0
 11
1.330170291318465
 21
-0.124
 31
0.0
  0
ARC
  5
E7
330
B1
100
AcDbEntity
  8
AM_4
100
AcDbCircle
 10
-0.0000000000000003
 20
0.0000000000000007
 30
0.0
 40
1.3359375
100
AcDbArc
 50
245.3257865106884
 51
354.6742134893116
  0
LINE
  5
E8
330
B1
100
AcDbEntity
  8
AM_4
100
AcDbLine
 10
0.0500000000000001
 20
0.8422672156150921
 30
0.0
 11
0.0500000000000001
 21
0.9966517857142857
 31
0.0
  0
LINE
  5
E9
330
B1
100
AcDbEntity
  8
AM_4
100
AcDbLine
 10
-0.0499999999999999
 20
0.8422672156150921
 30
0.0
 11
-0.0499999999999999
 21
0.9966517857142857
 31
0.0
  0
LINE
  5
EA
330
B1
100
AcDbEntity
  8
AM_4
100
AcDbLine
 10
1.246874773780797
 20
0.124
 30
0.0
 11
1.246874773780797
 21
-0.124
 31
0.0
  0
LINE
  5
EB
330
B1
100
AcDbEntity
  8
AM_4
100
AcDbLine
 10
-0.7308245369596692
 20
1.017825229432145
 30
0.0
 11
-0.5160502368211285
 21
1.141825229432145
 31
0.0
  0
LINE
  5
EC
330
B1
100
AcDbEntity
  8
AM_4
100
AcDbLine
 10
-0.0499999999999999
 20
0.9966517857142857
 30
0.0
 11
0.0500000000000001
 21
0.9966517857142857
 31
0.0
  0
ARC
  5
ED
330
B1
100
AcDbEntity
  8
AM_4
100
AcDbCircle
 10
-0.0000000000000004
 20
-0.0000000000000004
 30
0.0
 40
1.301293500000001
100
AcDbArc
 50
5.467999916179482
 51
114.5320000838205
  0
ARC
  5
EE
330
B1
100
AcDbEntity
  8
AM_4
100
AcDbCircle
 10
-0.0000000000000004
 20
0.0000000000000001
 30
0.0
 40
1.3012935
100
AcDbArc
 50
125.4679999161795
 51
234.5320000838206
  0
LINE
  5
EF
330
B1
100
AcDbEntity
  8
AM_4
100
AcDbLine
 10
-0.5160502368211282
 20
-1.141825229432146
 30
0.0
 11
-0.7308245369596688
 21
-1.017825229432146
 31
0.0
  0
ARC
  5
F0
330
B1
100
AcDbEntity
  8
AM_4
100
AcDbCircle
 10
-0.0000000000000001
 20
-0.0000000000000002
 30
0.0
 40
1.3012935
100
AcDbArc
 50
245.4679999161795
 51
354.5320000838204
  0
ARC
  5
F1
330
B1
100
AcDbEntity
  8
AM_4
100
AcDbCircle
 10
0.0000000000000001
 20
0.0
 30
0.0
 40
0.84375
100
AcDbArc
 50
93.3972957924113
 51
86.60270420758869
  0
ARC
  5
F2
330
B1
100
AcDbEntity
  8
AM_4
100
AcDbCircle
 10
0.0000000000000001
 20
0.0
 30
0.0
 40
0.9966517857142855
100
AcDbArc
 50
92.87562022709822
 51
87.1243797729018
  0
ENDBLK
  5
B4
330
B1
100
AcDbEntity
  8
0
100
AcDbBlockEnd
  0
BLOCK
  5
F5
330
F3
100
AcDbEntity
  8
0
100
AcDbBlockBegin
  2
4_129470I_0_in_129651_0
 70
     2
 10
0.0
 20
0.0
 30
0.0
  3
4_129470I_0_in_129651_0
  1

  0
ATTDEF
  5
F7
330
F3
100
AcDbEntity
  8
AM_6
100
AcDbText
 10
7.6875
 20
2.773091547338585
 30
0.0
 40
0.5
  1
GT Normal Duty 4 Bolt Flange Bearings
100
AcDbAttributeDefinition
  3

  2
NN
 70
     8
280
     0
  0
ATTDEF
  5
F8
330
F3
100
AcDbEntity
  8
AM_6
100
AcDbText
 10
7.6875
 20
2.273091547338585
 30
0.0
 40
0.5
  1
Grip Tight Adapter Ball Bearings
100
AcDbAttributeDefinition
  3

  2
NT
 70
     8
280
     0
  0
ATTDEF
  5
F9
330
F3
100
AcDbEntity
  8
AM_6
100
AcDbText
 10
7.6875
 20
1.773091547338585
 30
0.0
 40
0.5
  1
129470I
100
AcDbAttributeDefinition
  3

  2
NB
 70
     8
280
     0
  0
ATTDEF
  5
FA
330
F3
100
AcDbEntity
  8
AM_6
100
AcDbText
 10
7.6875
 20
1.273091547338585
 30
0.0
 40
0.5
  1
$PN.$LUBE.I
100
AcDbAttributeDefinition
  3

  2
NBSYN
 70
     8
280
     0
  0
ATTDEF
  5
FB
330
F3
100
AcDbEntity
  8
AM_6
100
AcDbText
 10
7.6875
 20
0.7730915473385847
 30
0.0
 40
0.5
  1
129470
100
AcDbAttributeDefinition
  3

  2
LINA
 70
     8
280
     0
  0
ATTDEF
  5
FC
330
F3
100
AcDbEntity
  8
AM_6
100
AcDbText
 10
7.6875
 20
0.2730915473385847
 30
0.0
 40
0.5
  1
209
100
AcDbAttributeDefinition
  3

  2
SERIES
 70
     8
280
     0
  0
ATTDEF
  5
FD
330
F3
100
AcDbEntity
  8
AM_6
100
AcDbText
 10
7.6875
 20
-0.2269084526614153
 30
0.0
 40
0.5
  1
3.3465
100
AcDbAttributeDefinition
  3

  2
BOD
 70
     8
280
     0
  0
ATTDEF
  5
FE
330
F3
100
AcDbEntity
  8
AM_6
100
AcDbText
 10
7.6875
 20
-0.7269084526614153
 30
0.0
 40
0.5
  1
129470
100
AcDbAttributeDefinition
  3

  2
PN
 70
     8
280
     0
  0
ATTDEF
  5
FF
330
F3
100
AcDbEntity
  8
AM_6
100
AcDbText
 10
7.6875
 20
-1.226908452661415
 30
0.0
 40
0.5
  1
F4B-GT-09
100
AcDbAttributeDefinition
  3

  2
DESCRIPTION
 70
     8
280
     0
  0
ATTDEF
  5
100
330
F3
100
AcDbEntity
  8
AM_6
100
AcDbText
 10
7.6875
 20
-1.726908452661415
 30
0.0
 40
0.5
  1
With Lube
100
AcDbAttributeDefinition
  3

  2
LUBE
 70
     8
280
     0
  0
ATTDEF
  5
101
330
F3
100
AcDbEntity
  8
AM_6
100
AcDbText
 10
7.6875
 20
-2.226908452661415
 30
0.0
 40
0.5
  1
6.0
100
AcDbAttributeDefinition
  3

  2
WEIGHT
 70
     8
280
     0
  0
ATTDEF
  5
102
330
F3
100
AcDbEntity
  8
AM_6
100
AcDbText
 10
7.6875
 20
-2.726908452661415
 30
0.0
 40
0.5
  1
1-27/32
100
AcDbAttributeDefinition
  3

  2
A
 70
     8
280
     0
  0
ATTDEF
  5
103
330
F3
100
AcDbEntity
  8
AM_6
100
AcDbText
 10
7.6875
 20
-3.226908452661415
 30
0.0
 40
0.5
  1
1.8438
100
AcDbAttributeDefinition
  3

  2
A1
 70
     8
280
     0
  0
ATTDEF
  5
104
330
F3
100
AcDbEntity
  8
AM_6
100
AcDbText
 10
7.6875
 20
-3.726908452661415
 30
0.0
 40
0.5
  1
5-3/8
100
AcDbAttributeDefinition
  3

  2
B
 70
     8
280
     0
  0
ATTDEF
  5
105
330
F3
100
AcDbEntity
  8
AM_6
100
AcDbText
 10
7.6875
 20
-4.226908452661416
 30
0.0
 40
0.5
  1
5.375
100
AcDbAttributeDefinition
  3

  2
B1
 70
     8
280
     0
  0
ATTDEF
  5
106
330
F3
100
AcDbEntity
  8
AM_6
100
AcDbText
 10
7.6875
 20
-4.726908452661416
 30
0.0
 40
0.5
  1
2
100
AcDbAttributeDefinition
  3

  2
C
 70
     8
280
     0
  0
ATTDEF
  5
107
330
F3
100
AcDbEntity
  8
AM_6
100
AcDbText
 10
7.6875
 20
-5.226908452661416
 30
0.0
 40
0.5
  1
2.000
100
AcDbAttributeDefinition
  3

  2
C1
 70
     8
280
     0
  0
ATTDEF
  5
108
330
F3
100
AcDbEntity
  8
AM_6
100
AcDbText
 10
7.6875
 20
-5.726908452661416
 30
0.0
 40
0.5
  1
4-1/8
100
AcDbAttributeDefinition
  3

  2
D
 70
     8
280
     0
  0
ATTDEF
  5
109
330
F3
100
AcDbEntity
  8
AM_6
100
AcDbText
 10
7.6875
 20
-6.226908452661416
 30
0.0
 40
0.5
  1
4.125
100
AcDbAttributeDefinition
  3

  2
D1
 70
     8
280
     0
  0
ATTDEF
  5
10A
330
F3
100
AcDbEntity
  8
AM_6
100
AcDbText
 10
7.6875
 20
-6.726908452661416
 30
0.0
 40
0.5
  1
1/2
100
AcDbAttributeDefinition
  3

  2
F
 70
     8
280
     0
  0
ATTDEF
  5
10B
330
F3
100
AcDbEntity
  8
AM_6
100
AcDbText
 10
7.6875
 20
-7.226908452661416
 30
0.0
 40
0.5
  1
0.500
100
AcDbAttributeDefinition
  3

  2
F1
 70
     8
280
     0
  0
ATTDEF
  5
10C
330
F3
100
AcDbEntity
  8
AM_6
100
AcDbText
 10
7.6875
 20
-7.726908452661416
 30
0.0
 40
0.5
  1
5/8
100
AcDbAttributeDefinition
  3

  2
H
 70
     8
280
     0
  0
ATTDEF
  5
10D
330
F3
100
AcDbEntity
  8
AM_6
100
AcDbText
 10
7.6875
 20
-8.226908452661416
 30
0.0
 40
0.5
  1
0.625
100
AcDbAttributeDefinition
  3

  2
H1
 70
     8
280
     0
  0
ATTDEF
  5
10E
330
F3
100
AcDbEntity
  8
AM_6
100
AcDbText
 10
7.6875
 20
-8.726908452661416
 30
0.0
 40
0.5
  1
9/16
100
AcDbAttributeDefinition
  3

  2
J
 70
     8
280
     0
  0
ATTDEF
  5
10F
330
F3
100
AcDbEntity
  8
AM_6
100
AcDbText
 10
7.6875
 20
-9.226908452661416
 30
0.0
 40
0.5
  1
0.563
100
AcDbAttributeDefinition
  3

  2
J1
 70
     8
280
     0
  0
ATTDEF
  5
110
330
F3
100
AcDbEntity
  8
AM_6
100
AcDbText
 10
7.6875
 20
-9.726908452661416
 30
0.0
 40
0.5
  1
2-43/64
100
AcDbAttributeDefinition
  3

  2
L
 70
     8
280
     0
  0
ATTDEF
  5
111
330
F3
100
AcDbEntity
  8
AM_6
100
AcDbText
 10
7.6875
 20
-10.22690845266142
 30
0.0
 40
0.5
  1
2.672
100
AcDbAttributeDefinition
  3

  2
L1
 70
     8
280
     0
  0
ATTDEF
  5
112
330
F3
100
AcDbEntity
  8
AM_6
100
AcDbText
 10
7.6875
 20
-10.72690845266142
 30
0.0
 40
0.5
  1
2-3/4
100
AcDbAttributeDefinition
  3

  2
N
 70
     8
280
     0
  0
ATTDEF
  5
113
330
F3
100
AcDbEntity
  8
AM_6
100
AcDbText
 10
7.6875
 20
-11.22690845266142
 30
0.0
 40
0.5
  1
2.750
100
AcDbAttributeDefinition
  3

  2
N1
 70
     8
280
     0
  0
ATTDEF
  5
114
330
F3
100
AcDbEntity
  8
AM_6
100
AcDbText
 10
7.6875
 20
-11.72690845266142
 30
0.0
 40
0.5
  1
1-31/32
100
AcDbAttributeDefinition
  3

  2
Z
 70
     8
280
     0
  0
ATTDEF
  5
115
330
F3
100
AcDbEntity
  8
AM_6
100
AcDbText
 10
7.6875
 20
-12.22690845266142
 30
0.0
 40
0.5
  1
1.969
100
AcDbAttributeDefinition
  3

  2
Z1
 70
     8
280
     0
  0
ATTDEF
  5
116
330
F3
100
AcDbEntity
  8
AM_6
100
AcDbText
 10
7.6875
 20
-12.72690845266142
 30
0.0
 40
0.5
  1
Infotext
100
AcDbAttributeDefinition
  3

  2
INFO
 70
     8
280
     0
  0
ATTDEF
  5
117
330
F3
100
AcDbEntity
  8
AM_6
100
AcDbText
 10
7.6875
 20
-13.22690845266142
 30
0.0
 40
0.5
  1
baldor
100
AcDbAttributeDefinition
  3

  2
COMPANY
 70
     8
280
     0
  0
LINE
  5
118
330
F3
100
AcDbEntity
  8
AM_9
100
AcDbLine
 10
0.1037401613604325
 20
2.6875
 30
0.0
 11
-0.1037401613604321
 21
2.6875
 31
0.0
  0
LINE
  5
11B
330
F3
100
AcDbEntity
  8
AM_7
100
AcDbLine
 10
-2.325
 20
2.0625
 30
0.0
 11
-1.8
 21
2.0625
 31
0.0
  0
LINE
  5
11C
330
F3
100
AcDbEntity
  8
AM_7
100
AcDbLine
 10
-2.0625
 20
1.8
 30
0.0
 11
-2.0625
 21
2.325
 31
0.0
  0
LINE
  5
11D
330
F3
100
AcDbEntity
  8
AM_7
100
AcDbLine
 10
1.8
 20
2.0625
 30
0.0
 11
2.325
 21
2.0625
 31
0.0
  0
LINE
  5
11E
330
F3
100
AcDbEntity
  8
AM_7
100
AcDbLine
 10
2.0625
 20
1.8
 30
0.0
 11
2.0625
 21
2.325
 31
0.0
  0
LINE
  5
11F
330
F3
100
AcDbEntity
  8
AM_7
100
AcDbLine
 10
1.8
 20
-2.0625
 30
0.0
 11
2.325
 21
-2.0625
 31
0.0
  0
LINE
  5
120
330
F3
100
AcDbEntity
  8
AM_7
100
AcDbLine
 10
2.0625
 20
-2.325
 30
0.0
 11
2.0625
 21
-1.8
 31
0.0
  0
LINE
  5
121
330
F3
100
AcDbEntity
  8
AM_7
100
AcDbLine
 10
-2.325
 20
-2.0625
 30
0.0
 11
-1.8
 21
-2.0625
 31
0.0
  0
LINE
  5
122
330
F3
100
AcDbEntity
  8
AM_7
100
AcDbLine
 10
-2.0625
 20
-2.325
 30
0.0
 11
-2.0625
 21
-1.8
 31
0.0
  0
LINE
  5
123
330
F3
100
AcDbEntity
  8
AM_7
100
AcDbLine
 10
-1.7569125
 20
0.0
 30
0.0
 11
1.7569125
 21
0.0
 31
0.0
  0
LINE
  5
124
330
F3
100
AcDbEntity
  8
AM_7
100
AcDbLine
 10
0.0
 20
-1.7569125
 30
0.0
 11
0.0
 21
1.7569125
 31
0.0
  0
LINE
  5
125
330
F3
100
AcDbEntity
  8
AM_7
100
AcDbLine
 10
0.0
 20
2.773091547338585
 30
0.0
 11
0.0
 21
2.26507775533858
 31
0.0
  0
LINE
  5
126
330
F3
100
AcDbEntity
  8
AM_4
100
AcDbLine
 10
-0.2525223706000493
 20
-2.532894622799989
 30
0.0
 11
-0.2617050191000226
 21
-2.538721525499982
 31
0.0
  0
LINE
  5
127
330
F3
100
AcDbEntity
  8
AM_4
100
AcDbLine
 10
-0.2617050191000226
 20
-2.538721525499982
 30
0.0
 11
-0.2739485216999935
 21
-2.541634975599993
 31
0.0
  0
LINE
  5
128
330
F3
100
AcDbEntity
  8
AM_4
100
AcDbLine
 10
-0.3290443050000261
 20
-2.43966423
 30
0.0
 11
-0.2739485216999935
 21
-2.43966423
 31
0.0
  0
LINE
  5
129
330
F3
100
AcDbEntity
  8
AM_4
100
AcDbLine
 10
-0.3290443050000261
 20
-2.541634975599993
 30
0.0
 11
-0.3290443050000261
 21
-2.43966423
 31
0.0
  0
LINE
  5
12A
330
F3
100
AcDbEntity
  8
AM_4
100
AcDbLine
 10
-0.2739485216999935
 20
-2.43966423
 30
0.0
 11
-0.2617050191000226
 21
-2.44257768
 31
0.0
  0
LINE
  5
12B
330
F3
100
AcDbEntity
  8
AM_4
100
AcDbLine
 10
-0.2617050191000226
 20
-2.44257768
 30
0.0
 11
-0.2525223706000493
 21
-2.44840458
 31
0.0
  0
LINE
  5
12C
330
F3
100
AcDbEntity
  8
AM_4
100
AcDbLine
 10
-0.2525223706000493
 20
-2.44840458
 30
0.0
 11
-0.2464006193000068
 21
-2.45714493
 31
0.0
  0
LINE
  5
12D
330
F3
100
AcDbEntity
  8
AM_4
100
AcDbLine
 10
-0.2464006193000068
 20
-2.45714493
 30
0.0
 11
-0.2433397436000182
 21
-2.46879873
 31
0.0
  0
LINE
  5
12E
330
F3
100
AcDbEntity
  8
AM_4
100
AcDbLine
 10
-0.2433397436000182
 20
-2.46879873
 30
0.0
 11
-0.2433397436000182
 21
-2.512500475300004
 31
0.0
  0
LINE
  5
12F
330
F3
100
AcDbEntity
  8
AM_4
100
AcDbLine
 10
-0.2433397436000182
 20
-2.512500475300004
 30
0.0
 11
-0.2464006193000068
 21
-2.524154275399996
 31
0.0
  0
LINE
  5
130
330
F3
100
AcDbEntity
  8
AM_4
100
AcDbLine
 10
-0.2464006193000068
 20
-2.524154275399996
 30
0.0
 11
-0.2525223706000493
 21
-2.532894622799989
 31
0.0
  0
LINE
  5
131
330
F3
100
AcDbEntity
  8
AM_4
100
AcDbLine
 10
-0.2739485216999935
 20
-2.541634975599993
 30
0.0
 11
-0.3290443050000261
 21
-2.541634975599993
 31
0.0
  0
LINE
  5
132
330
F3
100
AcDbEntity
  8
AM_4
100
AcDbLine
 10
-0.035200086200065
 20
-2.541634975599993
 30
0.0
 11
-0.035200086200065
 21
-2.43966423
 31
0.0
  0
LINE
  5
133
330
F3
100
AcDbEntity
  8
AM_4
100
AcDbLine
 10
-0.035200086200065
 20
-2.43966423
 30
0.0
 11
0.01989571
 21
-2.43966423
 31
0.0
  0
LINE
  5
134
330
F3
100
AcDbEntity
  8
AM_4
100
AcDbLine
 10
0.01989571
 20
-2.43966423
 30
0.0
 11
0.03213922
 21
-2.44257768
 31
0.0
  0
LINE
  5
135
330
F3
100
AcDbEntity
  8
AM_4
100
AcDbLine
 10
0.03213922
 20
-2.44257768
 30
0.0
 11
0.04132185
 21
-2.44840458
 31
0.0
  0
LINE
  5
136
330
F3
100
AcDbEntity
  8
AM_4
100
AcDbLine
 10
0.04132185
 20
-2.44840458
 30
0.0
 11
0.04744361
 21
-2.45714493
 31
0.0
  0
LINE
  5
137
330
F3
100
AcDbEntity
  8
AM_4
100
AcDbLine
 10
0.04744361
 20
-2.45714493
 30
0.0
 11
0.05050448
 21
-2.46879873
 31
0.0
  0
LINE
  5
138
330
F3
100
AcDbEntity
  8
AM_4
100
AcDbLine
 10
0.05050448
 20
-2.46879873
 30
0.0
 11
0.05050448
 21
-2.512500475300004
 31
0.0
  0
LINE
  5
139
330
F3
100
AcDbEntity
  8
AM_4
100
AcDbLine
 10
0.05050448
 20
-2.512500475300004
 30
0.0
 11
0.04744361
 21
-2.524154275399996
 31
0.0
  0
LINE
  5
13A
330
F3
100
AcDbEntity
  8
AM_4
100
AcDbLine
 10
0.04744361
 20
-2.524154275399996
 30
0.0
 11
0.04132185
 21
-2.532894622799989
 31
0.0
  0
LINE
  5
13B
330
F3
100
AcDbEntity
  8
AM_4
100
AcDbLine
 10
0.04132185
 20
-2.532894622799989
 30
0.0
 11
0.03213922
 21
-2.538721525499982
 31
0.0
  0
LINE
  5
13C
330
F3
100
AcDbEntity
  8
AM_4
100
AcDbLine
 10
0.03213922
 20
-2.538721525499982
 30
0.0
 11
0.01989571
 21
-2.541634975599993
 31
0.0
  0
LINE
  5
13D
330
F3
100
AcDbEntity
  8
AM_4
100
AcDbLine
 10
0.01989571
 20
-2.541634975599993
 30
0.0
 11
-0.035200086200065
 21
-2.541634975599993
 31
0.0
  0
LINE
  5
13E
330
F3
100
AcDbEntity
  8
AM_4
100
AcDbLine
 10
-0.1729395605000277
 20
-2.44840458
 30
0.0
 11
-0.1637569336000434
 21
-2.44257768
 31
0.0
  0
LINE
  5
13F
330
F3
100
AcDbEntity
  8
AM_4
100
AcDbLine
 10
-0.1790613334000591
 20
-2.45714493
 30
0.0
 11
-0.1729395605000277
 21
-2.44840458
 31
0.0
  0
LINE
  5
140
330
F3
100
AcDbEntity
  8
AM_4
100
AcDbLine
 10
-0.1270264042000257
 20
-2.43966423
 30
0.0
 11
-0.1147829015999969
 21
-2.44257768
 31
0.0
  0
LINE
  5
141
330
F3
100
AcDbEntity
  8
AM_4
100
AcDbLine
 10
-0.1637569336000434
 20
-2.44257768
 30
0.0
 11
-0.1515134310000146
 21
-2.43966423
 31
0.0
  0
LINE
  5
142
330
F3
100
AcDbEntity
  8
AM_4
100
AcDbLine
 10
-0.1515134310000146
 20
-2.43966423
 30
0.0
 11
-0.1270264042000257
 21
-2.43966423
 31
0.0
  0
LINE
  5
143
330
F3
100
AcDbEntity
  8
AM_4
100
AcDbLine
 10
-0.1821222090000572
 20
-2.46879873
 30
0.0
 11
-0.1790613334000591
 21
-2.45714493
 31
0.0
  0
LINE
  5
144
330
F3
100
AcDbEntity
  8
AM_4
100
AcDbLine
 10
-0.1821222090000572
 20
-2.512500475300004
 30
0.0
 11
-0.1821222090000572
 21
-2.46879873
 31
0.0
  0
LINE
  5
145
330
F3
100
AcDbEntity
  8
AM_4
100
AcDbLine
 10
-0.1790613334000591
 20
-2.524154275399996
 30
0.0
 11
-0.1821222090000572
 21
-2.512500475300004
 31
0.0
  0
LINE
  5
146
330
F3
100
AcDbEntity
  8
AM_4
100
AcDbLine
 10
-0.1729395605000277
 20
-2.532894622799989
 30
0.0
 11
-0.1790613334000591
 21
-2.524154275399996
 31
0.0
  0
LINE
  5
147
330
F3
100
AcDbEntity
  8
AM_4
100
AcDbLine
 10
-0.1637569336000434
 20
-2.538721525499982
 30
0.0
 11
-0.1729395605000277
 21
-2.532894622799989
 31
0.0
  0
LINE
  5
148
330
F3
100
AcDbEntity
  8
AM_4
100
AcDbLine
 10
-0.1515134310000146
 20
-2.541634975599993
 30
0.0
 11
-0.1637569336000434
 21
-2.538721525499982
 31
0.0
  0
LINE
  5
149
330
F3
100
AcDbEntity
  8
AM_4
100
AcDbLine
 10
-0.1270264042000257
 20
-2.541634975599993
 30
0.0
 11
-0.1515134310000146
 21
-2.541634975599993
 31
0.0
  0
LINE
  5
14A
330
F3
100
AcDbEntity
  8
AM_4
100
AcDbLine
 10
-0.1147829015999969
 20
-2.538721525499982
 30
0.0
 11
-0.1270264042000257
 21
-2.541634975599993
 31
0.0
  0
LINE
  5
14B
330
F3
100
AcDbEntity
  8
AM_4
100
AcDbLine
 10
-0.1056002639000449
 20
-2.532894622799989
 30
0.0
 11
-0.1147829015999969
 21
-2.538721525499982
 31
0.0
  0
LINE
  5
14C
330
F3
100
AcDbEntity
  8
AM_4
100
AcDbLine
 10
-0.0994785126000024
 20
-2.524154275399996
 30
0.0
 11
-0.1056002639000449
 21
-2.532894622799989
 31
0.0
  0
LINE
  5
14D
330
F3
100
AcDbEntity
  8
AM_4
100
AcDbLine
 10
-0.0964176369000162
 20
-2.512500475300004
 30
0.0
 11
-0.0994785126000024
 21
-2.524154275399996
 31
0.0
  0
LINE
  5
14E
330
F3
100
AcDbEntity
  8
AM_4
100
AcDbLine
 10
-0.0964176369000162
 20
-2.46879873
 30
0.0
 11
-0.0964176369000162
 21
-2.512500475300004
 31
0.0
  0
LINE
  5
14F
330
F3
100
AcDbEntity
  8
AM_4
100
AcDbLine
 10
-0.0994785126000024
 20
-2.45714493
 30
0.0
 11
-0.0964176369000162
 21
-2.46879873
 31
0.0
  0
LINE
  5
150
330
F3
100
AcDbEntity
  8
AM_4
100
AcDbLine
 10
-0.1056002639000449
 20
-2.44840458
 30
0.0
 11
-0.0994785126000024
 21
-2.45714493
 31
0.0
  0
LINE
  5
151
330
F3
100
AcDbEntity
  8
AM_4
100
AcDbLine
 10
-0.1147829015999969
 20
-2.44257768
 30
0.0
 11
-0.1056002639000449
 21
-2.44840458
 31
0.0
  0
LINE
  5
152
330
F3
100
AcDbEntity
  8
AM_4
100
AcDbLine
 10
-0.347409580399984
 20
-2.42218353
 30
0.0
 11
-0.2739485216999935
 21
-2.42218353
 31
0.0
  0
LINE
  5
153
330
F3
100
AcDbEntity
  8
AM_4
100
AcDbLine
 10
-0.258644143400034
 20
-2.556202220400013
 30
0.0
 11
-0.2739485216999935
 21
-2.559115670400006
 31
0.0
  0
LINE
  5
154
330
F3
100
AcDbEntity
  8
AM_4
100
AcDbLine
 10
0.18518309
 20
-2.556202220400013
 30
0.0
 11
0.1698787
 21
-2.559115670400006
 31
0.0
  0
LINE
  5
155
330
F3
100
AcDbEntity
  8
AM_4
100
AcDbLine
 10
-0.2464006193000068
 20
-2.550375320300008
 30
0.0
 11
-0.258644143400034
 21
-2.556202220400013
 31
0.0
  0
LINE
  5
156
330
F3
100
AcDbEntity
  8
AM_4
100
AcDbLine
 10
-0.234157116700034
 20
-2.538721525499982
 30
0.0
 11
-0.2464006193000068
 21
-2.550375320300008
 31
0.0
  0
LINE
  5
157
330
F3
100
AcDbEntity
  8
AM_4
100
AcDbLine
 10
-0.2280353653999914
 20
-2.52706772539999
 30
0.0
 11
-0.234157116700034
 21
-2.538721525499982
 31
0.0
  0
LINE
  5
158
330
F3
100
AcDbEntity
  8
AM_4
100
AcDbLine
 10
-0.347409580399984
 20
-2.559115670400006
 30
0.0
 11
-0.347409580399984
 21
-2.42218353
 31
0.0
  0
LINE
  5
159
330
F3
100
AcDbEntity
  8
AM_4
100
AcDbLine
 10
-0.2739485216999935
 20
-2.559115670400006
 30
0.0
 11
-0.347409580399984
 21
-2.559115670400006
 31
0.0
  0
LINE
  5
15A
330
F3
100
AcDbEntity
  8
AM_4
100
AcDbLine
 10
-0.2739485216999935
 20
-2.42218353
 30
0.0
 11
-0.258644143400034
 21
-2.42509698
 31
0.0
  0
LINE
  5
15B
330
F3
100
AcDbEntity
  8
AM_4
100
AcDbLine
 10
-0.258644143400034
 20
-2.42509698
 30
0.0
 11
-0.2464006193000068
 21
-2.43092388
 31
0.0
  0
LINE
  5
15C
330
F3
100
AcDbEntity
  8
AM_4
100
AcDbLine
 10
-0.2464006193000068
 20
-2.43092388
 30
0.0
 11
-0.234157116700034
 21
-2.44257768
 31
0.0
  0
LINE
  5
15D
330
F3
100
AcDbEntity
  8
AM_4
100
AcDbLine
 10
-0.234157116700034
 20
-2.44257768
 30
0.0
 11
-0.2280353653999914
 21
-2.45423148
 31
0.0
  0
LINE
  5
15E
330
F3
100
AcDbEntity
  8
AM_4
100
AcDbLine
 10
-0.2280353653999914
 20
-2.45423148
 30
0.0
 11
-0.2249744897000611
 21
-2.46879873
 31
0.0
  0
LINE
  5
15F
330
F3
100
AcDbEntity
  8
AM_4
100
AcDbLine
 10
-0.2249744897000611
 20
-2.46879873
 30
0.0
 11
-0.2249744897000611
 21
-2.512500475300004
 31
0.0
  0
LINE
  5
160
330
F3
100
AcDbEntity
  8
AM_4
100
AcDbLine
 10
-0.2249744897000611
 20
-2.512500475300004
 30
0.0
 11
-0.2280353653999914
 21
-2.52706772539999
 31
0.0
  0
LINE
  5
161
330
F3
100
AcDbEntity
  8
AM_4
100
AcDbLine
 10
-0.2004874629000166
 20
-2.512500475300004
 30
0.0
 11
-0.2004874629000166
 21
-2.46879873
 31
0.0
  0
LINE
  5
162
330
F3
100
AcDbEntity
  8
AM_4
100
AcDbLine
 10
-0.2004874629000166
 20
-2.46879873
 30
0.0
 11
-0.1974265873000162
 21
-2.45423148
 31
0.0
  0
LINE
  5
163
330
F3
100
AcDbEntity
  8
AM_4
100
AcDbLine
 10
-0.1974265873000162
 20
-2.45423148
 30
0.0
 11
-0.19130483600003
 21
-2.44257768
 31
0.0
  0
LINE
  5
164
330
F3
100
AcDbEntity
  8
AM_4
100
AcDbLine
 10
-0.19130483600003
 20
-2.44257768
 30
0.0
 11
-0.1790613334000591
 21
-2.43092388
 31
0.0
  0
LINE
  5
165
330
F3
100
AcDbEntity
  8
AM_4
100
AcDbLine
 10
-0.1790613334000591
 20
-2.43092388
 30
0.0
 11
-0.1668178092000414
 21
-2.42509698
 31
0.0
  0
LINE
  5
166
330
F3
100
AcDbEntity
  8
AM_4
100
AcDbLine
 10
-0.1668178092000414
 20
-2.42509698
 30
0.0
 11
-0.1515134310000146
 21
-2.42218353
 31
0.0
  0
LINE
  5
167
330
F3
100
AcDbEntity
  8
AM_4
100
AcDbLine
 10
-0.1515134310000146
 20
-2.42218353
 30
0.0
 11
-0.1270264042000257
 21
-2.42218353
 31
0.0
  0
LINE
  5
168
330
F3
100
AcDbEntity
  8
AM_4
100
AcDbLine
 10
-0.1270264042000257
 20
-2.42218353
 30
0.0
 11
-0.1117220152000316
 21
-2.42509698
 31
0.0
  0
LINE
  5
169
330
F3
100
AcDbEntity
  8
AM_4
100
AcDbLine
 10
-0.1117220152000316
 20
-2.42509698
 30
0.0
 11
-0.0994785126000024
 21
-2.43092388
 31
0.0
  0
LINE
  5
16A
330
F3
100
AcDbEntity
  8
AM_4
100
AcDbLine
 10
-0.0994785126000024
 20
-2.43092388
 30
0.0
 11
-0.0872349992000083
 21
-2.44257768
 31
0.0
  0
LINE
  5
16B
330
F3
100
AcDbEntity
  8
AM_4
100
AcDbLine
 10
-0.0872349992000083
 20
-2.44257768
 30
0.0
 11
-0.0811132479000217
 21
-2.45423148
 31
0.0
  0
LINE
  5
16C
330
F3
100
AcDbEntity
  8
AM_4
100
AcDbLine
 10
-0.0811132479000217
 20
-2.45423148
 30
0.0
 11
-0.0780523722000355
 21
-2.46879873
 31
0.0
  0
LINE
  5
16D
330
F3
100
AcDbEntity
  8
AM_4
100
AcDbLine
 10
-0.0780523722000355
 20
-2.46879873
 30
0.0
 11
-0.0780523722000355
 21
-2.512500475300004
 31
0.0
  0
LINE
  5
16E
330
F3
100
AcDbEntity
  8
AM_4
100
AcDbLine
 10
-0.0780523722000355
 20
-2.512500475300004
 30
0.0
 11
-0.0811132479000217
 21
-2.52706772539999
 31
0.0
  0
LINE
  5
16F
330
F3
100
AcDbEntity
  8
AM_4
100
AcDbLine
 10
-0.0811132479000217
 20
-2.52706772539999
 30
0.0
 11
-0.0872349992000083
 21
-2.538721525499982
 31
0.0
  0
LINE
  5
170
330
F3
100
AcDbEntity
  8
AM_4
100
AcDbLine
 10
-0.0872349992000083
 20
-2.538721525499982
 30
0.0
 11
-0.0994785126000024
 21
-2.550375320300008
 31
0.0
  0
LINE
  5
171
330
F3
100
AcDbEntity
  8
AM_4
100
AcDbLine
 10
-0.0994785126000024
 20
-2.550375320300008
 30
0.0
 11
-0.1117220152000316
 21
-2.556202220400013
 31
0.0
  0
LINE
  5
172
330
F3
100
AcDbEntity
  8
AM_4
100
AcDbLine
 10
-0.1117220152000316
 20
-2.556202220400013
 30
0.0
 11
-0.1270264042000257
 21
-2.559115670400006
 31
0.0
  0
LINE
  5
173
330
F3
100
AcDbEntity
  8
AM_4
100
AcDbLine
 10
-0.1270264042000257
 20
-2.559115670400006
 30
0.0
 11
-0.1515134310000146
 21
-2.559115670400006
 31
0.0
  0
LINE
  5
174
330
F3
100
AcDbEntity
  8
AM_4
100
AcDbLine
 10
-0.1515134310000146
 20
-2.559115670400006
 30
0.0
 11
-0.1668178092000414
 21
-2.556202220400013
 31
0.0
  0
LINE
  5
175
330
F3
100
AcDbEntity
  8
AM_4
100
AcDbLine
 10
-0.1668178092000414
 20
-2.556202220400013
 30
0.0
 11
-0.1790613334000591
 21
-2.550375320300008
 31
0.0
  0
LINE
  5
176
330
F3
100
AcDbEntity
  8
AM_4
100
AcDbLine
 10
-0.1790613334000591
 20
-2.550375320300008
 30
0.0
 11
-0.19130483600003
 21
-2.538721525499982
 31
0.0
  0
LINE
  5
177
330
F3
100
AcDbEntity
  8
AM_4
100
AcDbLine
 10
-0.19130483600003
 20
-2.538721525499982
 30
0.0
 11
-0.1974265873000162
 21
-2.52706772539999
 31
0.0
  0
LINE
  5
178
330
F3
100
AcDbEntity
  8
AM_4
100
AcDbLine
 10
-0.1974265873000162
 20
-2.52706772539999
 30
0.0
 11
-0.2004874629000166
 21
-2.512500475300004
 31
0.0
  0
LINE
  5
179
330
F3
100
AcDbEntity
  8
AM_4
100
AcDbLine
 10
0.01989571
 20
-2.559115670400006
 30
0.0
 11
-0.0535653508999878
 21
-2.559115670400006
 31
0.0
  0
LINE
  5
17A
330
F3
100
AcDbEntity
  8
AM_4
100
AcDbLine
 10
-0.0535653508999878
 20
-2.559115670400006
 30
0.0
 11
-0.0535653508999878
 21
-2.42218353
 31
0.0
  0
LINE
  5
17B
330
F3
100
AcDbEntity
  8
AM_4
100
AcDbLine
 10
-0.0535653508999878
 20
-2.42218353
 30
0.0
 11
0.01989571
 21
-2.42218353
 31
0.0
  0
LINE
  5
17C
330
F3
100
AcDbEntity
  8
AM_4
100
AcDbLine
 10
0.01989571
 20
-2.42218353
 30
0.0
 11
0.0352001
 21
-2.42509698
 31
0.0
  0
LINE
  5
17D
330
F3
100
AcDbEntity
  8
AM_4
100
AcDbLine
 10
0.0352001
 20
-2.42509698
 30
0.0
 11
0.04744361
 21
-2.43092388
 31
0.0
  0
LINE
  5
17E
330
F3
100
AcDbEntity
  8
AM_4
100
AcDbLine
 10
0.04744361
 20
-2.43092388
 30
0.0
 11
0.05968711
 21
-2.44257768
 31
0.0
  0
LINE
  5
17F
330
F3
100
AcDbEntity
  8
AM_4
100
AcDbLine
 10
0.05968711
 20
-2.44257768
 30
0.0
 11
0.06580887
 21
-2.45423148
 31
0.0
  0
LINE
  5
180
330
F3
100
AcDbEntity
  8
AM_4
100
AcDbLine
 10
0.06580887
 20
-2.45423148
 30
0.0
 11
0.06886975
 21
-2.46879873
 31
0.0
  0
LINE
  5
181
330
F3
100
AcDbEntity
  8
AM_4
100
AcDbLine
 10
0.06886975
 20
-2.46879873
 30
0.0
 11
0.06886975
 21
-2.512500475300004
 31
0.0
  0
LINE
  5
182
330
F3
100
AcDbEntity
  8
AM_4
100
AcDbLine
 10
0.06886975
 20
-2.512500475300004
 30
0.0
 11
0.06580887
 21
-2.52706772539999
 31
0.0
  0
LINE
  5
183
330
F3
100
AcDbEntity
  8
AM_4
100
AcDbLine
 10
0.06580887
 20
-2.52706772539999
 30
0.0
 11
0.05968711
 21
-2.538721525499982
 31
0.0
  0
LINE
  5
184
330
F3
100
AcDbEntity
  8
AM_4
100
AcDbLine
 10
0.05968711
 20
-2.538721525499982
 30
0.0
 11
0.04744361
 21
-2.550375320300008
 31
0.0
  0
LINE
  5
185
330
F3
100
AcDbEntity
  8
AM_4
100
AcDbLine
 10
0.04744361
 20
-2.550375320300008
 30
0.0
 11
0.0352001
 21
-2.556202220400013
 31
0.0
  0
LINE
  5
186
330
F3
100
AcDbEntity
  8
AM_4
100
AcDbLine
 10
0.0352001
 20
-2.556202220400013
 30
0.0
 11
0.01989571
 21
-2.559115670400006
 31
0.0
  0
LINE
  5
187
330
F3
100
AcDbEntity
  8
AM_4
100
AcDbLine
 10
0.09335677
 20
-2.512500475300004
 30
0.0
 11
0.09335677
 21
-2.46879873
 31
0.0
  0
LINE
  5
188
330
F3
100
AcDbEntity
  8
AM_4
100
AcDbLine
 10
0.09335677
 20
-2.46879873
 30
0.0
 11
0.09641765
 21
-2.45423148
 31
0.0
  0
LINE
  5
189
330
F3
100
AcDbEntity
  8
AM_4
100
AcDbLine
 10
0.09641765
 20
-2.45423148
 30
0.0
 11
0.1025393999999999
 21
-2.44257768
 31
0.0
  0
LINE
  5
18A
330
F3
100
AcDbEntity
  8
AM_4
100
AcDbLine
 10
0.1025393999999999
 20
-2.44257768
 30
0.0
 11
0.11478291
 21
-2.43092388
 31
0.0
  0
LINE
  5
18B
330
F3
100
AcDbEntity
  8
AM_4
100
AcDbLine
 10
0.11478291
 20
-2.43092388
 30
0.0
 11
0.12702642
 21
-2.42509698
 31
0.0
  0
LINE
  5
18C
330
F3
100
AcDbEntity
  8
AM_4
100
AcDbLine
 10
0.12702642
 20
-2.42509698
 30
0.0
 11
0.14233081
 21
-2.42218353
 31
0.0
  0
LINE
  5
18D
330
F3
100
AcDbEntity
  8
AM_4
100
AcDbLine
 10
0.14233081
 20
-2.42218353
 30
0.0
 11
0.1698787
 21
-2.42218353
 31
0.0
  0
LINE
  5
18E
330
F3
100
AcDbEntity
  8
AM_4
100
AcDbLine
 10
0.1698787
 20
-2.42218353
 30
0.0
 11
0.18518309
 21
-2.42509698
 31
0.0
  0
LINE
  5
18F
330
F3
100
AcDbEntity
  8
AM_4
100
AcDbLine
 10
0.18518309
 20
-2.42509698
 30
0.0
 11
0.19742659
 21
-2.43092388
 31
0.0
  0
LINE
  5
190
330
F3
100
AcDbEntity
  8
AM_4
100
AcDbLine
 10
0.19742659
 20
-2.43092388
 30
0.0
 11
0.20967012
 21
-2.44257768
 31
0.0
  0
LINE
  5
191
330
F3
100
AcDbEntity
  8
AM_4
100
AcDbLine
 10
0.20967012
 20
-2.44257768
 30
0.0
 11
0.21273099
 21
-2.45714493
 31
0.0
  0
LINE
  5
192
330
F3
100
AcDbEntity
  8
AM_4
100
AcDbLine
 10
0.21273099
 20
-2.45714493
 30
0.0
 11
0.19436572
 21
-2.45714493
 31
0.0
  0
LINE
  5
193
330
F3
100
AcDbEntity
  8
AM_4
100
AcDbLine
 10
0.19436572
 20
-2.45714493
 30
0.0
 11
0.19130484
 21
-2.44840458
 31
0.0
  0
LINE
  5
194
330
F3
100
AcDbEntity
  8
AM_4
100
AcDbLine
 10
0.19130484
 20
-2.44840458
 30
0.0
 11
0.18212221
 21
-2.44257768
 31
0.0
  0
LINE
  5
195
330
F3
100
AcDbEntity
  8
AM_4
100
AcDbLine
 10
0.18212221
 20
-2.44257768
 30
0.0
 11
0.1698787
 21
-2.43966423
 31
0.0
  0
LINE
  5
196
330
F3
100
AcDbEntity
  8
AM_4
100
AcDbLine
 10
0.1698787
 20
-2.43966423
 30
0.0
 11
0.14233081
 21
-2.43966423
 31
0.0
  0
LINE
  5
197
330
F3
100
AcDbEntity
  8
AM_4
100
AcDbLine
 10
0.14233081
 20
-2.43966423
 30
0.0
 11
0.13008729
 21
-2.44257768
 31
0.0
  0
LINE
  5
198
330
F3
100
AcDbEntity
  8
AM_4
100
AcDbLine
 10
0.13008729
 20
-2.44257768
 30
0.0
 11
0.12090467
 21
-2.44840458
 31
0.0
  0
LINE
  5
199
330
F3
100
AcDbEntity
  8
AM_4
100
AcDbLine
 10
0.12090467
 20
-2.44840458
 30
0.0
 11
0.11478291
 21
-2.45714493
 31
0.0
  0
LINE
  5
19A
330
F3
100
AcDbEntity
  8
AM_4
100
AcDbLine
 10
0.11478291
 20
-2.45714493
 30
0.0
 11
0.11172203
 21
-2.46879873
 31
0.0
  0
LINE
  5
19B
330
F3
100
AcDbEntity
  8
AM_4
100
AcDbLine
 10
0.11172203
 20
-2.46879873
 30
0.0
 11
0.11172203
 21
-2.512500475300004
 31
0.0
  0
LINE
  5
19C
330
F3
100
AcDbEntity
  8
AM_4
100
AcDbLine
 10
0.11172203
 20
-2.512500475300004
 30
0.0
 11
0.11478291
 21
-2.524154275399996
 31
0.0
  0
LINE
  5
19D
330
F3
100
AcDbEntity
  8
AM_4
100
AcDbLine
 10
0.11478291
 20
-2.524154275399996
 30
0.0
 11
0.12090467
 21
-2.532894622799989
 31
0.0
  0
LINE
  5
19E
330
F3
100
AcDbEntity
  8
AM_4
100
AcDbLine
 10
0.12090467
 20
-2.532894622799989
 30
0.0
 11
0.13008729
 21
-2.538721525499982
 31
0.0
  0
LINE
  5
19F
330
F3
100
AcDbEntity
  8
AM_4
100
AcDbLine
 10
0.13008729
 20
-2.538721525499982
 30
0.0
 11
0.14233081
 21
-2.541634975599993
 31
0.0
  0
LINE
  5
1A0
330
F3
100
AcDbEntity
  8
AM_4
100
AcDbLine
 10
0.14233081
 20
-2.541634975599993
 30
0.0
 11
0.1698787
 21
-2.541634975599993
 31
0.0
  0
LINE
  5
1A1
330
F3
100
AcDbEntity
  8
AM_4
100
AcDbLine
 10
0.1698787
 20
-2.541634975599993
 30
0.0
 11
0.18212221
 21
-2.538721525499982
 31
0.0
  0
LINE
  5
1A2
330
F3
100
AcDbEntity
  8
AM_4
100
AcDbLine
 10
0.18212221
 20
-2.538721525499982
 30
0.0
 11
0.19130484
 21
-2.532894622799989
 31
0.0
  0
LINE
  5
1A3
330
F3
100
AcDbEntity
  8
AM_4
100
AcDbLine
 10
0.19130484
 20
-2.532894622799989
 30
0.0
 11
0.19436572
 21
-2.524154275399996
 31
0.0
  0
LINE
  5
1A4
330
F3
100
AcDbEntity
  8
AM_4
100
AcDbLine
 10
0.19436572
 20
-2.524154275399996
 30
0.0
 11
0.19436572
 21
-2.500846675799994
 31
0.0
  0
LINE
  5
1A5
330
F3
100
AcDbEntity
  8
AM_4
100
AcDbLine
 10
0.19436572
 20
-2.500846675799994
 30
0.0
 11
0.16681783
 21
-2.500846675799994
 31
0.0
  0
LINE
  5
1A6
330
F3
100
AcDbEntity
  8
AM_4
100
AcDbLine
 10
0.16681783
 20
-2.500846675799994
 30
0.0
 11
0.16681783
 21
-2.48336598
 31
0.0
  0
LINE
  5
1A7
330
F3
100
AcDbEntity
  8
AM_4
100
AcDbLine
 10
0.16681783
 20
-2.48336598
 30
0.0
 11
0.21273099
 21
-2.48336598
 31
0.0
  0
LINE
  5
1A8
330
F3
100
AcDbEntity
  8
AM_4
100
AcDbLine
 10
0.21273099
 20
-2.48336598
 30
0.0
 11
0.21273099
 21
-2.52706772539999
 31
0.0
  0
LINE
  5
1A9
330
F3
100
AcDbEntity
  8
AM_4
100
AcDbLine
 10
0.21273099
 20
-2.52706772539999
 30
0.0
 11
0.20967012
 21
-2.538721525499982
 31
0.0
  0
LINE
  5
1AA
330
F3
100
AcDbEntity
  8
AM_4
100
AcDbLine
 10
0.20967012
 20
-2.538721525499982
 30
0.0
 11
0.19742659
 21
-2.550375320300008
 31
0.0
  0
LINE
  5
1AB
330
F3
100
AcDbEntity
  8
AM_4
100
AcDbLine
 10
0.19742659
 20
-2.550375320300008
 30
0.0
 11
0.18518309
 21
-2.556202220400013
 31
0.0
  0
LINE
  5
1AC
330
F3
100
AcDbEntity
  8
AM_4
100
AcDbLine
 10
0.1698787
 20
-2.559115670400006
 30
0.0
 11
0.14233081
 21
-2.559115670400006
 31
0.0
  0
LINE
  5
1AD
330
F3
100
AcDbEntity
  8
AM_4
100
AcDbLine
 10
0.14233081
 20
-2.559115670400006
 30
0.0
 11
0.12702642
 21
-2.556202220400013
 31
0.0
  0
LINE
  5
1AE
330
F3
100
AcDbEntity
  8
AM_4
100
AcDbLine
 10
0.12702642
 20
-2.556202220400013
 30
0.0
 11
0.11478291
 21
-2.550375320300008
 31
0.0
  0
LINE
  5
1AF
330
F3
100
AcDbEntity
  8
AM_4
100
AcDbLine
 10
0.11478291
 20
-2.550375320300008
 30
0.0
 11
0.1025394
 21
-2.538721525499982
 31
0.0
  0
LINE
  5
1B0
330
F3
100
AcDbEntity
  8
AM_4
100
AcDbLine
 10
0.1025394
 20
-2.538721525499982
 30
0.0
 11
0.09641765
 21
-2.52706772539999
 31
0.0
  0
LINE
  5
1B1
330
F3
100
AcDbEntity
  8
AM_4
100
AcDbLine
 10
0.09641765
 20
-2.52706772539999
 30
0.0
 11
0.09335677
 21
-2.512500475300004
 31
0.0
  0
LINE
  5
1B2
330
F3
100
AcDbEntity
  8
AM_4
100
AcDbLine
 10
0.34740959
 20
-2.559115670400006
 30
0.0
 11
0.237218
 21
-2.559115670400006
 31
0.0
  0
LINE
  5
1B3
330
F3
100
AcDbEntity
  8
AM_4
100
AcDbLine
 10
0.237218
 20
-2.559115670400006
 30
0.0
 11
0.237218
 21
-2.42218353
 31
0.0
  0
LINE
  5
1B4
330
F3
100
AcDbEntity
  8
AM_4
100
AcDbLine
 10
0.237218
 20
-2.42218353
 30
0.0
 11
0.34740959
 21
-2.42218353
 31
0.0
  0
LINE
  5
1B5
330
F3
100
AcDbEntity
  8
AM_4
100
AcDbLine
 10
0.34740959
 20
-2.42218353
 30
0.0
 11
0.34740959
 21
-2.43966423
 31
0.0
  0
LINE
  5
1B6
330
F3
100
AcDbEntity
  8
AM_4
100
AcDbLine
 10
0.34740959
 20
-2.43966423
 30
0.0
 11
0.25558328
 21
-2.43966423
 31
0.0
  0
LINE
  5
1B7
330
F3
100
AcDbEntity
  8
AM_4
100
AcDbLine
 10
0.25558328
 20
-2.43966423
 30
0.0
 11
0.25558328
 21
-2.47753908
 31
0.0
  0
LINE
  5
1B8
330
F3
100
AcDbEntity
  8
AM_4
100
AcDbLine
 10
0.25558328
 20
-2.47753908
 30
0.0
 11
0.33516609
 21
-2.47753908
 31
0.0
  0
LINE
  5
1B9
330
F3
100
AcDbEntity
  8
AM_4
100
AcDbLine
 10
0.33516609
 20
-2.47753908
 30
0.0
 11
0.33516609
 21
-2.495019776400017
 31
0.0
  0
LINE
  5
1BA
330
F3
100
AcDbEntity
  8
AM_4
100
AcDbLine
 10
0.33516609
 20
-2.495019776400017
 30
0.0
 11
0.25558328
 21
-2.495019776400017
 31
0.0
  0
LINE
  5
1BB
330
F3
100
AcDbEntity
  8
AM_4
100
AcDbLine
 10
0.25558328
 20
-2.495019776400017
 30
0.0
 11
0.25558328
 21
-2.541634975599993
 31
0.0
  0
LINE
  5
1BC
330
F3
100
AcDbEntity
  8
AM_4
100
AcDbLine
 10
0.25558328
 20
-2.541634975599993
 30
0.0
 11
0.34740959
 21
-2.541634975599993
 31
0.0
  0
LINE
  5
1BD
330
F3
100
AcDbEntity
  8
AM_4
100
AcDbLine
 10
0.34740959
 20
-2.541634975599993
 30
0.0
 11
0.34740959
 21
-2.559115670400006
 31
0.0
  0
LINE
  5
1BE
330
F3
100
AcDbEntity
  8
AM_4
100
AcDbLine
 10
-0.1037401613604321
 20
2.6875
 30
0.0
 11
-2.0625
 21
2.6875
 31
0.0
  0
LINE
  5
1BF
330
F3
100
AcDbEntity
  8
AM_4
100
AcDbLine
 10
2.0625
 20
2.6875
 30
0.0
 11
0.1037401613604325
 21
2.6875
 31
0.0
  0
ARC
  5
1C0
330
F3
100
AcDbEntity
  8
AM_4
100
AcDbCircle
 10
-0.7065790750201308
 20
2.157231098130672
 30
0.0
 40
0.1249999999994927
100
AcDbArc
 50
239.9999999999874
 51
243.3744651102439
  0
ARC
  5
1C1
330
F3
100
AcDbEntity
  8
AM_4
100
AcDbCircle
 10
-2.157231098131887
 20
0.7065790750194918
 30
0.0
 40
0.1250000000008649
100
AcDbArc
 50
26.62553488944107
 51
29.99999999998817
  0
ARC
  5
1C2
330
F3
100
AcDbEntity
  8
AM_4
100
AcDbCircle
 10
-2.06250000000001
 20
2.062499999999982
 30
0.0
 40
0.635000000000021
100
AcDbArc
 50
60.00000000000004
 51
79.81825161166236
  0
LINE
  5
1C3
330
F3
100
AcDbEntity
  8
AM_4
100
AcDbLine
 10
-1.745
 20
2.612426131403119
 30
0.0
 11
-0.769079075019901
 21
2.048977922658071
 31
0.0
  0
LINE
  5
1C4
330
F3
100
AcDbEntity
  8
AM_4
100
AcDbLine
 10
-2.04897792265807
 20
0.7690790750199019
 30
0.0
 11
-2.612426131403119
 21
1.745
 31
0.0
  0
ARC
  5
1C5
330
F3
100
AcDbEntity
  8
AM_4
100
AcDbCircle
 10
-2.062499999999999
 20
2.0625
 30
0.0
 40
0.6250000000000009
100
AcDbArc
 50
90.0
 51
180.0
  0
CIRCLE
  5
1C6
330
F3
100
AcDbEntity
  8
AM_4
100
AcDbCircle
 10
-2.0625
 20
2.0625
 30
0.0
 40
0.25
  0
ARC
  5
1C7
330
F3
100
AcDbEntity
  8
AM_4
100
AcDbCircle
 10
-2.062499999999978
 20
2.062500000000012
 30
0.0
 40
0.6350000000000253
100
AcDbArc
 50
190.1817483883374
 51
209.9999999999999
  0
ARC
  5
1C8
330
F3
100
AcDbEntity
  8
AM_4
100
AcDbCircle
 10
2.157231098130937
 20
0.7065790750199809
 30
0.0
 40
0.1249999999997974
100
AcDbArc
 50
149.9999999999885
 51
153.3744651102471
  0
ARC
  5
1C9
330
F3
100
AcDbEntity
  8
AM_4
100
AcDbCircle
 10
0.706579075019493
 20
2.157231098131884
 30
0.0
 40
0.1250000000008615
100
AcDbArc
 50
296.6255348894412
 51
299.9999999999883
  0
ARC
  5
1CA
330
F3
100
AcDbEntity
  8
AM_4
100
AcDbCircle
 10
2.0625
 20
2.062499999999999
 30
0.0
 40
0.6250000000000009
100
AcDbArc
 50
0.0
 51
90.0
  0
LINE
  5
1CB
330
F3
100
AcDbEntity
  8
AM_4
100
AcDbLine
 10
0.7690790750199015
 20
2.04897792265807
 30
0.0
 11
1.745
 21
2.612426131403119
 31
0.0
  0
ARC
  5
1CC
330
F3
100
AcDbEntity
  8
AM_4
100
AcDbCircle
 10
2.062500000000004
 20
2.062499999999996
 30
0.0
 40
0.6350000000000058
100
AcDbArc
 50
100.1817483883372
 51
120.0000000000002
  0
LINE
  5
1CD
330
F3
100
AcDbEntity
  8
AM_4
100
AcDbLine
 10
2.612426131403119
 20
1.745
 30
0.0
 11
2.048977922658071
 21
0.7690790750199012
 31
0.0
  0
ARC
  5
1CE
330
F3
100
AcDbEntity
  8
AM_4
100
AcDbCircle
 10
2.062499999999992
 20
2.062500000000006
 30
0.0
 40
0.6350000000000108
100
AcDbArc
 50
329.9999999999999
 51
349.8182516116626
  0
CIRCLE
  5
1CF
330
F3
100
AcDbEntity
  8
AM_4
100
AcDbCircle
 10
2.0625
 20
2.0625
 30
0.0
 40
0.25
  0
LINE
  5
1D0
330
F3
100
AcDbEntity
  8
AM_4
100
AcDbLine
 10
2.6875
 20
2.0625
 30
0.0
 11
2.6875
 21
-2.0625
 31
0.0
  0
ARC
  5
1D1
330
F3
100
AcDbEntity
  8
AM_4
100
AcDbCircle
 10
0.7065790750200955
 20
-2.157231098130731
 30
0.0
 40
0.124999999999561
100
AcDbArc
 50
59.99999999998684
 51
63.37446511025178
  0
ARC
  5
1D2
330
F3
100
AcDbEntity
  8
AM_4
100
AcDbCircle
 10
2.157231098130671
 20
-0.7065790750201466
 30
0.0
 40
0.1249999999994845
100
AcDbArc
 50
206.6255348894225
 51
210.0000000000069
  0
ARC
  5
1D3
330
F3
100
AcDbEntity
  8
AM_4
100
AcDbCircle
 10
2.062499999999983
 20
-2.062500000000008
 30
0.0
 40
0.6350000000000188
100
AcDbArc
 50
10.18174838833661
 51
29.99999999999985
  0
CIRCLE
  5
1D4
330
F3
100
AcDbEntity
  8
AM_4
100
AcDbCircle
 10
2.0625
 20
-2.0625
 30
0.0
 40
0.25
  0
LINE
  5
1D5
330
F3
100
AcDbEntity
  8
AM_4
100
AcDbLine
 10
2.04897792265807
 20
-0.7690790750199019
 30
0.0
 11
2.612426131403118
 21
-1.745000000000001
 31
0.0
  0
LINE
  5
1D6
330
F3
100
AcDbEntity
  8
AM_4
100
AcDbLine
 10
1.744999999999999
 20
-2.612426131403119
 30
0.0
 11
0.7690790750199009
 21
-2.048977922658071
 31
0.0
  0
ARC
  5
1D7
330
F3
100
AcDbEntity
  8
AM_4
100
AcDbCircle
 10
2.062500000000001
 20
-2.062500000000004
 30
0.0
 40
0.6349999999999986
100
AcDbArc
 50
239.9999999999997
 51
259.8182516116629
  0
LINE
  5
1D8
330
F3
100
AcDbEntity
  8
AM_4
100
AcDbLine
 10
2.0625
 20
-2.6875
 30
0.0
 11
-2.0625
 21
-2.6875
 31
0.0
  0
ARC
  5
1D9
330
F3
100
AcDbEntity
  8
AM_4
100
AcDbCircle
 10
2.062499999999999
 20
-2.0625
 30
0.0
 40
0.6250000000000009
100
AcDbArc
 50
270.0
 51
0.0
  0
ARC
  5
1DA
330
F3
100
AcDbEntity
  8
AM_4
100
AcDbCircle
 10
-2.157231098130934
 20
-0.7065790750199823
 30
0.0
 40
0.1249999999997939
100
AcDbArc
 50
329.9999999999885
 51
333.374465110247
  0
ARC
  5
1DB
330
F3
100
AcDbEntity
  8
AM_4
100
AcDbCircle
 10
-0.7065790750194918
 20
-2.157231098131887
 30
0.0
 40
0.1250000000008649
100
AcDbArc
 50
116.6255348894411
 51
119.9999999999882
  0
CIRCLE
  5
1DC
330
F3
100
AcDbEntity
  8
AM_4
100
AcDbCircle
 10
-2.0625
 20
-2.0625
 30
0.0
 40
0.25
  0
LINE
  5
1DD
330
F3
100
AcDbEntity
  8
AM_4
100
AcDbLine
 10
-0.7690790750199019
 20
-2.04897792265807
 30
0.0
 11
-1.745
 21
-2.612426131403119
 31
0.0
  0
LINE
  5
1DE
330
F3
100
AcDbEntity
  8
AM_4
100
AcDbLine
 10
-2.612426131403119
 20
-1.744999999999999
 30
0.0
 11
-2.048977922658071
 21
-0.769079075019901
 31
0.0
  0
ARC
  5
1DF
330
F3
100
AcDbEntity
  8
AM_4
100
AcDbCircle
 10
-2.062499999999995
 20
-2.062500000000003
 30
0.0
 40
0.6350000000000068
100
AcDbArc
 50
150.0
 51
169.818251611663
  0
LINE
  5
1E0
330
F3
100
AcDbEntity
  8
AM_4
100
AcDbLine
 10
-2.6875
 20
-2.0625
 30
0.0
 11
-2.6875
 21
2.0625
 31
0.0
  0
ARC
  5
1E1
330
F3
100
AcDbEntity
  8
AM_4
100
AcDbCircle
 10
-2.0625
 20
-2.0625
 30
0.0
 40
0.6250000000000009
100
AcDbArc
 50
180.0
 51
270.0
  0
ARC
  5
1E2
330
F3
100
AcDbEntity
  8
AM_4
100
AcDbCircle
 10
-2.062500000000009
 20
-2.062499999999981
 30
0.0
 40
0.635000000000021
100
AcDbArc
 50
280.1817483883368
 51
299.9999999999998
  0
LWPOLYLINE
  5
1E3
330
F3
100
AcDbEntity
  8
AM_4
100
AcDbPolyline
 90
        6
 70
     0
 43
0.0
 10
2.045486773606738
 20
0.7625987674198835
 10
2.04042307636734
 20
0.7510862210936651
 10
2.033179945246201
 20
0.7219515005904558
 10
2.032374657831166
 20
0.699896204161577
 10
2.035604960797293
 20
0.6777332309994192
 10
2.038440826304486
 20
0.6676705756996386
  0
LWPOLYLINE
  5
1E4
330
F3
100
AcDbEntity
  8
AM_4
100
AcDbPolyline
 90
        6
 70
     0
 43
0.0
 10
-0.7625987674199031
 20
2.045486773606748
 10
-0.7510862210936647
 20
2.04042307636734
 10
-0.7219515005904555
 20
2.033179945246201
 10
-0.6998962041615767
 20
2.032374657831166
 10
-0.677733230999419
 20
2.035604960797293
 10
-0.6676705756996392
 20
2.038440826304486
  0
LWPOLYLINE
  5
1E5
330
F3
100
AcDbEntity
  8
AM_4
100
AcDbPolyline
 90
        6
 70
     0
 43
0.0
 10
-2.045486773606738
 20
-0.7625987674198834
 10
-2.04042307636734
 20
-0.751086221093665
 10
-2.033179945246201
 20
-0.7219515005904558
 10
-2.032374657831166
 20
-0.6998962041615772
 10
-2.035604960797293
 20
-0.6777332309994195
 10
-2.038440826304487
 20
-0.6676705756996365
  0
LWPOLYLINE
  5
1E6
330
F3
100
AcDbEntity
  8
AM_4
100
AcDbPolyline
 90
        6
 70
     0
 43
0.0
 10
0.7625987674198831
 20
-2.045486773606738
 10
0.7510862210936646
 20
-2.040423076367339
 10
0.7219515005904553
 20
-2.033179945246201
 10
0.6998962041615766
 20
-2.032374657831166
 10
0.6777332309994188
 20
-2.035604960797293
 10
0.6676705756996372
 20
-2.038440826304486
  0
ARC
  5
1E7
330
F3
100
AcDbEntity
  8
AM_4
100
AcDbCircle
 10
-0.0000000000023378
 20
0.0000000000098876
 30
0.0
 40
2.144999999989877
100
AcDbArc
 50
98.4435427030147
 51
108.1356827939104
  0
ARC
  5
1E8
330
F3
100
AcDbEntity
  8
AM_4
100
AcDbCircle
 10
0.0000000000024882
 20
-0.0000000000015983
 30
0.0
 40
2.183019244322146
100
AcDbArc
 50
110.446470789283
 51
159.5535292107598
  0
LWPOLYLINE
  5
1E9
330
F3
100
AcDbEntity
  8
AM_4
100
AcDbPolyline
 90
        6
 70
     0
 43
0.0
 10
-2.0384408402434
 20
0.6676705331432417
 10
-2.034397754526792
 20
0.6834064683693807
 10
-2.032219697974762
 20
0.704991857223656
 10
-2.033857579098379
 20
0.7266781994156748
 10
-2.040775667728528
 20
0.7520007959224165
 10
-2.045486773606428
 20
0.7625987674192647
  0
ARC
  5
1EA
330
F3
100
AcDbEntity
  8
AM_4
100
AcDbCircle
 10
0.0000000000001994
 20
-0.0000000000000008
 30
0.0
 40
2.14500000000019
100
AcDbArc
 50
161.8643184022744
 51
198.1356827938857
  0
ARC
  5
1EB
330
F3
100
AcDbEntity
  8
AM_4
100
AcDbCircle
 10
0.0000000000015521
 20
0.0000000000024141
 30
0.0
 40
2.183019244322061
100
AcDbArc
 50
200.4464707892812
 51
249.5535292107603
  0
LWPOLYLINE
  5
1EC
330
F3
100
AcDbEntity
  8
AM_4
100
AcDbPolyline
 90
        6
 70
     0
 43
0.0
 10
-0.6676705331432417
 20
-2.0384408402434
 10
-0.6834064683693807
 20
-2.034397754526792
 10
-0.704991857223656
 20
-2.032219697974762
 10
-0.7266781994156748
 20
-2.033857579098379
 10
-0.7520007959224165
 20
-2.040775667728528
 10
-0.7625987674192647
 20
-2.045486773606428
  0
ARC
  5
1ED
330
F3
100
AcDbEntity
  8
AM_4
100
AcDbCircle
 10
0.0000000000000004
 20
0.0000000000006084
 30
0.0
 40
2.145000000000578
100
AcDbArc
 50
251.8643184022778
 51
288.1356827938824
  0
ARC
  5
1EE
330
F3
100
AcDbEntity
  8
AM_4
100
AcDbCircle
 10
-0.0000000000024127
 20
0.0000000000015505
 30
0.0
 40
2.183019244322058
100
AcDbArc
 50
290.4464707892811
 51
339.5535292107602
  0
LWPOLYLINE
  5
1EF
330
F3
100
AcDbEntity
  8
AM_4
100
AcDbPolyline
 90
        6
 70
     0
 43
0.0
 10
2.038440839423464
 20
-0.6676705356465591
 10
2.034397753646576
 20
-0.6834064730352216
 10
2.032219697898348
 20
-0.7049918636200421
 10
2.033857580449896
 20
-0.7266782077116282
 10
2.04077567030722
 20
-0.7520008025338485
 10
2.045486773606428
 20
-0.7625987674192647
  0
ARC
  5
1F0
330
F3
100
AcDbEntity
  8
AM_4
100
AcDbCircle
 10
0.0000000000000924
 20
0.0000000000000012
 30
0.0
 40
2.144999999999912
100
AcDbArc
 50
341.8643183319096
 51
18.13568279388822
  0
ARC
  5
1F1
330
F3
100
AcDbEntity
  8
AM_4
100
AcDbCircle
 10
-0.0000000000015488
 20
-0.0000000000024112
 30
0.0
 40
2.183019244322057
100
AcDbArc
 50
20.44647078928115
 51
69.55352921076036
  0
LWPOLYLINE
  5
1F2
330
F3
100
AcDbEntity
  8
AM_4
100
AcDbPolyline
 90
        6
 70
     0
 43
0.0
 10
0.6676705331432414
 20
2.0384408402434
 10
0.6834064683693799
 20
2.034397754526792
 10
0.7049918572236553
 20
2.032219697974762
 10
0.7266781994156747
 20
2.033857579098379
 10
0.7520007959224165
 20
2.040775667728528
 10
0.7625987674192645
 20
2.045486773606428
  0
ARC
  5
1F3
330
F3
100
AcDbEntity
  8
AM_4
100
AcDbCircle
 10
-0.0000000000005991
 20
-0.0000000000025295
 30
0.0
 40
2.14500000000259
100
AcDbArc
 50
71.8643184022786
 51
81.55645729695641
  0
LINE
  5
1F4
330
F3
100
AcDbEntity
  8
AM_4
100
AcDbLine
 10
0.15748032
 20
2.415354331338582
 30
0.0
 11
-0.15748032
 21
2.415354331338582
 31
0.0
  0
LINE
  5
1F5
330
F3
100
AcDbEntity
  8
AM_4
100
AcDbLine
 10
-0.1818426102881368
 20
2.42188218734706
 30
0.0
 11
-0.15748032
 21
2.415354331338582
 31
0.0
  0
LINE
  5
1F6
330
F3
100
AcDbEntity
  8
AM_4
100
AcDbLine
 10
0.15748032
 20
2.533464571338582
 30
0.0
 11
-0.15748032
 21
2.533464571338582
 31
0.0
  0
LINE
  5
1F7
330
F3
100
AcDbEntity
  8
AM_4
100
AcDbLine
 10
-0.15748032
 20
2.533464571338582
 30
0.0
 11
-0.1818426102881368
 21
2.526936715330103
 31
0.0
  0
LINE
  5
1F8
330
F3
100
AcDbEntity
  8
AM_4
100
AcDbLine
 10
0.1818426102881368
 20
2.526936715330103
 30
0.0
 11
0.15748032
 21
2.533464571338582
 31
0.0
  0
LINE
  5
1F9
330
F3
100
AcDbEntity
  8
AM_4
100
AcDbLine
 10
0.15748032
 20
2.415354331338582
 30
0.0
 11
0.1818426102881368
 21
2.42188218734706
 31
0.0
  0
LINE
  5
1FA
330
F3
100
AcDbEntity
  8
AM_4
100
AcDbLine
 10
0.0654127384443837
 20
2.750000011338584
 30
0.0
 11
-0.0654127384443837
 21
2.750000011338584
 31
0.0
  0
ARC
  5
1FB
330
F3
100
AcDbEntity
  8
AM_4
100
AcDbCircle
 10
-0.0654127384443839
 20
2.730314971338586
 30
0.0
 40
0.0196850399999984
100
AcDbArc
 50
90.0
 51
158.1985930228204
  0
ARC
  5
1FC
330
F3
100
AcDbEntity
  8
AM_4
100
AcDbCircle
 10
0.0654127384443839
 20
2.730314971338586
 30
0.0
 40
0.0196850399999982
100
AcDbArc
 50
21.80140697717964
 51
90.0
  0
LINE
  5
1FD
330
F3
100
AcDbEntity
  8
AM_4
100
AcDbLine
 10
-0.0836898395636921
 20
2.737625810857828
 30
0.0
 11
-0.1048775701420836
 21
2.684656477684745
 31
0.0
  0
LINE
  5
1FE
330
F3
100
AcDbEntity
  8
AM_4
100
AcDbLine
 10
0.1048775701420836
 20
2.684656477684745
 30
0.0
 11
0.0836898395636921
 21
2.737625810857828
 31
0.0
  0
LINE
  5
1FF
330
F3
100
AcDbEntity
  8
AM_4
100
AcDbLine
 10
0.0836898395636921
 20
2.737625810857828
 30
0.0
 11
-0.0836898395636921
 21
2.737625810857828
 31
0.0
  0
ARC
  5
200
330
F3
100
AcDbEntity
  8
AM_4
100
AcDbCircle
 10
-0.0866004690227759
 20
2.677345638165498
 30
0.0
 40
0.0196850399999996
100
AcDbArc
 50
158.1985930228067
 51
225.8429143191052
  0
ARC
  5
201
330
F3
100
AcDbEntity
  8
AM_4
100
AcDbCircle
 10
0.0866004690227759
 20
2.677345638165498
 30
0.0
 40
0.0196850399999997
100
AcDbArc
 50
314.1570856808947
 51
21.80140697719331
  0
LINE
  5
202
330
F3
100
AcDbEntity
  8
AM_4
100
AcDbLine
 10
0.1048775701420836
 20
2.684656477684745
 30
0.0
 11
-0.1048775701420836
 21
2.684656477684745
 31
0.0
  0
LINE
  5
203
330
F3
100
AcDbEntity
  8
AM_4
100
AcDbLine
 10
-0.11023622
 20
2.415354331338582
 30
0.0
 11
-0.11023622
 21
2.39566928
 31
0.0
  0
LINE
  5
204
330
F3
100
AcDbEntity
  8
AM_4
100
AcDbLine
 10
0.11023622
 20
2.39566928
 30
0.0
 11
0.11023622
 21
2.415354331338582
 31
0.0
  0
LINE
  5
205
330
F3
100
AcDbEntity
  8
AM_4
100
AcDbLine
 10
-0.1102362200000001
 20
2.553149611338581
 30
0.0
 11
-0.1102362200000001
 21
2.533464571338582
 31
0.0
  0
LINE
  5
206
330
F3
100
AcDbEntity
  8
AM_4
100
AcDbLine
 10
0.1102362200000001
 20
2.533464571338582
 30
0.0
 11
0.1102362200000001
 21
2.553149611338581
 31
0.0
  0
ARC
  5
207
330
F3
100
AcDbEntity
  8
AM_4
100
AcDbCircle
 10
-0.1498523720312511
 20
2.612204731338581
 30
0.0
 40
0.0711122120312509
100
AcDbArc
 50
303.8550321711153
 51
45.84291431910437
  0
ARC
  5
208
330
F3
100
AcDbEntity
  8
AM_4
100
AcDbCircle
 10
0.1498523720312511
 20
2.612204731338581
 30
0.0
 40
0.0711122120312512
100
AcDbArc
 50
134.1570856808956
 51
236.1449678288847
  0
LINE
  5
209
330
F3
100
AcDbEntity
  8
AM_4
100
AcDbLine
 10
0.1102362200000002
 20
2.553149611338581
 30
0.0
 11
-0.1102362200000002
 21
2.553149611338581
 31
0.0
  0
LINE
  5
20A
330
F3
100
AcDbEntity
  8
AM_4
100
AcDbLine
 10
0.100313617966638
 20
2.663222949121089
 30
0.0
 11
-0.100313617966638
 21
2.663222949121089
 31
0.0
  0
LINE
  5
20B
330
F3
100
AcDbEntity
  8
AM_4
100
AcDbLine
 10
0.1818426102881368
 20
2.526936715330103
 30
0.0
 11
0.1363819577161026
 21
2.533464571338582
 31
0.0
  0
LINE
  5
20C
330
F3
100
AcDbEntity
  8
AM_4
100
AcDbLine
 10
0.1363819577161026
 20
2.415354331338582
 30
0.0
 11
0.1818426102881368
 21
2.42188218734706
 31
0.0
  0
LINE
  5
20D
330
F3
100
AcDbEntity
  8
AM_4
100
AcDbLine
 10
0.1818426102881368
 20
2.42188218734706
 30
0.0
 11
0.1818426102881368
 21
2.526936715330103
 31
0.0
  0
LINE
  5
20E
330
F3
100
AcDbEntity
  8
AM_4
100
AcDbLine
 10
0.1363819577161026
 20
2.533464571338582
 30
0.0
 11
0.0909213051440684
 21
2.526936715330103
 31
0.0
  0
LINE
  5
20F
330
F3
100
AcDbEntity
  8
AM_4
100
AcDbLine
 10
0.0909213051440684
 20
2.526936715330103
 30
0.0
 11
0.0
 21
2.533464571338582
 31
0.0
  0
LINE
  5
210
330
F3
100
AcDbEntity
  8
AM_4
100
AcDbLine
 10
0.0909213051440684
 20
2.42188218734706
 30
0.0
 11
0.0909213051440684
 21
2.526936715330103
 31
0.0
  0
LWPOLYLINE
  5
211
330
F3
100
AcDbEntity
  8
AM_4
100
AcDbPolyline
 90
        3
 70
     0
 43
0.0
 10
-0.0909213051440684
 20
2.42188218734706
 10
-0.0689029552938091
 20
2.419216559717644
 10
0.0
 20
2.415354331338582
  0
LWPOLYLINE
  5
212
330
F3
100
AcDbEntity
  8
AM_4
100
AcDbPolyline
 90
        3
 70
     0
 43
0.0
 10
0.0
 20
2.533464571338582
 10
-0.0689029552938091
 20
2.529602342959519
 10
-0.0909213051440684
 20
2.526936715330103
  0
LINE
  5
213
330
F3
100
AcDbEntity
  8
AM_4
100
AcDbLine
 10
-0.0909213051440684
 20
2.526936715330103
 30
0.0
 11
-0.1363819577161026
 21
2.533464571338582
 31
0.0
  0
LINE
  5
214
330
F3
100
AcDbEntity
  8
AM_4
100
AcDbLine
 10
-0.1363819577161026
 20
2.533464571338582
 30
0.0
 11
-0.1818426102881368
 21
2.526936715330103
 31
0.0
  0
LINE
  5
215
330
F3
100
AcDbEntity
  8
AM_4
100
AcDbLine
 10
-0.1818426102881368
 20
2.42188218734706
 30
0.0
 11
-0.1818426102881368
 21
2.526936715330103
 31
0.0
  0
LINE
  5
216
330
F3
100
AcDbEntity
  8
AM_4
100
AcDbLine
 10
-0.1818426102881368
 20
2.42188218734706
 30
0.0
 11
-0.1363819577161026
 21
2.415354331338582
 31
0.0
  0
LINE
  5
217
330
F3
100
AcDbEntity
  8
AM_4
100
AcDbLine
 10
-0.1363819577161026
 20
2.415354331338582
 30
0.0
 11
-0.0909213051440684
 21
2.42188218734706
 31
0.0
  0
LINE
  5
218
330
F3
100
AcDbEntity
  8
AM_4
100
AcDbLine
 10
-0.0909213051440684
 20
2.42188218734706
 30
0.0
 11
-0.0909213051440684
 21
2.526936715330103
 31
0.0
  0
LINE
  5
219
330
F3
100
AcDbEntity
  8
AM_4
100
AcDbLine
 10
0.0
 20
2.415354331338582
 30
0.0
 11
0.0909213051440684
 21
2.42188218734706
 31
0.0
  0
LINE
  5
21A
330
F3
100
AcDbEntity
  8
AM_4
100
AcDbLine
 10
0.0909213051440684
 20
2.42188218734706
 30
0.0
 11
0.1363819577161026
 21
2.415354331338582
 31
0.0
  0
ARC
  5
21B
330
F3
100
AcDbEntity
  8
AM_4
100
AcDbCircle
 10
0.0000000000001793
 20
-0.0000000000000133
 30
0.0
 40
2.143673147508236
100
AcDbArc
 50
98.44880713674912
 51
81.55119286326057
  0
ARC
  5
21C
330
F3
100
AcDbEntity
  8
AM_4
100
AcDbCircle
 10
0.0000000000000904
 20
0.0000000000000066
 30
0.0
 40
2.119053731518703
100
AcDbArc
 50
98.54704106043235
 51
81.45295893957186
  0
LINE
  5
21D
330
F3
100
AcDbEntity
  8
AM_4
100
AcDbLine
 10
0.27559056
 20
2.061366946737125
 30
0.0
 11
0.3149366568110352
 21
2.095519892356098
 31
0.0
  0
LINE
  5
21E
330
F3
100
AcDbEntity
  8
AM_4
100
AcDbLine
 10
0.3149606400000001
 20
2.095564807691926
 30
0.0
 11
0.3149606400000001
 21
2.39566928
 31
0.0
  0
LINE
  5
21F
330
F3
100
AcDbEntity
  8
AM_4
100
AcDbLine
 10
-0.3149606400000001
 20
2.39566928
 30
0.0
 11
0.3149606400000001
 21
2.39566928
 31
0.0
  0
LINE
  5
220
330
F3
100
AcDbEntity
  8
AM_4
100
AcDbLine
 10
-0.3149606400000001
 20
2.095564807691926
 30
0.0
 11
-0.3149606400000001
 21
2.39566928
 31
0.0
  0
LINE
  5
221
330
F3
100
AcDbEntity
  8
AM_4
100
AcDbLine
 10
-0.314936656811008
 20
2.095519892356075
 30
0.0
 11
-0.27559056
 21
2.061366946737125
 31
0.0
  0
CIRCLE
  5
222
330
F3
100
AcDbEntity
  8
AM_4
100
AcDbCircle
 10
0.0
 20
0.0
 30
0.0
 40
1.67325
  0
LINE
  5
223
330
F3
100
AcDbEntity
  8
AM_4
100
AcDbLine
 10
-0.2755905599999999
 20
2.061366946737125
 30
0.0
 11
-0.2755905599999999
 21
2.39566928
 31
0.0
  0
ARC
  5
224
330
F3
100
AcDbEntity
  8
AM_4
100
AcDbCircle
 10
0.0
 20
-0.0000000000000001
 30
0.0
 40
2.079707634707689
100
AcDbArc
 50
97.61489608909379
 51
82.38510391090622
  0
LINE
  5
225
330
F3
100
AcDbEntity
  8
AM_4
100
AcDbLine
 10
0.27559056
 20
2.061366946737125
 30
0.0
 11
0.27559056
 21
2.39566928
 31
0.0
  0
ENDBLK
  5
F6
330
F3
100
AcDbEntity
  8
0
100
AcDbBlockEnd
  0
ENDSEC
  0
SECTION
  2
ENTITIES
  0
INSERT
  5
6F
330
1F
100
AcDbEntity
  8
0
100
AcDbBlockReference
  2
1_129651_0
 10
0.0
 20
0.0
 30
0.0
  0
POINT
  5
227
330
1F
100
AcDbEntity
  8
ConnectionPoints
100
AcDbPoint
 10
0.0000000000000001
 20
0.0
 30
-0.5935500000000005
  0
POINT
  5
228
330
1F
100
AcDbEntity
  8
ConnectionPoints
100
AcDbPoint
 10
0.0000000000000001
 20
0.0
 30
-1.2498
  0
POINT
  5
229
330
1F
100
AcDbEntity
  8
ConnectionPoints
100
AcDbPoint
 10
0.0
 20
0.0
 30
-1.2498
  0
ENDSEC
  0
SECTION
  2
OBJECTS
  0
DICTIONARY
  5
C
330
0
100
AcDbDictionary
281
     1
  3
ACAD_DETAILVIEWSTYLE
350
231
  3
ACAD_GROUP
350
D
  3
ACAD_LAYOUT
350
1A
  3
ACAD_MATERIAL
350
43
  3
ACAD_MLEADERSTYLE
350
6B
  3
ACAD_MLINESTYLE
350
17
  3
ACAD_PLOTSETTINGS
350
19
  3
ACAD_PLOTSTYLENAME
350
E
  3
ACAD_SCALELIST
350
47
  3
ACAD_SECTIONVIEWSTYLE
350
232
  3
ACAD_TABLESTYLE
350
69
  3
ACAD_VISUALSTYLE
350
2A
  3
ACDB_RECOMPOSE_DATA
350
22E
  3
AcDbVariableDictionary
350
22A
  0
SUN
  5
6D
330
29
100
AcDbSun
 90
        1
290
     0
 63
     7
421
 16777215
 40
1.0
291
     1
 91
  2455826
 92
 54000000
292
     0
 70
     2
 71
   256
280
     1
  0
DICTIONARY
  5
231
102
{ACAD_REACTORS
330
C
102
}
330
C
100
AcDbDictionary
281
     1
  0
DICTIONARY
  5
D
102
{ACAD_REACTORS
330
C
102
}
330
C
100
AcDbDictionary
281
     1
  0
DICTIONARY
  5
1A
102
{ACAD_REACTORS
330
C
102
}
330
C
100
AcDbDictionary
281
     1
  3
Layout1
350
1E
  3
Layout2
350
26
  3
Model
350
22
  0
DICTIONARY
  5
43
102
{ACAD_REACTORS
330
C
102
}
330
C
100
AcDbDictionary
281
     1
  3
ByBlock
350
45
  3
ByLayer
350
44
  3
Global
350
46
  0
DICTIONARY
  5
6B
102
{ACAD_REACTORS
330
C
102
}
330
C
100
AcDbDictionary
281
     1
  3
Standard
350
6C
  0
DICTIONARY
  5
17
102
{ACAD_REACTORS
330
C
102
}
330
C
100
AcDbDictionary
281
     1
  3
Standard
350
18
  0
DICTIONARY
  5
19
102
{ACAD_REACTORS
330
C
102
}
330
C
100
AcDbDictionary
281
     1
  0
ACDBDICTIONARYWDFLT
  5
E
102
{ACAD_REACTORS
330
C
102
}
330
C
100
AcDbDictionary
281
     1
  3
Normal
350
F
100
AcDbDictionaryWithDefault
340
F
  0
DICTIONARY
  5
47
102
{ACAD_REACTORS
330
C
102
}
330
C
100
AcDbDictionary
281
     1
  3
A0
350
48
  3
A1
350
49
  3
A2
350
4A
  3
A3
350
4B
  3
A4
350
4C
  3
A5
350
4D
  3
A6
350
4E
  3
A7
350
4F
  3
A8
350
50
  3
A9
350
51
  3
B0
350
52
  3
B1
350
53
  3
B2
350
54
  3
B3
350
55
  3
B4
350
56
  3
B5
350
57
  3
B6
350
58
  3
B7
350
59
  3
B8
350
5A
  3
B9
350
5B
  3
C0
350
5C
  3
C1
350
5D
  3
C2
350
5E
  3
C3
350
5F
  3
C4
350
60
  3
C5
350
61
  3
C6
350
62
  3
C7
350
63
  3
C8
350
64
  3
C9
350
65
  3
D0
350
66
  3
D1
350
67
  3
D2
350
68
  0
DICTIONARY
  5
232
102
{ACAD_REACTORS
330
C
102
}
330
C
100
AcDbDictionary
281
     1
  0
DICTIONARY
  5
69
102
{ACAD_REACTORS
330
C
102
}
330
C
100
AcDbDictionary
281
     1
  3
Standard
350
6A
  0
DICTIONARY
  5
2A
102
{ACAD_REACTORS
330
C
102
}
330
C
100
AcDbDictionary
281
     1
  3
2dWireframe
350
2F
  3
Basic
350
32
  3
Brighten
350
36
  3
ColorChange
350
3A
  3
Conceptual
350
34
  3
Dim
350
35
  3
EdgeColorOff
350
3D
  3
Facepattern
350
39
  3
Flat
350
2B
  3
FlatWithEdges
350
2C
  3
Gouraud
350
2D
  3
GouraudWithEdges
350
2E
  3
Hidden
350
31
  3
JitterOff
350
3B
  3
Linepattern
350
38
  3
OverhangOff
350
3C
  3
Realistic
350
33
  3
Shaded
350
42
  3
Shaded with edges
350
41
  3
Shades of Gray
350
3E
  3
Sketchy
350
3F
  3
Thicken
350
37
  3
Wireframe
350
30
  3
X-Ray
350
40
  0
XRECORD
  5
22E
102
{ACAD_REACTORS
330
C
102
}
330
C
100
AcDbXrecord
280
     1
 90
        1
330
6A
  0
DICTIONARY
  5
22A
102
{ACAD_REACTORS
330
C
102
}
330
C
100
AcDbDictionary
281
     1
  3
CANNOSCALE
350
22B
  3
CMLEADERSTYLE
350
230
  3
CTABLESTYLE
350
22F
  0
LAYOUT
  5
1E
102
{ACAD_REACTORS
330
1A
102
}
330
1A
100
AcDbPlotSettings
  1

  2
none_device
  4

  6

 40
0.0
 41
0.0
 42
0.0
 43
0.0
 44
0.0
 45
0.0
 46
0.0
 47
0.0
 48
0.0
 49
0.0
140
0.0
141
0.0
142
1.0
143
1.0
 70
   688
 72
     0
 73
     0
 74
     5
  7

 75
    16
 76
     0
 77
     2
 78
   300
147
1.0
148
0.0
149
0.0
100
AcDbLayout
  1
Layout1
 70
     1
 71
     1
 10
0.0
 20
0.0
 11
12.0
 21
9.0
 12
0.0
 22
0.0
 32
0.0
 14
1.000000000000000E+20
 24
1.000000000000000E+20
 34
1.000000000000000E+20
 15
-1.000000000000000E+20
 25
-1.000000000000000E+20
 35
-1.000000000000000E+20
146
0.0
 13
0.0
 23
0.0
 33
0.0
 16
1.0
 26
0.0
 36
0.0
 17
0.0
 27
1.0
 37
0.0
 76
     0
330
1B
  0
LAYOUT
  5
26
102
{ACAD_REACTORS
330
1A
102
}
330
1A
100
AcDbPlotSettings
  1

  2
none_device
  4

  6

 40
0.0
 41
0.0
 42
0.0
 43
0.0
 44
0.0
 45
0.0
 46
0.0
 47
0.0
 48
0.0
 49
0.0
140
0.0
141
0.0
142
1.0
143
1.0
 70
   688
 72
     0
 73
     0
 74
     5
  7

 75
    16
 76
     0
 77
     2
 78
   300
147
1.0
148
0.0
149
0.0
100
AcDbLayout
  1
Layout2
 70
     1
 71
     2
 10
0.0
 20
0.0
 11
0.0
 21
0.0
 12
0.0
 22
0.0
 32
0.0
 14
0.0
 24
0.0
 34
0.0
 15
0.0
 25
0.0
 35
0.0
146
0.0
 13
0.0
 23
0.0
 33
0.0
 16
1.0
 26
0.0
 36
0.0
 17
0.0
 27
1.0
 37
0.0
 76
     0
330
23
  0
LAYOUT
  5
22
102
{ACAD_REACTORS
330
1A
102
}
330
1A
100
AcDbPlotSettings
  1

  2
none_device
  4
Letter_(8.50_x_11.00_Inches)
  6

 40
6.35
 41
6.35
 42
6.35000508
 43
6.35000508
 44
215.9
 45
279.4
 46
0.0
 47
0.0
 48
0.0
 49
0.0
140
0.0
141
0.0
142
1.0
143
1.0
 70
  1712
 72
     0
 73
     0
 74
     0
  7

 75
     0
 76
     0
 77
     2
 78
   300
147
1.0
148
0.0
149
0.0
100
AcDbLayout
  1
Model
 70
     1
 71
     0
 10
0.0
 20
0.0
 11
12.0
 21
9.0
 12
0.0
 22
0.0
 32
0.0
 14
1.000000000000000E+20
 24
1.000000000000000E+20
 34
1.000000000000000E+20
 15
-1.000000000000000E+20
 25
-1.000000000000000E+20
 35
-1.000000000000000E+20
146
0.0
 13
0.0
 23
0.0
 33
0.0
 16
1.0
 26
0.0
 36
0.0
 17
0.0
 27
1.0
 37
0.0
 76
     0
330
1F
331
29
  0
MATERIAL
  5
45
102
{ACAD_REACTORS
330
43
102
}
330
43
100
AcDbMaterial
  1
ByBlock
 72
     1
 94
      127
  0
MATERIAL
  5
44
102
{ACAD_REACTORS
330
43
102
}
330
43
100
AcDbMaterial
  1
ByLayer
 72
     1
 94
      127
  0
MATERIAL
  5
46
102
{ACAD_REACTORS
330
43
102
}
330
43
100
AcDbMaterial
  1
Global
 72
     1
 94
      127
  0
MLEADERSTYLE
  5
6C
102
{ACAD_REACTORS
330
6B
102
}
330
6B
100
AcDbMLeaderStyle
179
     2
170
     2
171
     1
172
     0
 90
        2
 40
0.0
 41
0.0
173
     1
 91
-1056964608
340
14
 92
       -2
290
     1
 42
0.09
291
     1
 43
0.36
  3
Standard
341
0
 44
0.18
300

342
11
174
     1
178
     6
175
     1
176
     0
 93
-1056964608
 45
0.18
292
     0
297
     0
 46
0.18
343
0
 94
-1056964608
 47
1.0
 49
1.0
140
1.0
293
     1
141
0.0
294
     1
177
     0
142
1.0
295
     0
296
     0
143
0.125
271
     0
272
     9
273
     9
298
     0
  0
MLINESTYLE
  5
18
102
{ACAD_REACTORS
330
17
102
}
330
17
100
AcDbMlineStyle
  2
Standard
 70
     0
  3

 62
   256
 51
90.0
 52
90.0
 71
     2
 49
0.5
 62
   256
  6
BYLAYER
 49
-0.5
 62
   256
  6
BYLAYER
  0
ACDBPLACEHOLDER
  5
F
102
{ACAD_REACTORS
330
E
102
}
330
E
  0
SCALE
  5
48
102
{ACAD_REACTORS
330
47
102
}
330
47
100
AcDbScale
 70
     0
300
1:1
140
1.0
141
1.0
290
     1
  0
SCALE
  5
49
102
{ACAD_REACTORS
330
47
102
}
330
47
100
AcDbScale
 70
     0
300
1:2
140
1.0
141
2.0
290
     0
  0
SCALE
  5
4A
102
{ACAD_REACTORS
330
47
102
}
330
47
100
AcDbScale
 70
     0
300
1:4
140
1.0
141
4.0
290
     0
  0
SCALE
  5
4B
102
{ACAD_REACTORS
330
47
102
}
330
47
100
AcDbScale
 70
     0
300
1:5
140
1.0
141
5.0
290
     0
  0
SCALE
  5
4C
102
{ACAD_REACTORS
330
47
102
}
330
47
100
AcDbScale
 70
     0
300
1:8
140
1.0
141
8.0
290
     0
  0
SCALE
  5
4D
102
{ACAD_REACTORS
330
47
102
}
330
47
100
AcDbScale
 70
     0
300
1:10
140
1.0
141
10.0
290
     0
  0
SCALE
  5
4E
102
{ACAD_REACTORS
330
47
102
}
330
47
100
AcDbScale
 70
     0
300
1:16
140
1.0
141
16.0
290
     0
  0
SCALE
  5
4F
102
{ACAD_REACTORS
330
47
102
}
330
47
100
AcDbScale
 70
     0
300
1:20
140
1.0
141
20.0
290
     0
  0
SCALE
  5
50
102
{ACAD_REACTORS
330
47
102
}
330
47
100
AcDbScale
 70
     0
300
1:30
140
1.0
141
30.0
290
     0
  0
SCALE
  5
51
102
{ACAD_REACTORS
330
47
102
}
330
47
100
AcDbScale
 70
     0
300
1:40
140
1.0
141
40.0
290
     0
  0
SCALE
  5
52
102
{ACAD_REACTORS
330
47
102
}
330
47
100
AcDbScale
 70
     0
300
1:50
140
1.0
141
50.0
290
     0
  0
SCALE
  5
53
102
{ACAD_REACTORS
330
47
102
}
330
47
100
AcDbScale
 70
     0
300
1:100
140
1.0
141
100.0
290
     0
  0
SCALE
  5
54
102
{ACAD_REACTORS
330
47
102
}
330
47
100
AcDbScale
 70
     0
300
2:1
140
2.0
141
1.0
290
     0
  0
SCALE
  5
55
102
{ACAD_REACTORS
330
47
102
}
330
47
100
AcDbScale
 70
     0
300
4:1
140
4.0
141
1.0
290
     0
  0
SCALE
  5
56
102
{ACAD_REACTORS
330
47
102
}
330
47
100
AcDbScale
 70
     0
300
8:1
140
8.0
141
1.0
290
     0
  0
SCALE
  5
57
102
{ACAD_REACTORS
330
47
102
}
330
47
100
AcDbScale
 70
     0
300
10:1
140
10.0
141
1.0
290
     0
  0
SCALE
  5
58
102
{ACAD_REACTORS
330
47
102
}
330
47
100
AcDbScale
 70
     0
300
100:1
140
100.0
141
1.0
290
     0
  0
SCALE
  5
59
102
{ACAD_REACTORS
330
47
102
}
330
47
100
AcDbScale
 70
     0
300
1/128" = 1'-0"
140
0.0078125
141
12.0
290
     0
  0
SCALE
  5
5A
102
{ACAD_REACTORS
330
47
102
}
330
47
100
AcDbScale
 70
     0
300
1/64" = 1'-0"
140
0.015625
141
12.0
290
     0
  0
SCALE
  5
5B
102
{ACAD_REACTORS
330
47
102
}
330
47
100
AcDbScale
 70
     0
300
1/32" = 1'-0"
140
0.03125
141
12.0
290
     0
  0
SCALE
  5
5C
102
{ACAD_REACTORS
330
47
102
}
330
47
100
AcDbScale
 70
     0
300
1/16" = 1'-0"
140
0.0625
141
12.0
290
     0
  0
SCALE
  5
5D
102
{ACAD_REACTORS
330
47
102
}
330
47
100
AcDbScale
 70
     0
300
3/32" = 1'-0"
140
0.09375
141
12.0
290
     0
  0
SCALE
  5
5E
102
{ACAD_REACTORS
330
47
102
}
330
47
100
AcDbScale
 70
     0
300
1/8" = 1'-0"
140
0.125
141
12.0
290
     0
  0
SCALE
  5
5F
102
{ACAD_REACTORS
330
47
102
}
330
47
100
AcDbScale
 70
     0
300
3/16" = 1'-0"
140
0.1875
141
12.0
290
     0
  0
SCALE
  5
60
102
{ACAD_REACTORS
330
47
102
}
330
47
100
AcDbScale
 70
     0
300
1/4" = 1'-0"
140
0.25
141
12.0
290
     0
  0
SCALE
  5
61
102
{ACAD_REACTORS
330
47
102
}
330
47
100
AcDbScale
 70
     0
300
3/8" = 1'-0"
140
0.375
141
12.0
290
     0
  0
SCALE
  5
62
102
{ACAD_REACTORS
330
47
102
}
330
47
100
AcDbScale
 70
     0
300
1/2" = 1'-0"
140
0.5
141
12.0
290
     0
  0
SCALE
  5
63
102
{ACAD_REACTORS
330
47
102
}
330
47
100
AcDbScale
 70
     0
300
3/4" = 1'-0"
140
0.75
141
12.0
290
     0
  0
SCALE
  5
64
102
{ACAD_REACTORS
330
47
102
}
330
47
100
AcDbScale
 70
     0
300
1" = 1'-0"
140
1.0
141
12.0
290
     0
  0
SCALE
  5
65
102
{ACAD_REACTORS
330
47
102
}
330
47
100
AcDbScale
 70
     0
300
1-1/2" = 1'-0"
140
1.5
141
12.0
290
     0
  0
SCALE
  5
66
102
{ACAD_REACTORS
330
47
102
}
330
47
100
AcDbScale
 70
     0
300
3" = 1'-0"
140
3.0
141
12.0
290
     0
  0
SCALE
  5
67
102
{ACAD_REACTORS
330
47
102
}
330
47
100
AcDbScale
 70
     0
300
6" = 1'-0"
140
6.0
141
12.0
290
     0
  0
SCALE
  5
68
102
{ACAD_REACTORS
330
47
102
}
330
47
100
AcDbScale
 70
     0
300
1'-0" = 1'-0"
140
12.0
141
12.0
290
     0
  0
TABLESTYLE
  5
6A
102
{ACAD_REACTORS
330
69
102
}
102
{ACAD_XDICTIONARY
360
22C
102
}
330
69
100
AcDbTableStyle
  3
Standard
 70
     0
 71
     0
 40
0.06
 41
0.06
280
     0
281
     0
  7
Standard
140
0.18
170
     2
 62
     0
 63
   257
283
     0
 90
        4
 91
        0
  1

274
    -2
284
     1
 64
     0
275
    -2
285
     1
 65
     0
276
    -2
286
     1
 66
     0
277
    -2
287
     1
 67
     0
278
    -2
288
     1
 68
     0
279
    -2
289
     1
 69
     0
  7
Standard
140
0.25
170
     5
 62
     0
 63
   257
283
     0
 90
        4
 91
        0
  1

274
    -2
284
     1
 64
     0
275
    -2
285
     1
 65
     0
276
    -2
286
     1
 66
     0
277
    -2
287
     1
 67
     0
278
    -2
288
     1
 68
     0
279
    -2
289
     1
 69
     0
  7
Standard
140
0.18
170
     5
 62
     0
 63
   257
283
     0
 90
        4
 91
        0
  1

274
    -2
284
     1
 64
     0
275
    -2
285
     1
 65
     0
276
    -2
286
     1
 66
     0
277
    -2
287
     1
 67
     0
278
    -2
288
     1
 68
     0
279
    -2
289
     1
 69
     0
  0
VISUALSTYLE
  5
2F
102
{ACAD_REACTORS
330
2A
102
}
330
2A
100
AcDbVisualStyle
  2
2dWireframe
 70
     4
177
     3
291
     0
 70
    58
 90
        0
176
     1
 90
        2
176
     1
 90
        0
176
     1
 90
        0
176
     1
 40
0.6
176
     1
 40
30.0
176
     1
 62
     7
420
 16777215
176
     1
 90
        1
176
     1
 90
        4
176
     1
 62
     7
176
     1
 62
   257
176
     1
 90
        1
176
     1
 90
        1
176
     1
 40
1.0
176
     1
 90
        0
176
     1
 62
   257
176
     1
 40
1.0
176
     1
 90
        1
176
     1
 90
        6
176
     1
 90
        2
176
     1
 62
     7
176
     1
 90
        5
176
     1
 90
        0
176
     1
 90
        0
176
     1
290
     0
176
     1
 90
        1
176
     1
 40
0.0
176
     1
 90
        0
176
     1
290
     1
176
     1
290
     1
176
     1
290
     0
176
     1
290
     0
176
     1
290
     0
176
     1
290
     0
176
     1
290
     0
176
     1
290
     0
176
     1
290
     0
176
     1
 90
       50
176
     1
 40
0.0
176
     1
 40
1.0
176
     1
 90
        0
176
     1
 62
    18
420
        0
176
     1
 90
       50
176
     1
 90
        3
176
     1
 62
     5
420
      255
176
     1
290
     0
176
     1
 90
       50
176
     1
 90
       50
176
     1
 90
       50
176
     1
290
     0
176
     1
 90
       50
176
     1
 62
   256
176
     0
 40
1.0
176
     0
 90
        2
176
     1
  1
strokes_ogs.tif
176
     1
290
     0
176
     1
 40
1.0
176
     1
 40
1.0
176
     1
  0
VISUALSTYLE
  5
32
102
{ACAD_REACTORS
330
2A
102
}
330
2A
100
AcDbVisualStyle
  2
Basic
 70
     7
177
     3
291
     1
 70
    58
 90
        1
176
     1
 90
        0
176
     1
 90
        1
176
     1
 90
        0
176
     1
 40
0.6
176
     1
 40
30.0
176
     1
 62
     7
420
 16777215
176
     1
 90
        0
176
     1
 90
        4
176
     1
 62
     7
176
     1
 62
   257
176
     1
 90
        1
176
     1
 90
        1
176
     1
 40
1.0
176
     1
 90
        8
176
     1
 62
     7
176
     1
 40
1.0
176
     1
 90
        1
176
     1
 90
        6
176
     1
 90
        2
176
     1
 62
     7
176
     1
 90
        5
176
     1
 90
        0
176
     1
 90
        0
176
     1
290
     0
176
     1
 90
        1
176
     1
 40
0.0
176
     1
 90
        0
176
     1
290
     0
176
     1
290
     1
176
     1
290
     1
176
     1
290
     0
176
     1
290
     0
176
     1
290
     0
176
     1
290
     0
176
     1
290
     0
176
     1
290
     0
176
     1
 90
       50
176
     1
 40
0.0
176
     1
 40
1.0
176
     1
 90
        0
176
     1
 62
    18
420
        0
176
     1
 90
       50
176
     1
 90
        3
176
     1
 62
     5
420
      255
176
     1
290
     0
176
     1
 90
       50
176
     1
 90
       50
176
     1
 90
       50
176
     1
290
     0
176
     1
 90
       50
176
     1
 62
   256
176
     0
 40
1.0
176
     0
 90
        2
176
     1
  1
strokes_ogs.tif
176
     1
290
     0
176
     1
 40
1.0
176
     1
 40
1.0
176
     1
  0
VISUALSTYLE
  5
36
102
{ACAD_REACTORS
330
2A
102
}
330
2A
100
AcDbVisualStyle
  2
Brighten
 70
    12
177
     3
291
     1
 70
    58
 90
        2
176
     1
 90
        2
176
     1
 90
        0
176
     1
 90
        0
176
     1
 40
0.6
176
     1
 40
30.0
176
     1
 62
     7
420
 16777215
176
     1
 90
        1
176
     1
 90
        4
176
     1
 62
     7
176
     1
 62
   257
176
     1
 90
        1
176
     1
 90
        1
176
     1
 40
1.0
176
     1
 90
        8
176
     1
 62
     7
176
     1
 40
1.0
176
     1
 90
        1
176
     1
 90
        6
176
     1
 90
        2
176
     1
 62
     7
176
     1
 90
        5
176
     1
 90
        0
176
     1
 90
        0
176
     1
290
     0
176
     1
 90
        1
176
     1
 40
50.0
176
     1
 90
        0
176
     1
290
     0
176
     1
290
     1
176
     1
290
     1
176
     1
290
     0
176
     1
290
     0
176
     1
290
     0
176
     1
290
     0
176
     1
290
     0
176
     1
290
     0
176
     1
 90
       50
176
     1
 40
0.0
176
     1
 40
1.0
176
     1
 90
        0
176
     1
 62
    18
420
        0
176
     1
 90
       50
176
     1
 90
        3
176
     1
 62
     5
420
      255
176
     1
290
     0
176
     1
 90
       50
176
     1
 90
       50
176
     1
 90
       50
176
     1
290
     0
176
     1
 90
       50
176
     1
 62
   256
176
     0
 40
1.0
176
     0
 90
        2
176
     1
  1
strokes_ogs.tif
176
     1
290
     0
176
     1
 40
1.0
176
     1
 40
1.0
176
     1
  0
VISUALSTYLE
  5
3A
102
{ACAD_REACTORS
330
2A
102
}
330
2A
100
AcDbVisualStyle
  2
ColorChange
 70
    16
177
     3
291
     1
 70
    58
 90
        2
176
     1
 90
        2
176
     1
 90
        3
176
     1
 90
        0
176
     1
 40
0.6
176
     1
 40
30.0
176
     1
 62
     8
420
  8421504
176
     1
 90
        1
176
     1
 90
        4
176
     1
 62
     7
176
     1
 62
   257
176
     1
 90
        1
176
     1
 90
        1
176
     1
 40
1.0
176
     1
 90
        8
176
     1
 62
     8
420
  8421504
176
     1
 40
1.0
176
     1
 90
        1
176
     1
 90
        6
176
     1
 90
        2
176
     1
 62
     7
176
     1
 90
        5
176
     1
 90
        0
176
     1
 90
        0
176
     1
290
     0
176
     1
 90
        1
176
     1
 40
0.0
176
     1
 90
        0
176
     1
290
     0
176
     1
290
     1
176
     1
290
     1
176
     1
290
     0
176
     1
290
     0
176
     1
290
     0
176
     1
290
     0
176
     1
290
     0
176
     1
290
     0
176
     1
 90
       50
176
     1
 40
0.0
176
     1
 40
1.0
176
     1
 90
        0
176
     1
 62
    18
420
        0
176
     1
 90
       50
176
     1
 90
        3
176
     1
 62
     5
420
      255
176
     1
290
     0
176
     1
 90
       50
176
     1
 90
       50
176
     1
 90
       50
176
     1
290
     0
176
     1
 90
       50
176
     1
 62
   256
176
     0
 40
1.0
176
     0
 90
        2
176
     1
  1
strokes_ogs.tif
176
     1
290
     0
176
     1
 40
1.0
176
     1
 40
1.0
176
     1
  0
VISUALSTYLE
  5
34
102
{ACAD_REACTORS
330
2A
102
}
330
2A
100
AcDbVisualStyle
  2
Conceptual
 70
     9
177
     3
291
     0
 70
    58
 90
        3
176
     1
 90
        2
176
     1
 90
        0
176
     1
 90
        0
176
     1
 40
0.6
176
     1
 40
30.0
176
     1
 62
     7
420
 16777215
176
     1
 90
        2
176
     1
 90
        2
176
     1
 62
     7
176
     1
 62
   257
176
     1
 90
        1
176
     1
 90
        1
176
     1
 40
179.0
176
     1
 90
        8
176
     1
 62
     7
176
     1
 40
1.0
176
     1
 90
        1
176
     1
 90
        6
176
     1
 90
        2
176
     1
 62
     7
176
     1
 90
        3
176
     1
 90
        0
176
     1
 90
        0
176
     1
290
     0
176
     1
 90
        1
176
     1
 40
0.0
176
     1
 90
        0
176
     1
290
     0
176
     1
290
     1
176
     1
290
     1
176
     1
290
     0
176
     1
290
     0
176
     1
290
     0
176
     1
290
     0
176
     1
290
     0
176
     1
290
     0
176
     1
 90
       50
176
     1
 40
0.0
176
     1
 40
1.0
176
     1
 90
        0
176
     1
 62
    18
420
        0
176
     1
 90
       50
176
     1
 90
        3
176
     1
 62
     5
420
      255
176
     1
290
     0
176
     1
 90
       50
176
     1
 90
       50
176
     1
 90
       50
176
     1
290
     0
176
     1
 90
       50
176
     1
 62
   256
176
     0
 40
1.0
176
     0
 90
        2
176
     1
  1
strokes_ogs.tif
176
     1
290
     0
176
     1
 40
1.0
176
     1
 40
1.0
176
     1
  0
VISUALSTYLE
  5
35
102
{ACAD_REACTORS
330
2A
102
}
330
2A
100
AcDbVisualStyle
  2
Dim
 70
    11
177
     3
291
     1
 70
    58
 90
        2
176
     1
 90
        2
176
     1
 90
        0
176
     1
 90
        0
176
     1
 40
0.6
176
     1
 40
30.0
176
     1
 62
     7
420
 16777215
176
     1
 90
        1
176
     1
 90
        4
176
     1
 62
     7
176
     1
 62
   257
176
     1
 90
        1
176
     1
 90
        1
176
     1
 40
1.0
176
     1
 90
        8
176
     1
 62
     7
176
     1
 40
1.0
176
     1
 90
        1
176
     1
 90
        6
176
     1
 90
        2
176
     1
 62
     7
176
     1
 90
        5
176
     1
 90
        0
176
     1
 90
        0
176
     1
290
     0
176
     1
 90
        1
176
     1
 40
-50.0
176
     1
 90
        0
176
     1
290
     0
176
     1
290
     1
176
     1
290
     1
176
     1
290
     0
176
     1
290
     0
176
     1
290
     0
176
     1
290
     0
176
     1
290
     0
176
     1
290
     0
176
     1
 90
       50
176
     1
 40
0.0
176
     1
 40
1.0
176
     1
 90
        0
176
     1
 62
    18
420
        0
176
     1
 90
       50
176
     1
 90
        3
176
     1
 62
     5
420
      255
176
     1
290
     0
176
     1
 90
       50
176
     1
 90
       50
176
     1
 90
       50
176
     1
290
     0
176
     1
 90
       50
176
     1
 62
   256
176
     0
 40
1.0
176
     0
 90
        2
176
     1
  1
strokes_ogs.tif
176
     1
290
     0
176
     1
 40
1.0
176
     1
 40
1.0
176
     1
  0
VISUALSTYLE
  5
3D
102
{ACAD_REACTORS
330
2A
102
}
330
2A
100
AcDbVisualStyle
  2
EdgeColorOff
 70
    22
177
     3
291
     1
 70
    58
 90
        2
176
     0
 90
        2
176
     0
 90
        0
176
     0
 90
        0
176
     0
 40
0.6
176
     0
 40
30.0
176
     0
 62
     7
420
 16777215
176
     0
 90
        1
176
     0
 90
        4
176
     0
 62
     7
176
     0
 62
   257
176
     0
 90
        1
176
     0
 90
        1
176
     0
 40
1.0
176
     0
 90
        8
176
     2
 62
     7
176
     0
 40
1.0
176
     0
 90
        1
176
     0
 90
        6
176
     0
 90
        2
176
     0
 62
     7
176
     0
 90
        5
176
     0
 90
        0
176
     0
 90
        0
176
     0
290
     0
176
     0
 90
        1
176
     0
 40
0.0
176
     0
 90
        0
176
     0
290
     0
176
     0
290
     1
176
     0
290
     1
176
     0
290
     0
176
     0
290
     0
176
     0
290
     0
176
     0
290
     0
176
     0
290
     0
176
     0
290
     0
176
     0
 90
       50
176
     0
 40
0.0
176
     0
 40
1.0
176
     0
 90
        0
176
     0
 62
    18
420
        0
176
     0
 90
       50
176
     0
 90
        3
176
     0
 62
     5
420
      255
176
     0
290
     0
176
     0
 90
       50
176
     0
 90
       50
176
     0
 90
       50
176
     0
290
     0
176
     0
 90
       50
176
     0
 62
   256
176
     0
 40
1.0
176
     0
 90
        2
176
     0
  1
strokes_ogs.tif
176
     0
290
     0
176
     0
 40
1.0
176
     0
 40
1.0
176
     0
  0
VISUALSTYLE
  5
39
102
{ACAD_REACTORS
330
2A
102
}
330
2A
100
AcDbVisualStyle
  2
Facepattern
 70
    15
177
     3
291
     1
 70
    58
 90
        2
176
     1
 90
        2
176
     1
 90
        0
176
     1
 90
        0
176
     1
 40
0.6
176
     1
 40
30.0
176
     1
 62
     7
420
 16777215
176
     1
 90
        1
176
     1
 90
        4
176
     1
 62
     7
176
     1
 62
   257
176
     1
 90
        1
176
     1
 90
        1
176
     1
 40
1.0
176
     1
 90
        8
176
     1
 62
     7
176
     1
 40
1.0
176
     1
 90
        1
176
     1
 90
        6
176
     1
 90
        2
176
     1
 62
     7
176
     1
 90
        5
176
     1
 90
        0
176
     1
 90
        0
176
     1
290
     0
176
     1
 90
        1
176
     1
 40
0.0
176
     1
 90
        0
176
     1
290
     0
176
     1
290
     1
176
     1
290
     1
176
     1
290
     0
176
     1
290
     0
176
     1
290
     0
176
     1
290
     0
176
     1
290
     0
176
     1
290
     0
176
     1
 90
       50
176
     1
 40
0.0
176
     1
 40
1.0
176
     1
 90
        0
176
     1
 62
    18
420
        0
176
     1
 90
       50
176
     1
 90
        3
176
     1
 62
     5
420
      255
176
     1
290
     0
176
     1
 90
       50
176
     1
 90
       50
176
     1
 90
       50
176
     1
290
     0
176
     1
 90
       50
176
     1
 62
   256
176
     0
 40
1.0
176
     0
 90
        2
176
     1
  1
strokes_ogs.tif
176
     1
290
     0
176
     1
 40
1.0
176
     1
 40
1.0
176
     1
  0
VISUALSTYLE
  5
2B
102
{ACAD_REACTORS
330
2A
102
}
330
2A
100
AcDbVisualStyle
  2
Flat
 70
     0
177
     3
291
     1
 70
    58
 90
        2
176
     1
 90
        1
176
     1
 90
        1
176
     1
 90
        2
176
     1
 40
0.6
176
     1
 40
30.0
176
     1
 62
     7
420
 16777215
176
     1
 90
        0
176
     1
 90
        0
176
     1
 62
     7
176
     1
 62
   257
176
     1
 90
        1
176
     1
 90
        1
176
     1
 40
1.0
176
     1
 90
        8
176
     1
 62
     7
176
     1
 40
1.0
176
     1
 90
        1
176
     1
 90
        6
176
     1
 90
        2
176
     1
 62
     7
176
     1
 90
        5
176
     1
 90
        0
176
     1
 90
        0
176
     1
290
     0
176
     1
 90
       13
176
     1
 40
0.0
176
     1
 90
        0
176
     1
290
     0
176
     1
290
     1
176
     1
290
     1
176
     1
290
     0
176
     1
290
     0
176
     1
290
     0
176
     1
290
     0
176
     1
290
     0
176
     1
290
     0
176
     1
 90
       50
176
     1
 40
0.0
176
     1
 40
1.0
176
     1
 90
        0
176
     1
 62
    18
420
        0
176
     1
 90
       50
176
     1
 90
        3
176
     1
 62
     5
420
      255
176
     1
290
     0
176
     1
 90
       50
176
     1
 90
       50
176
     1
 90
       50
176
     1
290
     0
176
     1
 90
       50
176
     1
 62
   256
176
     0
 40
1.0
176
     0
 90
        2
176
     1
  1
strokes_ogs.tif
176
     1
290
     0
176
     1
 40
1.0
176
     1
 40
1.0
176
     1
  0
VISUALSTYLE
  5
2C
102
{ACAD_REACTORS
330
2A
102
}
330
2A
100
AcDbVisualStyle
  2
FlatWithEdges
 70
     1
177
     3
291
     1
 70
    58
 90
        2
176
     1
 90
        1
176
     1
 90
        1
176
     1
 90
        2
176
     1
 40
0.6
176
     1
 40
30.0
176
     1
 62
     7
420
 16777215
176
     1
 90
        1
176
     1
 90
        0
176
     1
 62
     7
176
     1
 62
   257
176
     1
 90
        1
176
     1
 90
        1
176
     1
 40
1.0
176
     1
 90
        0
176
     1
 62
   257
176
     1
 40
1.0
176
     1
 90
        1
176
     1
 90
        6
176
     1
 90
        2
176
     1
 62
     7
176
     1
 90
        5
176
     1
 90
        0
176
     1
 90
        0
176
     1
290
     0
176
     1
 90
       13
176
     1
 40
0.0
176
     1
 90
        0
176
     1
290
     0
176
     1
290
     1
176
     1
290
     1
176
     1
290
     0
176
     1
290
     0
176
     1
290
     0
176
     1
290
     0
176
     1
290
     0
176
     1
290
     0
176
     1
 90
       50
176
     1
 40
0.0
176
     1
 40
1.0
176
     1
 90
        0
176
     1
 62
    18
420
        0
176
     1
 90
       50
176
     1
 90
        3
176
     1
 62
     5
420
      255
176
     1
290
     0
176
     1
 90
       50
176
     1
 90
       50
176
     1
 90
       50
176
     1
290
     0
176
     1
 90
       50
176
     1
 62
   256
176
     0
 40
1.0
176
     0
 90
        2
176
     1
  1
strokes_ogs.tif
176
     1
290
     0
176
     1
 40
1.0
176
     1
 40
1.0
176
     1
  0
VISUALSTYLE
  5
2D
102
{ACAD_REACTORS
330
2A
102
}
330
2A
100
AcDbVisualStyle
  2
Gouraud
 70
     2
177
     3
291
     1
 70
    58
 90
        2
176
     1
 90
        2
176
     1
 90
        1
176
     1
 90
        2
176
     1
 40
0.6
176
     1
 40
30.0
176
     1
 62
     7
420
 16777215
176
     1
 90
        0
176
     1
 90
        0
176
     1
 62
     7
176
     1
 62
   257
176
     1
 90
        1
176
     1
 90
        1
176
     1
 40
1.0
176
     1
 90
        0
176
     1
 62
     7
176
     1
 40
1.0
176
     1
 90
        1
176
     1
 90
        6
176
     1
 90
        2
176
     1
 62
     7
176
     1
 90
        5
176
     1
 90
        0
176
     1
 90
        0
176
     1
290
     0
176
     1
 90
       13
176
     1
 40
0.0
176
     1
 90
        0
176
     1
290
     0
176
     1
290
     1
176
     1
290
     1
176
     1
290
     0
176
     1
290
     0
176
     1
290
     0
176
     1
290
     0
176
     1
290
     0
176
     1
290
     0
176
     1
 90
       50
176
     1
 40
0.0
176
     1
 40
1.0
176
     1
 90
        0
176
     1
 62
    18
420
        0
176
     1
 90
       50
176
     1
 90
        3
176
     1
 62
     5
420
      255
176
     1
290
     0
176
     1
 90
       50
176
     1
 90
       50
176
     1
 90
       50
176
     1
290
     0
176
     1
 90
       50
176
     1
 62
   256
176
     0
 40
1.0
176
     0
 90
        2
176
     1
  1
strokes_ogs.tif
176
     1
290
     0
176
     1
 40
1.0
176
     1
 40
1.0
176
     1
  0
VISUALSTYLE
  5
2E
102
{ACAD_REACTORS
330
2A
102
}
330
2A
100
AcDbVisualStyle
  2
GouraudWithEdges
 70
     3
177
     3
291
     1
 70
    58
 90
        2
176
     1
 90
        2
176
     1
 90
        1
176
     1
 90
        2
176
     1
 40
0.6
176
     1
 40
30.0
176
     1
 62
     7
420
 16777215
176
     1
 90
        1
176
     1
 90
        0
176
     1
 62
     7
176
     1
 62
   257
176
     1
 90
        1
176
     1
 90
        1
176
     1
 40
1.0
176
     1
 90
        0
176
     1
 62
   257
176
     1
 40
1.0
176
     1
 90
        1
176
     1
 90
        6
176
     1
 90
        2
176
     1
 62
     7
176
     1
 90
        5
176
     1
 90
        0
176
     1
 90
        0
176
     1
290
     0
176
     1
 90
       13
176
     1
 40
0.0
176
     1
 90
        0
176
     1
290
     0
176
     1
290
     1
176
     1
290
     1
176
     1
290
     0
176
     1
290
     0
176
     1
290
     0
176
     1
290
     0
176
     1
290
     0
176
     1
290
     0
176
     1
 90
       50
176
     1
 40
0.0
176
     1
 40
1.0
176
     1
 90
        0
176
     1
 62
    18
420
        0
176
     1
 90
       50
176
     1
 90
        3
176
     1
 62
     5
420
      255
176
     1
290
     0
176
     1
 90
       50
176
     1
 90
       50
176
     1
 90
       50
176
     1
290
     0
176
     1
 90
       50
176
     1
 62
   256
176
     0
 40
1.0
176
     0
 90
        2
176
     1
  1
strokes_ogs.tif
176
     1
290
     0
176
     1
 40
1.0
176
     1
 40
1.0
176
     1
  0
VISUALSTYLE
  5
31
102
{ACAD_REACTORS
330
2A
102
}
330
2A
100
AcDbVisualStyle
  2
Hidden
 70
     6
177
     3
291
     0
 70
    58
 90
        1
176
     1
 90
        2
176
     1
 90
        2
176
     1
 90
        0
176
     1
 40
0.6
176
     1
 40
30.0
176
     1
 62
     7
420
 16777215
176
     1
 90
        2
176
     1
 90
        2
176
     1
 62
     7
176
     1
 62
   257
176
     1
 90
        2
176
     1
 90
        1
176
     1
 40
40.0
176
     1
 90
        0
176
     1
 62
   257
176
     1
 40
1.0
176
     1
 90
        1
176
     1
 90
        6
176
     1
 90
        2
176
     1
 62
     7
176
     1
 90
        3
176
     1
 90
        0
176
     1
 90
        0
176
     1
290
     0
176
     1
 90
        1
176
     1
 40
0.0
176
     1
 90
        0
176
     1
290
     0
176
     1
290
     1
176
     1
290
     1
176
     1
290
     0
176
     1
290
     0
176
     1
290
     0
176
     1
290
     0
176
     1
290
     0
176
     1
290
     0
176
     1
 90
       50
176
     1
 40
0.0
176
     1
 40
1.0
176
     1
 90
        0
176
     1
 62
    18
420
        0
176
     1
 90
       50
176
     1
 90
        3
176
     1
 62
     5
420
      255
176
     1
290
     0
176
     1
 90
       50
176
     1
 90
       50
176
     1
 90
       50
176
     1
290
     0
176
     1
 90
       50
176
     1
 62
   256
176
     0
 40
1.0
176
     0
 90
        2
176
     1
  1
strokes_ogs.tif
176
     1
290
     0
176
     1
 40
1.0
176
     1
 40
1.0
176
     1
  0
VISUALSTYLE
  5
3B
102
{ACAD_REACTORS
330
2A
102
}
330
2A
100
AcDbVisualStyle
  2
JitterOff
 70
    20
177
     3
291
     1
 70
    58
 90
        2
176
     0
 90
        2
176
     0
 90
        0
176
     0
 90
        0
176
     0
 40
0.6
176
     0
 40
30.0
176
     0
 62
     7
420
 16777215
176
     0
 90
        1
176
     0
 90
        4
176
     0
 62
     7
176
     0
 62
   257
176
     0
 90
        1
176
     0
 90
        1
176
     0
 40
1.0
176
     0
 90
       10
176
     2
 62
     7
176
     0
 40
1.0
176
     0
 90
        1
176
     0
 90
        6
176
     0
 90
        2
176
     0
 62
     7
176
     0
 90
        5
176
     0
 90
        0
176
     0
 90
        0
176
     0
290
     0
176
     0
 90
        1
176
     0
 40
0.0
176
     0
 90
        0
176
     0
290
     0
176
     0
290
     1
176
     0
290
     1
176
     0
290
     0
176
     0
290
     0
176
     0
290
     0
176
     0
290
     0
176
     0
290
     0
176
     0
290
     0
176
     0
 90
       50
176
     0
 40
0.0
176
     0
 40
1.0
176
     0
 90
        0
176
     0
 62
    18
420
        0
176
     0
 90
       50
176
     0
 90
        3
176
     0
 62
     5
420
      255
176
     0
290
     0
176
     0
 90
       50
176
     0
 90
       50
176
     0
 90
       50
176
     0
290
     0
176
     0
 90
       50
176
     0
 62
   256
176
     0
 40
1.0
176
     0
 90
        2
176
     0
  1
strokes_ogs.tif
176
     0
290
     0
176
     0
 40
1.0
176
     0
 40
1.0
176
     0
  0
VISUALSTYLE
  5
38
102
{ACAD_REACTORS
330
2A
102
}
330
2A
100
AcDbVisualStyle
  2
Linepattern
 70
    14
177
     3
291
     1
 70
    58
 90
        2
176
     1
 90
        2
176
     1
 90
        0
176
     1
 90
        0
176
     1
 40
0.6
176
     1
 40
30.0
176
     1
 62
     7
420
 16777215
176
     1
 90
        1
176
     1
 90
        4
176
     1
 62
     7
176
     1
 62
   257
176
     1
 90
        7
176
     1
 90
        7
176
     1
 40
1.0
176
     1
 90
        8
176
     1
 62
     7
176
     1
 40
1.0
176
     1
 90
        1
176
     1
 90
        6
176
     1
 90
        2
176
     1
 62
     7
176
     1
 90
        5
176
     1
 90
        0
176
     1
 90
        0
176
     1
290
     0
176
     1
 90
        1
176
     1
 40
0.0
176
     1
 90
        0
176
     1
290
     0
176
     1
290
     1
176
     1
290
     1
176
     1
290
     0
176
     1
290
     0
176
     1
290
     0
176
     1
290
     0
176
     1
290
     0
176
     1
290
     0
176
     1
 90
       50
176
     1
 40
0.0
176
     1
 40
1.0
176
     1
 90
        0
176
     1
 62
    18
420
        0
176
     1
 90
       50
176
     1
 90
        3
176
     1
 62
     5
420
      255
176
     1
290
     0
176
     1
 90
       50
176
     1
 90
       50
176
     1
 90
       50
176
     1
290
     0
176
     1
 90
       50
176
     1
 62
   256
176
     0
 40
1.0
176
     0
 90
        2
176
     1
  1
strokes_ogs.tif
176
     1
290
     0
176
     1
 40
1.0
176
     1
 40
1.0
176
     1
  0
VISUALSTYLE
  5
3C
102
{ACAD_REACTORS
330
2A
102
}
330
2A
100
AcDbVisualStyle
  2
OverhangOff
 70
    21
177
     3
291
     1
 70
    58
 90
        2
176
     0
 90
        2
176
     0
 90
        0
176
     0
 90
        0
176
     0
 40
0.6
176
     0
 40
30.0
176
     0
 62
     7
420
 16777215
176
     0
 90
        1
176
     0
 90
        4
176
     0
 62
     7
176
     0
 62
   257
176
     0
 90
        1
176
     0
 90
        1
176
     0
 40
1.0
176
     0
 90
        9
176
     2
 62
     7
176
     0
 40
1.0
176
     0
 90
        1
176
     0
 90
        6
176
     0
 90
        2
176
     0
 62
     7
176
     0
 90
        5
176
     0
 90
        0
176
     0
 90
        0
176
     0
290
     0
176
     0
 90
        1
176
     0
 40
0.0
176
     0
 90
        0
176
     0
290
     0
176
     0
290
     1
176
     0
290
     1
176
     0
290
     0
176
     0
290
     0
176
     0
290
     0
176
     0
290
     0
176
     0
290
     0
176
     0
290
     0
176
     0
 90
       50
176
     0
 40
0.0
176
     0
 40
1.0
176
     0
 90
        0
176
     0
 62
    18
420
        0
176
     0
 90
       50
176
     0
 90
        3
176
     0
 62
     5
420
      255
176
     0
290
     0
176
     0
 90
       50
176
     0
 90
       50
176
     0
 90
       50
176
     0
290
     0
176
     0
 90
       50
176
     0
 62
   256
176
     0
 40
1.0
176
     0
 90
        2
176
     0
  1
strokes_ogs.tif
176
     0
290
     0
176
     0
 40
1.0
176
     0
 40
1.0
176
     0
  0
VISUALSTYLE
  5
33
102
{ACAD_REACTORS
330
2A
102
}
330
2A
100
AcDbVisualStyle
  2
Realistic
 70
     8
177
     3
291
     0
 70
    58
 90
        2
176
     1
 90
        3
176
     1
 90
        0
176
     1
 90
        2
176
     1
 40
0.6
176
     1
 40
30.0
176
     1
 62
     7
420
 16777215
176
     1
 90
        0
176
     1
 90
        0
176
     1
 62
     7
176
     1
 62
   257
176
     1
 90
        1
176
     1
 90
        1
176
     1
 40
1.0
176
     1
 90
        8
176
     1
 62
   257
176
     1
 40
1.0
176
     1
 90
        1
176
     1
 90
        6
176
     1
 90
        2
176
     1
 62
     7
176
     1
 90
        3
176
     1
 90
        0
176
     1
 90
        0
176
     1
290
     0
176
     1
 90
       13
176
     1
 40
0.0
176
     1
 90
        0
176
     1
290
     0
176
     1
290
     1
176
     1
290
     1
176
     1
290
     0
176
     1
290
     0
176
     1
290
     0
176
     1
290
     0
176
     1
290
     0
176
     1
290
     0
176
     1
 90
       50
176
     1
 40
0.0
176
     1
 40
1.0
176
     1
 90
        0
176
     1
 62
    18
420
        0
176
     1
 90
       50
176
     1
 90
        3
176
     1
 62
     5
420
      255
176
     1
290
     0
176
     1
 90
       50
176
     1
 90
       50
176
     1
 90
       50
176
     1
290
     0
176
     1
 90
       50
176
     1
 62
   256
176
     0
 40
1.0
176
     0
 90
        2
176
     1
  1
strokes_ogs.tif
176
     1
290
     0
176
     1
 40
1.0
176
     1
 40
1.0
176
     1
  0
VISUALSTYLE
  5
42
102
{ACAD_REACTORS
330
2A
102
}
330
2A
100
AcDbVisualStyle
  2
Shaded
 70
    27
177
     3
291
     0
 70
    58
 90
        2
176
     1
 90
        2
176
     1
 90
        1
176
     1
 90
        2
176
     1
 40
0.6
176
     1
 40
30.0
176
     1
 62
     7
420
 16777215
176
     1
 90
        0
176
     1
 90
        4
176
     1
 62
     7
176
     1
 62
   257
176
     1
 90
        1
176
     1
 90
        1
176
     1
 40
1.0
176
     1
 90
        8
176
     1
 62
   257
176
     1
 40
1.0
176
     1
 90
        1
176
     1
 90
        6
176
     1
 90
        2
176
     1
 62
     8
420
  7895160
176
     1
 90
        3
176
     1
 90
        0
176
     1
 90
        0
176
     1
290
     0
176
     1
 90
        5
176
     1
 40
0.0
176
     1
 90
        0
176
     1
290
     0
176
     1
290
     1
176
     1
290
     1
176
     1
290
     0
176
     1
290
     0
176
     1
290
     0
176
     1
290
     0
176
     1
290
     0
176
     1
290
     0
176
     1
 90
       50
176
     1
 40
0.0
176
     1
 40
1.0
176
     1
 90
        0
176
     1
 62
    18
420
        0
176
     1
 90
       50
176
     1
 90
        3
176
     1
 62
     5
420
      255
176
     1
290
     0
176
     1
 90
       50
176
     1
 90
       50
176
     1
 90
       50
176
     1
290
     0
176
     1
 90
       50
176
     1
 62
   256
176
     0
 40
1.0
176
     0
 90
        2
176
     1
  1
strokes_ogs.tif
176
     1
290
     0
176
     1
 40
1.0
176
     1
 40
1.0
176
     1
  0
VISUALSTYLE
  5
41
102
{ACAD_REACTORS
330
2A
102
}
330
2A
100
AcDbVisualStyle
  2
Shaded with edges
 70
    26
177
     3
291
     0
 70
    58
 90
        2
176
     1
 90
        2
176
     1
 90
        1
176
     1
 90
        2
176
     1
 40
0.6
176
     1
 40
30.0
176
     1
 62
     7
420
 16777215
176
     1
 90
        1
176
     1
 90
       10
176
     1
 62
     7
176
     1
 62
   257
176
     1
 90
        2
176
     1
 90
        1
176
     1
 40
1.0
176
     1
 90
        8
176
     1
 62
   257
176
     1
 40
1.0
176
     1
 90
        1
176
     1
 90
        6
176
     1
 90
        2
176
     1
 62
     7
176
     1
 90
        3
176
     1
 90
        0
176
     1
 90
        0
176
     1
290
     0
176
     1
 90
        5
176
     1
 40
0.0
176
     1
 90
        0
176
     1
290
     0
176
     1
290
     1
176
     1
290
     1
176
     1
290
     0
176
     1
290
     0
176
     1
290
     0
176
     1
290
     0
176
     1
290
     0
176
     1
290
     0
176
     1
 90
       50
176
     1
 40
0.0
176
     1
 40
1.0
176
     1
 90
        0
176
     1
 62
    18
420
        0
176
     1
 90
       50
176
     1
 90
        3
176
     1
 62
     5
420
      255
176
     1
290
     0
176
     1
 90
       50
176
     1
 90
       50
176
     1
 90
       50
176
     1
290
     0
176
     1
 90
       50
176
     1
 62
   256
176
     0
 40
1.0
176
     0
 90
        2
176
     1
  1
strokes_ogs.tif
176
     1
290
     0
176
     1
 40
1.0
176
     1
 40
1.0
176
     1
  0
VISUALSTYLE
  5
3E
102
{ACAD_REACTORS
330
2A
102
}
330
2A
100
AcDbVisualStyle
  2
Shades of Gray
 70
    23
177
     3
291
     0
 70
    58
 90
        2
176
     1
 90
        2
176
     1
 90
        3
176
     1
 90
        0
176
     1
 40
0.6
176
     1
 40
30.0
176
     1
 62
     7
420
 16777215
176
     1
 90
        2
176
     1
 90
        2
176
     1
 62
     7
176
     1
 62
     7
176
     1
 90
        1
176
     1
 90
        1
176
     1
 40
40.0
176
     1
 90
        8
176
     1
 62
     7
176
     1
 40
1.0
176
     1
 90
        1
176
     1
 90
        6
176
     1
 90
        2
176
     1
 62
     7
176
     1
 90
        3
176
     1
 90
        0
176
     1
 90
        0
176
     1
290
     0
176
     1
 90
        1
176
     1
 40
0.0
176
     1
 90
        0
176
     1
290
     0
176
     1
290
     1
176
     1
290
     1
176
     1
290
     0
176
     1
290
     0
176
     1
290
     0
176
     1
290
     0
176
     1
290
     0
176
     1
290
     0
176
     1
 90
       50
176
     1
 40
0.0
176
     1
 40
1.0
176
     1
 90
        0
176
     1
 62
    18
420
        0
176
     1
 90
       50
176
     1
 90
        3
176
     1
 62
     5
420
      255
176
     1
290
     0
176
     1
 90
       50
176
     1
 90
       50
176
     1
 90
       50
176
     1
290
     0
176
     1
 90
       50
176
     1
 62
   256
176
     0
 40
1.0
176
     0
 90
        2
176
     1
  1
strokes_ogs.tif
176
     1
290
     0
176
     1
 40
1.0
176
     1
 40
1.0
176
     1
  0
VISUALSTYLE
  5
3F
102
{ACAD_REACTORS
330
2A
102
}
330
2A
100
AcDbVisualStyle
  2
Sketchy
 70
    24
177
     3
291
     0
 70
    58
 90
        1
176
     1
 90
        2
176
     1
 90
        2
176
     1
 90
        0
176
     1
 40
0.6
176
     1
 40
30.0
176
     1
 62
     7
420
 16777215
176
     1
 90
        2
176
     1
 90
        2
176
     1
 62
     7
176
     1
 62
     7
176
     1
 90
        1
176
     1
 90
        1
176
     1
 40
40.0
176
     1
 90
       11
176
     1
 62
     7
176
     1
 40
1.0
176
     1
 90
        1
176
     1
 90
        6
176
     1
 90
        2
176
     1
 62
     7
176
     1
 90
        6
176
     1
 90
        0
176
     1
 90
        0
176
     1
290
     0
176
     1
 90
        1
176
     1
 40
0.0
176
     1
 90
        0
176
     1
290
     0
176
     1
290
     1
176
     1
290
     1
176
     1
290
     0
176
     1
290
     0
176
     1
290
     0
176
     1
290
     0
176
     1
290
     0
176
     1
290
     0
176
     1
 90
       50
176
     1
 40
0.0
176
     1
 40
1.0
176
     1
 90
        0
176
     1
 62
    18
420
        0
176
     1
 90
       50
176
     1
 90
        3
176
     1
 62
     5
420
      255
176
     1
290
     0
176
     1
 90
       50
176
     1
 90
       50
176
     1
 90
       50
176
     1
290
     0
176
     1
 90
       50
176
     1
 62
   256
176
     0
 40
1.0
176
     0
 90
        2
176
     1
  1
strokes_ogs.tif
176
     1
290
     0
176
     1
 40
1.0
176
     1
 40
1.0
176
     1
  0
VISUALSTYLE
  5
37
102
{ACAD_REACTORS
330
2A
102
}
330
2A
100
AcDbVisualStyle
  2
Thicken
 70
    13
177
     3
291
     1
 70
    58
 90
        2
176
     1
 90
        2
176
     1
 90
        0
176
     1
 90
        0
176
     1
 40
0.6
176
     1
 40
30.0
176
     1
 62
     7
420
 16777215
176
     1
 90
        1
176
     1
 90
        4
176
     1
 62
     7
176
     1
 62
   257
176
     1
 90
        1
176
     1
 90
        1
176
     1
 40
1.0
176
     1
 90
       12
176
     1
 62
     7
176
     1
 40
1.0
176
     1
 90
        1
176
     1
 90
        6
176
     1
 90
        2
176
     1
 62
     7
176
     1
 90
        5
176
     1
 90
        0
176
     1
 90
        0
176
     1
290
     0
176
     1
 90
        1
176
     1
 40
0.0
176
     1
 90
        0
176
     1
290
     0
176
     1
290
     1
176
     1
290
     1
176
     1
290
     0
176
     1
290
     0
176
     1
290
     0
176
     1
290
     0
176
     1
290
     0
176
     1
290
     0
176
     1
 90
       50
176
     1
 40
0.0
176
     1
 40
1.0
176
     1
 90
        0
176
     1
 62
    18
420
        0
176
     1
 90
       50
176
     1
 90
        3
176
     1
 62
     5
420
      255
176
     1
290
     0
176
     1
 90
       50
176
     1
 90
       50
176
     1
 90
       50
176
     1
290
     0
176
     1
 90
       50
176
     1
 62
   256
176
     0
 40
1.0
176
     0
 90
        2
176
     1
  1
strokes_ogs.tif
176
     1
290
     0
176
     1
 40
1.0
176
     1
 40
1.0
176
     1
  0
VISUALSTYLE
  5
30
102
{ACAD_REACTORS
330
2A
102
}
330
2A
100
AcDbVisualStyle
  2
Wireframe
 70
     5
177
     3
291
     0
 70
    58
 90
        0
176
     1
 90
        2
176
     1
 90
        0
176
     1
 90
        0
176
     1
 40
0.6
176
     1
 40
30.0
176
     1
 62
     7
420
 16777215
176
     1
 90
        1
176
     1
 90
        4
176
     1
 62
     7
176
     1
 62
   257
176
     1
 90
        1
176
     1
 90
        1
176
     1
 40
1.0
176
     1
 90
        0
176
     1
 62
   257
176
     1
 40
1.0
176
     1
 90
        1
176
     1
 90
        6
176
     1
 90
        2
176
     1
 62
     7
176
     1
 90
        3
176
     1
 90
        0
176
     1
 90
        0
176
     1
290
     0
176
     1
 90
        1
176
     1
 40
0.0
176
     1
 90
        0
176
     1
290
     0
176
     1
290
     1
176
     1
290
     1
176
     1
290
     0
176
     1
290
     0
176
     1
290
     0
176
     1
290
     0
176
     1
290
     0
176
     1
290
     0
176
     1
 90
       50
176
     1
 40
0.0
176
     1
 40
1.0
176
     1
 90
        0
176
     1
 62
    18
420
        0
176
     1
 90
       50
176
     1
 90
        3
176
     1
 62
     5
420
      255
176
     1
290
     0
176
     1
 90
       50
176
     1
 90
       50
176
     1
 90
       50
176
     1
290
     0
176
     1
 90
       50
176
     1
 62
   256
176
     0
 40
1.0
176
     0
 90
        2
176
     1
  1
strokes_ogs.tif
176
     1
290
     0
176
     1
 40
1.0
176
     1
 40
1.0
176
     1
  0
VISUALSTYLE
  5
40
102
{ACAD_REACTORS
330
2A
102
}
330
2A
100
AcDbVisualStyle
  2
X-Ray
 70
    25
177
     3
291
     0
 70
    58
 90
        2
176
     1
 90
        2
176
     1
 90
        1
176
     1
 90
        1
176
     1
 40
0.5
176
     1
 40
30.0
176
     1
 62
     7
420
 16777215
176
     1
 90
        1
176
     1
 90
        0
176
     1
 62
     7
176
     1
 62
   257
176
     1
 90
        1
176
     1
 90
        1
176
     1
 40
1.0
176
     1
 90
        8
176
     1
 62
     7
176
     1
 40
1.0
176
     1
 90
        1
176
     1
 90
        6
176
     1
 90
        2
176
     1
 62
     7
176
     1
 90
        3
176
     1
 90
        0
176
     1
 90
        0
176
     1
290
     0
176
     1
 90
       13
176
     1
 40
0.0
176
     1
 90
        0
176
     1
290
     0
176
     1
290
     1
176
     1
290
     1
176
     1
290
     0
176
     1
290
     0
176
     1
290
     0
176
     1
290
     0
176
     1
290
     0
176
     1
290
     0
176
     1
 90
       50
176
     1
 40
0.0
176
     1
 40
1.0
176
     1
 90
        0
176
     1
 62
    18
420
        0
176
     1
 90
       50
176
     1
 90
        3
176
     1
 62
     5
420
      255
176
     1
290
     0
176
     1
 90
       50
176
     1
 90
       50
176
     1
 90
       50
176
     1
290
     0
176
     1
 90
       50
176
     1
 62
   256
176
     0
 40
1.0
176
     0
 90
        2
176
     1
  1
strokes_ogs.tif
176
     1
290
     0
176
     1
 40
1.0
176
     1
 40
1.0
176
     1
  0
DICTIONARYVAR
  5
22B
102
{ACAD_REACTORS
330
22A
102
}
330
22A
100
DictionaryVariables
280
     0
  1
1:1
  0
DICTIONARYVAR
  5
230
102
{ACAD_REACTORS
330
22A
102
}
330
22A
100
DictionaryVariables
280
     0
  1
Standard
  0
DICTIONARYVAR
  5
22F
102
{ACAD_REACTORS
330
22A
102
}
330
22A
100
DictionaryVariables
280
     0
  1
Standard
  0
DICTIONARY
  5
22C
330
6A
100
AcDbDictionary
280
     1
281
     1
  3
ACAD_ROUNDTRIP_2008_TABLESTYLE_CELLSTYLEMAP
360
22D
  0
CELLSTYLEMAP
  5
22D
102
{ACAD_REACTORS
330
22C
102
}
330
22C
100
AcDbCellStyleMap
 90
        3
300
CELLSTYLE
  1
TABLEFORMAT_BEGIN
 90
        5
170
     1
 91
        0
 92
    32768
 62
   257
 93
        1
300
CONTENTFORMAT
  1
CONTENTFORMAT_BEGIN
 90
        0
 91
        0
 92
        4
 93
        0
300

 40
0.0
140
1.0
 94
        5
 62
     0
340
11
144
0.25
309
CONTENTFORMAT_END
171
     1
301
MARGIN
  1
CELLMARGIN_BEGIN
 40
0.06
 40
0.06
 40
0.06
 40
0.06
 40
0.06
 40
0.06
309
CELLMARGIN_END
 94
        6
 95
        1
302
GRIDFORMAT
  1
GRIDFORMAT_BEGIN
 90
        0
 91
        1
 62
     0
 92
       -2
340
14
 93
        0
 40
0.045
309
GRIDFORMAT_END
 95
        2
302
GRIDFORMAT
  1
GRIDFORMAT_BEGIN
 90
        0
 91
        1
 62
     0
 92
       -2
340
14
 93
        0
 40
0.045
309
GRIDFORMAT_END
 95
        4
302
GRIDFORMAT
  1
GRIDFORMAT_BEGIN
 90
        0
 91
        1
 62
     0
 92
       -2
340
14
 93
        0
 40
0.045
309
GRIDFORMAT_END
 95
        8
302
GRIDFORMAT
  1
GRIDFORMAT_BEGIN
 90
        0
 91
        1
 62
     0
 92
       -2
340
14
 93
        0
 40
0.045
309
GRIDFORMAT_END
 95
       16
302
GRIDFORMAT
  1
GRIDFORMAT_BEGIN
 90
        0
 91
        1
 62
     0
 92
       -2
340
14
 93
        0
 40
0.045
309
GRIDFORMAT_END
 95
       32
302
GRIDFORMAT
  1
GRIDFORMAT_BEGIN
 90
        0
 91
        1
 62
     0
 92
       -2
340
14
 93
        0
 40
0.045
309
GRIDFORMAT_END
309
TABLEFORMAT_END
  1
CELLSTYLE_BEGIN
 90
        1
 91
        1
300
_TITLE
309
CELLSTYLE_END
300
CELLSTYLE
  1
TABLEFORMAT_BEGIN
 90
        5
170
     1
 91
        0
 92
        0
 62
   257
 93
        1
300
CONTENTFORMAT
  1
CONTENTFORMAT_BEGIN
 90
        0
 91
        0
 92
        4
 93
        0
300

 40
0.0
140
1.0
 94
        5
 62
     0
340
11
144
0.18
309
CONTENTFORMAT_END
171
     1
301
MARGIN
  1
CELLMARGIN_BEGIN
 40
0.06
 40
0.06
 40
0.06
 40
0.06
 40
0.06
 40
0.06
309
CELLMARGIN_END
 94
        6
 95
        1
302
GRIDFORMAT
  1
GRIDFORMAT_BEGIN
 90
        0
 91
        1
 62
     0
 92
       -2
340
14
 93
        0
 40
0.045
309
GRIDFORMAT_END
 95
        2
302
GRIDFORMAT
  1
GRIDFORMAT_BEGIN
 90
        0
 91
        1
 62
     0
 92
       -2
340
14
 93
        0
 40
0.045
309
GRIDFORMAT_END
 95
        4
302
GRIDFORMAT
  1
GRIDFORMAT_BEGIN
 90
        0
 91
        1
 62
     0
 92
       -2
340
14
 93
        0
 40
0.045
309
GRIDFORMAT_END
 95
        8
302
GRIDFORMAT
  1
GRIDFORMAT_BEGIN
 90
        0
 91
        1
 62
     0
 92
       -2
340
14
 93
        0
 40
0.045
309
GRIDFORMAT_END
 95
       16
302
GRIDFORMAT
  1
GRIDFORMAT_BEGIN
 90
        0
 91
        1
 62
     0
 92
       -2
340
14
 93
        0
 40
0.045
309
GRIDFORMAT_END
 95
       32
302
GRIDFORMAT
  1
GRIDFORMAT_BEGIN
 90
        0
 91
        1
 62
     0
 92
       -2
340
14
 93
        0
 40
0.045
309
GRIDFORMAT_END
309
TABLEFORMAT_END
  1
CELLSTYLE_BEGIN
 90
        2
 91
        1
300
_HEADER
309
CELLSTYLE_END
300
CELLSTYLE
  1
TABLEFORMAT_BEGIN
 90
        5
170
     1
 91
        0
 92
        0
 62
   257
 93
        1
300
CONTENTFORMAT
  1
CONTENTFORMAT_BEGIN
 90
        0
 91
        0
 92
        4
 93
        0
300

 40
0.0
140
1.0
 94
        2
 62
     0
340
11
144
0.18
309
CONTENTFORMAT_END
171
     1
301
MARGIN
  1
CELLMARGIN_BEGIN
 40
0.06
 40
0.06
 40
0.06
 40
0.06
 40
0.06
 40
0.06
309
CELLMARGIN_END
 94
        6
 95
        1
302
GRIDFORMAT
  1
GRIDFORMAT_BEGIN
 90
        0
 91
        1
 62
     0
 92
       -2
340
14
 93
        0
 40
0.045
309
GRIDFORMAT_END
 95
        2
302
GRIDFORMAT
  1
GRIDFORMAT_BEGIN
 90
        0
 91
        1
 62
     0
 92
       -2
340
14
 93
        0
 40
0.045
309
GRIDFORMAT_END
 95
        4
302
GRIDFORMAT
  1
GRIDFORMAT_BEGIN
 90
        0
 91
        1
 62
     0
 92
       -2
340
14
 93
        0
 40
0.045
309
GRIDFORMAT_END
 95
        8
302
GRIDFORMAT
  1
GRIDFORMAT_BEGIN
 90
        0
 91
        1
 62
     0
 92
       -2
340
14
 93
        0
 40
0.045
309
GRIDFORMAT_END
 95
       16
302
GRIDFORMAT
  1
GRIDFORMAT_BEGIN
 90
        0
 91
        1
 62
     0
 92
       -2
340
14
 93
        0
 40
0.045
309
GRIDFORMAT_END
 95
       32
302
GRIDFORMAT
  1
GRIDFORMAT_BEGIN
 90
        0
 91
        1
 62
     0
 92
       -2
340
14
 93
        0
 40
0.045
309
GRIDFORMAT_END
309
TABLEFORMAT_END
  1
CELLSTYLE_BEGIN
 90
        3
 91
        2
300
_DATA
309
CELLSTYLE_END
  0
ENDSEC
  0
EOF