0
SECTION
  2
HEADER
  9
$ACADVER
  1
AC1027
  9
$ACADMAINTVER
 70
     8
  9
$DWGCODEPAGE
  3
ANSI_1252
  9
$REQUIREDVERSIONS
160
                 0
  9
$COMMENTS
  1
File was created by Cadenas
  9
$CUSTOMPROPERTYTAG
  1
NN
  9
$CUSTOMPROPERTY
  1
Grip Tight Two-Bolt Flange - Stainless Housing, Corrosion Resistant Insert Metric Bore
  9
$CUSTOMPROPERTYTAG
  1
NT
  9
$CUSTOMPROPERTY
  1
GTEZ Normal Duty Stainless Steel Housed 2 Bolt Flange Bearings^M^J
  9
$CUSTOMPROPERTYTAG
  1
NB
  9
$CUSTOMPROPERTY
  1
 129368
  9
$CUSTOMPROPERTYTAG
  1
NBSYN
  9
$CUSTOMPROPERTY
  1
 $PN.$LUBE.
  9
$CUSTOMPROPERTYTAG
  1
LINA
  9
$CUSTOMPROPERTY
  1
129368
  9
$CUSTOMPROPERTYTAG
  1
SERIES
  9
$CUSTOMPROPERTY
  1
210
  9
$CUSTOMPROPERTYTAG
  1
SS
  9
$CUSTOMPROPERTY
  1
50
  9
$CUSTOMPROPERTYTAG
  1
PN
  9
$CUSTOMPROPERTY
  1
129368
  9
$CUSTOMPROPERTYTAG
  1
DESCRIPTION
  9
$CUSTOMPROPERTY
  1
F2B-GTEZ-50M-SHCR
  9
$CUSTOMPROPERTYTAG
  1
A
  9
$CUSTOMPROPERTY
  1
47.2
  9
$CUSTOMPROPERTYTAG
  1
B
  9
$CUSTOMPROPERTY
  1
190.1
  9
$CUSTOMPROPERTYTAG
  1
C
  9
$CUSTOMPROPERTY
  1
50.8
  9
$CUSTOMPROPERTYTAG
  1
D
  9
$CUSTOMPROPERTY
  1
157.2
  9
$CUSTOMPROPERTYTAG
  1
H
  9
$CUSTOMPROPERTY
  1
12.3
  9
$CUSTOMPROPERTYTAG
  1
J
  9
$CUSTOMPROPERTY
  1
15.1
  9
$CUSTOMPROPERTYTAG
  1
F
  9
$CUSTOMPROPERTY
  1
M16
  9
$CUSTOMPROPERTYTAG
  1
L
  9
$CUSTOMPROPERTY
  1
74.6
  9
$CUSTOMPROPERTYTAG
  1
M
  9
$CUSTOMPROPERTY
  1
109.5
  9
$CUSTOMPROPERTYTAG
  1
Z
  9
$CUSTOMPROPERTY
  1
49.6
  9
$CUSTOMPROPERTYTAG
  1
COMPANY
  9
$CUSTOMPROPERTY
  1
baldor
  9
$INSBASE
 10
0.0
 20
0.0
 30
0.0
  9
$EXTMIN
 10
1.000000000000000E+20
 20
1.000000000000000E+20
 30
1.000000000000000E+20
  9
$EXTMAX
 10
-1.000000000000000E+20
 20
-1.000000000000000E+20
 30
-1.000000000000000E+20
  9
$LIMMIN
 10
0.0
 20
0.0
  9
$LIMMAX
 10
420.0
 20
297.0
  9
$ORTHOMODE
 70
     0
  9
$REGENMODE
 70
     1
  9
$FILLMODE
 70
     1
  9
$QTEXTMODE
 70
     0
  9
$MIRRTEXT
 70
     1
  9
$LTSCALE
 40
1.0
  9
$ATTMODE
 70
     1
  9
$TEXTSIZE
 40
2.5
  9
$TRACEWID
 40
1.0
  9
$TEXTSTYLE
  7
Standard
  9
$CLAYER
  8
0
  9
$CELTYPE
  6
ByLayer
  9
$CECOLOR
 62
   256
  9
$CELTSCALE
 40
1.0
  9
$DISPSILH
 70
     0
  9
$DIMSCALE
 40
1.0
  9
$DIMASZ
 40
2.5
  9
$DIMEXO
 40
0.625
  9
$DIMDLI
 40
3.75
  9
$DIMRND
 40
0.0
  9
$DIMDLE
 40
0.0
  9
$DIMEXE
 40
1.25
  9
$DIMTP
 40
0.0
  9
$DIMTM
 40
0.0
  9
$DIMTXT
 40
2.5
  9
$DIMCEN
 40
2.5
  9
$DIMTSZ
 40
0.0
  9
$DIMTOL
 70
     0
  9
$DIMLIM
 70
     0
  9
$DIMTIH
 70
     0
  9
$DIMTOH
 70
     0
  9
$DIMSE1
 70
     0
  9
$DIMSE2
 70
     0
  9
$DIMTAD
 70
     1
  9
$DIMZIN
 70
     8
  9
$DIMBLK
  1

  9
$DIMASO
 70
     1
  9
$DIMSHO
 70
     1
  9
$DIMPOST
  1

  9
$DIMAPOST
  1

  9
$DIMALT
 70
     0
  9
$DIMALTD
 70
     3
  9
$DIMALTF
 40
0.03937007874016
  9
$DIMLFAC
 40
1.0
  9
$DIMTOFL
 70
     1
  9
$DIMTVP
 40
0.0
  9
$DIMTIX
 70
     0
  9
$DIMSOXD
 70
     0
  9
$DIMSAH
 70
     0
  9
$DIMBLK1
  1

  9
$DIMBLK2
  1

  9
$DIMSTYLE
  2
ISO-25
  9
$DIMCLRD
 70
     0
  9
$DIMCLRE
 70
     0
  9
$DIMCLRT
 70
     0
  9
$DIMTFAC
 40
1.0
  9
$DIMGAP
 40
0.625
  9
$DIMJUST
 70
     0
  9
$DIMSD1
 70
     0
  9
$DIMSD2
 70
     0
  9
$DIMTOLJ
 70
     0
  9
$DIMTZIN
 70
     8
  9
$DIMALTZ
 70
     0
  9
$DIMALTTZ
 70
     0
  9
$DIMUPT
 70
     0
  9
$DIMDEC
 70
     2
  9
$DIMTDEC
 70
     2
  9
$DIMALTU
 70
     2
  9
$DIMALTTD
 70
     3
  9
$DIMTXSTY
  7
Standard
  9
$DIMAUNIT
 70
     0
  9
$DIMADEC
 70
     0
  9
$DIMALTRND
 40
0.0
  9
$DIMAZIN
 70
     0
  9
$DIMDSEP
 70
    44
  9
$DIMATFIT
 70
     3
  9
$DIMFRAC
 70
     0
  9
$DIMLDRBLK
  1

  9
$DIMLUNIT
 70
     2
  9
$DIMLWD
 70
    -2
  9
$DIMLWE
 70
    -2
  9
$DIMTMOVE
 70
     0
  9
$DIMFXL
 40
1.0
  9
$DIMFXLON
 70
     0
  9
$DIMJOGANG
 40
0.7853981633974483
  9
$DIMTFILL
 70
     0
  9
$DIMTFILLCLR
 70
     0
  9
$DIMARCSYM
 70
     0
  9
$DIMLTYPE
  6

  9
$DIMLTEX1
  6

  9
$DIMLTEX2
  6

  9
$DIMTXTDIRECTION
 70
     0
  9
$LUNITS
 70
     2
  9
$LUPREC
 70
     4
  9
$SKETCHINC
 40
1.0
  9
$FILLETRAD
 40
10.0
  9
$AUNITS
 70
     0
  9
$AUPREC
 70
     0
  9
$MENU
  1
.
  9
$ELEVATION
 40
0.0
  9
$PELEVATION
 40
0.0
  9
$THICKNESS
 40
0.0
  9
$LIMCHECK
 70
     0
  9
$CHAMFERA
 40
0.0
  9
$CHAMFERB
 40
0.0
  9
$CHAMFERC
 40
0.0
  9
$CHAMFERD
 40
0.0
  9
$SKPOLY
 70
     0
  9
$TDCREATE
 40
2458168.991829375
  9
$TDUCREATE
 40
2458168.950162708
  9
$TDUPDATE
 40
2458168.99182956
  9
$TDUUPDATE
 40
2458168.950162894
  9
$TDINDWG
 40
0.0000000116
  9
$TDUSRTIMER
 40
0.0000000116
  9
$USRTIMER
 70
     1
  9
$ANGBASE
 50
0.0
  9
$ANGDIR
 70
     0
  9
$PDMODE
 70
     0
  9
$PDSIZE
 40
0.0
  9
$PLINEWID
 40
0.0
  9
$SPLFRAME
 70
     0
  9
$SPLINETYPE
 70
     6
  9
$SPLINESEGS
 70
     8
  9
$HANDSEED
  5
22C
  9
$SURFTAB1
 70
     6
  9
$SURFTAB2
 70
     6
  9
$SURFTYPE
 70
     6
  9
$SURFU
 70
     6
  9
$SURFV
 70
     6
  9
$UCSBASE
  2

  9
$UCSNAME
  2

  9
$UCSORG
 10
0.0
 20
0.0
 30
0.0
  9
$UCSXDIR
 10
1.0
 20
0.0
 30
0.0
  9
$UCSYDIR
 10
0.0
 20
1.0
 30
0.0
  9
$UCSORTHOREF
  2

  9
$UCSORTHOVIEW
 70
     0
  9
$UCSORGTOP
 10
0.0
 20
0.0
 30
0.0
  9
$UCSORGBOTTOM
 10
0.0
 20
0.0
 30
0.0
  9
$UCSORGLEFT
 10
0.0
 20
0.0
 30
0.0
  9
$UCSORGRIGHT
 10
0.0
 20
0.0
 30
0.0
  9
$UCSORGFRONT
 10
0.0
 20
0.0
 30
0.0
  9
$UCSORGBACK
 10
0.0
 20
0.0
 30
0.0
  9
$PUCSBASE
  2

  9
$PUCSNAME
  2

  9
$PUCSORG
 10
0.0
 20
0.0
 30
0.0
  9
$PUCSXDIR
 10
1.0
 20
0.0
 30
0.0
  9
$PUCSYDIR
 10
0.0
 20
1.0
 30
0.0
  9
$PUCSORTHOREF
  2

  9
$PUCSORTHOVIEW
 70
     0
  9
$PUCSORGTOP
 10
0.0
 20
0.0
 30
0.0
  9
$PUCSORGBOTTOM
 10
0.0
 20
0.0
 30
0.0
  9
$PUCSORGLEFT
 10
0.0
 20
0.0
 30
0.0
  9
$PUCSORGRIGHT
 10
0.0
 20
0.0
 30
0.0
  9
$PUCSORGFRONT
 10
0.0
 20
0.0
 30
0.0
  9
$PUCSORGBACK
 10
0.0
 20
0.0
 30
0.0
  9
$USERI1
 70
     0
  9
$USERI2
 70
     0
  9
$USERI3
 70
     0
  9
$USERI4
 70
     0
  9
$USERI5
 70
     0
  9
$USERR1
 40
0.0
  9
$USERR2
 40
0.0
  9
$USERR3
 40
0.0
  9
$USERR4
 40
0.0
  9
$USERR5
 40
0.0
  9
$WORLDVIEW
 70
     1
  9
$SHADEDGE
 70
     3
  9
$SHADEDIF
 70
    70
  9
$TILEMODE
 70
     1
  9
$MAXACTVP
 70
    64
  9
$PINSBASE
 10
0.0
 20
0.0
 30
0.0
  9
$PLIMCHECK
 70
     0
  9
$PEXTMIN
 10
1.000000000000000E+20
 20
1.000000000000000E+20
 30
1.000000000000000E+20
  9
$PEXTMAX
 10
-1.000000000000000E+20
 20
-1.000000000000000E+20
 30
-1.000000000000000E+20
  9
$PLIMMIN
 10
0.0
 20
0.0
  9
$PLIMMAX
 10
420.0
 20
297.0
  9
$UNITMODE
 70
     0
  9
$VISRETAIN
 70
     1
  9
$PLINEGEN
 70
     0
  9
$PSLTSCALE
 70
     1
  9
$TREEDEPTH
 70
  3020
  9
$CMLSTYLE
  2
Standard
  9
$CMLJUST
 70
     0
  9
$CMLSCALE
 40
20.0
  9
$PROXYGRAPHICS
 70
     1
  9
$MEASUREMENT
 70
     1
  9
$CELWEIGHT
370
    -1
  9
$ENDCAPS
280
     0
  9
$JOINSTYLE
280
     0
  9
$LWDISPLAY
290
     0
  9
$INSUNITS
 70
     4
  9
$HYPERLINKBASE
  1

  9
$STYLESHEET
  1

  9
$XEDIT
290
     1
  9
$CEPSNTYPE
380
     0
  9
$PSTYLEMODE
290
     1
  9
$FINGERPRINTGUID
  2
{DB4A556F-1248-4E9C-8849-F7E988D73A1D}
  9
$VERSIONGUID
  2
{FAEB1C32-E019-11D5-929B-00C0DF256EC4}
  9
$EXTNAMES
290
     1
  9
$PSVPSCALE
 40
0.0
  9
$OLESTARTUP
290
     0
  9
$SORTENTS
280
   127
  9
$INDEXCTL
280
     0
  9
$HIDETEXT
280
     1
  9
$XCLIPFRAME
280
     2
  9
$HALOGAP
280
     0
  9
$OBSCOLOR
 70
   257
  9
$OBSLTYPE
280
     0
  9
$INTERSECTIONDISPLAY
280
     0
  9
$INTERSECTIONCOLOR
 70
   257
  9
$DIMASSOC
280
     2
  9
$PROJECTNAME
  1

  9
$CAMERADISPLAY
290
     0
  9
$LENSLENGTH
 40
50.0
  9
$CAMERAHEIGHT
 40
0.0
  9
$STEPSPERSEC
 40
2.0
  9
$STEPSIZE
 40
6.0
  9
$3DDWFPREC
 40
2.0
  9
$PSOLWIDTH
 40
5.0
  9
$PSOLHEIGHT
 40
80.0
  9
$LOFTANG1
 40
1.570796326794897
  9
$LOFTANG2
 40
1.570796326794897
  9
$LOFTMAG1
 40
0.0
  9
$LOFTMAG2
 40
0.0
  9
$LOFTPARAM
 70
     7
  9
$LOFTNORMALS
280
     1
  9
$LATITUDE
 40
37.795
  9
$LONGITUDE
 40
-122.394
  9
$NORTHDIRECTION
 40
0.0
  9
$TIMEZONE
 70
 -8000
  9
$LIGHTGLYPHDISPLAY
280
     1
  9
$TILEMODELIGHTSYNCH
280
     1
  9
$CMATERIAL
347
44
  9
$SOLIDHIST
280
     0
  9
$SHOWHIST
280
     1
  9
$DWFFRAME
280
     2
  9
$DGNFRAME
280
     2
  9
$REALWORLDSCALE
290
     1
  9
$INTERFERECOLOR
 62
   256
  9
$CSHADOW
280
     0
  9
$SHADOWPLANELOCATION
 40
0.0
  0
ENDSEC
  0
SECTION
  2
CLASSES
  0
CLASS
  1
ACDBDICTIONARYWDFLT
  2
AcDbDictionaryWithDefault
  3
ObjectDBX Classes
 90
        0
 91
        4
280
     0
281
     0
  0
CLASS
  1
VISUALSTYLE
  2
AcDbVisualStyle
  3
ObjectDBX Classes
 90
     4095
 91
        4
280
     0
281
     0
  0
CLASS
  1
MATERIAL
  2
AcDbMaterial
  3
ObjectDBX Classes
 90
     1153
 91
        4
280
     0
281
     0
  0
CLASS
  1
SCALE
  2
AcDbScale
  3
ObjectDBX Classes
 90
     1153
 91
        4
280
     0
281
     0
  0
CLASS
  1
TABLESTYLE
  2
AcDbTableStyle
  3
ObjectDBX Classes
 90
     4095
 91
        4
280
     0
281
     0
  0
CLASS
  1
MLEADERSTYLE
  2
AcDbMLeaderStyle
  3
ACDB_MLEADERSTYLE_CLASS
 90
     4095
 91
        4
280
     0
281
     0
  0
CLASS
  1
SUN
  2
AcDbSun
  3
SCENEOE
 90
     1153
 91
        4
280
     0
281
     0
  0
CLASS
  1
DICTIONARYVAR
  2
AcDbDictionaryVar
  3
ObjectDBX Classes
 90
        0
 91
        4
280
     0
281
     0
  0
CLASS
  1
CELLSTYLEMAP
  2
AcDbCellStyleMap
  3
ObjectDBX Classes
 90
     1152
 91
        4
280
     0
281
     0
  0
ENDSEC
  0
SECTION
  2
TABLES
  0
TABLE
  2
VPORT
  5
8
330
0
100
AcDbSymbolTable
 70
     1
  0
VPORT
  5
29
330
8
100
AcDbSymbolTableRecord
100
AcDbViewportTableRecord
  2
*Active
 70
     0
 10
0.0
 20
0.0
 11
1.0
 21
1.0
 12
0.0
 22
-25.7175
 13
0.0
 23
0.0
 14
10.0
 24
10.0
 15
10.0
 25
10.0
 16
0.0
 26
0.0
 36
1.0
 17
0.0
 27
0.0
 37
0.0
 40
55.98269999999999
 41
1.995080623121072
 42
50.0
 43
0.0
 44
0.0
 50
0.0
 51
0.0
 71
     0
 72
   100
 73
     1
 74
     3
 75
     0
 76
     0
 77
     0
 78
     0
281
     0
 65
     1
110
0.0
120
0.0
130
0.0
111
1.0
121
0.0
131
0.0
112
0.0
122
1.0
132
0.0
 79
     0
146
0.0
348
2F
 60
     3
 61
     5
292
     1
282
     1
141
0.0
142
0.0
 63
   250
361
6D
  0
ENDTAB
  0
TABLE
  2
LTYPE
  5
5
330
0
100
AcDbSymbolTable
 70
     3
  0
LTYPE
  5
14
330
5
100
AcDbSymbolTableRecord
100
AcDbLinetypeTableRecord
  2
ByBlock
 70
     0
  3

 72
    65
 73
     0
 40
0.0
  0
LTYPE
  5
15
330
5
100
AcDbSymbolTableRecord
100
AcDbLinetypeTableRecord
  2
ByLayer
 70
     0
  3

 72
    65
 73
     0
 40
0.0
  0
LTYPE
  5
16
330
5
100
AcDbSymbolTableRecord
100
AcDbLinetypeTableRecord
  2
Continuous
 70
     0
  3
Solid line
 72
    65
 73
     0
 40
0.0
  0
LTYPE
  5
9D
330
5
100
AcDbSymbolTableRecord
100
AcDbLinetypeTableRecord
  2
Dashed
 70
     0
  3

 72
    65
 73
     2
 40
2.0
 49
1.0
 74
     0
 49
-1.0
 74
     0
  0
LTYPE
  5
104
330
5
100
AcDbSymbolTableRecord
100
AcDbLinetypeTableRecord
  2
Center
 70
     0
  3

 72
    65
 73
     4
 40
1.5
 49
0.45
 74
     0
 49
-0.5
 74
     0
 49
0.05
 74
     0
 49
-0.5
 74
     0
  0
ENDTAB
  0
TABLE
  2
LAYER
  5
2
330
0
100
AcDbSymbolTable
 70
     7
  0
LAYER
  5
10
330
2
100
AcDbSymbolTableRecord
100
AcDbLayerTableRecord
  2
0
 70
     0
 62
     7
  6
Continuous
370
    -3
390
F
347
46
348
0
  0
LAYER
  5
72
330
2
100
AcDbSymbolTableRecord
100
AcDbLayerTableRecord
  2
AM_6
 70
     0
 62
    -2
  6
Continuous
370
    35
390
F
347
46
348
0
  0
LAYER
  5
9E
330
2
100
AcDbSymbolTableRecord
100
AcDbLayerTableRecord
  2
AM_9
 70
     0
 62
     6
  6
Dashed
370
    25
390
F
347
46
348
0
  0
LAYER
  5
CB
330
2
100
AcDbSymbolTableRecord
100
AcDbLayerTableRecord
  2
AM_4
 70
     0
 62
     7
  6
Continuous
370
    50
390
F
347
46
348
0
  0
LAYER
  5
101
330
2
100
AcDbSymbolTableRecord
100
AcDbLayerTableRecord
  2
AM_5
 70
     0
 62
     3
  6
Continuous
370
    25
390
F
347
46
348
0
  0
LAYER
  5
105
330
2
100
AcDbSymbolTableRecord
100
AcDbLayerTableRecord
  2
AM_7
 70
     0
 62
     7
  6
Center
370
    25
390
F
347
46
348
0
  0
LAYER
  5
21F
330
2
100
AcDbSymbolTableRecord
100
AcDbLayerTableRecord
  2
ConnectionPoints
 70
     0
 62
     7
  6
Continuous
370
    50
390
F
347
46
348
0
  0
ENDTAB
  0
TABLE
  2
STYLE
  5
3
330
0
100
AcDbSymbolTable
 70
     1
  0
STYLE
  5
11
330
3
100
AcDbSymbolTableRecord
100
AcDbTextStyleTableRecord
  2
Standard
 70
     0
 40
0.0
 41
1.0
 50
0.0
 71
     0
 42
2.5
  3
txt
  4

  0
ENDTAB
  0
TABLE
  2
VIEW
  5
6
330
0
100
AcDbSymbolTable
 70
     0
  0
ENDTAB
  0
TABLE
  2
UCS
  5
7
330
0
100
AcDbSymbolTable
 70
     0
  0
ENDTAB
  0
TABLE
  2
APPID
  5
9
330
0
100
AcDbSymbolTable
 70
     1
  0
APPID
  5
12
330
9
100
AcDbSymbolTableRecord
100
AcDbRegAppTableRecord
  2
ACAD
 70
     0
  0
ENDTAB
  0
TABLE
  2
DIMSTYLE
  5
A
330
0
100
AcDbSymbolTable
 70
     1
100
AcDbDimStyleTable
  0
DIMSTYLE
105
27
330
A
100
AcDbSymbolTableRecord
100
AcDbDimStyleTableRecord
  2
ISO-25
 70
     0
 41
2.5
 42
0.625
 43
3.75
 44
1.25
 73
     0
 74
     0
 77
     1
 78
     8
140
2.5
141
2.5
143
0.03937007874016
147
0.625
171
     3
172
     1
178
     0
271
     2
272
     2
274
     3
278
    44
283
     0
284
     8
340
11
  0
ENDTAB
  0
TABLE
  2
BLOCK_RECORD
  5
1
330
0
100
AcDbSymbolTable
 70
     5
  0
BLOCK_RECORD
  5
1F
330
1
100
AcDbSymbolTableRecord
100
AcDbBlockTableRecord
  2
*Model_Space
340
22
 70
     0
280
     1
281
     0
  0
BLOCK_RECORD
  5
1B
330
1
100
AcDbSymbolTableRecord
100
AcDbBlockTableRecord
  2
*Paper_Space
340
1E
 70
     0
280
     1
281
     0
  0
BLOCK_RECORD
  5
23
330
1
100
AcDbSymbolTableRecord
100
AcDbBlockTableRecord
  2
*Paper_Space0
340
26
 70
     0
280
     1
281
     0
  0
BLOCK_RECORD
  5
6E
330
1
100
AcDbSymbolTableRecord
100
AcDbBlockTableRecord
  2
1__129368_4
340
0
102
{BLKREFS
331
6F
102
}
 70
     0
280
     1
281
     0
  0
BLOCK_RECORD
  5
87
330
1
100
AcDbSymbolTableRecord
100
AcDbBlockTableRecord
  2
2_INS_GT_10_CR_0_in__129368_4
340
0
102
{BLKREFS
331
88
102
}
 70
     0
280
     1
281
     0
  0
BLOCK_RECORD
  5
CE
330
1
100
AcDbSymbolTableRecord
100
AcDbBlockTableRecord
  2
3_129986_0_in__129368_4
340
0
102
{BLKREFS
331
CF
102
}
 70
     0
280
     1
281
     0
  0
BLOCK_RECORD
  5
121
330
1
100
AcDbSymbolTableRecord
100
AcDbBlockTableRecord
  2
4_F2B_GTEZ_10_SHCR_M_0_in__129368_4
340
0
102
{BLKREFS
331
122
102
}
 70
     0
280
     1
281
     0
  0
ENDTAB
  0
ENDSEC
  0
SECTION
  2
BLOCKS
  0
BLOCK
  5
20
330
1F
100
AcDbEntity
  8
0
100
AcDbBlockBegin
  2
*Model_Space
 70
     0
 10
0.0
 20
0.0
 30
0.0
  3
*Model_Space
  1

  0
ENDBLK
  5
21
330
1F
100
AcDbEntity
  8
0
100
AcDbBlockEnd
  0
BLOCK
  5
1C
330
1B
100
AcDbEntity
 67
     1
  8
0
100
AcDbBlockBegin
  2
*Paper_Space
 70
     0
 10
0.0
 20
0.0
 30
0.0
  3
*Paper_Space
  1

  0
ENDBLK
  5
1D
330
1B
100
AcDbEntity
 67
     1
  8
0
100
AcDbBlockEnd
  0
BLOCK
  5
24
330
23
100
AcDbEntity
  8
0
100
AcDbBlockBegin
  2
*Paper_Space0
 70
     0
 10
0.0
 20
0.0
 30
0.0
  3
*Paper_Space0
  1

  0
ENDBLK
  5
25
330
23
100
AcDbEntity
  8
0
100
AcDbBlockEnd
  0
BLOCK
  5
70
330
6E
100
AcDbEntity
  8
0
100
AcDbBlockBegin
  2
1__129368_4
 70
     2
 10
0.0
 20
0.0
 30
0.0
  3
1__129368_4
  1

  0
ATTDEF
  5
73
330
6E
100
AcDbEntity
  8
AM_6
100
AcDbText
 10
59.74999999999999
 20
1.725
 30
0.0
 40
0.5
  1
Grip Tight Two-Bolt Flange - Stainless Housing, Corrosion Resistant Insert Metric Bore
100
AcDbAttributeDefinition
  3

  2
NN
 70
     8
280
     0
  0
ATTDEF
  5
74
330
6E
100
AcDbEntity
  8
AM_6
100
AcDbText
 10
59.74999999999999
 20
1.225
 30
0.0
 40
0.5
  1
GTEZ Normal Duty Stainless Steel Housed 2 Bolt Flange Bearings^M^J
100
AcDbAttributeDefinition
  3

  2
NT
 70
     8
280
     0
  0
ATTDEF
  5
75
330
6E
100
AcDbEntity
  8
AM_6
100
AcDbText
 10
59.74999999999999
 20
0.7250000000000001
 30
0.0
 40
0.5
  1
 129368
100
AcDbAttributeDefinition
  3

  2
NB
 70
     8
280
     0
  0
ATTDEF
  5
76
330
6E
100
AcDbEntity
  8
AM_6
100
AcDbText
 10
59.74999999999999
 20
0.2250000000000001
 30
0.0
 40
0.5
  1
 $PN.$LUBE.
100
AcDbAttributeDefinition
  3

  2
NBSYN
 70
     8
280
     0
  0
ATTDEF
  5
77
330
6E
100
AcDbEntity
  8
AM_6
100
AcDbText
 10
59.74999999999999
 20
-0.2749999999999999
 30
0.0
 40
0.5
  1
129368
100
AcDbAttributeDefinition
  3

  2
LINA
 70
     8
280
     0
  0
ATTDEF
  5
78
330
6E
100
AcDbEntity
  8
AM_6
100
AcDbText
 10
59.74999999999999
 20
-0.7749999999999999
 30
0.0
 40
0.5
  1
210
100
AcDbAttributeDefinition
  3

  2
SERIES
 70
     8
280
     0
  0
ATTDEF
  5
79
330
6E
100
AcDbEntity
  8
AM_6
100
AcDbText
 10
59.74999999999999
 20
-1.275
 30
0.0
 40
0.5
  1
50
100
AcDbAttributeDefinition
  3

  2
SS
 70
     8
280
     0
  0
ATTDEF
  5
7A
330
6E
100
AcDbEntity
  8
AM_6
100
AcDbText
 10
59.74999999999999
 20
-1.775
 30
0.0
 40
0.5
  1
129368
100
AcDbAttributeDefinition
  3

  2
PN
 70
     8
280
     0
  0
ATTDEF
  5
7B
330
6E
100
AcDbEntity
  8
AM_6
100
AcDbText
 10
59.74999999999999
 20
-2.275
 30
0.0
 40
0.5
  1
F2B-GTEZ-50M-SHCR
100
AcDbAttributeDefinition
  3

  2
DESCRIPTION
 70
     8
280
     0
  0
ATTDEF
  5
7C
330
6E
100
AcDbEntity
  8
AM_6
100
AcDbText
 10
59.74999999999999
 20
-2.775
 30
0.0
 40
0.5
  1
47.2
100
AcDbAttributeDefinition
  3

  2
A
 70
     8
280
     0
  0
ATTDEF
  5
7D
330
6E
100
AcDbEntity
  8
AM_6
100
AcDbText
 10
59.74999999999999
 20
-3.275
 30
0.0
 40
0.5
  1
190.1
100
AcDbAttributeDefinition
  3

  2
B
 70
     8
280
     0
  0
ATTDEF
  5
7E
330
6E
100
AcDbEntity
  8
AM_6
100
AcDbText
 10
59.74999999999999
 20
-3.775
 30
0.0
 40
0.5
  1
50.8
100
AcDbAttributeDefinition
  3

  2
C
 70
     8
280
     0
  0
ATTDEF
  5
7F
330
6E
100
AcDbEntity
  8
AM_6
100
AcDbText
 10
59.74999999999999
 20
-4.275
 30
0.0
 40
0.5
  1
157.2
100
AcDbAttributeDefinition
  3

  2
D
 70
     8
280
     0
  0
ATTDEF
  5
80
330
6E
100
AcDbEntity
  8
AM_6
100
AcDbText
 10
59.74999999999999
 20
-4.775
 30
0.0
 40
0.5
  1
12.3
100
AcDbAttributeDefinition
  3

  2
H
 70
     8
280
     0
  0
ATTDEF
  5
81
330
6E
100
AcDbEntity
  8
AM_6
100
AcDbText
 10
59.74999999999999
 20
-5.275
 30
0.0
 40
0.5
  1
15.1
100
AcDbAttributeDefinition
  3

  2
J
 70
     8
280
     0
  0
ATTDEF
  5
82
330
6E
100
AcDbEntity
  8
AM_6
100
AcDbText
 10
59.74999999999999
 20
-5.775
 30
0.0
 40
0.5
  1
M16
100
AcDbAttributeDefinition
  3

  2
F
 70
     8
280
     0
  0
ATTDEF
  5
83
330
6E
100
AcDbEntity
  8
AM_6
100
AcDbText
 10
59.74999999999999
 20
-6.275
 30
0.0
 40
0.5
  1
74.6
100
AcDbAttributeDefinition
  3

  2
L
 70
     8
280
     0
  0
ATTDEF
  5
84
330
6E
100
AcDbEntity
  8
AM_6
100
AcDbText
 10
59.74999999999999
 20
-6.775
 30
0.0
 40
0.5
  1
109.5
100
AcDbAttributeDefinition
  3

  2
M
 70
     8
280
     0
  0
ATTDEF
  5
85
330
6E
100
AcDbEntity
  8
AM_6
100
AcDbText
 10
59.74999999999999
 20
-7.275
 30
0.0
 40
0.5
  1
49.6
100
AcDbAttributeDefinition
  3

  2
Z
 70
     8
280
     0
  0
ATTDEF
  5
86
330
6E
100
AcDbEntity
  8
AM_6
100
AcDbText
 10
59.74999999999999
 20
-7.775
 30
0.0
 40
0.5
  1
baldor
100
AcDbAttributeDefinition
  3

  2
COMPANY
 70
     8
280
     0
  0
INSERT
  5
88
330
6E
100
AcDbEntity
  8
0
100
AcDbBlockReference
  2
2_INS_GT_10_CR_0_in__129368_4
 10
0.0
 20
0.0
 30
0.0
  0
INSERT
  5
CF
330
6E
100
AcDbEntity
  8
0
100
AcDbBlockReference
  2
3_129986_0_in__129368_4
 10
0.0
 20
0.0
 30
0.0
  0
INSERT
  5
122
330
6E
100
AcDbEntity
  8
0
100
AcDbBlockReference
  2
4_F2B_GTEZ_10_SHCR_M_0_in__129368_4
 10
0.0
 20
0.0
 30
0.0
  0
ENDBLK
  5
71
330
6E
100
AcDbEntity
  8
0
100
AcDbBlockEnd
  0
BLOCK
  5
89
330
87
100
AcDbEntity
  8
0
100
AcDbBlockBegin
  2
2_INS_GT_10_CR_0_in__129368_4
 70
     2
 10
0.0
 20
0.0
 30
0.0
  3
2_INS_GT_10_CR_0_in__129368_4
  1

  0
ATTDEF
  5
8B
330
87
100
AcDbEntity
  8
AM_6
100
AcDbText
 10
49.99672779592768
 20
-5.269999999999995
 30
0.0
 40
0.5
  1
INS-GT-CR-M
100
AcDbAttributeDefinition
  3

  2
NN
 70
     8
280
     0
  0
ATTDEF
  5
8C
330
87
100
AcDbEntity
  8
AM_6
100
AcDbText
 10
49.99672779592768
 20
-5.769999999999995
 30
0.0
 40
0.5
  1
GT Normal Duty Corrosion Resistant Bearing Inserts
100
AcDbAttributeDefinition
  3

  2
NT
 70
     8
280
     0
  0
ATTDEF
  5
8D
330
87
100
AcDbEntity
  8
AM_6
100
AcDbText
 10
49.99672779592768
 20
-6.269999999999995
 30
0.0
 40
0.5
  1
INS-GT-10-CR
100
AcDbAttributeDefinition
  3

  2
NB
 70
     8
280
     0
  0
ATTDEF
  5
8E
330
87
100
AcDbEntity
  8
AM_6
100
AcDbText
 10
49.99672779592768
 20
-6.769999999999995
 30
0.0
 40
0.5
  1
$PN.
100
AcDbAttributeDefinition
  3

  2
NBSYN
 70
     8
280
     0
  0
ATTDEF
  5
8F
330
87
100
AcDbEntity
  8
AM_6
100
AcDbText
 10
49.99672779592768
 20
-7.269999999999995
 30
0.0
 40
0.5
  1
INS-GT-10-CR
100
AcDbAttributeDefinition
  3

  2
LINA
 70
     8
280
     0
  0
ATTDEF
  5
90
330
87
100
AcDbEntity
  8
AM_6
100
AcDbText
 10
49.99672779592768
 20
-7.769999999999995
 30
0.0
 40
0.5
  1
210
100
AcDbAttributeDefinition
  3

  2
SERIES
 70
     8
280
     0
  0
ATTDEF
  5
91
330
87
100
AcDbEntity
  8
AM_6
100
AcDbText
 10
49.99672779592768
 20
-8.269999999999996
 30
0.0
 40
0.5
  1
INS-GT-10-CR
100
AcDbAttributeDefinition
  3

  2
PN
 70
     8
280
     0
  0
ATTDEF
  5
92
330
87
100
AcDbEntity
  8
AM_6
100
AcDbText
 10
49.99672779592768
 20
-8.769999999999996
 30
0.0
 40
0.5
  1
INS-GT-10-CR
100
AcDbAttributeDefinition
  3

  2
DESCRIPTION
 70
     8
280
     0
  0
ATTDEF
  5
93
330
87
100
AcDbEntity
  8
AM_6
100
AcDbText
 10
49.99672779592768
 20
-9.269999999999996
 30
0.0
 40
0.5
  1
47.2
100
AcDbAttributeDefinition
  3

  2
A
 70
     8
280
     0
  0
ATTDEF
  5
94
330
87
100
AcDbEntity
  8
AM_6
100
AcDbText
 10
49.99672779592768
 20
-9.769999999999996
 30
0.0
 40
0.5
  1
22.0
100
AcDbAttributeDefinition
  3

  2
C
 70
     8
280
     0
  0
ATTDEF
  5
95
330
87
100
AcDbEntity
  8
AM_6
100
AcDbText
 10
49.99672779592768
 20
-10.27
 30
0.0
 40
0.5
  1
90.0
100
AcDbAttributeDefinition
  3

  2
D
 70
     8
280
     0
  0
ATTDEF
  5
96
330
87
100
AcDbEntity
  8
AM_6
100
AcDbText
 10
49.99672779592768
 20
-10.77
 30
0.0
 40
0.5
  1
6.3
100
AcDbAttributeDefinition
  3

  2
J
 70
     8
280
     0
  0
ATTDEF
  5
97
330
87
100
AcDbEntity
  8
AM_6
100
AcDbText
 10
49.99672779592768
 20
-11.27
 30
0.0
 40
0.5
  1
74.6
100
AcDbAttributeDefinition
  3

  2
L
 70
     8
280
     0
  0
ATTDEF
  5
98
330
87
100
AcDbEntity
  8
AM_6
100
AcDbText
 10
49.99672779592768
 20
-11.77
 30
0.0
 40
0.5
  1
10 - 32 x 1/4
100
AcDbAttributeDefinition
  3

  2
N
 70
     8
280
     0
  0
ATTDEF
  5
99
330
87
100
AcDbEntity
  8
AM_6
100
AcDbText
 10
49.99672779592768
 20
-12.27
 30
0.0
 40
0.5
  1
16.7
100
AcDbAttributeDefinition
  3

  2
W
 70
     8
280
     0
  0
ATTDEF
  5
9A
330
87
100
AcDbEntity
  8
AM_6
100
AcDbText
 10
49.99672779592768
 20
-12.77
 30
0.0
 40
0.5
  1
29.4
100
AcDbAttributeDefinition
  3

  2
X
 70
     8
280
     0
  0
ATTDEF
  5
9B
330
87
100
AcDbEntity
  8
AM_6
100
AcDbText
 10
49.99672779592768
 20
-13.27
 30
0.0
 40
0.5
  1
30.6
100
AcDbAttributeDefinition
  3

  2
Y
 70
     8
280
     0
  0
ATTDEF
  5
9C
330
87
100
AcDbEntity
  8
AM_6
100
AcDbText
 10
49.99672779592768
 20
-13.77
 30
0.0
 40
0.5
  1
baldor
100
AcDbAttributeDefinition
  3

  2
COMPANY
 70
     8
280
     0
  0
LINE
  5
9F
330
87
100
AcDbEntity
  8
AM_9
100
AcDbLine
 10
27.82698412698413
 20
-42.34999999999999
 30
0.0
 11
27.82698412698413
 21
-31.32499999999992
 31
0.0
  0
LINE
  5
A0
330
87
100
AcDbEntity
  8
AM_9
100
AcDbLine
 10
-27.82698412698412
 20
-31.32499999999992
 30
0.0
 11
-27.82698412698412
 21
-42.34999999999999
 31
0.0
  0
LINE
  5
A1
330
87
100
AcDbEntity
  8
AM_9
100
AcDbLine
 10
-27.82698412698412
 20
-31.32499999999992
 30
0.0
 11
27.82698412698413
 21
-31.32499999999992
 31
0.0
  0
LINE
  5
A2
330
87
100
AcDbEntity
  8
AM_9
100
AcDbLine
 10
27.82698412698413
 20
-31.32499999999992
 30
0.0
 11
28.73684477609161
 21
-5.269999999999995
 31
0.0
  0
LINE
  5
A3
330
87
100
AcDbEntity
  8
AM_9
100
AcDbLine
 10
-28.7368447760916
 20
-5.269999999999995
 30
0.0
 11
-27.82698412698412
 21
-31.32499999999992
 31
0.0
  0
LINE
  5
A4
330
87
100
AcDbEntity
  8
AM_9
100
AcDbLine
 10
30.49126984126984
 20
-38.67499999999999
 30
0.0
 11
30.49126984126984
 21
-34.99999999999999
 31
0.0
  0
LINE
  5
A5
330
87
100
AcDbEntity
  8
AM_9
100
AcDbLine
 10
-30.49126984126984
 20
-34.99999999999999
 30
0.0
 11
-30.49126984126984
 21
-38.67499999999999
 31
0.0
  0
LINE
  5
A6
330
87
100
AcDbEntity
  8
AM_9
100
AcDbLine
 10
33.15555555555555
 20
-34.5
 30
0.0
 11
33.15555555555555
 21
-31.29999999999999
 31
0.0
  0
LINE
  5
A7
330
87
100
AcDbEntity
  8
AM_9
100
AcDbLine
 10
-33.15555555555555
 20
-31.29999999999999
 30
0.0
 11
-33.15555555555555
 21
-34.5
 31
0.0
  0
LINE
  5
A8
330
87
100
AcDbEntity
  8
AM_9
100
AcDbLine
 10
33.15555555555555
 20
-41.46999999999999
 30
0.0
 11
33.15555555555555
 21
-38.67499999999999
 31
0.0
  0
LINE
  5
A9
330
87
100
AcDbEntity
  8
AM_9
100
AcDbLine
 10
-33.15555555555555
 20
-38.67499999999999
 30
0.0
 11
-33.15555555555555
 21
-41.46999999999999
 31
0.0
  0
LINE
  5
AA
330
87
100
AcDbEntity
  8
AM_9
100
AcDbLine
 10
-32.27555555555555
 20
-5.269999999999995
 30
0.0
 11
32.27555555555555
 21
-5.269999999999995
 31
0.0
  0
LINE
  5
AB
330
87
100
AcDbEntity
  8
AM_9
100
AcDbLine
 10
-32.27555555555555
 20
-5.269999999999995
 30
0.0
 11
-33.15555555555555
 21
-6.149999999999996
 31
0.0
  0
LINE
  5
AC
330
87
100
AcDbEntity
  8
AM_9
100
AcDbLine
 10
33.15555555555555
 20
-6.149999999999996
 30
0.0
 11
32.27555555555555
 21
-5.269999999999995
 31
0.0
  0
LINE
  5
AD
330
87
100
AcDbEntity
  8
AM_9
100
AcDbLine
 10
32.27555555555555
 20
-42.34999999999999
 30
0.0
 11
33.15555555555555
 21
-41.46999999999999
 31
0.0
  0
LINE
  5
AE
330
87
100
AcDbEntity
  8
AM_9
100
AcDbLine
 10
-33.15555555555555
 20
-41.46999999999999
 30
0.0
 11
-32.27555555555555
 21
-42.34999999999999
 31
0.0
  0
LINE
  5
AF
330
87
100
AcDbEntity
  8
AM_9
100
AcDbLine
 10
-33.15555555555555
 20
-41.46999999999999
 30
0.0
 11
33.15555555555555
 21
-41.46999999999999
 31
0.0
  0
LINE
  5
B0
330
87
100
AcDbEntity
  8
AM_9
100
AcDbLine
 10
-33.15555555555555
 20
-6.149999999999996
 30
0.0
 11
33.15555555555555
 21
-6.149999999999996
 31
0.0
  0
LINE
  5
B1
330
87
100
AcDbEntity
  8
AM_9
100
AcDbLine
 10
33.15555555555555
 20
-9.299999999999995
 30
0.0
 11
33.15555555555555
 21
-6.149999999999996
 31
0.0
  0
LINE
  5
B2
330
87
100
AcDbEntity
  8
AM_9
100
AcDbLine
 10
-33.15555555555555
 20
-6.149999999999996
 30
0.0
 11
-33.15555555555555
 21
-9.299999999999995
 31
0.0
  0
LINE
  5
B3
330
87
100
AcDbEntity
  8
AM_9
100
AcDbLine
 10
42.8
 20
-27.86
 30
0.0
 11
42.8
 21
-25.33999999999999
 31
0.0
  0
LINE
  5
B4
330
87
100
AcDbEntity
  8
AM_9
100
AcDbLine
 10
-42.8
 20
-25.33999999999999
 30
0.0
 11
-42.8
 21
-27.86
 31
0.0
  0
LINE
  5
B5
330
87
100
AcDbEntity
  8
AM_9
100
AcDbLine
 10
-42.20666581867575
 20
-31.29999999999999
 30
0.0
 11
42.20666581867575
 21
-31.29999999999999
 31
0.0
  0
ARC
  5
B6
330
87
100
AcDbEntity
  8
AM_9
100
AcDbCircle
 10
42.20666580556272
 20
-30.41999999999997
 30
0.0
 40
0.8800000000000203
100
AcDbArc
 50
270.0
 51
338.5875329531146
  0
ARC
  5
B7
330
87
100
AcDbEntity
  8
AM_9
100
AcDbCircle
 10
-42.20666580556272
 20
-30.41999999999997
 30
0.0
 40
0.8800000000000205
100
AcDbArc
 50
201.4124670468856
 51
270.0
  0
LINE
  5
B8
330
87
100
AcDbEntity
  8
AM_9
100
AcDbLine
 10
-42.20666580556272
 20
-9.299999999999995
 30
0.0
 11
42.20666580556272
 21
-9.299999999999995
 31
0.0
  0
ARC
  5
B9
330
87
100
AcDbEntity
  8
AM_9
100
AcDbCircle
 10
42.2066658055627
 20
-10.18000000000003
 30
0.0
 40
0.8800000000000429
100
AcDbArc
 50
21.41246704688552
 51
90.0
  0
ARC
  5
BA
330
87
100
AcDbEntity
  8
AM_9
100
AcDbCircle
 10
-42.2066658055627
 20
-10.18000000000003
 30
0.0
 40
0.8800000000000363
100
AcDbArc
 50
90.0
 51
158.5875329531145
  0
LINE
  5
BB
330
87
100
AcDbEntity
  8
AM_9
100
AcDbLine
 10
-43.02592503748536
 20
-30.74126984126984
 30
0.0
 11
43.02592503748536
 21
-30.74126984126984
 31
0.0
  0
ARC
  5
BC
330
87
100
AcDbEntity
  8
AM_9
100
AcDbCircle
 10
16.40000000000278
 20
-20.30000000000105
 30
0.0
 40
28.59999999999704
100
AcDbArc
 50
338.587532953116
 51
344.089425420229
  0
ARC
  5
BD
330
87
100
AcDbEntity
  8
AM_9
100
AcDbCircle
 10
-16.40000000000071
 20
-20.30000000000035
 30
0.0
 40
28.59999999999922
100
AcDbArc
 50
195.9105745797712
 51
201.4124670468839
  0
LINE
  5
BE
330
87
100
AcDbEntity
  8
AM_9
100
AcDbLine
 10
-43.90435490426049
 20
-28.14031002578864
 30
0.0
 11
43.90435490426049
 21
-28.14031002578864
 31
0.0
  0
LINE
  5
BF
330
87
100
AcDbEntity
  8
AM_9
100
AcDbLine
 10
-43.69278292882572
 20
-27.86
 30
0.0
 11
43.69278292882572
 21
-27.86
 31
0.0
  0
ARC
  5
C0
330
87
100
AcDbEntity
  8
AM_9
100
AcDbCircle
 10
43.69278292882572
 20
-28.07999999999999
 30
0.0
 40
0.2199999999999986
100
AcDbArc
 50
344.0894393216584
 51
90.0
  0
ARC
  5
C1
330
87
100
AcDbEntity
  8
AM_9
100
AcDbCircle
 10
-43.69278292882572
 20
-28.07999999999999
 30
0.0
 40
0.2199999999999989
100
AcDbArc
 50
90.0
 51
195.9105606783415
  0
LINE
  5
C2
330
87
100
AcDbEntity
  8
AM_9
100
AcDbLine
 10
41.91371800070557
 20
-25.33999999999999
 30
0.0
 11
44.36769565051794
 21
-25.33999999999999
 31
0.0
  0
LINE
  5
C3
330
87
100
AcDbEntity
  8
AM_9
100
AcDbLine
 10
-44.36769565051794
 20
-25.33999999999999
 30
0.0
 11
41.61437119062149
 21
-25.33999999999999
 31
0.0
  0
ARC
  5
C4
330
87
100
AcDbEntity
  8
AM_9
100
AcDbCircle
 10
44.36769565051794
 20
-25.11999999999998
 30
0.0
 40
0.2200000000000131
100
AcDbArc
 50
270.0
 51
350.2216048273857
  0
ARC
  5
C5
330
87
100
AcDbEntity
  8
AM_9
100
AcDbCircle
 10
-44.36769565051794
 20
-25.11999999999998
 30
0.0
 40
0.2200000000000104
100
AcDbArc
 50
189.7783951726143
 51
270.0
  0
LINE
  5
C6
330
87
100
AcDbEntity
  8
AM_9
100
AcDbLine
 10
41.42445518339719
 20
-25.15736434108527
 30
0.0
 11
44.58449949277002
 21
-25.15736434108527
 31
0.0
  0
LINE
  5
C7
330
87
100
AcDbEntity
  8
AM_9
100
AcDbLine
 10
-43.02592503748536
 20
-9.858730158730154
 30
0.0
 11
43.02592503748536
 21
-9.858730158730154
 31
0.0
  0
ARC
  5
C8
330
87
100
AcDbEntity
  8
AM_9
100
AcDbCircle
 10
16.39999999999867
 20
-20.30000000000012
 30
0.0
 40
28.60000000000129
100
AcDbArc
 50
350.2216048273918
 51
21.41246704688329
  0
ARC
  5
C9
330
87
100
AcDbEntity
  8
AM_9
100
AcDbCircle
 10
-16.40000000000087
 20
-20.29999999999989
 30
0.0
 40
28.59999999999917
100
AcDbArc
 50
158.5875329531155
 51
189.7783951726095
  0
LINE
  5
CA
330
87
100
AcDbEntity
  8
AM_9
100
AcDbLine
 10
-44.58449949277002
 20
-25.15736434108527
 30
0.0
 11
41.37559898350532
 21
-25.15736434108527
 31
0.0
  0
LINE
  5
CC
330
87
100
AcDbEntity
  8
AM_4
100
AcDbLine
 10
33.15555555555555
 20
-34.99999999999999
 30
0.0
 11
33.15555555555555
 21
-34.5
 31
0.0
  0
LINE
  5
CD
330
87
100
AcDbEntity
  8
AM_4
100
AcDbLine
 10
-33.15555555555555
 20
-34.5
 30
0.0
 11
-33.15555555555555
 21
-34.99999999999999
 31
0.0
  0
ENDBLK
  5
8A
330
87
100
AcDbEntity
  8
0
100
AcDbBlockEnd
  0
BLOCK
  5
D0
330
CE
100
AcDbEntity
  8
0
100
AcDbBlockBegin
  2
3_129986_0_in__129368_4
 70
     2
 10
0.0
 20
0.0
 30
0.0
  3
3_129986_0_in__129368_4
  1

  0
ATTDEF
  5
D2
330
CE
100
AcDbEntity
  8
AM_6
100
AcDbText
 10
42.16675261574516
 20
-3.599999999999992
 30
0.0
 40
0.5
  1
Grip Tight Adapter and Nut - Corrosion Resistant Metric Bore
100
AcDbAttributeDefinition
  3

  2
NN
 70
     8
280
     0
  0
ATTDEF
  5
D3
330
CE
100
AcDbEntity
  8
AM_6
100
AcDbText
 10
42.16675261574516
 20
-4.099999999999993
 30
0.0
 40
0.5
  1
GT and GTM Adapter & Lock Nut Assemblies
100
AcDbAttributeDefinition
  3

  2
NT
 70
     8
280
     0
  0
ATTDEF
  5
D4
330
CE
100
AcDbEntity
  8
AM_6
100
AcDbText
 10
42.16675261574516
 20
-4.599999999999993
 30
0.0
 40
0.5
  1
129986
100
AcDbAttributeDefinition
  3

  2
NB
 70
     8
280
     0
  0
ATTDEF
  5
D5
330
CE
100
AcDbEntity
  8
AM_6
100
AcDbText
 10
42.16675261574516
 20
-5.099999999999993
 30
0.0
 40
0.5
  1
$PN.
100
AcDbAttributeDefinition
  3

  2
NBSYN
 70
     8
280
     0
  0
ATTDEF
  5
D6
330
CE
100
AcDbEntity
  8
AM_6
100
AcDbText
 10
42.16675261574516
 20
-5.599999999999993
 30
0.0
 40
0.5
  1
129986
100
AcDbAttributeDefinition
  3

  2
LINA
 70
     8
280
     0
  0
ATTDEF
  5
D7
330
CE
100
AcDbEntity
  8
AM_6
100
AcDbText
 10
42.16675261574516
 20
-6.099999999999993
 30
0.0
 40
0.5
  1
210
100
AcDbAttributeDefinition
  3

  2
SERIES
 70
     8
280
     0
  0
ATTDEF
  5
D8
330
CE
100
AcDbEntity
  8
AM_6
100
AcDbText
 10
42.16675261574516
 20
-6.599999999999993
 30
0.0
 40
0.5
  1
50
100
AcDbAttributeDefinition
  3

  2
SS
 70
     8
280
     0
  0
ATTDEF
  5
D9
330
CE
100
AcDbEntity
  8
AM_6
100
AcDbText
 10
42.16675261574516
 20
-7.099999999999993
 30
0.0
 40
0.5
  1
129986
100
AcDbAttributeDefinition
  3

  2
PN
 70
     8
280
     0
  0
ATTDEF
  5
DA
330
CE
100
AcDbEntity
  8
AM_6
100
AcDbText
 10
42.16675261574516
 20
-7.599999999999993
 30
0.0
 40
0.5
  1
AN-GT-10-50M-CR
100
AcDbAttributeDefinition
  3

  2
DESCRIPTION
 70
     8
280
     0
  0
ATTDEF
  5
DB
330
CE
100
AcDbEntity
  8
AM_6
100
AcDbText
 10
42.16675261574516
 20
-8.099999999999993
 30
0.0
 40
0.5
  1
47.2
100
AcDbAttributeDefinition
  3

  2
A
 70
     8
280
     0
  0
ATTDEF
  5
DC
330
CE
100
AcDbEntity
  8
AM_6
100
AcDbText
 10
42.16675261574516
 20
-8.599999999999993
 30
0.0
 40
0.5
  1
22.0
100
AcDbAttributeDefinition
  3

  2
C
 70
     8
280
     0
  0
ATTDEF
  5
DD
330
CE
100
AcDbEntity
  8
AM_6
100
AcDbText
 10
42.16675261574516
 20
-9.099999999999993
 30
0.0
 40
0.5
  1
90.0
100
AcDbAttributeDefinition
  3

  2
D
 70
     8
280
     0
  0
ATTDEF
  5
DE
330
CE
100
AcDbEntity
  8
AM_6
100
AcDbText
 10
42.16675261574516
 20
-9.599999999999993
 30
0.0
 40
0.5
  1
6.3
100
AcDbAttributeDefinition
  3

  2
J
 70
     8
280
     0
  0
ATTDEF
  5
DF
330
CE
100
AcDbEntity
  8
AM_6
100
AcDbText
 10
42.16675261574516
 20
-10.09999999999999
 30
0.0
 40
0.5
  1
74.6
100
AcDbAttributeDefinition
  3

  2
L
 70
     8
280
     0
  0
ATTDEF
  5
E0
330
CE
100
AcDbEntity
  8
AM_6
100
AcDbText
 10
42.16675261574516
 20
-10.59999999999999
 30
0.0
 40
0.5
  1
10 - 32 x 1/4
100
AcDbAttributeDefinition
  3

  2
N
 70
     8
280
     0
  0
ATTDEF
  5
E1
330
CE
100
AcDbEntity
  8
AM_6
100
AcDbText
 10
42.16675261574516
 20
-11.09999999999999
 30
0.0
 40
0.5
  1
16.7
100
AcDbAttributeDefinition
  3

  2
W
 70
     8
280
     0
  0
ATTDEF
  5
E2
330
CE
100
AcDbEntity
  8
AM_6
100
AcDbText
 10
42.16675261574516
 20
-11.59999999999999
 30
0.0
 40
0.5
  1
29.4
100
AcDbAttributeDefinition
  3

  2
X
 70
     8
280
     0
  0
ATTDEF
  5
E3
330
CE
100
AcDbEntity
  8
AM_6
100
AcDbText
 10
42.16675261574516
 20
-12.09999999999999
 30
0.0
 40
0.5
  1
30.6
100
AcDbAttributeDefinition
  3

  2
Y
 70
     8
280
     0
  0
ATTDEF
  5
E4
330
CE
100
AcDbEntity
  8
AM_6
100
AcDbText
 10
42.16675261574516
 20
-12.59999999999999
 30
0.0
 40
0.5
  1
baldor
100
AcDbAttributeDefinition
  3

  2
COMPANY
 70
     8
280
     0
  0
LINE
  5
E5
330
CE
100
AcDbEntity
  8
AM_9
100
AcDbLine
 10
-36.8682
 20
-48.61453333333333
 30
0.0
 11
-28.40679999999999
 21
-48.61453333333333
 31
0.0
  0
LINE
  5
E6
330
CE
100
AcDbEntity
  8
AM_9
100
AcDbLine
 10
-28.40679999999999
 20
-44.65213333333333
 30
0.0
 11
-36.8682
 21
-44.65213333333333
 31
0.0
  0
LINE
  5
E7
330
CE
100
AcDbEntity
  8
AM_9
100
AcDbLine
 10
-28.40679999999999
 20
-48.61453333333333
 30
0.0
 11
-27.975
 21
-49.04633333333333
 31
0.0
  0
LINE
  5
E8
330
CE
100
AcDbEntity
  8
AM_9
100
AcDbLine
 10
-27.975
 20
-44.22033333333334
 30
0.0
 11
-28.40679999999999
 21
-44.65213333333333
 31
0.0
  0
LINE
  5
E9
330
CE
100
AcDbEntity
  8
AM_9
100
AcDbLine
 10
-27.975
 20
-44.22033333333334
 30
0.0
 11
-27.975
 21
-49.04633333333333
 31
0.0
  0
LINE
  5
EA
330
CE
100
AcDbEntity
  8
AM_9
100
AcDbLine
 10
-28.40679999999999
 20
-44.65213333333333
 30
0.0
 11
-28.40679999999999
 21
-48.61453333333333
 31
0.0
  0
LINE
  5
EB
330
CE
100
AcDbEntity
  8
AM_9
100
AcDbLine
 10
-36.8682
 20
-44.65213333333333
 30
0.0
 11
-37.29838870375714
 21
-44.22194462957619
 31
0.0
  0
LINE
  5
EC
330
CE
100
AcDbEntity
  8
AM_9
100
AcDbLine
 10
-37.18638935446099
 20
-48.9327226877943
 30
0.0
 11
-36.8682
 21
-48.61453333333333
 31
0.0
  0
LINE
  5
ED
330
CE
100
AcDbEntity
  8
AM_9
100
AcDbLine
 10
-36.8682
 20
-44.65213333333333
 30
0.0
 11
-36.8682
 21
-48.61453333333333
 31
0.0
  0
LINE
  5
EE
330
CE
100
AcDbEntity
  8
AM_9
100
AcDbLine
 10
34.81332504441681
 20
-34.99999999999999
 30
0.0
 11
34.81332504441681
 21
-49.7
 31
0.0
  0
LINE
  5
EF
330
CE
100
AcDbEntity
  8
AM_9
100
AcDbLine
 10
25.0
 20
-50.8
 30
0.0
 11
25.0
 21
-3.599999999999992
 31
0.0
  0
LINE
  5
F0
330
CE
100
AcDbEntity
  8
AM_9
100
AcDbLine
 10
-25.0
 20
-3.599999999999992
 30
0.0
 11
-25.0
 21
-50.8
 31
0.0
  0
LINE
  5
F1
330
CE
100
AcDbEntity
  8
AM_9
100
AcDbLine
 10
27.82698412698412
 20
-42.34999999999999
 30
0.0
 11
27.82698412698412
 21
-31.32500000000019
 31
0.0
  0
LINE
  5
F2
330
CE
100
AcDbEntity
  8
AM_9
100
AcDbLine
 10
-27.82698412698411
 20
-31.32500000000019
 30
0.0
 11
-27.82698412698411
 21
-42.34999999999999
 31
0.0
  0
LINE
  5
F3
330
CE
100
AcDbEntity
  8
AM_9
100
AcDbLine
 10
-1.249999999999998
 20
-3.599999999999992
 30
0.0
 11
-1.249999999999999
 21
-49.7
 31
0.0
  0
LINE
  5
F4
330
CE
100
AcDbEntity
  8
AM_9
100
AcDbLine
 10
1.250000000000002
 20
-3.599999999999992
 30
0.0
 11
1.250000000000002
 21
-49.7
 31
0.0
  0
LINE
  5
F5
330
CE
100
AcDbEntity
  8
AM_9
100
AcDbLine
 10
1.250000000000002
 20
-31.32500000000019
 30
0.0
 11
27.82698412698412
 21
-31.32500000000019
 31
0.0
  0
LINE
  5
F6
330
CE
100
AcDbEntity
  8
AM_9
100
AcDbLine
 10
27.82698412698412
 20
-31.32500000000019
 30
0.0
 11
28.79516246114283
 21
-3.599999999999996
 31
0.0
  0
LINE
  5
F7
330
CE
100
AcDbEntity
  8
AM_9
100
AcDbLine
 10
-28.79516246114283
 20
-3.599999999999996
 30
0.0
 11
-27.82698412698411
 21
-31.32500000000019
 31
0.0
  0
LINE
  5
F8
330
CE
100
AcDbEntity
  8
AM_9
100
AcDbLine
 10
-27.82698412698411
 20
-31.32500000000019
 30
0.0
 11
-1.249999999999998
 21
-31.32500000000019
 31
0.0
  0
LINE
  5
F9
330
CE
100
AcDbEntity
  8
AM_9
100
AcDbLine
 10
-28.79516246114283
 20
-3.599999999999996
 30
0.0
 11
28.79516246114283
 21
-3.599999999999996
 31
0.0
  0
LINE
  5
FA
330
CE
100
AcDbEntity
  8
AM_9
100
AcDbLine
 10
30.49126984126984
 20
-38.67499999999999
 30
0.0
 11
30.49126984126984
 21
-34.99999999999999
 31
0.0
  0
LINE
  5
FB
330
CE
100
AcDbEntity
  8
AM_9
100
AcDbLine
 10
-30.49126984126983
 20
-34.99999999999999
 30
0.0
 11
-30.49126984126983
 21
-38.67499999999999
 31
0.0
  0
LINE
  5
FC
330
CE
100
AcDbEntity
  8
AM_9
100
AcDbLine
 10
-14.67868250028744
 20
-34.99999999999999
 30
0.0
 11
-14.67868250028744
 21
-49.69999999999999
 31
0.0
  0
LINE
  5
FD
330
CE
100
AcDbEntity
  8
AM_9
100
AcDbLine
 10
-33.52855555555555
 20
-38.67499999999999
 30
0.0
 11
33.52855555555555
 21
-38.67499999999999
 31
0.0
  0
LINE
  5
FE
330
CE
100
AcDbEntity
  8
AM_9
100
AcDbLine
 10
-33.52855555555555
 20
-42.34999999999999
 30
0.0
 11
33.52855555555555
 21
-42.34999999999999
 31
0.0
  0
LINE
  5
FF
330
CE
100
AcDbEntity
  8
AM_9
100
AcDbLine
 10
33.52855555555555
 20
-42.34999999999999
 30
0.0
 11
33.52855555555555
 21
-38.67499999999999
 31
0.0
  0
LINE
  5
100
330
CE
100
AcDbEntity
  8
AM_9
100
AcDbLine
 10
-33.52855555555555
 20
-38.67499999999999
 30
0.0
 11
-33.52855555555555
 21
-42.34999999999999
 31
0.0
  0
LINE
  5
102
330
CE
100
AcDbEntity
  8
AM_5
100
AcDbLine
 10
-37.07366666666666
 20
-49.04633333333333
 30
0.0
 11
-27.975
 21
-49.04633333333333
 31
0.0
  0
LINE
  5
103
330
CE
100
AcDbEntity
  8
AM_5
100
AcDbLine
 10
-37.3
 20
-44.22033333333333
 30
0.0
 11
-27.975
 21
-44.22033333333333
 31
0.0
  0
LINE
  5
106
330
CE
100
AcDbEntity
  8
AM_7
100
AcDbLine
 10
-27.50875
 20
-46.63333333333333
 30
0.0
 11
-37.76625
 21
-46.63333333333333
 31
0.0
  0
LINE
  5
107
330
CE
100
AcDbEntity
  8
AM_4
100
AcDbLine
 10
-1.249999999999998
 20
-50.8
 30
0.0
 11
-1.249999999999999
 21
-49.7
 31
0.0
  0
LINE
  5
108
330
CE
100
AcDbEntity
  8
AM_4
100
AcDbLine
 10
1.250000000000002
 20
-50.8
 30
0.0
 11
1.250000000000003
 21
-49.7
 31
0.0
  0
LINE
  5
109
330
CE
100
AcDbEntity
  8
AM_4
100
AcDbLine
 10
27.82698412698412
 20
-50.8
 30
0.0
 11
27.82698412698412
 21
-49.7
 31
0.0
  0
LINE
  5
10A
330
CE
100
AcDbEntity
  8
AM_4
100
AcDbLine
 10
-27.82698412698411
 20
-49.7
 30
0.0
 11
-27.82698412698411
 21
-50.8
 31
0.0
  0
LINE
  5
10B
330
CE
100
AcDbEntity
  8
AM_4
100
AcDbLine
 10
-27.82698412698411
 20
-50.8
 30
0.0
 11
27.82698412698412
 21
-50.8
 31
0.0
  0
LINE
  5
10C
330
CE
100
AcDbEntity
  8
AM_4
100
AcDbLine
 10
-36.41999999999999
 20
-34.99999999999999
 30
0.0
 11
-37.3
 21
-35.88
 31
0.0
  0
LINE
  5
10D
330
CE
100
AcDbEntity
  8
AM_4
100
AcDbLine
 10
-20.86974054839691
 20
-34.99999999999999
 30
0.0
 11
-21.31135632979357
 21
-35.88
 31
0.0
  0
LINE
  5
10E
330
CE
100
AcDbEntity
  8
AM_4
100
AcDbLine
 10
-37.28688840282967
 20
-48.82
 30
0.0
 11
-37.18683333333362
 21
-48.93316666666634
 31
0.0
  0
LINE
  5
10F
330
CE
100
AcDbEntity
  8
AM_4
100
AcDbLine
 10
-21.31135632979358
 20
-48.81999999999999
 30
0.0
 11
-20.86974054839692
 21
-49.7
 31
0.0
  0
LINE
  5
110
330
CE
100
AcDbEntity
  8
AM_4
100
AcDbLine
 10
-37.19403152180094
 20
-48.92596847819905
 30
0.0
 11
-36.41999999999999
 21
-49.7
 31
0.0
  0
LINE
  5
111
330
CE
100
AcDbEntity
  8
AM_4
100
AcDbLine
 10
-37.28688840282967
 20
-48.82
 30
0.0
 11
-21.31135632979358
 21
-48.81999999999999
 31
0.0
  0
LINE
  5
112
330
CE
100
AcDbEntity
  8
AM_4
100
AcDbLine
 10
-21.31135632979357
 20
-35.88
 30
0.0
 11
-21.31135632979358
 21
-48.81999999999999
 31
0.0
  0
LINE
  5
113
330
CE
100
AcDbEntity
  8
AM_4
100
AcDbLine
 10
-37.3
 20
-35.88
 30
0.0
 11
-37.3
 21
-44.2233779662487
 31
0.0
  0
LWPOLYLINE
  5
114
330
CE
100
AcDbEntity
  8
AM_4
100
AcDbPolyline
 90
       18
 70
     0
 43
0.0
 10
-37.29999999999999
 20
-44.22033333333344
 10
-37.29997795483644
 20
-44.22069617830747
 10
-37.29752370334221
 20
-44.26143558559028
 10
-37.29159298060657
 20
-44.36287645560868
 10
-37.2825206423691
 20
-44.52742151260242
 10
-37.2716188839174
 20
-44.74389387954731
 10
-37.25959078932583
 20
-45.01583747812737
 10
-37.24800942555997
 20
-45.33004070533799
 10
-37.23785587679725
 20
-45.68758830712617
 10
-37.2305518775618
 20
-46.07099134606598
 10
-37.22685104417898
 20
-46.48055383721349
 10
-37.22739311472779
 20
-46.89070087197605
 10
-37.23225986023372
 20
-47.30520989342025
 10
-37.24067682829436
 20
-47.69059642334974
 10
-37.25212939656929
 20
-48.05635182979005
 10
-37.26154905552973
 20
-48.29812197900745
 10
-37.27128698098988
 20
-48.51579380743133
 10
-37.28688840282968
 20
-48.82000000000001
  0
LINE
  5
115
330
CE
100
AcDbEntity
  8
AM_4
100
AcDbLine
 10
-37.3
 20
-35.88
 30
0.0
 11
-21.31135632979357
 21
-35.88
 31
0.0
  0
LINE
  5
116
330
CE
100
AcDbEntity
  8
AM_4
100
AcDbLine
 10
-20.13464254412939
 20
-34.99999999999999
 30
0.0
 11
-20.13464254412939
 21
-49.69999999999999
 31
0.0
  0
LINE
  5
117
330
CE
100
AcDbEntity
  8
AM_4
100
AcDbLine
 10
37.16675261574515
 20
-35.88
 30
0.0
 11
37.16675261574516
 21
-48.81999999999999
 31
0.0
  0
LINE
  5
118
330
CE
100
AcDbEntity
  8
AM_4
100
AcDbLine
 10
-15.85539628595161
 20
-48.81999999999999
 30
0.0
 11
-15.85539628595161
 21
-35.88
 31
0.0
  0
LINE
  5
119
330
CE
100
AcDbEntity
  8
AM_4
100
AcDbLine
 10
37.16675261574516
 20
-48.81999999999999
 30
0.0
 11
36.28352105295184
 21
-49.7
 31
0.0
  0
LINE
  5
11A
330
CE
100
AcDbEntity
  8
AM_4
100
AcDbLine
 10
-15.85539628595161
 20
-48.81999999999999
 30
0.0
 11
37.16675261574516
 21
-48.81999999999999
 31
0.0
  0
LINE
  5
11B
330
CE
100
AcDbEntity
  8
AM_4
100
AcDbLine
 10
-15.41378050455496
 20
-49.7
 30
0.0
 11
-15.85539628595161
 21
-48.81999999999999
 31
0.0
  0
LINE
  5
11C
330
CE
100
AcDbEntity
  8
AM_4
100
AcDbLine
 10
-36.41999999999999
 20
-49.7
 30
0.0
 11
36.28352105295184
 21
-49.7
 31
0.0
  0
LINE
  5
11D
330
CE
100
AcDbEntity
  8
AM_4
100
AcDbLine
 10
36.28352105295184
 20
-34.99999999999999
 30
0.0
 11
37.16675261574515
 21
-35.88
 31
0.0
  0
LINE
  5
11E
330
CE
100
AcDbEntity
  8
AM_4
100
AcDbLine
 10
-36.41999999999999
 20
-34.99999999999999
 30
0.0
 11
36.28352105295184
 21
-34.99999999999999
 31
0.0
  0
LINE
  5
11F
330
CE
100
AcDbEntity
  8
AM_4
100
AcDbLine
 10
-15.85539628595161
 20
-35.88
 30
0.0
 11
-15.41378050455495
 21
-34.99999999999999
 31
0.0
  0
LINE
  5
120
330
CE
100
AcDbEntity
  8
AM_4
100
AcDbLine
 10
-15.85539628595161
 20
-35.88
 30
0.0
 11
37.16675261574515
 21
-35.88
 31
0.0
  0
ENDBLK
  5
D1
330
CE
100
AcDbEntity
  8
0
100
AcDbBlockEnd
  0
BLOCK
  5
123
330
121
100
AcDbEntity
  8
0
100
AcDbBlockBegin
  2
4_F2B_GTEZ_10_SHCR_M_0_in__129368_4
 70
     2
 10
0.0
 20
0.0
 30
0.0
  3
4_F2B_GTEZ_10_SHCR_M_0_in__129368_4
  1

  0
ATTDEF
  5
125
330
121
100
AcDbEntity
  8
AM_6
100
AcDbText
 10
59.74999999999999
 20
1.725
 30
0.0
 40
0.5
  1
F2B-GTEZ- SHCR-M
100
AcDbAttributeDefinition
  3

  2
NN
 70
     8
280
     0
  0
ATTDEF
  5
126
330
121
100
AcDbEntity
  8
AM_6
100
AcDbText
 10
59.74999999999999
 20
1.225
 30
0.0
 40
0.5
  1
GTEZ  Normal Duty Stainless Steel Housed 2 Bolt Flange Bearings
100
AcDbAttributeDefinition
  3

  2
NT
 70
     8
280
     0
  0
ATTDEF
  5
127
330
121
100
AcDbEntity
  8
AM_6
100
AcDbText
 10
59.74999999999999
 20
0.7250000000000001
 30
0.0
 40
0.5
  1
F2B-GTEZ-10-SHCR-M
100
AcDbAttributeDefinition
  3

  2
NB
 70
     8
280
     0
  0
ATTDEF
  5
128
330
121
100
AcDbEntity
  8
AM_6
100
AcDbText
 10
59.74999999999999
 20
0.2250000000000001
 30
0.0
 40
0.5
  1
$PN.$LUBE.
100
AcDbAttributeDefinition
  3

  2
NBSYN
 70
     8
280
     0
  0
ATTDEF
  5
129
330
121
100
AcDbEntity
  8
AM_6
100
AcDbText
 10
59.74999999999999
 20
-0.2749999999999999
 30
0.0
 40
0.5
  1
F2B-GTEZ-10-SHCR-M
100
AcDbAttributeDefinition
  3

  2
LINA
 70
     8
280
     0
  0
ATTDEF
  5
12A
330
121
100
AcDbEntity
  8
AM_6
100
AcDbText
 10
59.74999999999999
 20
-0.7749999999999999
 30
0.0
 40
0.5
  1
210
100
AcDbAttributeDefinition
  3

  2
SERIES
 70
     8
280
     0
  0
ATTDEF
  5
12B
330
121
100
AcDbEntity
  8
AM_6
100
AcDbText
 10
59.74999999999999
 20
-1.275
 30
0.0
 40
0.5
  1
50
100
AcDbAttributeDefinition
  3

  2
SS
 70
     8
280
     0
  0
ATTDEF
  5
12C
330
121
100
AcDbEntity
  8
AM_6
100
AcDbText
 10
59.74999999999999
 20
-1.775
 30
0.0
 40
0.5
  1
F2B-GTEZ-10-SHCR-M
100
AcDbAttributeDefinition
  3

  2
PN
 70
     8
280
     0
  0
ATTDEF
  5
12D
330
121
100
AcDbEntity
  8
AM_6
100
AcDbText
 10
59.74999999999999
 20
-2.275
 30
0.0
 40
0.5
  1
F2B-GTEZ-10-SHCR
100
AcDbAttributeDefinition
  3

  2
DESCRIPTION
 70
     8
280
     0
  0
ATTDEF
  5
12E
330
121
100
AcDbEntity
  8
AM_6
100
AcDbText
 10
59.74999999999999
 20
-2.775
 30
0.0
 40
0.5
  1
2.20
100
AcDbAttributeDefinition
  3

  2
WEIGHT
 70
     8
280
     0
  0
ATTDEF
  5
12F
330
121
100
AcDbEntity
  8
AM_6
100
AcDbText
 10
59.74999999999999
 20
-3.275
 30
0.0
 40
0.5
  1
47.2
100
AcDbAttributeDefinition
  3

  2
A
 70
     8
280
     0
  0
ATTDEF
  5
130
330
121
100
AcDbEntity
  8
AM_6
100
AcDbText
 10
59.74999999999999
 20
-3.775
 30
0.0
 40
0.5
  1
190.1
100
AcDbAttributeDefinition
  3

  2
B
 70
     8
280
     0
  0
ATTDEF
  5
131
330
121
100
AcDbEntity
  8
AM_6
100
AcDbText
 10
59.74999999999999
 20
-4.275
 30
0.0
 40
0.5
  1
50.8
100
AcDbAttributeDefinition
  3

  2
C
 70
     8
280
     0
  0
ATTDEF
  5
132
330
121
100
AcDbEntity
  8
AM_6
100
AcDbText
 10
59.74999999999999
 20
-4.775
 30
0.0
 40
0.5
  1
157.2
100
AcDbAttributeDefinition
  3

  2
D
 70
     8
280
     0
  0
ATTDEF
  5
133
330
121
100
AcDbEntity
  8
AM_6
100
AcDbText
 10
59.74999999999999
 20
-5.275
 30
0.0
 40
0.5
  1
M16
100
AcDbAttributeDefinition
  3

  2
F
 70
     8
280
     0
  0
ATTDEF
  5
134
330
121
100
AcDbEntity
  8
AM_6
100
AcDbText
 10
59.74999999999999
 20
-5.775
 30
0.0
 40
0.5
  1
12.3
100
AcDbAttributeDefinition
  3

  2
H
 70
     8
280
     0
  0
ATTDEF
  5
135
330
121
100
AcDbEntity
  8
AM_6
100
AcDbText
 10
59.74999999999999
 20
-6.275
 30
0.0
 40
0.5
  1
15.1
100
AcDbAttributeDefinition
  3

  2
J
 70
     8
280
     0
  0
ATTDEF
  5
136
330
121
100
AcDbEntity
  8
AM_6
100
AcDbText
 10
59.74999999999999
 20
-6.775
 30
0.0
 40
0.5
  1
74.6
100
AcDbAttributeDefinition
  3

  2
L
 70
     8
280
     0
  0
ATTDEF
  5
137
330
121
100
AcDbEntity
  8
AM_6
100
AcDbText
 10
59.74999999999999
 20
-7.275
 30
0.0
 40
0.5
  1
109.5
100
AcDbAttributeDefinition
  3

  2
M
 70
     8
280
     0
  0
ATTDEF
  5
138
330
121
100
AcDbEntity
  8
AM_6
100
AcDbText
 10
59.74999999999999
 20
-7.775
 30
0.0
 40
0.5
  1
49.6
100
AcDbAttributeDefinition
  3

  2
Z
 70
     8
280
     0
  0
ATTDEF
  5
139
330
121
100
AcDbEntity
  8
AM_6
100
AcDbText
 10
59.74999999999999
 20
-8.275
 30
0.0
 40
0.5
  1
baldor
100
AcDbAttributeDefinition
  3

  2
COMPANY
 70
     8
280
     0
  0
LINE
  5
13A
330
121
100
AcDbEntity
  8
AM_9
100
AcDbLine
 10
45.11968382754978
 20
-32.5
 30
0.0
 11
45.11968382754978
 21
-34.5
 31
0.0
  0
LINE
  5
13B
330
121
100
AcDbEntity
  8
AM_9
100
AcDbLine
 10
43.90481265631902
 20
-32.5
 30
0.0
 11
43.90481265631902
 21
-34.5
 31
0.0
  0
LINE
  5
13C
330
121
100
AcDbEntity
  8
AM_9
100
AcDbLine
 10
42.26859063760187
 20
-32.5
 30
0.0
 11
42.26859063760187
 21
-34.5
 31
0.0
  0
LINE
  5
13D
330
121
100
AcDbEntity
  8
AM_9
100
AcDbLine
 10
45.53691674810493
 20
-32.5
 30
0.0
 11
45.53691674810493
 21
-34.5
 31
0.0
  0
LINE
  5
13E
330
121
100
AcDbEntity
  8
AM_9
100
AcDbLine
 10
44.32204557687417
 20
-32.5
 30
0.0
 11
44.32204557687417
 21
-34.5
 31
0.0
  0
LINE
  5
13F
330
121
100
AcDbEntity
  8
AM_9
100
AcDbLine
 10
45.91740887368142
 20
-32.5
 30
0.0
 11
45.91740887368142
 21
-34.5
 31
0.0
  0
LINE
  5
140
330
121
100
AcDbEntity
  8
AM_9
100
AcDbLine
 10
45.01340577863295
 20
-32.5
 30
0.0
 11
45.01340577863295
 21
-34.5
 31
0.0
  0
LINE
  5
141
330
121
100
AcDbEntity
  8
AM_9
100
AcDbLine
 10
44.59617285807781
 20
-32.5
 30
0.0
 11
44.59617285807781
 21
-34.5
 31
0.0
  0
LINE
  5
142
330
121
100
AcDbEntity
  8
AM_9
100
AcDbLine
 10
43.48354860428866
 20
-32.5
 30
0.0
 11
43.48354860428866
 21
-34.5
 31
0.0
  0
LINE
  5
143
330
121
100
AcDbEntity
  8
AM_9
100
AcDbLine
 10
42.68582355815703
 20
-32.5
 30
0.0
 11
42.68582355815703
 21
-34.5
 31
0.0
  0
LINE
  5
144
330
121
100
AcDbEntity
  8
AM_9
100
AcDbLine
 10
47.41766679040661
 20
-32.5
 30
0.0
 11
47.41766679040661
 21
-34.5
 31
0.0
  0
LINE
  5
145
330
121
100
AcDbEntity
  8
AM_9
100
AcDbLine
 10
47.79554680483472
 20
-32.5
 30
0.0
 11
47.79554680483472
 21
-34.5
 31
0.0
  0
LINE
  5
146
330
121
100
AcDbEntity
  8
AM_9
100
AcDbLine
 10
45.66860685913129
 20
-32.5
 30
0.0
 11
45.66860685913129
 21
-34.5
 31
0.0
  0
LINE
  5
147
330
121
100
AcDbEntity
  8
AM_9
100
AcDbLine
 10
47.49867019232467
 20
-32.5
 30
0.0
 11
47.49867019232467
 21
-34.5
 31
0.0
  0
LINE
  5
148
330
121
100
AcDbEntity
  8
AM_9
100
AcDbLine
 10
47.73079865930699
 20
-32.5
 30
0.0
 11
47.73079865930699
 21
-34.5
 31
0.0
  0
LINE
  5
149
330
121
100
AcDbEntity
  8
AM_9
100
AcDbLine
 10
48.14106259457651
 20
-32.5
 30
0.0
 11
48.14106259457651
 21
-34.5
 31
0.0
  0
LINE
  5
14A
330
121
100
AcDbEntity
  8
AM_9
100
AcDbLine
 10
47.91705190771183
 20
-32.5
 30
0.0
 11
47.91705190771183
 21
-34.5
 31
0.0
  0
LINE
  5
14B
330
121
100
AcDbEntity
  8
AM_9
100
AcDbLine
 10
46.40550404224853
 20
-32.5
 30
0.0
 11
46.40550404224853
 21
-34.5
 31
0.0
  0
LINE
  5
14C
330
121
100
AcDbEntity
  8
AM_9
100
AcDbLine
 10
45.82248701958002
 20
-32.5
 30
0.0
 11
45.82248701958002
 21
-34.5
 31
0.0
  0
LINE
  5
14D
330
121
100
AcDbEntity
  8
AM_9
100
AcDbLine
 10
45.39059801639902
 20
-32.5
 30
0.0
 11
45.39059801639902
 21
-34.5
 31
0.0
  0
LINE
  5
14E
330
121
100
AcDbEntity
  8
AM_9
100
AcDbLine
 10
45.61735690499391
 20
-32.5
 30
0.0
 11
45.61735690499391
 21
-34.5
 31
0.0
  0
LINE
  5
14F
330
121
100
AcDbEntity
  8
AM_9
100
AcDbLine
 10
48.34081525231317
 20
-32.5
 30
0.0
 11
48.34081525231317
 21
-34.5
 31
0.0
  0
LINE
  5
150
330
121
100
AcDbEntity
  8
AM_9
100
AcDbLine
 10
48.04393863980313
 20
-32.5
 30
0.0
 11
48.04393863980313
 21
-34.5
 31
0.0
  0
LINE
  5
151
330
121
100
AcDbEntity
  8
AM_9
100
AcDbLine
 10
45.51210311927613
 20
-32.5
 30
0.0
 11
45.51210311927613
 21
-34.5
 31
0.0
  0
LINE
  5
152
330
121
100
AcDbEntity
  8
AM_9
100
AcDbLine
 10
45.15309185943352
 20
-32.5
 30
0.0
 11
45.15309185943352
 21
-34.5
 31
0.0
  0
LINE
  5
153
330
121
100
AcDbEntity
  8
AM_9
100
AcDbLine
 10
46.96427363554059
 20
-32.5
 30
0.0
 11
46.96427363554059
 21
-34.5
 31
0.0
  0
LINE
  5
154
330
121
100
AcDbEntity
  8
AM_9
100
AcDbLine
 10
46.76176513074542
 20
-32.5
 30
0.0
 11
46.76176513074542
 21
-34.5
 31
0.0
  0
LINE
  5
155
330
121
100
AcDbEntity
  8
AM_9
100
AcDbLine
 10
46.52700914512563
 20
-32.5
 30
0.0
 11
46.52700914512563
 21
-34.5
 31
0.0
  0
LINE
  5
156
330
121
100
AcDbEntity
  8
AM_9
100
AcDbLine
 10
45.05596298062138
 20
-32.5
 30
0.0
 11
45.05596298062138
 21
-34.5
 31
0.0
  0
LINE
  5
157
330
121
100
AcDbEntity
  8
AM_9
100
AcDbLine
 10
45.06133807393222
 20
-32.5
 30
0.0
 11
45.06133807393222
 21
-34.5
 31
0.0
  0
LINE
  5
158
330
121
100
AcDbEntity
  8
AM_9
100
AcDbLine
 10
48.60270823309518
 20
-32.5
 30
0.0
 11
48.60270823309518
 21
-34.5
 31
0.0
  0
LINE
  5
159
330
121
100
AcDbEntity
  8
AM_9
100
AcDbLine
 10
48.48120313021808
 20
-32.5
 30
0.0
 11
48.48120313021808
 21
-34.5
 31
0.0
  0
LINE
  5
15A
330
121
100
AcDbEntity
  8
AM_9
100
AcDbLine
 10
48.59732504104738
 20
-32.5
 30
0.0
 11
48.59732504104738
 21
-34.5
 31
0.0
  0
LINE
  5
15B
330
121
100
AcDbEntity
  8
AM_9
100
AcDbLine
 10
48.16544374268023
 20
-32.5
 30
0.0
 11
48.16544374268023
 21
-34.5
 31
0.0
  0
LINE
  5
15C
330
121
100
AcDbEntity
  8
AM_9
100
AcDbLine
 10
45.49322747103633
 20
-32.5
 30
0.0
 11
45.49322747103633
 21
-34.5
 31
0.0
  0
LINE
  5
15D
330
121
100
AcDbEntity
  8
AM_9
100
AcDbLine
 10
45.17746808349848
 20
-32.5
 30
0.0
 11
45.17746808349848
 21
-34.5
 31
0.0
  0
LINE
  5
15E
330
121
100
AcDbEntity
  8
AM_9
100
AcDbLine
 10
48.14656009941154
 20
-32.5
 30
0.0
 11
48.14656009941154
 21
-34.5
 31
0.0
  0
LINE
  5
15F
330
121
100
AcDbEntity
  8
AM_9
100
AcDbLine
 10
48.50557547213334
 20
-32.5
 30
0.0
 11
48.50557547213334
 21
-34.5
 31
0.0
  0
LINE
  5
160
330
121
100
AcDbEntity
  8
AM_9
100
AcDbLine
 10
45.61473257391343
 20
-32.5
 30
0.0
 11
45.61473257391343
 21
-34.5
 31
0.0
  0
LINE
  5
161
330
121
100
AcDbEntity
  8
AM_9
100
AcDbLine
 10
48.04130990562842
 20
-32.5
 30
0.0
 11
48.04130990562842
 21
-34.5
 31
0.0
  0
LINE
  5
162
330
121
100
AcDbEntity
  8
AM_9
100
AcDbLine
 10
47.84968366054967
 20
-32.5
 30
0.0
 11
47.84968366054967
 21
-34.5
 31
0.0
  0
LINE
  5
163
330
121
100
AcDbEntity
  8
AM_9
100
AcDbLine
 10
45.31784786266643
 20
-32.5
 30
0.0
 11
45.31784786266643
 21
-34.5
 31
0.0
  0
LINE
  5
164
330
121
100
AcDbEntity
  8
AM_9
100
AcDbLine
 10
45.74161131097584
 20
-32.5
 30
0.0
 11
45.74161131097584
 21
-34.5
 31
0.0
  0
LINE
  5
165
330
121
100
AcDbEntity
  8
AM_9
100
AcDbLine
 10
48.26806450769594
 20
-32.5
 30
0.0
 11
48.26806450769594
 21
-34.5
 31
0.0
  0
LINE
  5
166
330
121
100
AcDbEntity
  8
AM_9
100
AcDbLine
 10
45.92786815131534
 20
-32.5
 30
0.0
 11
45.92786815131534
 21
-34.5
 31
0.0
  0
LINE
  5
167
330
121
100
AcDbEntity
  8
AM_9
100
AcDbLine
 10
47.57167116880143
 20
-32.5
 30
0.0
 11
47.57167116880143
 21
-34.5
 31
0.0
  0
LINE
  5
168
330
121
100
AcDbEntity
  8
AM_9
100
AcDbLine
 10
46.47851486680282
 20
-32.5
 30
0.0
 11
46.47851486680282
 21
-34.5
 31
0.0
  0
LINE
  5
169
330
121
100
AcDbEntity
  8
AM_9
100
AcDbLine
 10
46.17350048780502
 20
-32.5
 30
0.0
 11
46.17350048780502
 21
-34.5
 31
0.0
  0
LINE
  5
16A
330
121
100
AcDbEntity
  8
AM_9
100
AcDbLine
 10
45.51760473699036
 20
-32.5
 30
0.0
 11
45.51760473699036
 21
-34.5
 31
0.0
  0
LINE
  5
16B
330
121
100
AcDbEntity
  8
AM_9
100
AcDbLine
 10
48.00356245416466
 20
-32.5
 30
0.0
 11
48.00356245416466
 21
-34.5
 31
0.0
  0
LINE
  5
16C
330
121
100
AcDbEntity
  8
AM_9
100
AcDbLine
 10
47.65267422342314
 20
-32.5
 30
0.0
 11
47.65267422342314
 21
-34.5
 31
0.0
  0
LINE
  5
16D
330
121
100
AcDbEntity
  8
AM_9
100
AcDbLine
 10
45.86311571926024
 20
-32.5
 30
0.0
 11
45.86311571926024
 21
-34.5
 31
0.0
  0
LINE
  5
16E
330
121
100
AcDbEntity
  8
AM_9
100
AcDbLine
 10
46.18162674916644
 20
-32.5
 30
0.0
 11
46.18162674916644
 21
-34.5
 31
0.0
  0
LINE
  5
16F
330
121
100
AcDbEntity
  8
AM_9
100
AcDbLine
 10
46.55951792142453
 20
-32.5
 30
0.0
 11
46.55951792142453
 21
-34.5
 31
0.0
  0
LINE
  5
170
330
121
100
AcDbEntity
  8
AM_9
100
AcDbLine
 10
48.66406
 20
-32.5
 30
0.0
 11
48.66406
 21
-34.5
 31
0.0
  0
LINE
  5
171
330
121
100
AcDbEntity
  8
AM_9
100
AcDbLine
 10
46.814018
 20
-32.5
 30
0.0
 11
46.814018
 21
-34.5
 31
0.0
  0
LINE
  5
172
330
121
100
AcDbEntity
  8
AM_9
100
AcDbLine
 10
47.18403
 20
-32.5
 30
0.0
 11
47.18403
 21
-34.5
 31
0.0
  0
LINE
  5
173
330
121
100
AcDbEntity
  8
AM_9
100
AcDbLine
 10
48.29405
 20
-32.5
 30
0.0
 11
48.29405
 21
-34.5
 31
0.0
  0
LINE
  5
174
330
121
100
AcDbEntity
  8
AM_9
100
AcDbLine
 10
48.59006
 20
-32.5
 30
0.0
 11
48.59006
 21
-34.5
 31
0.0
  0
LINE
  5
175
330
121
100
AcDbEntity
  8
AM_9
100
AcDbLine
 10
46.888019
 20
-32.5
 30
0.0
 11
46.888019
 21
-34.5
 31
0.0
  0
LINE
  5
176
330
121
100
AcDbEntity
  8
AM_9
100
AcDbLine
 10
48.81206
 20
-32.5
 30
0.0
 11
48.81206
 21
-34.5
 31
0.0
  0
LINE
  5
177
330
121
100
AcDbEntity
  8
AM_9
100
AcDbLine
 10
46.666015
 20
-32.5
 30
0.0
 11
46.666015
 21
-34.5
 31
0.0
  0
LINE
  5
178
330
121
100
AcDbEntity
  8
AM_9
100
AcDbLine
 10
49.25607
 20
-32.5
 30
0.0
 11
49.25607
 21
-34.5
 31
0.0
  0
LINE
  5
179
330
121
100
AcDbEntity
  8
AM_9
100
AcDbLine
 10
46.222005
 20
-32.5
 30
0.0
 11
46.222005
 21
-34.5
 31
0.0
  0
LINE
  5
17A
330
121
100
AcDbEntity
  8
AM_9
100
AcDbLine
 10
46.51801100000001
 20
-32.5
 30
0.0
 11
46.51801100000001
 21
-34.5
 31
0.0
  0
LINE
  5
17B
330
121
100
AcDbEntity
  8
AM_9
100
AcDbLine
 10
48.96006
 20
-32.5
 30
0.0
 11
48.96006
 21
-34.5
 31
0.0
  0
LINE
  5
17C
330
121
100
AcDbEntity
  8
AM_9
100
AcDbLine
 10
46.0740016
 20
-32.5
 30
0.0
 11
46.0740016
 21
-34.5
 31
0.0
  0
LINE
  5
17D
330
121
100
AcDbEntity
  8
AM_9
100
AcDbLine
 10
49.40407
 20
-32.5
 30
0.0
 11
49.40407
 21
-34.5
 31
0.0
  0
LINE
  5
17E
330
121
100
AcDbEntity
  8
AM_9
100
AcDbLine
 10
49.03407
 20
-32.5
 30
0.0
 11
49.03407
 21
-34.5
 31
0.0
  0
LINE
  5
17F
330
121
100
AcDbEntity
  8
AM_9
100
AcDbLine
 10
46.44401
 20
-32.5
 30
0.0
 11
46.44401
 21
-34.5
 31
0.0
  0
LINE
  5
180
330
121
100
AcDbEntity
  8
AM_9
100
AcDbLine
 10
46.0
 20
-32.5
 30
0.0
 11
46.0
 21
-34.5
 31
0.0
  0
LINE
  5
181
330
121
100
AcDbEntity
  8
AM_9
100
AcDbLine
 10
49.47808
 20
-32.5
 30
0.0
 11
49.47808
 21
-34.5
 31
0.0
  0
LINE
  5
182
330
121
100
AcDbEntity
  8
AM_9
100
AcDbLine
 10
46.62932825203873
 20
-32.5
 30
0.0
 11
46.62932825203873
 21
-34.5
 31
0.0
  0
LINE
  5
183
330
121
100
AcDbEntity
  8
AM_9
100
AcDbLine
 10
47.00721834767812
 20
-32.5
 30
0.0
 11
47.00721834767812
 21
-34.5
 31
0.0
  0
LINE
  5
184
330
121
100
AcDbEntity
  8
AM_9
100
AcDbLine
 10
48.10037464967673
 20
-32.5
 30
0.0
 11
48.10037464967673
 21
-34.5
 31
0.0
  0
LINE
  5
185
330
121
100
AcDbEntity
  8
AM_9
100
AcDbLine
 10
46.31081597186565
 20
-32.5
 30
0.0
 11
46.31081597186565
 21
-34.5
 31
0.0
  0
LINE
  5
186
330
121
100
AcDbEntity
  8
AM_9
100
AcDbLine
 10
46.92621494576005
 20
-32.5
 30
0.0
 11
46.92621494576005
 21
-34.5
 31
0.0
  0
LINE
  5
187
330
121
100
AcDbEntity
  8
AM_9
100
AcDbLine
 10
46.62120160865133
 20
-32.5
 30
0.0
 11
46.62120160865133
 21
-34.5
 31
0.0
  0
LINE
  5
188
330
121
100
AcDbEntity
  8
AM_9
100
AcDbLine
 10
48.45126395703695
 20
-32.5
 30
0.0
 11
48.45126395703695
 21
-34.5
 31
0.0
  0
LINE
  5
189
330
121
100
AcDbEntity
  8
AM_9
100
AcDbLine
 10
46.3755680566244
 20
-32.5
 30
0.0
 11
46.3755680566244
 21
-34.5
 31
0.0
  0
LINE
  5
18A
330
121
100
AcDbEntity
  8
AM_9
100
AcDbLine
 10
45.96530585783665
 20
-32.5
 30
0.0
 11
45.96530585783665
 21
-34.5
 31
0.0
  0
LINE
  5
18B
330
121
100
AcDbEntity
  8
AM_9
100
AcDbLine
 10
48.01937124775866
 20
-32.5
 30
0.0
 11
48.01937124775866
 21
-34.5
 31
0.0
  0
LINE
  5
18C
330
121
100
AcDbEntity
  8
AM_9
100
AcDbLine
 10
48.29738478139598
 20
-32.5
 30
0.0
 11
48.29738478139598
 21
-34.5
 31
0.0
  0
LINE
  5
18D
330
121
100
AcDbEntity
  8
AM_9
100
AcDbLine
 10
46.18931260547032
 20
-32.5
 30
0.0
 11
46.18931260547032
 21
-34.5
 31
0.0
  0
LINE
  5
18E
330
121
100
AcDbEntity
  8
AM_9
100
AcDbLine
 10
48.71576476030136
 20
-32.5
 30
0.0
 11
48.71576476030136
 21
-34.5
 31
0.0
  0
LINE
  5
18F
330
121
100
AcDbEntity
  8
AM_9
100
AcDbLine
 10
48.48900981093747
 20
-32.5
 30
0.0
 11
48.48900981093747
 21
-34.5
 31
0.0
  0
LINE
  5
190
330
121
100
AcDbEntity
  8
AM_9
100
AcDbLine
 10
45.76554811527185
 20
-32.5
 30
0.0
 11
45.76554811527185
 21
-34.5
 31
0.0
  0
LINE
  5
191
330
121
100
AcDbEntity
  8
AM_9
100
AcDbLine
 10
46.06243300016702
 20
-32.5
 30
0.0
 11
46.06243300016702
 21
-34.5
 31
0.0
  0
LINE
  5
192
330
121
100
AcDbEntity
  8
AM_9
100
AcDbLine
 10
48.59426139390602
 20
-32.5
 30
0.0
 11
48.59426139390602
 21
-34.5
 31
0.0
  0
LINE
  5
193
330
121
100
AcDbEntity
  8
AM_9
100
AcDbLine
 10
48.95327659297964
 20
-32.5
 30
0.0
 11
48.95327659297964
 21
-34.5
 31
0.0
  0
LINE
  5
194
330
121
100
AcDbEntity
  8
AM_9
100
AcDbLine
 10
49.05040865934877
 20
-32.5
 30
0.0
 11
49.05040865934877
 21
-34.5
 31
0.0
  0
LINE
  5
195
330
121
100
AcDbEntity
  8
AM_9
100
AcDbLine
 10
49.04502529365281
 20
-32.5
 30
0.0
 11
49.04502529365281
 21
-34.5
 31
0.0
  0
LINE
  5
196
330
121
100
AcDbEntity
  8
AM_9
100
AcDbLine
 10
45.51716455268858
 20
-32.5
 30
0.0
 11
45.51716455268858
 21
-34.5
 31
0.0
  0
LINE
  5
197
330
121
100
AcDbEntity
  8
AM_9
100
AcDbLine
 10
45.62516850975207
 20
-32.5
 30
0.0
 11
45.62516850975207
 21
-34.5
 31
0.0
  0
LINE
  5
198
330
121
100
AcDbEntity
  8
AM_9
100
AcDbLine
 10
45.52253947235124
 20
-32.5
 30
0.0
 11
45.52253947235124
 21
-34.5
 31
0.0
  0
LINE
  5
199
330
121
100
AcDbEntity
  8
AM_9
100
AcDbLine
 10
45.95442904310352
 20
-32.5
 30
0.0
 11
45.95442904310352
 21
-34.5
 31
0.0
  0
LINE
  5
19A
330
121
100
AcDbEntity
  8
AM_9
100
AcDbLine
 10
48.61314416893382
 20
-32.5
 30
0.0
 11
48.61314416893382
 21
-34.5
 31
0.0
  0
LINE
  5
19B
330
121
100
AcDbEntity
  8
AM_9
100
AcDbLine
 10
48.94240470228527
 20
-32.5
 30
0.0
 11
48.94240470228527
 21
-34.5
 31
0.0
  0
LINE
  5
19C
330
121
100
AcDbEntity
  8
AM_9
100
AcDbLine
 10
45.97330382310243
 20
-32.5
 30
0.0
 11
45.97330382310243
 21
-34.5
 31
0.0
  0
LINE
  5
19D
330
121
100
AcDbEntity
  8
AM_9
100
AcDbLine
 10
45.61429238961166
 20
-32.5
 30
0.0
 11
45.61429238961165
 21
-34.5
 31
0.0
  0
LINE
  5
19E
330
121
100
AcDbEntity
  8
AM_9
100
AcDbLine
 10
48.50514021187033
 20
-32.5
 30
0.0
 11
48.50514021187033
 21
-34.5
 31
0.0
  0
LINE
  5
19F
330
121
100
AcDbEntity
  8
AM_9
100
AcDbLine
 10
46.07855795611657
 20
-32.5
 30
0.0
 11
46.07855795611657
 21
-34.5
 31
0.0
  0
LINE
  5
1A0
330
121
100
AcDbEntity
  8
AM_9
100
AcDbLine
 10
46.27018814042633
 20
-32.5
 30
0.0
 11
46.27018814042633
 21
-34.5
 31
0.0
  0
LINE
  5
1A1
330
121
100
AcDbEntity
  8
AM_9
100
AcDbLine
 10
48.80201665073219
 20
-32.5
 30
0.0
 11
48.80201665073219
 21
-34.5
 31
0.0
  0
LINE
  5
1A2
330
121
100
AcDbEntity
  8
AM_9
100
AcDbLine
 10
48.37825261153814
 20
-32.5
 30
0.0
 11
48.37825261153814
 21
-34.5
 31
0.0
  0
LINE
  5
1A3
330
121
100
AcDbEntity
  8
AM_9
100
AcDbLine
 10
45.85179941481804
 20
-32.5
 30
0.0
 11
45.85179941481804
 21
-34.5
 31
0.0
  0
LINE
  5
1A4
330
121
100
AcDbEntity
  8
AM_9
100
AcDbLine
 10
48.19199971042965
 20
-32.5
 30
0.0
 11
48.19199971042965
 21
-34.5
 31
0.0
  0
LINE
  5
1A5
330
121
100
AcDbEntity
  8
AM_9
100
AcDbLine
 10
47.94637131317098
 20
-32.5
 30
0.0
 11
47.94637131317098
 21
-34.5
 31
0.0
  0
LINE
  5
1A6
330
121
100
AcDbEntity
  8
AM_9
100
AcDbLine
 10
47.64135774533276
 20
-32.5
 30
0.0
 11
47.64135774533276
 21
-34.5
 31
0.0
  0
LINE
  5
1A7
330
121
100
AcDbEntity
  8
AM_9
100
AcDbLine
 10
46.54820144333415
 20
-32.5
 30
0.0
 11
46.54820144333415
 21
-34.5
 31
0.0
  0
LINE
  5
1A8
330
121
100
AcDbEntity
  8
AM_9
100
AcDbLine
 10
48.60226312475464
 20
-32.5
 30
0.0
 11
48.60226312475464
 21
-34.5
 31
0.0
  0
LINE
  5
1A9
330
121
100
AcDbEntity
  8
AM_9
100
AcDbLine
 10
46.11630836200359
 20
-32.5
 30
0.0
 11
46.11630836200359
 21
-34.5
 31
0.0
  0
LINE
  5
1AA
330
121
100
AcDbEntity
  8
AM_9
100
AcDbLine
 10
46.46719856236061
 20
-32.5
 30
0.0
 11
46.46719856236061
 21
-34.5
 31
0.0
  0
LINE
  5
1AB
330
121
100
AcDbEntity
  8
AM_9
100
AcDbLine
 10
48.25674820325374
 20
-32.5
 30
0.0
 11
48.25674820325374
 21
-34.5
 31
0.0
  0
LINE
  5
1AC
330
121
100
AcDbEntity
  8
AM_9
100
AcDbLine
 10
47.9382440670018
 20
-32.5
 30
0.0
 11
47.9382440670018
 21
-34.5
 31
0.0
  0
LINE
  5
1AD
330
121
100
AcDbEntity
  8
AM_9
100
AcDbLine
 10
47.56035486435923
 20
-32.5
 30
0.0
 11
47.56035486435923
 21
-34.5
 31
0.0
  0
LINE
  5
1AE
330
121
100
AcDbEntity
  8
AM_9
100
AcDbLine
 10
45.02782996071788
 20
-32.5
 30
0.0
 11
45.02782996071788
 21
-34.5
 31
0.0
  0
LINE
  5
1AF
330
121
100
AcDbEntity
  8
AM_9
100
AcDbLine
 10
44.69649023482977
 20
-32.5
 30
0.0
 11
44.69649023482977
 21
-34.5
 31
0.0
  0
LINE
  5
1B0
330
121
100
AcDbEntity
  8
AM_9
100
AcDbLine
 10
45.40211615266226
 20
-32.5
 30
0.0
 11
45.40211615266226
 21
-34.5
 31
0.0
  0
LINE
  5
1B1
330
121
100
AcDbEntity
  8
AM_9
100
AcDbLine
 10
44.31197415675
 20
-32.5
 30
0.0
 11
44.31197415675
 21
-34.5
 31
0.0
  0
LINE
  5
1B2
330
121
100
AcDbEntity
  8
AM_9
100
AcDbLine
 10
45.24257059620371
 20
-32.5
 30
0.0
 11
45.24257059620371
 21
-34.5
 31
0.0
  0
LINE
  5
1B3
330
121
100
AcDbEntity
  8
AM_9
100
AcDbLine
 10
44.9378225978901
 20
-32.5
 30
0.0
 11
44.9378225978901
 21
-34.5
 31
0.0
  0
LINE
  5
1B4
330
121
100
AcDbEntity
  8
AM_9
100
AcDbLine
 10
44.67602636521944
 20
-32.5
 30
0.0
 11
44.67602636521944
 21
-34.5
 31
0.0
  0
LINE
  5
1B5
330
121
100
AcDbEntity
  8
AM_9
100
AcDbLine
 10
46.44519375558703
 20
-32.5
 30
0.0
 11
46.44519375558703
 21
-34.5
 31
0.0
  0
LINE
  5
1B6
330
121
100
AcDbEntity
  8
AM_9
100
AcDbLine
 10
44.45717532034337
 20
-32.5
 30
0.0
 11
44.45717532034337
 21
-34.5
 31
0.0
  0
LINE
  5
1B7
330
121
100
AcDbEntity
  8
AM_9
100
AcDbLine
 10
44.06653160954593
 20
-32.5
 30
0.0
 11
44.06653160954593
 21
-34.5
 31
0.0
  0
LINE
  5
1B8
330
121
100
AcDbEntity
  8
AM_9
100
AcDbLine
 10
46.28564819912847
 20
-32.5
 30
0.0
 11
46.28564819912847
 21
-34.5
 31
0.0
  0
LINE
  5
1B9
330
121
100
AcDbEntity
  8
AM_9
100
AcDbLine
 10
46.76630077626189
 20
-32.5
 30
0.0
 11
46.76630077626189
 21
-34.5
 31
0.0
  0
LINE
  5
1BA
330
121
100
AcDbEntity
  8
AM_9
100
AcDbLine
 10
44.28127228233974
 20
-32.5
 30
0.0
 11
44.28127228233974
 21
-34.5
 31
0.0
  0
LINE
  5
1BB
330
121
100
AcDbEntity
  8
AM_9
100
AcDbLine
 10
46.53721796586518
 20
-32.5
 30
0.0
 11
46.53721796586518
 21
-34.5
 31
0.0
  0
LINE
  5
1BC
330
121
100
AcDbEntity
  8
AM_9
100
AcDbLine
 10
46.69264901559394
 20
-32.5
 30
0.0
 11
46.69264901559394
 21
-34.5
 31
0.0
  0
LINE
  5
1BD
330
121
100
AcDbEntity
  8
AM_9
100
AcDbLine
 10
46.99126565972738
 20
-32.5
 30
0.0
 11
46.99126565972738
 21
-34.5
 31
0.0
  0
LINE
  5
1BE
330
121
100
AcDbEntity
  8
AM_9
100
AcDbLine
 10
47.19577231173827
 20
-32.5
 30
0.0
 11
47.19577231173827
 21
-34.5
 31
0.0
  0
LINE
  5
1BF
330
121
100
AcDbEntity
  8
AM_9
100
AcDbLine
 10
47.1630626482348
 20
-32.5
 30
0.0
 11
47.1630626482348
 21
-34.5
 31
0.0
  0
LINE
  5
1C0
330
121
100
AcDbEntity
  8
AM_9
100
AcDbLine
 10
46.75195074524097
 20
-32.5
 30
0.0
 11
46.75195074524097
 21
-34.5
 31
0.0
  0
LINE
  5
1C1
330
121
100
AcDbEntity
  8
AM_9
100
AcDbLine
 10
47.13236547228765
 20
-32.5
 30
0.0
 11
47.13236547228765
 21
-34.5
 31
0.0
  0
LINE
  5
1C2
330
121
100
AcDbEntity
  8
AM_9
100
AcDbLine
 10
43.22586055615179
 20
-32.5
 30
0.0
 11
43.22586055615179
 21
-34.5
 31
0.0
  0
LINE
  5
1C3
330
121
100
AcDbEntity
  8
AM_9
100
AcDbLine
 10
43.86403936178458
 20
-32.5
 30
0.0
 11
43.86403936178458
 21
-34.5
 31
0.0
  0
LINE
  5
1C4
330
121
100
AcDbEntity
  8
AM_9
100
AcDbLine
 10
46.71513255173249
 20
-32.5
 30
0.0
 11
46.71513255173249
 21
-34.5
 31
0.0
  0
LINE
  5
1C5
330
121
100
AcDbEntity
  8
AM_9
100
AcDbLine
 10
46.23649861851797
 20
-32.5
 30
0.0
 11
46.23649861851797
 21
-34.5
 31
0.0
  0
LINE
  5
1C6
330
121
100
AcDbEntity
  8
AM_9
100
AcDbLine
 10
43.80263834912521
 20
-32.5
 30
0.0
 11
43.80263834912521
 21
-34.5
 31
0.0
  0
LINE
  5
1C7
330
121
100
AcDbEntity
  8
AM_9
100
AcDbLine
 10
45.64382223007416
 20
-32.5
 30
0.0
 11
30.23580645905438
 21
-32.5
 31
0.0
  0
LINE
  5
1C8
330
121
100
AcDbEntity
  8
AM_9
100
AcDbLine
 10
46.49418666665484
 20
-32.5
 30
0.0
 11
46.49418666665484
 21
-34.5
 31
0.0
  0
LWPOLYLINE
  5
1C9
330
121
100
AcDbEntity
  8
AM_9
100
AcDbPolyline
 90
        3
 70
     0
 43
0.0
 10
39.63015310499065
 20
-19.93589838486225
 10
40.36820618621028
 20
-20.51324865405187
 10
41.16161030136714
 20
-21.09059892324149
  0
LWPOLYLINE
  5
1CA
330
121
100
AcDbEntity
  8
AM_9
100
AcDbPolyline
 90
        3
 70
     0
 43
0.0
 10
41.16161030136714
 20
-21.09059892324149
 10
41.07558636044205
 20
-22.24010761707087
 10
41.04436666736373
 20
-23.4
  0
LWPOLYLINE
  5
1CB
330
121
100
AcDbEntity
  8
AM_9
100
AcDbPolyline
 90
        3
 70
     0
 43
0.0
 10
41.16161030136714
 20
-25.7094010767585
 10
40.37165892174826
 20
-26.28415542367318
 10
39.63015310499064
 20
-26.86410161513775
  0
LWPOLYLINE
  5
1CC
330
121
100
AcDbEntity
  8
AM_9
100
AcDbPolyline
 90
        3
 70
     0
 43
0.0
 10
41.04436666736373
 20
-23.4
 10
41.07531296739683
 20
-24.55470053837925
 10
41.16161030136714
 20
-25.7094010767585
  0
LINE
  5
1CD
330
121
100
AcDbEntity
  8
AM_9
100
AcDbLine
 10
43.04844337691998
 20
-21.09059892324149
 30
0.0
 11
41.16161030136714
 21
-21.09059892324149
 31
0.0
  0
LINE
  5
1CE
330
121
100
AcDbEntity
  8
AM_9
100
AcDbLine
 10
43.04844337691998
 20
-25.7094010767585
 30
0.0
 11
41.16161030136714
 21
-25.7094010767585
 31
0.0
  0
LINE
  5
1CF
330
121
100
AcDbEntity
  8
AM_9
100
AcDbLine
 10
43.04844337691998
 20
-21.09059892324149
 30
0.0
 11
42.66319757034665
 21
-20.72696454928375
 31
0.0
  0
LWPOLYLINE
  5
1D0
330
121
100
AcDbEntity
  8
AM_9
100
AcDbPolyline
 90
        3
 70
     0
 43
0.0
 10
43.16568701092338
 20
-23.4
 10
43.1347407108903
 20
-22.24529946162075
 10
43.04844337691998
 20
-21.09059892324149
  0
LINE
  5
1D1
330
121
100
AcDbEntity
  8
AM_9
100
AcDbLine
 10
42.66362457030238
 20
-26.07264202531486
 30
0.0
 11
43.04844337691998
 21
-25.7094010767585
 31
0.0
  0
LWPOLYLINE
  5
1D2
330
121
100
AcDbEntity
  8
AM_9
100
AcDbPolyline
 90
        3
 70
     0
 43
0.0
 10
43.04844337691998
 20
-25.7094010767585
 10
43.13446731784507
 20
-24.55989238292913
 10
43.16568701092338
 20
-23.4
  0
LWPOLYLINE
  5
1D3
330
121
100
AcDbEntity
  8
AM_9
100
AcDbPolyline
 90
        3
 70
     0
 43
0.0
 10
39.63015310499064
 20
-26.86410161513775
 10
38.95399262383718
 20
-27.44145188432737
 10
38.33318317662095
 20
-28.018802153517
  0
LWPOLYLINE
  5
1D4
330
121
100
AcDbEntity
  8
AM_9
100
AcDbPolyline
 90
        3
 70
     0
 43
0.0
 10
38.33318317662095
 20
-18.78119784648299
 10
38.95108667438965
 20
-19.35595219339768
 10
39.63015310499065
 20
-19.93589838486225
  0
LINE
  5
1D5
330
121
100
AcDbEntity
  8
AM_9
100
AcDbLine
 10
37.93981434456422
 20
-26.2
 30
0.0
 11
38.21593954261755
 21
-26.2
 31
0.0
  0
LINE
  5
1D6
330
121
100
AcDbEntity
  8
AM_9
100
AcDbLine
 10
38.21593954261755
 20
-20.59999999999999
 30
0.0
 11
37.93981434456422
 21
-20.59999999999999
 31
0.0
  0
ELLIPSE
  5
1D7
330
121
100
AcDbEntity
  8
AM_9
100
AcDbEllipse
 10
40.69081327677045
 20
-23.40000000000001
 30
0.0
 11
-5.143516556418943E-16
 21
-2.800000000000033
 31
0.0
210
0.0
220
0.0
230
1.0
 40
0.707106781186548
 41
0.6113648476614211
 42
2.529489602751117
  0
ELLIPSE
  5
1D8
330
121
100
AcDbEntity
  8
AM_9
100
AcDbEllipse
 10
40.33725988617719
 20
-23.4
 30
0.0
 11
-5.143516556418904E-16
 21
-2.800000000000011
 31
0.0
210
0.0
220
0.0
230
1.0
 40
0.7071067811865483
 41
0.0
 42
3.141592653589793
  0
ELLIPSE
  5
1D9
330
121
100
AcDbEntity
  8
AM_9
100
AcDbEllipse
 10
40.33725988617729
 20
-23.40000000000004
 30
0.0
 11
-7.347880794883942E-16
 21
-3.999999999999904
 31
0.0
210
0.0
220
0.0
230
1.0
 40
0.70710678118654
 41
0.8503893932632067
 42
2.291397312235044
  0
LWPOLYLINE
  5
1DA
330
121
100
AcDbEntity
  8
AM_9
100
AcDbPolyline
 90
        3
 70
     0
 43
0.0
 10
40.88884071981996
 20
-23.79996912552998
 10
40.87375381628197
 20
-23.63063334784732
 10
40.87308499529518
 20
-23.62007138333383
  0
LWPOLYLINE
  5
1DB
330
121
100
AcDbEntity
  8
AM_9
100
AcDbPolyline
 90
       46
 70
     0
 43
0.0
 10
41.20878410924986
 20
-21.93524127688746
 10
41.2340780390336
 20
-21.89046438078832
 10
41.33053733892299
 20
-21.7410435254891
 10
41.42595754796996
 20
-21.6212863458622
 10
41.51526708226786
 20
-21.53099613292234
 10
41.59383951206949
 20
-21.46815586755684
 10
41.6578659181863
 20
-21.4291444520305
 10
41.70505226739859
 20
-21.40887832297594
 10
41.73604365789408
 20
-21.40117250591249
 10
41.75930925901162
 20
-21.40031259278979
 10
41.78779482079806
 20
-21.40575471455391
 10
41.8313487354351
 20
-21.42240018178164
 10
41.89113632292749
 20
-21.45603295597169
 10
41.96440370567229
 20
-21.51075235471378
 10
42.05593671560401
 20
-21.59817771618732
 10
42.15258921376321
 20
-21.71404747525226
 10
42.24995256698506
 20
-21.85860949537048
 10
42.34375926864375
 20
-22.03111419616561
 10
42.42983652895207
 20
-22.22948319986238
 10
42.50446458162282
 20
-22.45066252382541
 10
42.56453320643234
 20
-22.69095446668762
 10
42.60752732305072
 20
-22.94592855966552
 10
42.63162439925918
 20
-23.2105901222613
 10
42.63576352427688
 20
-23.47955757700681
 10
42.61969146752151
 20
-23.74724151046809
 10
42.58402000474722
 20
-24.00785932089467
 10
42.53022013340662
 20
-24.25595468062167
 10
42.46058141655373
 20
-24.48651192760117
 10
42.37816932440312
 20
-24.69511387113211
 10
42.28674669506665
 20
-24.87815618844105
 10
42.19064773299137
 20
-25.03306512166282
 10
42.09462866552703
 20
-25.15846022888837
 10
42.00379970428935
 20
-25.25419160232049
 10
41.92288316839597
 20
-25.32196869876461
 10
41.85588560632866
 20
-25.36511762526061
 10
41.80545941555311
 20
-25.38846427788197
 10
41.77170053762123
 20
-25.39803733447907
 10
41.748464790384
 20
-25.39995337836283
 10
41.72080763216033
 20
-25.39575865348064
 10
41.68031267517896
 20
-25.38154112299678
 10
41.62314331602247
 20
-25.3511564943102
 10
41.55196567457606
 20
-25.30030426004015
 10
41.46157996664049
 20
-25.21714831903653
 10
41.3654163842422
 20
-25.10569503019435
 10
41.26788286767243
 20
-24.96553781776931
 10
41.20740615519024
 20
-24.86224406205215
  0
ELLIPSE
  5
1DC
330
121
100
AcDbEntity
  8
AM_9
100
AcDbEllipse
 10
42.66778675600911
 20
-23.40000000000001
 30
0.0
 11
-4.680537402784484E-16
 21
-2.54796588754856
 31
0.0
210
0.0
220
0.0
230
1.0
 40
0.7071067811865469
 41
5.226577339745561
 42
10.99557428756428
  0
ELLIPSE
  5
1DD
330
121
100
AcDbEntity
  8
AM_9
100
AcDbEllipse
 10
42.66778675601106
 20
-23.39999999999987
 30
0.0
 11
-4.680537402786338E-16
 21
-2.547965887549569
 31
0.0
210
0.0
220
0.0
230
1.0
 40
0.707106781187031
 41
4.799845417012795
 42
4.950898214246164
  0
LINE
  5
1DE
330
121
100
AcDbEntity
  8
AM_9
100
AcDbLine
 10
43.84578179745068
 20
-20.98361653369375
 30
0.0
 11
43.82751918657278
 21
-20.97185692814766
 31
0.0
  0
ELLIPSE
  5
1DF
330
121
100
AcDbEntity
  8
AM_9
100
AcDbEllipse
 10
43.05274391270333
 20
-23.40000000001619
 30
0.0
 11
-4.893487028634150E-16
 21
-2.663890264546037
 31
0.0
210
0.0
220
0.0
230
1.0
 40
0.7071067811813118
 41
0.4115168460583201
 42
2.730075807536335
  0
LINE
  5
1E0
330
121
100
AcDbEntity
  8
AM_9
100
AcDbLine
 10
45.0
 20
-34.5
 30
0.0
 11
45.0
 21
0.0
 31
0.0
  0
LINE
  5
1E1
330
121
100
AcDbEntity
  8
AM_9
100
AcDbLine
 10
-45.0
 20
0.0
 30
0.0
 11
-45.0
 21
-34.5
 31
0.0
  0
ELLIPSE
  5
1E2
330
121
100
AcDbEntity
  8
AM_9
100
AcDbEllipse
 10
44.00410022496961
 20
-23.40000000000013
 30
0.0
 11
-3.904887716277466E-16
 21
-2.125721864729325
 31
0.0
210
0.0
220
0.0
230
1.0
 40
0.7071067811865476
 41
-3.695611449990067
 42
-3.571351889891218
  0
ELLIPSE
  5
1E3
330
121
100
AcDbEntity
  8
AM_9
100
AcDbEllipse
 10
44.00410022496966
 20
-23.4
 30
0.0
 11
-3.904887716277192E-16
 21
-2.125721864729176
 31
0.0
210
0.0
220
0.0
230
1.0
 40
0.707106781186547
 41
0.4091349069563597
 42
2.573775229940103
  0
LINE
  5
1E4
330
121
100
AcDbEntity
  8
AM_9
100
AcDbLine
 10
8.4
 20
-12.3
 30
0.0
 11
8.4
 21
0.0000000000000048
 31
0.0
  0
LINE
  5
1E5
330
121
100
AcDbEntity
  8
AM_9
100
AcDbLine
 10
-8.4
 20
0.0000000000000048
 30
0.0
 11
-8.4
 21
-12.3
 31
0.0
  0
ELLIPSE
  5
1E6
330
121
100
AcDbEntity
  8
AM_9
100
AcDbEllipse
 10
38.21593954261751
 20
-23.39999999999998
 30
0.0
 11
-7.347880794884054E-16
 21
-3.999999999999964
 31
0.0
210
0.0
220
0.0
230
1.0
 40
0.7071067811865452
 41
0.0
 42
6.283185307179586
  0
ELLIPSE
  5
1E7
330
121
100
AcDbEntity
  8
AM_9
100
AcDbEllipse
 10
38.21593954261755
 20
-23.4
 30
0.0
 11
-5.143516556418891E-16
 21
-2.800000000000004
 31
0.0
210
0.0
220
0.0
230
1.0
 40
0.7071067811865476
 41
0.0
 42
6.283185307179586
  0
ELLIPSE
  5
1E8
330
121
100
AcDbEntity
  8
AM_9
100
AcDbEllipse
 10
37.93981434456423
 20
-23.4
 30
0.0
 11
-5.143516556418911E-16
 21
-2.800000000000015
 31
0.0
210
0.0
220
0.0
230
1.0
 40
0.7071067811865475
 41
0.0
 42
6.283185307179586
  0
LINE
  5
1E9
330
121
100
AcDbEntity
  8
AM_7
100
AcDbLine
 10
0.0
 20
1.725
 30
0.0
 11
0.000000000000002
 21
-53.16
 31
0.0
  0
LWPOLYLINE
  5
1EA
330
121
100
AcDbEntity
  8
AM_4
100
AcDbPolyline
 90
        3
 70
     0
 43
0.0
 10
42.66319757034665
 20
-20.72696454928375
 10
42.43053987915129
 20
-20.51584457632681
 10
41.75147344855029
 20
-19.93589838486224
  0
LWPOLYLINE
  5
1EB
330
121
100
AcDbEntity
  8
AM_4
100
AcDbPolyline
 90
        3
 70
     0
 43
0.0
 10
41.75147344855029
 20
-26.86410161513774
 10
42.42763392970375
 20
-26.28675134594812
 10
42.66362457030238
 20
-26.07264202531486
  0
LWPOLYLINE
  5
1EC
330
121
100
AcDbEntity
  8
AM_4
100
AcDbPolyline
 90
        3
 70
     0
 43
0.0
 10
40.22001625217379
 20
-28.018802153517
 10
41.00996763179267
 20
-27.44404780660231
 10
41.75147344855029
 20
-26.86410161513774
  0
LWPOLYLINE
  5
1ED
330
121
100
AcDbEntity
  8
AM_4
100
AcDbPolyline
 90
        3
 70
     0
 43
0.0
 10
41.75147344855029
 20
-19.93589838486224
 10
41.01342036733065
 20
-19.35854811567261
 10
40.22001625217379
 20
-18.78119784648299
  0
LINE
  5
1EE
330
121
100
AcDbEntity
  8
AM_4
100
AcDbLine
 10
40.33725988617719
 20
-26.2
 30
0.0
 11
40.69081327677047
 21
-26.2
 31
0.0
  0
LINE
  5
1EF
330
121
100
AcDbEntity
  8
AM_4
100
AcDbLine
 10
40.69081327677047
 20
-20.59999999999999
 30
0.0
 11
40.33725988617719
 21
-20.59999999999999
 31
0.0
  0
ELLIPSE
  5
1F0
330
121
100
AcDbEntity
  8
AM_4
100
AcDbEllipse
 10
40.69081327677049
 20
-23.39999999999994
 30
0.0
 11
-5.143516556419002E-16
 21
-2.800000000000065
 31
0.0
210
0.0
220
0.0
230
1.0
 40
0.7071067811865425
 41
2.529489602751117
 42
6.89455015484098
  0
ELLIPSE
  5
1F1
330
121
100
AcDbEntity
  8
AM_4
100
AcDbEllipse
 10
40.33725988617719
 20
-23.39999999999999
 30
0.0
 11
-5.143516556418885E-16
 21
-2.800000000000001
 31
0.0
210
0.0
220
0.0
230
1.0
 40
0.7071067811865485
 41
3.141592653589793
 42
6.283185307179586
  0
LWPOLYLINE
  5
1F2
330
121
100
AcDbEntity
  8
AM_4
100
AcDbPolyline
 90
        3
 70
     0
 43
0.0
 10
40.22001625217379
 20
-18.78119784648299
 10
39.60211275440509
 20
-19.35595219339768
 10
38.92304632380409
 20
-19.93589838486224
  0
LINE
  5
1F3
330
121
100
AcDbEntity
  8
AM_4
100
AcDbLine
 10
40.22001625217379
 20
-18.78119784648299
 30
0.0
 11
38.33318317662095
 21
-18.78119784648299
 31
0.0
  0
LWPOLYLINE
  5
1F4
330
121
100
AcDbEntity
  8
AM_4
100
AcDbPolyline
 90
        3
 70
     0
 43
0.0
 10
36.80172598024446
 20
-19.93589838486224
 10
37.53977906146409
 20
-19.35854811567262
 10
38.33318317662095
 20
-18.78119784648299
  0
LWPOLYLINE
  5
1F5
330
121
100
AcDbEntity
  8
AM_4
100
AcDbPolyline
 90
        3
 70
     0
 43
0.0
 10
35.50475605187476
 20
-21.09059892324149
 10
36.12265954964347
 20
-20.5158445763268
 10
36.80172598024446
 20
-19.93589838486224
  0
LINE
  5
1F6
330
121
100
AcDbEntity
  8
AM_4
100
AcDbLine
 10
40.22001625217379
 20
-28.018802153517
 30
0.0
 11
38.33318317662095
 21
-28.018802153517
 31
0.0
  0
LWPOLYLINE
  5
1F7
330
121
100
AcDbEntity
  8
AM_4
100
AcDbPolyline
 90
        3
 70
     0
 43
0.0
 10
38.92304632380409
 20
-26.86410161513775
 10
39.59920680495755
 20
-27.44145188432737
 10
40.22001625217379
 20
-28.018802153517
  0
LWPOLYLINE
  5
1F8
330
121
100
AcDbEntity
  8
AM_4
100
AcDbPolyline
 90
        3
 70
     0
 43
0.0
 10
36.80172598024446
 20
-26.86410161513775
 10
36.125565499091
 20
-26.28675134594813
 10
35.50475605187476
 20
-25.7094010767585
  0
LWPOLYLINE
  5
1F9
330
121
100
AcDbEntity
  8
AM_4
100
AcDbPolyline
 90
        3
 70
     0
 43
0.0
 10
38.33318317662095
 20
-28.018802153517
 10
37.54323179700208
 20
-27.44404780660231
 10
36.80172598024446
 20
-26.86410161513775
  0
ELLIPSE
  5
1FA
330
121
100
AcDbEntity
  8
AM_4
100
AcDbEllipse
 10
40.33725988617712
 20
-23.39999999999994
 30
0.0
 11
-7.347880794883942E-16
 21
-3.999999999999904
 31
0.0
210
0.0
220
0.0
230
1.0
 40
0.7071067811865454
 41
2.291397312234988
 42
7.13357470044281
  0
LWPOLYLINE
  5
1FB
330
121
100
AcDbEntity
  8
AM_4
100
AcDbPolyline
 90
        3
 70
     0
 43
0.0
 10
38.92304632380409
 20
-19.93589838486224
 10
38.18499324258446
 20
-20.51324865405187
 10
37.39158912742761
 20
-21.09059892324149
  0
LWPOLYLINE
  5
1FC
330
121
100
AcDbEntity
  8
AM_4
100
AcDbPolyline
 90
        3
 70
     0
 43
0.0
 10
37.39158912742761
 20
-25.7094010767585
 10
38.18154050704648
 20
-26.28415542367318
 10
38.92304632380409
 20
-26.86410161513775
  0
LINE
  5
1FD
330
121
100
AcDbEntity
  8
AM_4
100
AcDbLine
 10
37.39158912742761
 20
-25.7094010767585
 30
0.0
 11
35.50475605187476
 21
-25.7094010767585
 31
0.0
  0
LWPOLYLINE
  5
1FE
330
121
100
AcDbEntity
  8
AM_4
100
AcDbPolyline
 90
        3
 70
     0
 43
0.0
 10
37.508832761431
 20
-23.4
 10
37.47788646139792
 20
-24.55470053837925
 10
37.39158912742761
 20
-25.7094010767585
  0
LWPOLYLINE
  5
1FF
330
121
100
AcDbEntity
  8
AM_4
100
AcDbPolyline
 90
        3
 70
     0
 43
0.0
 10
37.39158912742761
 20
-21.09059892324149
 10
37.47761306835269
 20
-22.24010761707087
 10
37.508832761431
 20
-23.4
  0
LINE
  5
200
330
121
100
AcDbEntity
  8
AM_4
100
AcDbLine
 10
37.39158912742761
 20
-21.09059892324149
 30
0.0
 11
35.50475605187476
 21
-21.09059892324149
 31
0.0
  0
LWPOLYLINE
  5
201
330
121
100
AcDbEntity
  8
AM_4
100
AcDbPolyline
 90
        3
 70
     0
 43
0.0
 10
35.38751241787136
 20
-23.4
 10
35.41845871790445
 20
-22.24529946162075
 10
35.50475605187476
 20
-21.09059892324149
  0
LWPOLYLINE
  5
202
330
121
100
AcDbEntity
  8
AM_4
100
AcDbPolyline
 90
        3
 70
     0
 43
0.0
 10
35.50475605187476
 20
-25.7094010767585
 10
35.41873211094968
 20
-24.55989238292912
 10
35.38751241787136
 20
-23.4
  0
ELLIPSE
  5
203
330
121
100
AcDbEntity
  8
AM_4
100
AcDbEllipse
 10
42.66778675600998
 20
-23.39999999999994
 30
0.0
 11
-4.680537402786729E-16
 21
-2.547965887549783
 31
0.0
210
0.0
220
0.0
230
1.0
 40
0.707106781186548
 41
4.71238898038469
 42
4.799845417012763
  0
LINE
  5
204
330
121
100
AcDbEntity
  8
AM_4
100
AcDbLine
 10
43.7773841573061
 20
-25.85892796903673
 30
0.0
 11
43.81479207567433
 21
-25.83616423604807
 31
0.0
  0
LWPOLYLINE
  5
205
330
121
100
AcDbEntity
  8
AM_4
100
AcDbPolyline
 90
       19
 70
     0
 43
0.0
 10
40.86604869157867
 20
-23.4
 10
40.87019830270658
 20
-23.57301616649215
 10
40.89924688624354
 20
-23.88753685251097
 10
40.95588837803054
 20
-24.19610412439177
 10
41.03971613683042
 20
-24.49461468501639
 10
41.15011538653573
 20
-24.77911989477105
 10
41.28621861047768
 20
-25.04566306095875
 10
41.44674185777784
 20
-25.29014872387727
 10
41.62981690038067
 20
-25.50844319251532
 10
41.83284479320447
 20
-25.69658930187727
 10
42.0523831177432
 20
-25.85108819321152
 10
42.28429318687834
 20
-25.96931612815074
 10
42.52414318459431
 20
-26.04981249847449
 10
42.76768220778602
 20
-26.09225217517927
 10
43.01115971856546
 20
-26.09713469590848
 10
43.25140871928429
 20
-26.06538244231487
 10
43.48530058110115
 20
-25.99818330663916
 10
43.71050072215824
 20
-25.89669669457973
 10
43.7773841573061
 20
-25.85892796903673
  0
LWPOLYLINE
  5
206
330
121
100
AcDbEntity
  8
AM_4
100
AcDbPolyline
 90
       18
 70
     0
 43
0.0
 10
43.54810499048997
 20
-20.82631837884301
 10
43.47405322103259
 20
-20.79772648029754
 10
43.23242729209631
 20
-20.73076415915626
 10
42.98851124699569
 20
-20.70175454275732
 10
42.7458464415647
 20
-20.71000330678849
 10
42.50753045266331
 20
-20.75449070985328
 10
42.27647831569769
 20
-20.83399271449455
 10
42.0548829466457
 20
-20.94740535276992
 10
41.84494195660305
 20
-21.09367779594106
 10
41.64905925872777
 20
-21.27154138343597
 10
41.46987174653083
 20
-21.4791765065117
 10
41.31008204802993
 20
-21.7139936918064
 10
41.1721897152259
 20
-21.97264965645024
 10
41.05827044521836
 20
-22.25126240412228
 10
40.96989730991461
 20
-22.54565212182838
 10
40.90816177186082
 20
-22.85152668717357
 10
40.87372746126373
 20
-23.16474925784499
 10
40.86604869157867
 20
-23.4
  0
LWPOLYLINE
  5
207
330
121
100
AcDbEntity
  8
AM_4
100
AcDbPolyline
 90
        3
 70
     0
 43
0.0
 10
43.82751918657278
 20
-20.97185692814766
 10
43.70929157464902
 20
-20.90265422051898
 10
43.54810499048997
 20
-20.82631837884301
  0
ELLIPSE
  5
208
330
121
100
AcDbEntity
  8
AM_4
100
AcDbEllipse
 10
43.05274391267392
 20
-23.39999999999998
 30
0.0
 11
-4.893487028601676E-16
 21
-2.663890264528359
 31
0.0
210
0.0
220
0.0
230
1.0
 40
0.7071067811865485
 41
2.730075807522305
 42
6.694702153247067
  0
LINE
  5
209
330
121
100
AcDbEntity
  8
AM_4
100
AcDbLine
 10
44.60534516315627
 20
-21.45174372969117
 30
0.0
 11
43.80620586082784
 21
-20.95850424394859
 31
0.0
  0
LINE
  5
20A
330
121
100
AcDbEntity
  8
AM_4
100
AcDbLine
 10
43.80620586082784
 20
-25.84149575605141
 30
0.0
 11
44.60534516315627
 21
-25.34825627030882
 31
0.0
  0
ELLIPSE
  5
20B
330
121
100
AcDbEntity
  8
AM_4
100
AcDbEllipse
 10
44.00410022496966
 20
-23.4
 30
0.0
 11
-3.904887716277198E-16
 21
-2.125721864729179
 31
0.0
210
0.0
220
0.0
230
1.0
 40
0.7071067811865492
 41
2.730075807522303
 42
6.692320214135944
  0
ELLIPSE
  5
20C
330
121
100
AcDbEntity
  8
AM_4
100
AcDbEllipse
 10
44.22634718270321
 20
-23.4
 30
0.0
 11
1.017365236865173E-16
 21
1.661483519286545
 31
0.0
210
0.0
220
0.0
230
1.0
 40
0.7071067811865479
 41
0.0
 42
6.283185307179586
  0
LWPOLYLINE
  5
20D
330
121
100
AcDbEntity
  8
AM_4
100
AcDbPolyline
 90
       19
 70
     0
 43
0.0
 10
44.60188383066019
 20
-25.35038633730035
 10
44.67493241735907
 20
-25.30268789877405
 10
44.85743228932498
 20
-25.15563809714892
 10
45.02410434474825
 20
-24.97841707808006
 10
45.17206322805995
 20
-24.77331267498638
 10
45.29840979254399
 20
-24.54364966685138
 10
45.4006276036563
 20
-24.29365063669272
 10
45.47683222085971
 20
-24.02803781223525
 10
45.52577548453654
 20
-23.75177109151765
 10
45.54679241569964
 20
-23.46949614595887
 10
45.53956612038957
 20
-23.18576285950486
 10
45.50405346537531
 20
-22.90507097767414
 10
45.4404614859547
 20
-22.63191388659327
 10
45.34921415041098
 20
-22.37069248940255
 10
45.23099470771829
 20
-22.12586694571674
 10
45.08696913534472
 20
-21.90215630614696
 10
44.91914210183295
 20
-21.70451666471419
 10
44.73061056078564
 20
-21.5377238572261
 10
44.6347134093361
 20
-21.47032987938005
  0
ELLIPSE
  5
20E
330
121
100
AcDbEntity
  8
AM_4
100
AcDbEllipse
 10
44.00410022497679
 20
-23.39999999997713
 30
0.0
 11
-3.904887716231280E-16
 21
-2.125721864704182
 31
0.0
210
0.0
220
0.0
230
1.0
 40
0.7071067811865479
 41
-3.571351889891386
 42
-3.553109499657242
  0
LINE
  5
20F
330
121
100
AcDbEntity
  8
AM_4
100
AcDbLine
 10
54.74999999999999
 20
0.0
 30
0.0
 11
-54.74999999999999
 21
0.0
 31
0.0
  0
LINE
  5
210
330
121
100
AcDbEntity
  8
AM_4
100
AcDbLine
 10
45.64382223007416
 20
-32.49999999999999
 30
0.0
 11
45.64382223007416
 21
0.0000000000000019
 31
0.0
  0
LINE
  5
211
330
121
100
AcDbEntity
  8
AM_4
100
AcDbLine
 10
30.23580645905438
 20
-32.5
 30
0.0
 11
30.23580645905427
 21
0.0000000000000028
 31
0.0
  0
LINE
  5
212
330
121
100
AcDbEntity
  8
AM_4
100
AcDbLine
 10
-54.74999999999999
 20
0.0
 30
0.0
 11
-54.74999999999999
 21
-32.5
 31
0.0
  0
LINE
  5
213
330
121
100
AcDbEntity
  8
AM_4
100
AcDbLine
 10
54.74999999999999
 20
-32.5
 30
0.0
 11
54.74999999999999
 21
0.0
 31
0.0
  0
LWPOLYLINE
  5
214
330
121
100
AcDbEntity
  8
AM_4
100
AcDbPolyline
 90
       25
 70
     0
 43
0.0
 10
30.23580645905438
 20
-32.5
 10
30.25386309472397
 20
-32.64239981442495
 10
30.31936570503425
 20
-32.80500043585126
 10
30.49041088166828
 20
-33.02638547643275
 10
30.79601586944321
 20
-33.26511381315543
 10
31.13064910415128
 20
-33.44571408254165
 10
31.8321549819999
 20
-33.7055790308637
 10
32.55247996196077
 20
-33.88459310561178
 10
33.28668816601175
 20
-34.01382953326064
 10
34.02458211708834
 20
-34.10749592112333
 10
34.97719752820063
 20
-34.19075709110133
 10
35.93145935153234
 20
-34.24337631247021
 10
37.84348482518643
 20
-34.28344103903903
 10
39.13420798682549
 20
-34.2697898658011
 10
40.42496375098512
 20
-34.22035949677109
 10
42.16524419818321
 20
-34.07177826291844
 10
43.34143482925525
 20
-33.88162251499537
 10
44.13868823598429
 20
-33.67774488817918
 10
44.67996786841361
 20
-33.47700964783222
 10
45.04719356532426
 20
-33.28768273154691
 10
45.23237875018022
 20
-33.16221725128329
 10
45.40845051392968
 20
-33.00676059619775
 10
45.53270950273023
 20
-32.85106766248509
 10
45.62335163940647
 20
-32.65159561286551
 10
45.64382223007416
 20
-32.49999999999999
  0
LINE
  5
215
330
121
100
AcDbEntity
  8
AM_4
100
AcDbLine
 10
30.23580645905438
 20
-32.5
 30
0.0
 11
-54.74999999999999
 21
-32.5
 31
0.0
  0
LINE
  5
216
330
121
100
AcDbEntity
  8
AM_4
100
AcDbLine
 10
52.74999999999998
 20
-34.5
 30
0.0
 11
-52.74999999998979
 21
-34.5
 31
0.0
  0
ARC
  5
217
330
121
100
AcDbEntity
  8
AM_4
100
AcDbCircle
 10
-52.74999999999996
 20
-32.49999999999998
 30
0.0
 40
2.000000000000021
100
AcDbArc
 50
180.0
 51
270.0
  0
ARC
  5
218
330
121
100
AcDbEntity
  8
AM_4
100
AcDbCircle
 10
52.74999999999998
 20
-32.49999999999999
 30
0.0
 40
2.000000000000007
100
AcDbArc
 50
270.0
 51
0.0
  0
LINE
  5
219
330
121
100
AcDbEntity
  8
AM_4
100
AcDbLine
 10
54.74999999999999
 20
-32.5
 30
0.0
 11
45.64382223007416
 21
-32.49999999999999
 31
0.0
  0
LINE
  5
21A
330
121
100
AcDbEntity
  8
AM_4
100
AcDbLine
 10
21.42529118521659
 20
-12.3
 30
0.0
 11
21.42529118521659
 21
0.0000000000000031
 31
0.0
  0
LINE
  5
21B
330
121
100
AcDbEntity
  8
AM_4
100
AcDbLine
 10
21.42529118521659
 20
-12.3
 30
0.0
 11
-21.42529118521658
 21
-12.3
 31
0.0
  0
LINE
  5
21C
330
121
100
AcDbEntity
  8
AM_4
100
AcDbLine
 10
-21.42529118521658
 20
-12.3
 30
0.0
 11
-21.42529118521658
 21
0.0000000000000031
 31
0.0
  0
LINE
  5
21D
330
121
100
AcDbEntity
  8
AM_4
100
AcDbLine
 10
16.45
 20
-12.29999999999999
 30
0.0
 11
16.45
 21
0.0000000000000048
 31
0.0
  0
LINE
  5
21E
330
121
100
AcDbEntity
  8
AM_4
100
AcDbLine
 10
-16.45000000000001
 20
-12.29999999999999
 30
0.0
 11
-16.45000000000001
 21
0.0000000000000048
 31
0.0
  0
ENDBLK
  5
124
330
121
100
AcDbEntity
  8
0
100
AcDbBlockEnd
  0
ENDSEC
  0
SECTION
  2
ENTITIES
  0
INSERT
  5
6F
330
1F
100
AcDbEntity
  8
0
100
AcDbBlockReference
  2
1__129368_4
 10
0.0
 20
0.0
 30
0.0
  0
POINT
  5
220
330
1F
100
AcDbEntity
  8
ConnectionPoints
100
AcDbPoint
 10
0.000000000000002
 20
-20.29999999999999
 30
0.0000000000000012
  0
POINT
  5
221
330
1F
100
AcDbEntity
  8
ConnectionPoints
100
AcDbPoint
 10
0.000000000000002
 20
-3.599999999999994
 30
0.0000000000000002
  0
POINT
  5
222
330
1F
100
AcDbEntity
  8
ConnectionPoints
100
AcDbPoint
 10
0.0
 20
-3.599999999999994
 30
0.0000000000000002
  0
ENDSEC
  0
SECTION
  2
OBJECTS
  0
DICTIONARY
  5
C
330
0
100
AcDbDictionary
281
     1
  3
ACAD_DETAILVIEWSTYLE
350
22A
  3
ACAD_GROUP
350
D
  3
ACAD_LAYOUT
350
1A
  3
ACAD_MATERIAL
350
43
  3
ACAD_MLEADERSTYLE
350
6B
  3
ACAD_MLINESTYLE
350
17
  3
ACAD_PLOTSETTINGS
350
19
  3
ACAD_PLOTSTYLENAME
350
E
  3
ACAD_SCALELIST
350
47
  3
ACAD_SECTIONVIEWSTYLE
350
22B
  3
ACAD_TABLESTYLE
350
69
  3
ACAD_VISUALSTYLE
350
2A
  3
ACDB_RECOMPOSE_DATA
350
227
  3
AcDbVariableDictionary
350
223
  0
SUN
  5
6D
330
29
100
AcDbSun
 90
        1
290
     0
 63
     7
421
 16777215
 40
1.0
291
     1
 91
  2455826
 92
 54000000
292
     0
 70
     2
 71
   256
280
     1
  0
DICTIONARY
  5
22A
102
{ACAD_REACTORS
330
C
102
}
330
C
100
AcDbDictionary
281
     1
  0
DICTIONARY
  5
D
102
{ACAD_REACTORS
330
C
102
}
330
C
100
AcDbDictionary
281
     1
  0
DICTIONARY
  5
1A
102
{ACAD_REACTORS
330
C
102
}
330
C
100
AcDbDictionary
281
     1
  3
Layout1
350
1E
  3
Layout2
350
26
  3
Model
350
22
  0
DICTIONARY
  5
43
102
{ACAD_REACTORS
330
C
102
}
330
C
100
AcDbDictionary
281
     1
  3
ByBlock
350
45
  3
ByLayer
350
44
  3
Global
350
46
  0
DICTIONARY
  5
6B
102
{ACAD_REACTORS
330
C
102
}
330
C
100
AcDbDictionary
281
     1
  3
Standard
350
6C
  0
DICTIONARY
  5
17
102
{ACAD_REACTORS
330
C
102
}
330
C
100
AcDbDictionary
281
     1
  3
Standard
350
18
  0
DICTIONARY
  5
19
102
{ACAD_REACTORS
330
C
102
}
330
C
100
AcDbDictionary
281
     1
  0
ACDBDICTIONARYWDFLT
  5
E
102
{ACAD_REACTORS
330
C
102
}
330
C
100
AcDbDictionary
281
     1
  3
Normal
350
F
100
AcDbDictionaryWithDefault
340
F
  0
DICTIONARY
  5
47
102
{ACAD_REACTORS
330
C
102
}
330
C
100
AcDbDictionary
281
     1
  3
A0
350
48
  3
A1
350
49
  3
A2
350
4A
  3
A3
350
4B
  3
A4
350
4C
  3
A5
350
4D
  3
A6
350
4E
  3
A7
350
4F
  3
A8
350
50
  3
A9
350
51
  3
B0
350
52
  3
B1
350
53
  3
B2
350
54
  3
B3
350
55
  3
B4
350
56
  3
B5
350
57
  3
B6
350
58
  3
B7
350
59
  3
B8
350
5A
  3
B9
350
5B
  3
C0
350
5C
  3
C1
350
5D
  3
C2
350
5E
  3
C3
350
5F
  3
C4
350
60
  3
C5
350
61
  3
C6
350
62
  3
C7
350
63
  3
C8
350
64
  3
C9
350
65
  3
D0
350
66
  3
D1
350
67
  3
D2
350
68
  0
DICTIONARY
  5
22B
102
{ACAD_REACTORS
330
C
102
}
330
C
100
AcDbDictionary
281
     1
  0
DICTIONARY
  5
69
102
{ACAD_REACTORS
330
C
102
}
330
C
100
AcDbDictionary
281
     1
  3
Standard
350
6A
  0
DICTIONARY
  5
2A
102
{ACAD_REACTORS
330
C
102
}
330
C
100
AcDbDictionary
281
     1
  3
2dWireframe
350
2F
  3
Basic
350
32
  3
Brighten
350
36
  3
ColorChange
350
3A
  3
Conceptual
350
34
  3
Dim
350
35
  3
EdgeColorOff
350
3D
  3
Facepattern
350
39
  3
Flat
350
2B
  3
FlatWithEdges
350
2C
  3
Gouraud
350
2D
  3
GouraudWithEdges
350
2E
  3
Hidden
350
31
  3
JitterOff
350
3B
  3
Linepattern
350
38
  3
OverhangOff
350
3C
  3
Realistic
350
33
  3
Shaded
350
42
  3
Shaded with edges
350
41
  3
Shades of Gray
350
3E
  3
Sketchy
350
3F
  3
Thicken
350
37
  3
Wireframe
350
30
  3
X-Ray
350
40
  0
XRECORD
  5
227
102
{ACAD_REACTORS
330
C
102
}
330
C
100
AcDbXrecord
280
     1
 90
        1
330
6A
  0
DICTIONARY
  5
223
102
{ACAD_REACTORS
330
C
102
}
330
C
100
AcDbDictionary
281
     1
  3
CANNOSCALE
350
224
  3
CMLEADERSTYLE
350
229
  3
CTABLESTYLE
350
228
  0
LAYOUT
  5
1E
102
{ACAD_REACTORS
330
1A
102
}
330
1A
100
AcDbPlotSettings
  1

  2
none_device
  4

  6

 40
0.0
 41
0.0
 42
0.0
 43
0.0
 44
0.0
 45
0.0
 46
0.0
 47
0.0
 48
0.0
 49
0.0
140
0.0
141
0.0
142
1.0
143
1.0
 70
   688
 72
     1
 73
     0
 74
     5
  7

 75
    16
 76
     0
 77
     2
 78
   300
147
1.0
148
0.0
149
0.0
100
AcDbLayout
  1
Layout1
 70
     1
 71
     1
 10
0.0
 20
0.0
 11
420.0
 21
297.0
 12
0.0
 22
0.0
 32
0.0
 14
1.000000000000000E+20
 24
1.000000000000000E+20
 34
1.000000000000000E+20
 15
-1.000000000000000E+20
 25
-1.000000000000000E+20
 35
-1.000000000000000E+20
146
0.0
 13
0.0
 23
0.0
 33
0.0
 16
1.0
 26
0.0
 36
0.0
 17
0.0
 27
1.0
 37
0.0
 76
     0
330
1B
  0
LAYOUT
  5
26
102
{ACAD_REACTORS
330
1A
102
}
330
1A
100
AcDbPlotSettings
  1

  2
none_device
  4

  6

 40
0.0
 41
0.0
 42
0.0
 43
0.0
 44
0.0
 45
0.0
 46
0.0
 47
0.0
 48
0.0
 49
0.0
140
0.0
141
0.0
142
1.0
143
1.0
 70
   688
 72
     1
 73
     0
 74
     5
  7

 75
    16
 76
     0
 77
     2
 78
   300
147
1.0
148
0.0
149
0.0
100
AcDbLayout
  1
Layout2
 70
     1
 71
     2
 10
0.0
 20
0.0
 11
0.0
 21
0.0
 12
0.0
 22
0.0
 32
0.0
 14
0.0
 24
0.0
 34
0.0
 15
0.0
 25
0.0
 35
0.0
146
0.0
 13
0.0
 23
0.0
 33
0.0
 16
1.0
 26
0.0
 36
0.0
 17
0.0
 27
1.0
 37
0.0
 76
     0
330
23
  0
LAYOUT
  5
22
102
{ACAD_REACTORS
330
1A
102
}
330
1A
100
AcDbPlotSettings
  1

  2
none_device
  4
Letter_(8.50_x_11.00_Inches)
  6

 40
6.35
 41
6.35
 42
6.35000508
 43
6.35000508
 44
215.9
 45
279.4
 46
0.0
 47
0.0
 48
0.0
 49
0.0
140
0.0
141
0.0
142
1.0
143
1.0
 70
  1712
 72
     1
 73
     0
 74
     0
  7

 75
     0
 76
     0
 77
     2
 78
   300
147
1.0
148
0.0
149
0.0
100
AcDbLayout
  1
Model
 70
     1
 71
     0
 10
0.0
 20
0.0
 11
420.0
 21
297.0
 12
0.0
 22
0.0
 32
0.0
 14
1.000000000000000E+20
 24
1.000000000000000E+20
 34
1.000000000000000E+20
 15
-1.000000000000000E+20
 25
-1.000000000000000E+20
 35
-1.000000000000000E+20
146
0.0
 13
0.0
 23
0.0
 33
0.0
 16
1.0
 26
0.0
 36
0.0
 17
0.0
 27
1.0
 37
0.0
 76
     0
330
1F
331
29
  0
MATERIAL
  5
45
102
{ACAD_REACTORS
330
43
102
}
330
43
100
AcDbMaterial
  1
ByBlock
 72
     1
 94
      127
  0
MATERIAL
  5
44
102
{ACAD_REACTORS
330
43
102
}
330
43
100
AcDbMaterial
  1
ByLayer
 72
     1
 94
      127
  0
MATERIAL
  5
46
102
{ACAD_REACTORS
330
43
102
}
330
43
100
AcDbMaterial
  1
Global
 72
     1
 94
      127
  0
MLEADERSTYLE
  5
6C
102
{ACAD_REACTORS
330
6B
102
}
330
6B
100
AcDbMLeaderStyle
179
     2
170
     2
171
     1
172
     0
 90
        2
 40
0.0
 41
0.0
173
     1
 91
-1056964608
340
14
 92
       -2
290
     1
 42
2.0
291
     1
 43
8.0
  3
Standard
341
0
 44
4.0
300

342
11
174
     1
178
     6
175
     1
176
     0
 93
-1056964608
 45
4.0
292
     0
297
     0
 46
4.0
343
0
 94
-1056964608
 47
1.0
 49
1.0
140
1.0
293
     1
141
0.0
294
     1
177
     0
142
1.0
295
     0
296
     0
143
3.75
271
     0
272
     9
273
     9
298
     0
  0
MLINESTYLE
  5
18
102
{ACAD_REACTORS
330
17
102
}
330
17
100
AcDbMlineStyle
  2
Standard
 70
     0
  3

 62
   256
 51
90.0
 52
90.0
 71
     2
 49
0.5
 62
   256
  6
BYLAYER
 49
-0.5
 62
   256
  6
BYLAYER
  0
ACDBPLACEHOLDER
  5
F
102
{ACAD_REACTORS
330
E
102
}
330
E
  0
SCALE
  5
48
102
{ACAD_REACTORS
330
47
102
}
330
47
100
AcDbScale
 70
     0
300
1:1
140
1.0
141
1.0
290
     1
  0
SCALE
  5
49
102
{ACAD_REACTORS
330
47
102
}
330
47
100
AcDbScale
 70
     0
300
1:2
140
1.0
141
2.0
290
     0
  0
SCALE
  5
4A
102
{ACAD_REACTORS
330
47
102
}
330
47
100
AcDbScale
 70
     0
300
1:4
140
1.0
141
4.0
290
     0
  0
SCALE
  5
4B
102
{ACAD_REACTORS
330
47
102
}
330
47
100
AcDbScale
 70
     0
300
1:5
140
1.0
141
5.0
290
     0
  0
SCALE
  5
4C
102
{ACAD_REACTORS
330
47
102
}
330
47
100
AcDbScale
 70
     0
300
1:8
140
1.0
141
8.0
290
     0
  0
SCALE
  5
4D
102
{ACAD_REACTORS
330
47
102
}
330
47
100
AcDbScale
 70
     0
300
1:10
140
1.0
141
10.0
290
     0
  0
SCALE
  5
4E
102
{ACAD_REACTORS
330
47
102
}
330
47
100
AcDbScale
 70
     0
300
1:16
140
1.0
141
16.0
290
     0
  0
SCALE
  5
4F
102
{ACAD_REACTORS
330
47
102
}
330
47
100
AcDbScale
 70
     0
300
1:20
140
1.0
141
20.0
290
     0
  0
SCALE
  5
50
102
{ACAD_REACTORS
330
47
102
}
330
47
100
AcDbScale
 70
     0
300
1:30
140
1.0
141
30.0
290
     0
  0
SCALE
  5
51
102
{ACAD_REACTORS
330
47
102
}
330
47
100
AcDbScale
 70
     0
300
1:40
140
1.0
141
40.0
290
     0
  0
SCALE
  5
52
102
{ACAD_REACTORS
330
47
102
}
330
47
100
AcDbScale
 70
     0
300
1:50
140
1.0
141
50.0
290
     0
  0
SCALE
  5
53
102
{ACAD_REACTORS
330
47
102
}
330
47
100
AcDbScale
 70
     0
300
1:100
140
1.0
141
100.0
290
     0
  0
SCALE
  5
54
102
{ACAD_REACTORS
330
47
102
}
330
47
100
AcDbScale
 70
     0
300
2:1
140
2.0
141
1.0
290
     0
  0
SCALE
  5
55
102
{ACAD_REACTORS
330
47
102
}
330
47
100
AcDbScale
 70
     0
300
4:1
140
4.0
141
1.0
290
     0
  0
SCALE
  5
56
102
{ACAD_REACTORS
330
47
102
}
330
47
100
AcDbScale
 70
     0
300
8:1
140
8.0
141
1.0
290
     0
  0
SCALE
  5
57
102
{ACAD_REACTORS
330
47
102
}
330
47
100
AcDbScale
 70
     0
300
10:1
140
10.0
141
1.0
290
     0
  0
SCALE
  5
58
102
{ACAD_REACTORS
330
47
102
}
330
47
100
AcDbScale
 70
     0
300
100:1
140
100.0
141
1.0
290
     0
  0
SCALE
  5
59
102
{ACAD_REACTORS
330
47
102
}
330
47
100
AcDbScale
 70
     0
300
1/128" = 1'-0"
140
0.0078125
141
12.0
290
     0
  0
SCALE
  5
5A
102
{ACAD_REACTORS
330
47
102
}
330
47
100
AcDbScale
 70
     0
300
1/64" = 1'-0"
140
0.015625
141
12.0
290
     0
  0
SCALE
  5
5B
102
{ACAD_REACTORS
330
47
102
}
330
47
100
AcDbScale
 70
     0
300
1/32" = 1'-0"
140
0.03125
141
12.0
290
     0
  0
SCALE
  5
5C
102
{ACAD_REACTORS
330
47
102
}
330
47
100
AcDbScale
 70
     0
300
1/16" = 1'-0"
140
0.0625
141
12.0
290
     0
  0
SCALE
  5
5D
102
{ACAD_REACTORS
330
47
102
}
330
47
100
AcDbScale
 70
     0
300
3/32" = 1'-0"
140
0.09375
141
12.0
290
     0
  0
SCALE
  5
5E
102
{ACAD_REACTORS
330
47
102
}
330
47
100
AcDbScale
 70
     0
300
1/8" = 1'-0"
140
0.125
141
12.0
290
     0
  0
SCALE
  5
5F
102
{ACAD_REACTORS
330
47
102
}
330
47
100
AcDbScale
 70
     0
300
3/16" = 1'-0"
140
0.1875
141
12.0
290
     0
  0
SCALE
  5
60
102
{ACAD_REACTORS
330
47
102
}
330
47
100
AcDbScale
 70
     0
300
1/4" = 1'-0"
140
0.25
141
12.0
290
     0
  0
SCALE
  5
61
102
{ACAD_REACTORS
330
47
102
}
330
47
100
AcDbScale
 70
     0
300
3/8" = 1'-0"
140
0.375
141
12.0
290
     0
  0
SCALE
  5
62
102
{ACAD_REACTORS
330
47
102
}
330
47
100
AcDbScale
 70
     0
300
1/2" = 1'-0"
140
0.5
141
12.0
290
     0
  0
SCALE
  5
63
102
{ACAD_REACTORS
330
47
102
}
330
47
100
AcDbScale
 70
     0
300
3/4" = 1'-0"
140
0.75
141
12.0
290
     0
  0
SCALE
  5
64
102
{ACAD_REACTORS
330
47
102
}
330
47
100
AcDbScale
 70
     0
300
1" = 1'-0"
140
1.0
141
12.0
290
     0
  0
SCALE
  5
65
102
{ACAD_REACTORS
330
47
102
}
330
47
100
AcDbScale
 70
     0
300
1-1/2" = 1'-0"
140
1.5
141
12.0
290
     0
  0
SCALE
  5
66
102
{ACAD_REACTORS
330
47
102
}
330
47
100
AcDbScale
 70
     0
300
3" = 1'-0"
140
3.0
141
12.0
290
     0
  0
SCALE
  5
67
102
{ACAD_REACTORS
330
47
102
}
330
47
100
AcDbScale
 70
     0
300
6" = 1'-0"
140
6.0
141
12.0
290
     0
  0
SCALE
  5
68
102
{ACAD_REACTORS
330
47
102
}
330
47
100
AcDbScale
 70
     0
300
1'-0" = 1'-0"
140
12.0
141
12.0
290
     0
  0
TABLESTYLE
  5
6A
102
{ACAD_REACTORS
330
69
102
}
102
{ACAD_XDICTIONARY
360
225
102
}
330
69
100
AcDbTableStyle
  3
Standard
 70
     0
 71
     0
 40
0.06
 41
0.06
280
     0
281
     0
  7
Standard
140
4.5
170
     2
 62
     0
 63
   257
283
     0
 90
        4
 91
        0
  1

274
    -2
284
     1
 64
     0
275
    -2
285
     1
 65
     0
276
    -2
286
     1
 66
     0
277
    -2
287
     1
 67
     0
278
    -2
288
     1
 68
     0
279
    -2
289
     1
 69
     0
  7
Standard
140
6.0
170
     5
 62
     0
 63
   257
283
     0
 90
        4
 91
        0
  1

274
    -2
284
     1
 64
     0
275
    -2
285
     1
 65
     0
276
    -2
286
     1
 66
     0
277
    -2
287
     1
 67
     0
278
    -2
288
     1
 68
     0
279
    -2
289
     1
 69
     0
  7
Standard
140
4.5
170
     5
 62
     0
 63
   257
283
     0
 90
        4
 91
        0
  1

274
    -2
284
     1
 64
     0
275
    -2
285
     1
 65
     0
276
    -2
286
     1
 66
     0
277
    -2
287
     1
 67
     0
278
    -2
288
     1
 68
     0
279
    -2
289
     1
 69
     0
  0
VISUALSTYLE
  5
2F
102
{ACAD_REACTORS
330
2A
102
}
330
2A
100
AcDbVisualStyle
  2
2dWireframe
 70
     4
177
     3
291
     0
 70
    58
 90
        0
176
     1
 90
        2
176
     1
 90
        0
176
     1
 90
        0
176
     1
 40
0.6
176
     1
 40
30.0
176
     1
 62
     7
420
 16777215
176
     1
 90
        1
176
     1
 90
        4
176
     1
 62
     7
176
     1
 62
   257
176
     1
 90
        1
176
     1
 90
        1
176
     1
 40
1.0
176
     1
 90
        0
176
     1
 62
   257
176
     1
 40
1.0
176
     1
 90
        1
176
     1
 90
        6
176
     1
 90
        2
176
     1
 62
     7
176
     1
 90
        5
176
     1
 90
        0
176
     1
 90
        0
176
     1
290
     0
176
     1
 90
        1
176
     1
 40
0.0
176
     1
 90
        0
176
     1
290
     1
176
     1
290
     1
176
     1
290
     0
176
     1
290
     0
176
     1
290
     0
176
     1
290
     0
176
     1
290
     0
176
     1
290
     0
176
     1
290
     0
176
     1
 90
       50
176
     1
 40
0.0
176
     1
 40
1.0
176
     1
 90
        0
176
     1
 62
    18
420
        0
176
     1
 90
       50
176
     1
 90
        3
176
     1
 62
     5
420
      255
176
     1
290
     0
176
     1
 90
       50
176
     1
 90
       50
176
     1
 90
       50
176
     1
290
     0
176
     1
 90
       50
176
     1
 62
   256
176
     0
 40
1.0
176
     0
 90
        2
176
     1
  1
strokes_ogs.tif
176
     1
290
     0
176
     1
 40
1.0
176
     1
 40
1.0
176
     1
  0
VISUALSTYLE
  5
32
102
{ACAD_REACTORS
330
2A
102
}
330
2A
100
AcDbVisualStyle
  2
Basic
 70
     7
177
     3
291
     1
 70
    58
 90
        1
176
     1
 90
        0
176
     1
 90
        1
176
     1
 90
        0
176
     1
 40
0.6
176
     1
 40
30.0
176
     1
 62
     7
420
 16777215
176
     1
 90
        0
176
     1
 90
        4
176
     1
 62
     7
176
     1
 62
   257
176
     1
 90
        1
176
     1
 90
        1
176
     1
 40
1.0
176
     1
 90
        8
176
     1
 62
     7
176
     1
 40
1.0
176
     1
 90
        1
176
     1
 90
        6
176
     1
 90
        2
176
     1
 62
     7
176
     1
 90
        5
176
     1
 90
        0
176
     1
 90
        0
176
     1
290
     0
176
     1
 90
        1
176
     1
 40
0.0
176
     1
 90
        0
176
     1
290
     0
176
     1
290
     1
176
     1
290
     1
176
     1
290
     0
176
     1
290
     0
176
     1
290
     0
176
     1
290
     0
176
     1
290
     0
176
     1
290
     0
176
     1
 90
       50
176
     1
 40
0.0
176
     1
 40
1.0
176
     1
 90
        0
176
     1
 62
    18
420
        0
176
     1
 90
       50
176
     1
 90
        3
176
     1
 62
     5
420
      255
176
     1
290
     0
176
     1
 90
       50
176
     1
 90
       50
176
     1
 90
       50
176
     1
290
     0
176
     1
 90
       50
176
     1
 62
   256
176
     0
 40
1.0
176
     0
 90
        2
176
     1
  1
strokes_ogs.tif
176
     1
290
     0
176
     1
 40
1.0
176
     1
 40
1.0
176
     1
  0
VISUALSTYLE
  5
36
102
{ACAD_REACTORS
330
2A
102
}
330
2A
100
AcDbVisualStyle
  2
Brighten
 70
    12
177
     3
291
     1
 70
    58
 90
        2
176
     1
 90
        2
176
     1
 90
        0
176
     1
 90
        0
176
     1
 40
0.6
176
     1
 40
30.0
176
     1
 62
     7
420
 16777215
176
     1
 90
        1
176
     1
 90
        4
176
     1
 62
     7
176
     1
 62
   257
176
     1
 90
        1
176
     1
 90
        1
176
     1
 40
1.0
176
     1
 90
        8
176
     1
 62
     7
176
     1
 40
1.0
176
     1
 90
        1
176
     1
 90
        6
176
     1
 90
        2
176
     1
 62
     7
176
     1
 90
        5
176
     1
 90
        0
176
     1
 90
        0
176
     1
290
     0
176
     1
 90
        1
176
     1
 40
50.0
176
     1
 90
        0
176
     1
290
     0
176
     1
290
     1
176
     1
290
     1
176
     1
290
     0
176
     1
290
     0
176
     1
290
     0
176
     1
290
     0
176
     1
290
     0
176
     1
290
     0
176
     1
 90
       50
176
     1
 40
0.0
176
     1
 40
1.0
176
     1
 90
        0
176
     1
 62
    18
420
        0
176
     1
 90
       50
176
     1
 90
        3
176
     1
 62
     5
420
      255
176
     1
290
     0
176
     1
 90
       50
176
     1
 90
       50
176
     1
 90
       50
176
     1
290
     0
176
     1
 90
       50
176
     1
 62
   256
176
     0
 40
1.0
176
     0
 90
        2
176
     1
  1
strokes_ogs.tif
176
     1
290
     0
176
     1
 40
1.0
176
     1
 40
1.0
176
     1
  0
VISUALSTYLE
  5
3A
102
{ACAD_REACTORS
330
2A
102
}
330
2A
100
AcDbVisualStyle
  2
ColorChange
 70
    16
177
     3
291
     1
 70
    58
 90
        2
176
     1
 90
        2
176
     1
 90
        3
176
     1
 90
        0
176
     1
 40
0.6
176
     1
 40
30.0
176
     1
 62
     8
420
  8421504
176
     1
 90
        1
176
     1
 90
        4
176
     1
 62
     7
176
     1
 62
   257
176
     1
 90
        1
176
     1
 90
        1
176
     1
 40
1.0
176
     1
 90
        8
176
     1
 62
     8
420
  8421504
176
     1
 40
1.0
176
     1
 90
        1
176
     1
 90
        6
176
     1
 90
        2
176
     1
 62
     7
176
     1
 90
        5
176
     1
 90
        0
176
     1
 90
        0
176
     1
290
     0
176
     1
 90
        1
176
     1
 40
0.0
176
     1
 90
        0
176
     1
290
     0
176
     1
290
     1
176
     1
290
     1
176
     1
290
     0
176
     1
290
     0
176
     1
290
     0
176
     1
290
     0
176
     1
290
     0
176
     1
290
     0
176
     1
 90
       50
176
     1
 40
0.0
176
     1
 40
1.0
176
     1
 90
        0
176
     1
 62
    18
420
        0
176
     1
 90
       50
176
     1
 90
        3
176
     1
 62
     5
420
      255
176
     1
290
     0
176
     1
 90
       50
176
     1
 90
       50
176
     1
 90
       50
176
     1
290
     0
176
     1
 90
       50
176
     1
 62
   256
176
     0
 40
1.0
176
     0
 90
        2
176
     1
  1
strokes_ogs.tif
176
     1
290
     0
176
     1
 40
1.0
176
     1
 40
1.0
176
     1
  0
VISUALSTYLE
  5
34
102
{ACAD_REACTORS
330
2A
102
}
330
2A
100
AcDbVisualStyle
  2
Conceptual
 70
     9
177
     3
291
     0
 70
    58
 90
        3
176
     1
 90
        2
176
     1
 90
        0
176
     1
 90
        0
176
     1
 40
0.6
176
     1
 40
30.0
176
     1
 62
     7
420
 16777215
176
     1
 90
        2
176
     1
 90
        2
176
     1
 62
     7
176
     1
 62
   257
176
     1
 90
        1
176
     1
 90
        1
176
     1
 40
179.0
176
     1
 90
        8
176
     1
 62
     7
176
     1
 40
1.0
176
     1
 90
        1
176
     1
 90
        6
176
     1
 90
        2
176
     1
 62
     7
176
     1
 90
        3
176
     1
 90
        0
176
     1
 90
        0
176
     1
290
     0
176
     1
 90
        1
176
     1
 40
0.0
176
     1
 90
        0
176
     1
290
     0
176
     1
290
     1
176
     1
290
     1
176
     1
290
     0
176
     1
290
     0
176
     1
290
     0
176
     1
290
     0
176
     1
290
     0
176
     1
290
     0
176
     1
 90
       50
176
     1
 40
0.0
176
     1
 40
1.0
176
     1
 90
        0
176
     1
 62
    18
420
        0
176
     1
 90
       50
176
     1
 90
        3
176
     1
 62
     5
420
      255
176
     1
290
     0
176
     1
 90
       50
176
     1
 90
       50
176
     1
 90
       50
176
     1
290
     0
176
     1
 90
       50
176
     1
 62
   256
176
     0
 40
1.0
176
     0
 90
        2
176
     1
  1
strokes_ogs.tif
176
     1
290
     0
176
     1
 40
1.0
176
     1
 40
1.0
176
     1
  0
VISUALSTYLE
  5
35
102
{ACAD_REACTORS
330
2A
102
}
330
2A
100
AcDbVisualStyle
  2
Dim
 70
    11
177
     3
291
     1
 70
    58
 90
        2
176
     1
 90
        2
176
     1
 90
        0
176
     1
 90
        0
176
     1
 40
0.6
176
     1
 40
30.0
176
     1
 62
     7
420
 16777215
176
     1
 90
        1
176
     1
 90
        4
176
     1
 62
     7
176
     1
 62
   257
176
     1
 90
        1
176
     1
 90
        1
176
     1
 40
1.0
176
     1
 90
        8
176
     1
 62
     7
176
     1
 40
1.0
176
     1
 90
        1
176
     1
 90
        6
176
     1
 90
        2
176
     1
 62
     7
176
     1
 90
        5
176
     1
 90
        0
176
     1
 90
        0
176
     1
290
     0
176
     1
 90
        1
176
     1
 40
-50.0
176
     1
 90
        0
176
     1
290
     0
176
     1
290
     1
176
     1
290
     1
176
     1
290
     0
176
     1
290
     0
176
     1
290
     0
176
     1
290
     0
176
     1
290
     0
176
     1
290
     0
176
     1
 90
       50
176
     1
 40
0.0
176
     1
 40
1.0
176
     1
 90
        0
176
     1
 62
    18
420
        0
176
     1
 90
       50
176
     1
 90
        3
176
     1
 62
     5
420
      255
176
     1
290
     0
176
     1
 90
       50
176
     1
 90
       50
176
     1
 90
       50
176
     1
290
     0
176
     1
 90
       50
176
     1
 62
   256
176
     0
 40
1.0
176
     0
 90
        2
176
     1
  1
strokes_ogs.tif
176
     1
290
     0
176
     1
 40
1.0
176
     1
 40
1.0
176
     1
  0
VISUALSTYLE
  5
3D
102
{ACAD_REACTORS
330
2A
102
}
330
2A
100
AcDbVisualStyle
  2
EdgeColorOff
 70
    22
177
     3
291
     1
 70
    58
 90
        2
176
     0
 90
        2
176
     0
 90
        0
176
     0
 90
        0
176
     0
 40
0.6
176
     0
 40
30.0
176
     0
 62
     7
420
 16777215
176
     0
 90
        1
176
     0
 90
        4
176
     0
 62
     7
176
     0
 62
   257
176
     0
 90
        1
176
     0
 90
        1
176
     0
 40
1.0
176
     0
 90
        8
176
     2
 62
     7
176
     0
 40
1.0
176
     0
 90
        1
176
     0
 90
        6
176
     0
 90
        2
176
     0
 62
     7
176
     0
 90
        5
176
     0
 90
        0
176
     0
 90
        0
176
     0
290
     0
176
     0
 90
        1
176
     0
 40
0.0
176
     0
 90
        0
176
     0
290
     0
176
     0
290
     1
176
     0
290
     1
176
     0
290
     0
176
     0
290
     0
176
     0
290
     0
176
     0
290
     0
176
     0
290
     0
176
     0
290
     0
176
     0
 90
       50
176
     0
 40
0.0
176
     0
 40
1.0
176
     0
 90
        0
176
     0
 62
    18
420
        0
176
     0
 90
       50
176
     0
 90
        3
176
     0
 62
     5
420
      255
176
     0
290
     0
176
     0
 90
       50
176
     0
 90
       50
176
     0
 90
       50
176
     0
290
     0
176
     0
 90
       50
176
     0
 62
   256
176
     0
 40
1.0
176
     0
 90
        2
176
     0
  1
strokes_ogs.tif
176
     0
290
     0
176
     0
 40
1.0
176
     0
 40
1.0
176
     0
  0
VISUALSTYLE
  5
39
102
{ACAD_REACTORS
330
2A
102
}
330
2A
100
AcDbVisualStyle
  2
Facepattern
 70
    15
177
     3
291
     1
 70
    58
 90
        2
176
     1
 90
        2
176
     1
 90
        0
176
     1
 90
        0
176
     1
 40
0.6
176
     1
 40
30.0
176
     1
 62
     7
420
 16777215
176
     1
 90
        1
176
     1
 90
        4
176
     1
 62
     7
176
     1
 62
   257
176
     1
 90
        1
176
     1
 90
        1
176
     1
 40
1.0
176
     1
 90
        8
176
     1
 62
     7
176
     1
 40
1.0
176
     1
 90
        1
176
     1
 90
        6
176
     1
 90
        2
176
     1
 62
     7
176
     1
 90
        5
176
     1
 90
        0
176
     1
 90
        0
176
     1
290
     0
176
     1
 90
        1
176
     1
 40
0.0
176
     1
 90
        0
176
     1
290
     0
176
     1
290
     1
176
     1
290
     1
176
     1
290
     0
176
     1
290
     0
176
     1
290
     0
176
     1
290
     0
176
     1
290
     0
176
     1
290
     0
176
     1
 90
       50
176
     1
 40
0.0
176
     1
 40
1.0
176
     1
 90
        0
176
     1
 62
    18
420
        0
176
     1
 90
       50
176
     1
 90
        3
176
     1
 62
     5
420
      255
176
     1
290
     0
176
     1
 90
       50
176
     1
 90
       50
176
     1
 90
       50
176
     1
290
     0
176
     1
 90
       50
176
     1
 62
   256
176
     0
 40
1.0
176
     0
 90
        2
176
     1
  1
strokes_ogs.tif
176
     1
290
     0
176
     1
 40
1.0
176
     1
 40
1.0
176
     1
  0
VISUALSTYLE
  5
2B
102
{ACAD_REACTORS
330
2A
102
}
330
2A
100
AcDbVisualStyle
  2
Flat
 70
     0
177
     3
291
     1
 70
    58
 90
        2
176
     1
 90
        1
176
     1
 90
        1
176
     1
 90
        2
176
     1
 40
0.6
176
     1
 40
30.0
176
     1
 62
     7
420
 16777215
176
     1
 90
        0
176
     1
 90
        0
176
     1
 62
     7
176
     1
 62
   257
176
     1
 90
        1
176
     1
 90
        1
176
     1
 40
1.0
176
     1
 90
        8
176
     1
 62
     7
176
     1
 40
1.0
176
     1
 90
        1
176
     1
 90
        6
176
     1
 90
        2
176
     1
 62
     7
176
     1
 90
        5
176
     1
 90
        0
176
     1
 90
        0
176
     1
290
     0
176
     1
 90
       13
176
     1
 40
0.0
176
     1
 90
        0
176
     1
290
     0
176
     1
290
     1
176
     1
290
     1
176
     1
290
     0
176
     1
290
     0
176
     1
290
     0
176
     1
290
     0
176
     1
290
     0
176
     1
290
     0
176
     1
 90
       50
176
     1
 40
0.0
176
     1
 40
1.0
176
     1
 90
        0
176
     1
 62
    18
420
        0
176
     1
 90
       50
176
     1
 90
        3
176
     1
 62
     5
420
      255
176
     1
290
     0
176
     1
 90
       50
176
     1
 90
       50
176
     1
 90
       50
176
     1
290
     0
176
     1
 90
       50
176
     1
 62
   256
176
     0
 40
1.0
176
     0
 90
        2
176
     1
  1
strokes_ogs.tif
176
     1
290
     0
176
     1
 40
1.0
176
     1
 40
1.0
176
     1
  0
VISUALSTYLE
  5
2C
102
{ACAD_REACTORS
330
2A
102
}
330
2A
100
AcDbVisualStyle
  2
FlatWithEdges
 70
     1
177
     3
291
     1
 70
    58
 90
        2
176
     1
 90
        1
176
     1
 90
        1
176
     1
 90
        2
176
     1
 40
0.6
176
     1
 40
30.0
176
     1
 62
     7
420
 16777215
176
     1
 90
        1
176
     1
 90
        0
176
     1
 62
     7
176
     1
 62
   257
176
     1
 90
        1
176
     1
 90
        1
176
     1
 40
1.0
176
     1
 90
        0
176
     1
 62
   257
176
     1
 40
1.0
176
     1
 90
        1
176
     1
 90
        6
176
     1
 90
        2
176
     1
 62
     7
176
     1
 90
        5
176
     1
 90
        0
176
     1
 90
        0
176
     1
290
     0
176
     1
 90
       13
176
     1
 40
0.0
176
     1
 90
        0
176
     1
290
     0
176
     1
290
     1
176
     1
290
     1
176
     1
290
     0
176
     1
290
     0
176
     1
290
     0
176
     1
290
     0
176
     1
290
     0
176
     1
290
     0
176
     1
 90
       50
176
     1
 40
0.0
176
     1
 40
1.0
176
     1
 90
        0
176
     1
 62
    18
420
        0
176
     1
 90
       50
176
     1
 90
        3
176
     1
 62
     5
420
      255
176
     1
290
     0
176
     1
 90
       50
176
     1
 90
       50
176
     1
 90
       50
176
     1
290
     0
176
     1
 90
       50
176
     1
 62
   256
176
     0
 40
1.0
176
     0
 90
        2
176
     1
  1
strokes_ogs.tif
176
     1
290
     0
176
     1
 40
1.0
176
     1
 40
1.0
176
     1
  0
VISUALSTYLE
  5
2D
102
{ACAD_REACTORS
330
2A
102
}
330
2A
100
AcDbVisualStyle
  2
Gouraud
 70
     2
177
     3
291
     1
 70
    58
 90
        2
176
     1
 90
        2
176
     1
 90
        1
176
     1
 90
        2
176
     1
 40
0.6
176
     1
 40
30.0
176
     1
 62
     7
420
 16777215
176
     1
 90
        0
176
     1
 90
        0
176
     1
 62
     7
176
     1
 62
   257
176
     1
 90
        1
176
     1
 90
        1
176
     1
 40
1.0
176
     1
 90
        0
176
     1
 62
     7
176
     1
 40
1.0
176
     1
 90
        1
176
     1
 90
        6
176
     1
 90
        2
176
     1
 62
     7
176
     1
 90
        5
176
     1
 90
        0
176
     1
 90
        0
176
     1
290
     0
176
     1
 90
       13
176
     1
 40
0.0
176
     1
 90
        0
176
     1
290
     0
176
     1
290
     1
176
     1
290
     1
176
     1
290
     0
176
     1
290
     0
176
     1
290
     0
176
     1
290
     0
176
     1
290
     0
176
     1
290
     0
176
     1
 90
       50
176
     1
 40
0.0
176
     1
 40
1.0
176
     1
 90
        0
176
     1
 62
    18
420
        0
176
     1
 90
       50
176
     1
 90
        3
176
     1
 62
     5
420
      255
176
     1
290
     0
176
     1
 90
       50
176
     1
 90
       50
176
     1
 90
       50
176
     1
290
     0
176
     1
 90
       50
176
     1
 62
   256
176
     0
 40
1.0
176
     0
 90
        2
176
     1
  1
strokes_ogs.tif
176
     1
290
     0
176
     1
 40
1.0
176
     1
 40
1.0
176
     1
  0
VISUALSTYLE
  5
2E
102
{ACAD_REACTORS
330
2A
102
}
330
2A
100
AcDbVisualStyle
  2
GouraudWithEdges
 70
     3
177
     3
291
     1
 70
    58
 90
        2
176
     1
 90
        2
176
     1
 90
        1
176
     1
 90
        2
176
     1
 40
0.6
176
     1
 40
30.0
176
     1
 62
     7
420
 16777215
176
     1
 90
        1
176
     1
 90
        0
176
     1
 62
     7
176
     1
 62
   257
176
     1
 90
        1
176
     1
 90
        1
176
     1
 40
1.0
176
     1
 90
        0
176
     1
 62
   257
176
     1
 40
1.0
176
     1
 90
        1
176
     1
 90
        6
176
     1
 90
        2
176
     1
 62
     7
176
     1
 90
        5
176
     1
 90
        0
176
     1
 90
        0
176
     1
290
     0
176
     1
 90
       13
176
     1
 40
0.0
176
     1
 90
        0
176
     1
290
     0
176
     1
290
     1
176
     1
290
     1
176
     1
290
     0
176
     1
290
     0
176
     1
290
     0
176
     1
290
     0
176
     1
290
     0
176
     1
290
     0
176
     1
 90
       50
176
     1
 40
0.0
176
     1
 40
1.0
176
     1
 90
        0
176
     1
 62
    18
420
        0
176
     1
 90
       50
176
     1
 90
        3
176
     1
 62
     5
420
      255
176
     1
290
     0
176
     1
 90
       50
176
     1
 90
       50
176
     1
 90
       50
176
     1
290
     0
176
     1
 90
       50
176
     1
 62
   256
176
     0
 40
1.0
176
     0
 90
        2
176
     1
  1
strokes_ogs.tif
176
     1
290
     0
176
     1
 40
1.0
176
     1
 40
1.0
176
     1
  0
VISUALSTYLE
  5
31
102
{ACAD_REACTORS
330
2A
102
}
330
2A
100
AcDbVisualStyle
  2
Hidden
 70
     6
177
     3
291
     0
 70
    58
 90
        1
176
     1
 90
        2
176
     1
 90
        2
176
     1
 90
        0
176
     1
 40
0.6
176
     1
 40
30.0
176
     1
 62
     7
420
 16777215
176
     1
 90
        2
176
     1
 90
        2
176
     1
 62
     7
176
     1
 62
   257
176
     1
 90
        2
176
     1
 90
        1
176
     1
 40
40.0
176
     1
 90
        0
176
     1
 62
   257
176
     1
 40
1.0
176
     1
 90
        1
176
     1
 90
        6
176
     1
 90
        2
176
     1
 62
     7
176
     1
 90
        3
176
     1
 90
        0
176
     1
 90
        0
176
     1
290
     0
176
     1
 90
        1
176
     1
 40
0.0
176
     1
 90
        0
176
     1
290
     0
176
     1
290
     1
176
     1
290
     1
176
     1
290
     0
176
     1
290
     0
176
     1
290
     0
176
     1
290
     0
176
     1
290
     0
176
     1
290
     0
176
     1
 90
       50
176
     1
 40
0.0
176
     1
 40
1.0
176
     1
 90
        0
176
     1
 62
    18
420
        0
176
     1
 90
       50
176
     1
 90
        3
176
     1
 62
     5
420
      255
176
     1
290
     0
176
     1
 90
       50
176
     1
 90
       50
176
     1
 90
       50
176
     1
290
     0
176
     1
 90
       50
176
     1
 62
   256
176
     0
 40
1.0
176
     0
 90
        2
176
     1
  1
strokes_ogs.tif
176
     1
290
     0
176
     1
 40
1.0
176
     1
 40
1.0
176
     1
  0
VISUALSTYLE
  5
3B
102
{ACAD_REACTORS
330
2A
102
}
330
2A
100
AcDbVisualStyle
  2
JitterOff
 70
    20
177
     3
291
     1
 70
    58
 90
        2
176
     0
 90
        2
176
     0
 90
        0
176
     0
 90
        0
176
     0
 40
0.6
176
     0
 40
30.0
176
     0
 62
     7
420
 16777215
176
     0
 90
        1
176
     0
 90
        4
176
     0
 62
     7
176
     0
 62
   257
176
     0
 90
        1
176
     0
 90
        1
176
     0
 40
1.0
176
     0
 90
       10
176
     2
 62
     7
176
     0
 40
1.0
176
     0
 90
        1
176
     0
 90
        6
176
     0
 90
        2
176
     0
 62
     7
176
     0
 90
        5
176
     0
 90
        0
176
     0
 90
        0
176
     0
290
     0
176
     0
 90
        1
176
     0
 40
0.0
176
     0
 90
        0
176
     0
290
     0
176
     0
290
     1
176
     0
290
     1
176
     0
290
     0
176
     0
290
     0
176
     0
290
     0
176
     0
290
     0
176
     0
290
     0
176
     0
290
     0
176
     0
 90
       50
176
     0
 40
0.0
176
     0
 40
1.0
176
     0
 90
        0
176
     0
 62
    18
420
        0
176
     0
 90
       50
176
     0
 90
        3
176
     0
 62
     5
420
      255
176
     0
290
     0
176
     0
 90
       50
176
     0
 90
       50
176
     0
 90
       50
176
     0
290
     0
176
     0
 90
       50
176
     0
 62
   256
176
     0
 40
1.0
176
     0
 90
        2
176
     0
  1
strokes_ogs.tif
176
     0
290
     0
176
     0
 40
1.0
176
     0
 40
1.0
176
     0
  0
VISUALSTYLE
  5
38
102
{ACAD_REACTORS
330
2A
102
}
330
2A
100
AcDbVisualStyle
  2
Linepattern
 70
    14
177
     3
291
     1
 70
    58
 90
        2
176
     1
 90
        2
176
     1
 90
        0
176
     1
 90
        0
176
     1
 40
0.6
176
     1
 40
30.0
176
     1
 62
     7
420
 16777215
176
     1
 90
        1
176
     1
 90
        4
176
     1
 62
     7
176
     1
 62
   257
176
     1
 90
        7
176
     1
 90
        7
176
     1
 40
1.0
176
     1
 90
        8
176
     1
 62
     7
176
     1
 40
1.0
176
     1
 90
        1
176
     1
 90
        6
176
     1
 90
        2
176
     1
 62
     7
176
     1
 90
        5
176
     1
 90
        0
176
     1
 90
        0
176
     1
290
     0
176
     1
 90
        1
176
     1
 40
0.0
176
     1
 90
        0
176
     1
290
     0
176
     1
290
     1
176
     1
290
     1
176
     1
290
     0
176
     1
290
     0
176
     1
290
     0
176
     1
290
     0
176
     1
290
     0
176
     1
290
     0
176
     1
 90
       50
176
     1
 40
0.0
176
     1
 40
1.0
176
     1
 90
        0
176
     1
 62
    18
420
        0
176
     1
 90
       50
176
     1
 90
        3
176
     1
 62
     5
420
      255
176
     1
290
     0
176
     1
 90
       50
176
     1
 90
       50
176
     1
 90
       50
176
     1
290
     0
176
     1
 90
       50
176
     1
 62
   256
176
     0
 40
1.0
176
     0
 90
        2
176
     1
  1
strokes_ogs.tif
176
     1
290
     0
176
     1
 40
1.0
176
     1
 40
1.0
176
     1
  0
VISUALSTYLE
  5
3C
102
{ACAD_REACTORS
330
2A
102
}
330
2A
100
AcDbVisualStyle
  2
OverhangOff
 70
    21
177
     3
291
     1
 70
    58
 90
        2
176
     0
 90
        2
176
     0
 90
        0
176
     0
 90
        0
176
     0
 40
0.6
176
     0
 40
30.0
176
     0
 62
     7
420
 16777215
176
     0
 90
        1
176
     0
 90
        4
176
     0
 62
     7
176
     0
 62
   257
176
     0
 90
        1
176
     0
 90
        1
176
     0
 40
1.0
176
     0
 90
        9
176
     2
 62
     7
176
     0
 40
1.0
176
     0
 90
        1
176
     0
 90
        6
176
     0
 90
        2
176
     0
 62
     7
176
     0
 90
        5
176
     0
 90
        0
176
     0
 90
        0
176
     0
290
     0
176
     0
 90
        1
176
     0
 40
0.0
176
     0
 90
        0
176
     0
290
     0
176
     0
290
     1
176
     0
290
     1
176
     0
290
     0
176
     0
290
     0
176
     0
290
     0
176
     0
290
     0
176
     0
290
     0
176
     0
290
     0
176
     0
 90
       50
176
     0
 40
0.0
176
     0
 40
1.0
176
     0
 90
        0
176
     0
 62
    18
420
        0
176
     0
 90
       50
176
     0
 90
        3
176
     0
 62
     5
420
      255
176
     0
290
     0
176
     0
 90
       50
176
     0
 90
       50
176
     0
 90
       50
176
     0
290
     0
176
     0
 90
       50
176
     0
 62
   256
176
     0
 40
1.0
176
     0
 90
        2
176
     0
  1
strokes_ogs.tif
176
     0
290
     0
176
     0
 40
1.0
176
     0
 40
1.0
176
     0
  0
VISUALSTYLE
  5
33
102
{ACAD_REACTORS
330
2A
102
}
330
2A
100
AcDbVisualStyle
  2
Realistic
 70
     8
177
     3
291
     0
 70
    58
 90
        2
176
     1
 90
        3
176
     1
 90
        0
176
     1
 90
        2
176
     1
 40
0.6
176
     1
 40
30.0
176
     1
 62
     7
420
 16777215
176
     1
 90
        0
176
     1
 90
        0
176
     1
 62
     7
176
     1
 62
   257
176
     1
 90
        1
176
     1
 90
        1
176
     1
 40
1.0
176
     1
 90
        8
176
     1
 62
   257
176
     1
 40
1.0
176
     1
 90
        1
176
     1
 90
        6
176
     1
 90
        2
176
     1
 62
     7
176
     1
 90
        3
176
     1
 90
        0
176
     1
 90
        0
176
     1
290
     0
176
     1
 90
       13
176
     1
 40
0.0
176
     1
 90
        0
176
     1
290
     0
176
     1
290
     1
176
     1
290
     1
176
     1
290
     0
176
     1
290
     0
176
     1
290
     0
176
     1
290
     0
176
     1
290
     0
176
     1
290
     0
176
     1
 90
       50
176
     1
 40
0.0
176
     1
 40
1.0
176
     1
 90
        0
176
     1
 62
    18
420
        0
176
     1
 90
       50
176
     1
 90
        3
176
     1
 62
     5
420
      255
176
     1
290
     0
176
     1
 90
       50
176
     1
 90
       50
176
     1
 90
       50
176
     1
290
     0
176
     1
 90
       50
176
     1
 62
   256
176
     0
 40
1.0
176
     0
 90
        2
176
     1
  1
strokes_ogs.tif
176
     1
290
     0
176
     1
 40
1.0
176
     1
 40
1.0
176
     1
  0
VISUALSTYLE
  5
42
102
{ACAD_REACTORS
330
2A
102
}
330
2A
100
AcDbVisualStyle
  2
Shaded
 70
    27
177
     3
291
     0
 70
    58
 90
        2
176
     1
 90
        2
176
     1
 90
        1
176
     1
 90
        2
176
     1
 40
0.6
176
     1
 40
30.0
176
     1
 62
     7
420
 16777215
176
     1
 90
        0
176
     1
 90
        4
176
     1
 62
     7
176
     1
 62
   257
176
     1
 90
        1
176
     1
 90
        1
176
     1
 40
1.0
176
     1
 90
        8
176
     1
 62
   257
176
     1
 40
1.0
176
     1
 90
        1
176
     1
 90
        6
176
     1
 90
        2
176
     1
 62
     8
420
  7895160
176
     1
 90
        3
176
     1
 90
        0
176
     1
 90
        0
176
     1
290
     0
176
     1
 90
        5
176
     1
 40
0.0
176
     1
 90
        0
176
     1
290
     0
176
     1
290
     1
176
     1
290
     1
176
     1
290
     0
176
     1
290
     0
176
     1
290
     0
176
     1
290
     0
176
     1
290
     0
176
     1
290
     0
176
     1
 90
       50
176
     1
 40
0.0
176
     1
 40
1.0
176
     1
 90
        0
176
     1
 62
    18
420
        0
176
     1
 90
       50
176
     1
 90
        3
176
     1
 62
     5
420
      255
176
     1
290
     0
176
     1
 90
       50
176
     1
 90
       50
176
     1
 90
       50
176
     1
290
     0
176
     1
 90
       50
176
     1
 62
   256
176
     0
 40
1.0
176
     0
 90
        2
176
     1
  1
strokes_ogs.tif
176
     1
290
     0
176
     1
 40
1.0
176
     1
 40
1.0
176
     1
  0
VISUALSTYLE
  5
41
102
{ACAD_REACTORS
330
2A
102
}
330
2A
100
AcDbVisualStyle
  2
Shaded with edges
 70
    26
177
     3
291
     0
 70
    58
 90
        2
176
     1
 90
        2
176
     1
 90
        1
176
     1
 90
        2
176
     1
 40
0.6
176
     1
 40
30.0
176
     1
 62
     7
420
 16777215
176
     1
 90
        1
176
     1
 90
       10
176
     1
 62
     7
176
     1
 62
   257
176
     1
 90
        2
176
     1
 90
        1
176
     1
 40
1.0
176
     1
 90
        8
176
     1
 62
   257
176
     1
 40
1.0
176
     1
 90
        1
176
     1
 90
        6
176
     1
 90
        2
176
     1
 62
     7
176
     1
 90
        3
176
     1
 90
        0
176
     1
 90
        0
176
     1
290
     0
176
     1
 90
        5
176
     1
 40
0.0
176
     1
 90
        0
176
     1
290
     0
176
     1
290
     1
176
     1
290
     1
176
     1
290
     0
176
     1
290
     0
176
     1
290
     0
176
     1
290
     0
176
     1
290
     0
176
     1
290
     0
176
     1
 90
       50
176
     1
 40
0.0
176
     1
 40
1.0
176
     1
 90
        0
176
     1
 62
    18
420
        0
176
     1
 90
       50
176
     1
 90
        3
176
     1
 62
     5
420
      255
176
     1
290
     0
176
     1
 90
       50
176
     1
 90
       50
176
     1
 90
       50
176
     1
290
     0
176
     1
 90
       50
176
     1
 62
   256
176
     0
 40
1.0
176
     0
 90
        2
176
     1
  1
strokes_ogs.tif
176
     1
290
     0
176
     1
 40
1.0
176
     1
 40
1.0
176
     1
  0
VISUALSTYLE
  5
3E
102
{ACAD_REACTORS
330
2A
102
}
330
2A
100
AcDbVisualStyle
  2
Shades of Gray
 70
    23
177
     3
291
     0
 70
    58
 90
        2
176
     1
 90
        2
176
     1
 90
        3
176
     1
 90
        0
176
     1
 40
0.6
176
     1
 40
30.0
176
     1
 62
     7
420
 16777215
176
     1
 90
        2
176
     1
 90
        2
176
     1
 62
     7
176
     1
 62
     7
176
     1
 90
        1
176
     1
 90
        1
176
     1
 40
40.0
176
     1
 90
        8
176
     1
 62
     7
176
     1
 40
1.0
176
     1
 90
        1
176
     1
 90
        6
176
     1
 90
        2
176
     1
 62
     7
176
     1
 90
        3
176
     1
 90
        0
176
     1
 90
        0
176
     1
290
     0
176
     1
 90
        1
176
     1
 40
0.0
176
     1
 90
        0
176
     1
290
     0
176
     1
290
     1
176
     1
290
     1
176
     1
290
     0
176
     1
290
     0
176
     1
290
     0
176
     1
290
     0
176
     1
290
     0
176
     1
290
     0
176
     1
 90
       50
176
     1
 40
0.0
176
     1
 40
1.0
176
     1
 90
        0
176
     1
 62
    18
420
        0
176
     1
 90
       50
176
     1
 90
        3
176
     1
 62
     5
420
      255
176
     1
290
     0
176
     1
 90
       50
176
     1
 90
       50
176
     1
 90
       50
176
     1
290
     0
176
     1
 90
       50
176
     1
 62
   256
176
     0
 40
1.0
176
     0
 90
        2
176
     1
  1
strokes_ogs.tif
176
     1
290
     0
176
     1
 40
1.0
176
     1
 40
1.0
176
     1
  0
VISUALSTYLE
  5
3F
102
{ACAD_REACTORS
330
2A
102
}
330
2A
100
AcDbVisualStyle
  2
Sketchy
 70
    24
177
     3
291
     0
 70
    58
 90
        1
176
     1
 90
        2
176
     1
 90
        2
176
     1
 90
        0
176
     1
 40
0.6
176
     1
 40
30.0
176
     1
 62
     7
420
 16777215
176
     1
 90
        2
176
     1
 90
        2
176
     1
 62
     7
176
     1
 62
     7
176
     1
 90
        1
176
     1
 90
        1
176
     1
 40
40.0
176
     1
 90
       11
176
     1
 62
     7
176
     1
 40
1.0
176
     1
 90
        1
176
     1
 90
        6
176
     1
 90
        2
176
     1
 62
     7
176
     1
 90
        6
176
     1
 90
        0
176
     1
 90
        0
176
     1
290
     0
176
     1
 90
        1
176
     1
 40
0.0
176
     1
 90
        0
176
     1
290
     0
176
     1
290
     1
176
     1
290
     1
176
     1
290
     0
176
     1
290
     0
176
     1
290
     0
176
     1
290
     0
176
     1
290
     0
176
     1
290
     0
176
     1
 90
       50
176
     1
 40
0.0
176
     1
 40
1.0
176
     1
 90
        0
176
     1
 62
    18
420
        0
176
     1
 90
       50
176
     1
 90
        3
176
     1
 62
     5
420
      255
176
     1
290
     0
176
     1
 90
       50
176
     1
 90
       50
176
     1
 90
       50
176
     1
290
     0
176
     1
 90
       50
176
     1
 62
   256
176
     0
 40
1.0
176
     0
 90
        2
176
     1
  1
strokes_ogs.tif
176
     1
290
     0
176
     1
 40
1.0
176
     1
 40
1.0
176
     1
  0
VISUALSTYLE
  5
37
102
{ACAD_REACTORS
330
2A
102
}
330
2A
100
AcDbVisualStyle
  2
Thicken
 70
    13
177
     3
291
     1
 70
    58
 90
        2
176
     1
 90
        2
176
     1
 90
        0
176
     1
 90
        0
176
     1
 40
0.6
176
     1
 40
30.0
176
     1
 62
     7
420
 16777215
176
     1
 90
        1
176
     1
 90
        4
176
     1
 62
     7
176
     1
 62
   257
176
     1
 90
        1
176
     1
 90
        1
176
     1
 40
1.0
176
     1
 90
       12
176
     1
 62
     7
176
     1
 40
1.0
176
     1
 90
        1
176
     1
 90
        6
176
     1
 90
        2
176
     1
 62
     7
176
     1
 90
        5
176
     1
 90
        0
176
     1
 90
        0
176
     1
290
     0
176
     1
 90
        1
176
     1
 40
0.0
176
     1
 90
        0
176
     1
290
     0
176
     1
290
     1
176
     1
290
     1
176
     1
290
     0
176
     1
290
     0
176
     1
290
     0
176
     1
290
     0
176
     1
290
     0
176
     1
290
     0
176
     1
 90
       50
176
     1
 40
0.0
176
     1
 40
1.0
176
     1
 90
        0
176
     1
 62
    18
420
        0
176
     1
 90
       50
176
     1
 90
        3
176
     1
 62
     5
420
      255
176
     1
290
     0
176
     1
 90
       50
176
     1
 90
       50
176
     1
 90
       50
176
     1
290
     0
176
     1
 90
       50
176
     1
 62
   256
176
     0
 40
1.0
176
     0
 90
        2
176
     1
  1
strokes_ogs.tif
176
     1
290
     0
176
     1
 40
1.0
176
     1
 40
1.0
176
     1
  0
VISUALSTYLE
  5
30
102
{ACAD_REACTORS
330
2A
102
}
330
2A
100
AcDbVisualStyle
  2
Wireframe
 70
     5
177
     3
291
     0
 70
    58
 90
        0
176
     1
 90
        2
176
     1
 90
        0
176
     1
 90
        0
176
     1
 40
0.6
176
     1
 40
30.0
176
     1
 62
     7
420
 16777215
176
     1
 90
        1
176
     1
 90
        4
176
     1
 62
     7
176
     1
 62
   257
176
     1
 90
        1
176
     1
 90
        1
176
     1
 40
1.0
176
     1
 90
        0
176
     1
 62
   257
176
     1
 40
1.0
176
     1
 90
        1
176
     1
 90
        6
176
     1
 90
        2
176
     1
 62
     7
176
     1
 90
        3
176
     1
 90
        0
176
     1
 90
        0
176
     1
290
     0
176
     1
 90
        1
176
     1
 40
0.0
176
     1
 90
        0
176
     1
290
     0
176
     1
290
     1
176
     1
290
     1
176
     1
290
     0
176
     1
290
     0
176
     1
290
     0
176
     1
290
     0
176
     1
290
     0
176
     1
290
     0
176
     1
 90
       50
176
     1
 40
0.0
176
     1
 40
1.0
176
     1
 90
        0
176
     1
 62
    18
420
        0
176
     1
 90
       50
176
     1
 90
        3
176
     1
 62
     5
420
      255
176
     1
290
     0
176
     1
 90
       50
176
     1
 90
       50
176
     1
 90
       50
176
     1
290
     0
176
     1
 90
       50
176
     1
 62
   256
176
     0
 40
1.0
176
     0
 90
        2
176
     1
  1
strokes_ogs.tif
176
     1
290
     0
176
     1
 40
1.0
176
     1
 40
1.0
176
     1
  0
VISUALSTYLE
  5
40
102
{ACAD_REACTORS
330
2A
102
}
330
2A
100
AcDbVisualStyle
  2
X-Ray
 70
    25
177
     3
291
     0
 70
    58
 90
        2
176
     1
 90
        2
176
     1
 90
        1
176
     1
 90
        1
176
     1
 40
0.5
176
     1
 40
30.0
176
     1
 62
     7
420
 16777215
176
     1
 90
        1
176
     1
 90
        0
176
     1
 62
     7
176
     1
 62
   257
176
     1
 90
        1
176
     1
 90
        1
176
     1
 40
1.0
176
     1
 90
        8
176
     1
 62
     7
176
     1
 40
1.0
176
     1
 90
        1
176
     1
 90
        6
176
     1
 90
        2
176
     1
 62
     7
176
     1
 90
        3
176
     1
 90
        0
176
     1
 90
        0
176
     1
290
     0
176
     1
 90
       13
176
     1
 40
0.0
176
     1
 90
        0
176
     1
290
     0
176
     1
290
     1
176
     1
290
     1
176
     1
290
     0
176
     1
290
     0
176
     1
290
     0
176
     1
290
     0
176
     1
290
     0
176
     1
290
     0
176
     1
 90
       50
176
     1
 40
0.0
176
     1
 40
1.0
176
     1
 90
        0
176
     1
 62
    18
420
        0
176
     1
 90
       50
176
     1
 90
        3
176
     1
 62
     5
420
      255
176
     1
290
     0
176
     1
 90
       50
176
     1
 90
       50
176
     1
 90
       50
176
     1
290
     0
176
     1
 90
       50
176
     1
 62
   256
176
     0
 40
1.0
176
     0
 90
        2
176
     1
  1
strokes_ogs.tif
176
     1
290
     0
176
     1
 40
1.0
176
     1
 40
1.0
176
     1
  0
DICTIONARYVAR
  5
224
102
{ACAD_REACTORS
330
223
102
}
330
223
100
DictionaryVariables
280
     0
  1
1:1
  0
DICTIONARYVAR
  5
229
102
{ACAD_REACTORS
330
223
102
}
330
223
100
DictionaryVariables
280
     0
  1
Standard
  0
DICTIONARYVAR
  5
228
102
{ACAD_REACTORS
330
223
102
}
330
223
100
DictionaryVariables
280
     0
  1
Standard
  0
DICTIONARY
  5
225
330
6A
100
AcDbDictionary
280
     1
281
     1
  3
ACAD_ROUNDTRIP_2008_TABLESTYLE_CELLSTYLEMAP
360
226
  0
CELLSTYLEMAP
  5
226
102
{ACAD_REACTORS
330
225
102
}
330
225
100
AcDbCellStyleMap
 90
        3
300
CELLSTYLE
  1
TABLEFORMAT_BEGIN
 90
        5
170
     1
 91
        0
 92
    32768
 62
   257
 93
        1
300
CONTENTFORMAT
  1
CONTENTFORMAT_BEGIN
 90
        0
 91
        0
 92
        4
 93
        0
300

 40
0.0
140
1.0
 94
        5
 62
     0
340
11
144
6.0
309
CONTENTFORMAT_END
171
     1
301
MARGIN
  1
CELLMARGIN_BEGIN
 40
1.5
 40
1.5
 40
1.5
 40
1.5
 40
1.5
 40
1.5
309
CELLMARGIN_END
 94
        6
 95
        1
302
GRIDFORMAT
  1
GRIDFORMAT_BEGIN
 90
        0
 91
        1
 62
     0
 92
       -2
340
14
 93
        0
 40
0.045
309
GRIDFORMAT_END
 95
        2
302
GRIDFORMAT
  1
GRIDFORMAT_BEGIN
 90
        0
 91
        1
 62
     0
 92
       -2
340
14
 93
        0
 40
0.045
309
GRIDFORMAT_END
 95
        4
302
GRIDFORMAT
  1
GRIDFORMAT_BEGIN
 90
        0
 91
        1
 62
     0
 92
       -2
340
14
 93
        0
 40
0.045
309
GRIDFORMAT_END
 95
        8
302
GRIDFORMAT
  1
GRIDFORMAT_BEGIN
 90
        0
 91
        1
 62
     0
 92
       -2
340
14
 93
        0
 40
0.045
309
GRIDFORMAT_END
 95
       16
302
GRIDFORMAT
  1
GRIDFORMAT_BEGIN
 90
        0
 91
        1
 62
     0
 92
       -2
340
14
 93
        0
 40
0.045
309
GRIDFORMAT_END
 95
       32
302
GRIDFORMAT
  1
GRIDFORMAT_BEGIN
 90
        0
 91
        1
 62
     0
 92
       -2
340
14
 93
        0
 40
0.045
309
GRIDFORMAT_END
309
TABLEFORMAT_END
  1
CELLSTYLE_BEGIN
 90
        1
 91
        1
300
_TITLE
309
CELLSTYLE_END
300
CELLSTYLE
  1
TABLEFORMAT_BEGIN
 90
        5
170
     1
 91
        0
 92
        0
 62
   257
 93
        1
300
CONTENTFORMAT
  1
CONTENTFORMAT_BEGIN
 90
        0
 91
        0
 92
        4
 93
        0
300

 40
0.0
140
1.0
 94
        5
 62
     0
340
11
144
4.5
309
CONTENTFORMAT_END
171
     1
301
MARGIN
  1
CELLMARGIN_BEGIN
 40
1.5
 40
1.5
 40
1.5
 40
1.5
 40
1.5
 40
1.5
309
CELLMARGIN_END
 94
        6
 95
        1
302
GRIDFORMAT
  1
GRIDFORMAT_BEGIN
 90
        0
 91
        1
 62
     0
 92
       -2
340
14
 93
        0
 40
0.045
309
GRIDFORMAT_END
 95
        2
302
GRIDFORMAT
  1
GRIDFORMAT_BEGIN
 90
        0
 91
        1
 62
     0
 92
       -2
340
14
 93
        0
 40
0.045
309
GRIDFORMAT_END
 95
        4
302
GRIDFORMAT
  1
GRIDFORMAT_BEGIN
 90
        0
 91
        1
 62
     0
 92
       -2
340
14
 93
        0
 40
0.045
309
GRIDFORMAT_END
 95
        8
302
GRIDFORMAT
  1
GRIDFORMAT_BEGIN
 90
        0
 91
        1
 62
     0
 92
       -2
340
14
 93
        0
 40
0.045
309
GRIDFORMAT_END
 95
       16
302
GRIDFORMAT
  1
GRIDFORMAT_BEGIN
 90
        0
 91
        1
 62
     0
 92
       -2
340
14
 93
        0
 40
0.045
309
GRIDFORMAT_END
 95
       32
302
GRIDFORMAT
  1
GRIDFORMAT_BEGIN
 90
        0
 91
        1
 62
     0
 92
       -2
340
14
 93
        0
 40
0.045
309
GRIDFORMAT_END
309
TABLEFORMAT_END
  1
CELLSTYLE_BEGIN
 90
        2
 91
        1
300
_HEADER
309
CELLSTYLE_END
300
CELLSTYLE
  1
TABLEFORMAT_BEGIN
 90
        5
170
     1
 91
        0
 92
        0
 62
   257
 93
        1
300
CONTENTFORMAT
  1
CONTENTFORMAT_BEGIN
 90
        0
 91
        0
 92
        4
 93
        0
300

 40
0.0
140
1.0
 94
        2
 62
     0
340
11
144
4.5
309
CONTENTFORMAT_END
171
     1
301
MARGIN
  1
CELLMARGIN_BEGIN
 40
1.5
 40
1.5
 40
1.5
 40
1.5
 40
1.5
 40
1.5
309
CELLMARGIN_END
 94
        6
 95
        1
302
GRIDFORMAT
  1
GRIDFORMAT_BEGIN
 90
        0
 91
        1
 62
     0
 92
       -2
340
14
 93
        0
 40
0.045
309
GRIDFORMAT_END
 95
        2
302
GRIDFORMAT
  1
GRIDFORMAT_BEGIN
 90
        0
 91
        1
 62
     0
 92
       -2
340
14
 93
        0
 40
0.045
309
GRIDFORMAT_END
 95
        4
302
GRIDFORMAT
  1
GRIDFORMAT_BEGIN
 90
        0
 91
        1
 62
     0
 92
       -2
340
14
 93
        0
 40
0.045
309
GRIDFORMAT_END
 95
        8
302
GRIDFORMAT
  1
GRIDFORMAT_BEGIN
 90
        0
 91
        1
 62
     0
 92
       -2
340
14
 93
        0
 40
0.045
309
GRIDFORMAT_END
 95
       16
302
GRIDFORMAT
  1
GRIDFORMAT_BEGIN
 90
        0
 91
        1
 62
     0
 92
       -2
340
14
 93
        0
 40
0.045
309
GRIDFORMAT_END
 95
       32
302
GRIDFORMAT
  1
GRIDFORMAT_BEGIN
 90
        0
 91
        1
 62
     0
 92
       -2
340
14
 93
        0
 40
0.045
309
GRIDFORMAT_END
309
TABLEFORMAT_END
  1
CELLSTYLE_BEGIN
 90
        3
 91
        2
300
_DATA
309
CELLSTYLE_END
  0
ENDSEC
  0
EOF