0
SECTION
  2
HEADER
  9
$ACADVER
  1
AC1027
  9
$ACADMAINTVER
 70
     8
  9
$DWGCODEPAGE
  3
ANSI_1252
  9
$REQUIREDVERSIONS
160
                 0
  9
$COMMENTS
  1
File was created by Cadenas
  9
$CUSTOMPROPERTYTAG
  1
NN
  9
$CUSTOMPROPERTY
  1
Grip Tight Two-Bolt Flange - Stainless Housing, Corrosion Resistant Insert Inch Bore
  9
$CUSTOMPROPERTYTAG
  1
NT
  9
$CUSTOMPROPERTY
  1
GTEZ Normal Duty Stainless Steel Housed 2 Bolt Flange Bearings
  9
$CUSTOMPROPERTYTAG
  1
NB
  9
$CUSTOMPROPERTY
  1
 129365
  9
$CUSTOMPROPERTYTAG
  1
NBSYN
  9
$CUSTOMPROPERTY
  1
 $PN.$LUBE.
  9
$CUSTOMPROPERTYTAG
  1
LINA
  9
$CUSTOMPROPERTY
  1
129365
  9
$CUSTOMPROPERTYTAG
  1
SERIES
  9
$CUSTOMPROPERTY
  1
208
  9
$CUSTOMPROPERTYTAG
  1
SS
  9
$CUSTOMPROPERTY
  1
1-1/2
  9
$CUSTOMPROPERTYTAG
  1
PN
  9
$CUSTOMPROPERTY
  1
129365
  9
$CUSTOMPROPERTYTAG
  1
DESCRIPTION
  9
$CUSTOMPROPERTY
  1
F2B-GTEZ-108-SHCR
  9
$CUSTOMPROPERTYTAG
  1
A
  9
$CUSTOMPROPERTY
  1
1-27/32
  9
$CUSTOMPROPERTYTAG
  1
B
  9
$CUSTOMPROPERTY
  1
6-23/32
  9
$CUSTOMPROPERTYTAG
  1
C
  9
$CUSTOMPROPERTY
  1
1-63/64
  9
$CUSTOMPROPERTYTAG
  1
D
  9
$CUSTOMPROPERTY
  1
5-21/32
  9
$CUSTOMPROPERTYTAG
  1
F
  9
$CUSTOMPROPERTY
  1
1/2
  9
$CUSTOMPROPERTYTAG
  1
F1
  9
$CUSTOMPROPERTY
  1
0.500
  9
$CUSTOMPROPERTYTAG
  1
H
  9
$CUSTOMPROPERTY
  1
27/64
  9
$CUSTOMPROPERTYTAG
  1
J
  9
$CUSTOMPROPERTY
  1
37/64
  9
$CUSTOMPROPERTYTAG
  1
L
  9
$CUSTOMPROPERTY
  1
2-1/2
  9
$CUSTOMPROPERTYTAG
  1
M
  9
$CUSTOMPROPERTY
  1
3-27/32
  9
$CUSTOMPROPERTYTAG
  1
Z
  9
$CUSTOMPROPERTY
  1
1-15/16
  9
$CUSTOMPROPERTYTAG
  1
COMPANY
  9
$CUSTOMPROPERTY
  1
baldor
  9
$INSBASE
 10
0.0
 20
0.0
 30
0.0
  9
$EXTMIN
 10
1.000000000000000E+20
 20
1.000000000000000E+20
 30
1.000000000000000E+20
  9
$EXTMAX
 10
-1.000000000000000E+20
 20
-1.000000000000000E+20
 30
-1.000000000000000E+20
  9
$LIMMIN
 10
0.0
 20
0.0
  9
$LIMMAX
 10
12.0
 20
9.0
  9
$ORTHOMODE
 70
     0
  9
$REGENMODE
 70
     1
  9
$FILLMODE
 70
     1
  9
$QTEXTMODE
 70
     0
  9
$MIRRTEXT
 70
     1
  9
$LTSCALE
 40
1.0
  9
$ATTMODE
 70
     1
  9
$TEXTSIZE
 40
0.2
  9
$TRACEWID
 40
0.05
  9
$TEXTSTYLE
  7
Standard
  9
$CLAYER
  8
0
  9
$CELTYPE
  6
ByLayer
  9
$CECOLOR
 62
   256
  9
$CELTSCALE
 40
1.0
  9
$DISPSILH
 70
     0
  9
$DIMSCALE
 40
1.0
  9
$DIMASZ
 40
0.18
  9
$DIMEXO
 40
0.0625
  9
$DIMDLI
 40
0.38
  9
$DIMRND
 40
0.0
  9
$DIMDLE
 40
0.0
  9
$DIMEXE
 40
0.18
  9
$DIMTP
 40
0.0
  9
$DIMTM
 40
0.0
  9
$DIMTXT
 40
0.18
  9
$DIMCEN
 40
0.09
  9
$DIMTSZ
 40
0.0
  9
$DIMTOL
 70
     0
  9
$DIMLIM
 70
     0
  9
$DIMTIH
 70
     1
  9
$DIMTOH
 70
     1
  9
$DIMSE1
 70
     0
  9
$DIMSE2
 70
     0
  9
$DIMTAD
 70
     0
  9
$DIMZIN
 70
     0
  9
$DIMBLK
  1

  9
$DIMASO
 70
     1
  9
$DIMSHO
 70
     1
  9
$DIMPOST
  1

  9
$DIMAPOST
  1

  9
$DIMALT
 70
     0
  9
$DIMALTD
 70
     2
  9
$DIMALTF
 40
25.4
  9
$DIMLFAC
 40
1.0
  9
$DIMTOFL
 70
     0
  9
$DIMTVP
 40
0.0
  9
$DIMTIX
 70
     0
  9
$DIMSOXD
 70
     0
  9
$DIMSAH
 70
     0
  9
$DIMBLK1
  1

  9
$DIMBLK2
  1

  9
$DIMSTYLE
  2
Standard
  9
$DIMCLRD
 70
     0
  9
$DIMCLRE
 70
     0
  9
$DIMCLRT
 70
     0
  9
$DIMTFAC
 40
1.0
  9
$DIMGAP
 40
0.09
  9
$DIMJUST
 70
     0
  9
$DIMSD1
 70
     0
  9
$DIMSD2
 70
     0
  9
$DIMTOLJ
 70
     1
  9
$DIMTZIN
 70
     0
  9
$DIMALTZ
 70
     0
  9
$DIMALTTZ
 70
     0
  9
$DIMUPT
 70
     0
  9
$DIMDEC
 70
     4
  9
$DIMTDEC
 70
     4
  9
$DIMALTU
 70
     2
  9
$DIMALTTD
 70
     2
  9
$DIMTXSTY
  7
Standard
  9
$DIMAUNIT
 70
     0
  9
$DIMADEC
 70
     0
  9
$DIMALTRND
 40
0.0
  9
$DIMAZIN
 70
     0
  9
$DIMDSEP
 70
    46
  9
$DIMATFIT
 70
     3
  9
$DIMFRAC
 70
     0
  9
$DIMLDRBLK
  1

  9
$DIMLUNIT
 70
     2
  9
$DIMLWD
 70
    -2
  9
$DIMLWE
 70
    -2
  9
$DIMTMOVE
 70
     0
  9
$DIMFXL
 40
1.0
  9
$DIMFXLON
 70
     0
  9
$DIMJOGANG
 40
0.7853981633974483
  9
$DIMTFILL
 70
     0
  9
$DIMTFILLCLR
 70
     0
  9
$DIMARCSYM
 70
     0
  9
$DIMLTYPE
  6

  9
$DIMLTEX1
  6

  9
$DIMLTEX2
  6

  9
$DIMTXTDIRECTION
 70
     0
  9
$LUNITS
 70
     2
  9
$LUPREC
 70
     4
  9
$SKETCHINC
 40
0.1
  9
$FILLETRAD
 40
0.5
  9
$AUNITS
 70
     0
  9
$AUPREC
 70
     0
  9
$MENU
  1
.
  9
$ELEVATION
 40
0.0
  9
$PELEVATION
 40
0.0
  9
$THICKNESS
 40
0.0
  9
$LIMCHECK
 70
     0
  9
$CHAMFERA
 40
0.0
  9
$CHAMFERB
 40
0.0
  9
$CHAMFERC
 40
0.0
  9
$CHAMFERD
 40
0.0
  9
$SKPOLY
 70
     0
  9
$TDCREATE
 40
2458168.991870903
  9
$TDUCREATE
 40
2458168.950204236
  9
$TDUPDATE
 40
2458168.991871088
  9
$TDUUPDATE
 40
2458168.950204421
  9
$TDINDWG
 40
0.0000000116
  9
$TDUSRTIMER
 40
0.0000000116
  9
$USRTIMER
 70
     1
  9
$ANGBASE
 50
0.0
  9
$ANGDIR
 70
     0
  9
$PDMODE
 70
     0
  9
$PDSIZE
 40
0.0
  9
$PLINEWID
 40
0.0
  9
$SPLFRAME
 70
     0
  9
$SPLINETYPE
 70
     6
  9
$SPLINESEGS
 70
     8
  9
$HANDSEED
  5
22B
  9
$SURFTAB1
 70
     6
  9
$SURFTAB2
 70
     6
  9
$SURFTYPE
 70
     6
  9
$SURFU
 70
     6
  9
$SURFV
 70
     6
  9
$UCSBASE
  2

  9
$UCSNAME
  2

  9
$UCSORG
 10
0.0
 20
0.0
 30
0.0
  9
$UCSXDIR
 10
1.0
 20
0.0
 30
0.0
  9
$UCSYDIR
 10
0.0
 20
1.0
 30
0.0
  9
$UCSORTHOREF
  2

  9
$UCSORTHOVIEW
 70
     0
  9
$UCSORGTOP
 10
0.0
 20
0.0
 30
0.0
  9
$UCSORGBOTTOM
 10
0.0
 20
0.0
 30
0.0
  9
$UCSORGLEFT
 10
0.0
 20
0.0
 30
0.0
  9
$UCSORGRIGHT
 10
0.0
 20
0.0
 30
0.0
  9
$UCSORGFRONT
 10
0.0
 20
0.0
 30
0.0
  9
$UCSORGBACK
 10
0.0
 20
0.0
 30
0.0
  9
$PUCSBASE
  2

  9
$PUCSNAME
  2

  9
$PUCSORG
 10
0.0
 20
0.0
 30
0.0
  9
$PUCSXDIR
 10
1.0
 20
0.0
 30
0.0
  9
$PUCSYDIR
 10
0.0
 20
1.0
 30
0.0
  9
$PUCSORTHOREF
  2

  9
$PUCSORTHOVIEW
 70
     0
  9
$PUCSORGTOP
 10
0.0
 20
0.0
 30
0.0
  9
$PUCSORGBOTTOM
 10
0.0
 20
0.0
 30
0.0
  9
$PUCSORGLEFT
 10
0.0
 20
0.0
 30
0.0
  9
$PUCSORGRIGHT
 10
0.0
 20
0.0
 30
0.0
  9
$PUCSORGFRONT
 10
0.0
 20
0.0
 30
0.0
  9
$PUCSORGBACK
 10
0.0
 20
0.0
 30
0.0
  9
$USERI1
 70
     0
  9
$USERI2
 70
     0
  9
$USERI3
 70
     0
  9
$USERI4
 70
     0
  9
$USERI5
 70
     0
  9
$USERR1
 40
0.0
  9
$USERR2
 40
0.0
  9
$USERR3
 40
0.0
  9
$USERR4
 40
0.0
  9
$USERR5
 40
0.0
  9
$WORLDVIEW
 70
     1
  9
$SHADEDGE
 70
     3
  9
$SHADEDIF
 70
    70
  9
$TILEMODE
 70
     1
  9
$MAXACTVP
 70
    64
  9
$PINSBASE
 10
0.0
 20
0.0
 30
0.0
  9
$PLIMCHECK
 70
     0
  9
$PEXTMIN
 10
1.000000000000000E+20
 20
1.000000000000000E+20
 30
1.000000000000000E+20
  9
$PEXTMAX
 10
-1.000000000000000E+20
 20
-1.000000000000000E+20
 30
-1.000000000000000E+20
  9
$PLIMMIN
 10
0.0
 20
0.0
  9
$PLIMMAX
 10
12.0
 20
9.0
  9
$UNITMODE
 70
     0
  9
$VISRETAIN
 70
     1
  9
$PLINEGEN
 70
     0
  9
$PSLTSCALE
 70
     1
  9
$TREEDEPTH
 70
  3020
  9
$CMLSTYLE
  2
Standard
  9
$CMLJUST
 70
     0
  9
$CMLSCALE
 40
1.0
  9
$PROXYGRAPHICS
 70
     1
  9
$MEASUREMENT
 70
     0
  9
$CELWEIGHT
370
    -1
  9
$ENDCAPS
280
     0
  9
$JOINSTYLE
280
     0
  9
$LWDISPLAY
290
     0
  9
$INSUNITS
 70
     1
  9
$HYPERLINKBASE
  1

  9
$STYLESHEET
  1

  9
$XEDIT
290
     1
  9
$CEPSNTYPE
380
     0
  9
$PSTYLEMODE
290
     1
  9
$FINGERPRINTGUID
  2
{0DEABC08-B1D9-4EF6-91BD-54091CFCDCC7}
  9
$VERSIONGUID
  2
{FAEB1C32-E019-11D5-929B-00C0DF256EC4}
  9
$EXTNAMES
290
     1
  9
$PSVPSCALE
 40
0.0
  9
$OLESTARTUP
290
     0
  9
$SORTENTS
280
   127
  9
$INDEXCTL
280
     0
  9
$HIDETEXT
280
     1
  9
$XCLIPFRAME
280
     2
  9
$HALOGAP
280
     0
  9
$OBSCOLOR
 70
   257
  9
$OBSLTYPE
280
     0
  9
$INTERSECTIONDISPLAY
280
     0
  9
$INTERSECTIONCOLOR
 70
   257
  9
$DIMASSOC
280
     2
  9
$PROJECTNAME
  1

  9
$CAMERADISPLAY
290
     0
  9
$LENSLENGTH
 40
50.0
  9
$CAMERAHEIGHT
 40
0.0
  9
$STEPSPERSEC
 40
2.0
  9
$STEPSIZE
 40
6.0
  9
$3DDWFPREC
 40
2.0
  9
$PSOLWIDTH
 40
0.25
  9
$PSOLHEIGHT
 40
4.0
  9
$LOFTANG1
 40
1.570796326794897
  9
$LOFTANG2
 40
1.570796326794897
  9
$LOFTMAG1
 40
0.0
  9
$LOFTMAG2
 40
0.0
  9
$LOFTPARAM
 70
     7
  9
$LOFTNORMALS
280
     1
  9
$LATITUDE
 40
37.795
  9
$LONGITUDE
 40
-122.394
  9
$NORTHDIRECTION
 40
0.0
  9
$TIMEZONE
 70
 -8000
  9
$LIGHTGLYPHDISPLAY
280
     1
  9
$TILEMODELIGHTSYNCH
280
     1
  9
$CMATERIAL
347
44
  9
$SOLIDHIST
280
     0
  9
$SHOWHIST
280
     1
  9
$DWFFRAME
280
     2
  9
$DGNFRAME
280
     2
  9
$REALWORLDSCALE
290
     1
  9
$INTERFERECOLOR
 62
   256
  9
$CSHADOW
280
     0
  9
$SHADOWPLANELOCATION
 40
0.0
  0
ENDSEC
  0
SECTION
  2
CLASSES
  0
CLASS
  1
ACDBDICTIONARYWDFLT
  2
AcDbDictionaryWithDefault
  3
ObjectDBX Classes
 90
        0
 91
        4
280
     0
281
     0
  0
CLASS
  1
VISUALSTYLE
  2
AcDbVisualStyle
  3
ObjectDBX Classes
 90
     4095
 91
        4
280
     0
281
     0
  0
CLASS
  1
MATERIAL
  2
AcDbMaterial
  3
ObjectDBX Classes
 90
     1153
 91
        4
280
     0
281
     0
  0
CLASS
  1
SCALE
  2
AcDbScale
  3
ObjectDBX Classes
 90
     1153
 91
        4
280
     0
281
     0
  0
CLASS
  1
TABLESTYLE
  2
AcDbTableStyle
  3
ObjectDBX Classes
 90
     4095
 91
        4
280
     0
281
     0
  0
CLASS
  1
MLEADERSTYLE
  2
AcDbMLeaderStyle
  3
ACDB_MLEADERSTYLE_CLASS
 90
     4095
 91
        4
280
     0
281
     0
  0
CLASS
  1
SUN
  2
AcDbSun
  3
SCENEOE
 90
     1153
 91
        4
280
     0
281
     0
  0
CLASS
  1
DICTIONARYVAR
  2
AcDbDictionaryVar
  3
ObjectDBX Classes
 90
        0
 91
        4
280
     0
281
     0
  0
CLASS
  1
CELLSTYLEMAP
  2
AcDbCellStyleMap
  3
ObjectDBX Classes
 90
     1152
 91
        4
280
     0
281
     0
  0
ENDSEC
  0
SECTION
  2
TABLES
  0
TABLE
  2
VPORT
  5
8
330
0
100
AcDbSymbolTable
 70
     1
  0
VPORT
  5
29
330
8
100
AcDbSymbolTableRecord
100
AcDbViewportTableRecord
  2
*Active
 70
     0
 10
0.0
 20
0.0
 11
1.0
 21
1.0
 12
0.0
 22
-1.00396875
 13
0.0
 23
0.0
 14
0.5
 24
0.5
 15
0.5
 25
0.5
 16
0.0
 26
0.0
 36
1.0
 17
0.0
 27
0.0
 37
0.0
 40
2.18681625
 41
1.792962714631372
 42
50.0
 43
0.0
 44
0.0
 50
0.0
 51
0.0
 71
     0
 72
   100
 73
     1
 74
     3
 75
     0
 76
     0
 77
     0
 78
     0
281
     0
 65
     1
110
0.0
120
0.0
130
0.0
111
1.0
121
0.0
131
0.0
112
0.0
122
1.0
132
0.0
 79
     0
146
0.0
348
2F
 60
     3
 61
     5
292
     1
282
     1
141
0.0
142
0.0
 63
   250
361
6D
  0
ENDTAB
  0
TABLE
  2
LTYPE
  5
5
330
0
100
AcDbSymbolTable
 70
     3
  0
LTYPE
  5
14
330
5
100
AcDbSymbolTableRecord
100
AcDbLinetypeTableRecord
  2
ByBlock
 70
     0
  3

 72
    65
 73
     0
 40
0.0
  0
LTYPE
  5
15
330
5
100
AcDbSymbolTableRecord
100
AcDbLinetypeTableRecord
  2
ByLayer
 70
     0
  3

 72
    65
 73
     0
 40
0.0
  0
LTYPE
  5
16
330
5
100
AcDbSymbolTableRecord
100
AcDbLinetypeTableRecord
  2
Continuous
 70
     0
  3
Solid line
 72
    65
 73
     0
 40
0.0
  0
LTYPE
  5
9E
330
5
100
AcDbSymbolTableRecord
100
AcDbLinetypeTableRecord
  2
Dashed
 70
     0
  3

 72
    65
 73
     2
 40
2.0
 49
1.0
 74
     0
 49
-1.0
 74
     0
  0
LTYPE
  5
105
330
5
100
AcDbSymbolTableRecord
100
AcDbLinetypeTableRecord
  2
Center
 70
     0
  3

 72
    65
 73
     4
 40
1.5
 49
0.45
 74
     0
 49
-0.5
 74
     0
 49
0.05
 74
     0
 49
-0.5
 74
     0
  0
ENDTAB
  0
TABLE
  2
LAYER
  5
2
330
0
100
AcDbSymbolTable
 70
     7
  0
LAYER
  5
10
330
2
100
AcDbSymbolTableRecord
100
AcDbLayerTableRecord
  2
0
 70
     0
 62
     7
  6
Continuous
370
    -3
390
F
347
46
348
0
  0
LAYER
  5
72
330
2
100
AcDbSymbolTableRecord
100
AcDbLayerTableRecord
  2
AM_6
 70
     0
 62
    -2
  6
Continuous
370
    35
390
F
347
46
348
0
  0
LAYER
  5
9F
330
2
100
AcDbSymbolTableRecord
100
AcDbLayerTableRecord
  2
AM_9
 70
     0
 62
     6
  6
Dashed
370
    25
390
F
347
46
348
0
  0
LAYER
  5
CC
330
2
100
AcDbSymbolTableRecord
100
AcDbLayerTableRecord
  2
AM_4
 70
     0
 62
     7
  6
Continuous
370
    50
390
F
347
46
348
0
  0
LAYER
  5
102
330
2
100
AcDbSymbolTableRecord
100
AcDbLayerTableRecord
  2
AM_5
 70
     0
 62
     3
  6
Continuous
370
    25
390
F
347
46
348
0
  0
LAYER
  5
106
330
2
100
AcDbSymbolTableRecord
100
AcDbLayerTableRecord
  2
AM_7
 70
     0
 62
     7
  6
Center
370
    25
390
F
347
46
348
0
  0
LAYER
  5
21E
330
2
100
AcDbSymbolTableRecord
100
AcDbLayerTableRecord
  2
ConnectionPoints
 70
     0
 62
     7
  6
Continuous
370
    50
390
F
347
46
348
0
  0
ENDTAB
  0
TABLE
  2
STYLE
  5
3
330
0
100
AcDbSymbolTable
 70
     1
  0
STYLE
  5
11
330
3
100
AcDbSymbolTableRecord
100
AcDbTextStyleTableRecord
  2
Standard
 70
     0
 40
0.0
 41
1.0
 50
0.0
 71
     0
 42
0.2
  3
txt
  4

  0
ENDTAB
  0
TABLE
  2
VIEW
  5
6
330
0
100
AcDbSymbolTable
 70
     0
  0
ENDTAB
  0
TABLE
  2
UCS
  5
7
330
0
100
AcDbSymbolTable
 70
     0
  0
ENDTAB
  0
TABLE
  2
APPID
  5
9
330
0
100
AcDbSymbolTable
 70
     1
  0
APPID
  5
12
330
9
100
AcDbSymbolTableRecord
100
AcDbRegAppTableRecord
  2
ACAD
 70
     0
  0
ENDTAB
  0
TABLE
  2
DIMSTYLE
  5
A
330
0
100
AcDbSymbolTable
 70
     1
100
AcDbDimStyleTable
  0
DIMSTYLE
105
27
330
A
100
AcDbSymbolTableRecord
100
AcDbDimStyleTableRecord
  2
Standard
 70
     0
178
     0
340
11
  0
ENDTAB
  0
TABLE
  2
BLOCK_RECORD
  5
1
330
0
100
AcDbSymbolTable
 70
     5
  0
BLOCK_RECORD
  5
1F
330
1
100
AcDbSymbolTableRecord
100
AcDbBlockTableRecord
  2
*Model_Space
340
22
 70
     0
280
     1
281
     0
  0
BLOCK_RECORD
  5
1B
330
1
100
AcDbSymbolTableRecord
100
AcDbBlockTableRecord
  2
*Paper_Space
340
1E
 70
     0
280
     1
281
     0
  0
BLOCK_RECORD
  5
23
330
1
100
AcDbSymbolTableRecord
100
AcDbBlockTableRecord
  2
*Paper_Space0
340
26
 70
     0
280
     1
281
     0
  0
BLOCK_RECORD
  5
6E
330
1
100
AcDbSymbolTableRecord
100
AcDbBlockTableRecord
  2
1__129365_4
340
0
102
{BLKREFS
331
6F
102
}
 70
     0
280
     1
281
     0
  0
BLOCK_RECORD
  5
88
330
1
100
AcDbSymbolTableRecord
100
AcDbBlockTableRecord
  2
2_INS_GT_08_CRI_0_in__129365_4
340
0
102
{BLKREFS
331
89
102
}
 70
     0
280
     1
281
     0
  0
BLOCK_RECORD
  5
D0
330
1
100
AcDbSymbolTableRecord
100
AcDbBlockTableRecord
  2
3_129975_0_in__129365_4
340
0
102
{BLKREFS
331
D1
102
}
 70
     0
280
     1
281
     0
  0
BLOCK_RECORD
  5
122
330
1
100
AcDbSymbolTableRecord
100
AcDbBlockTableRecord
  2
4__F2B_GTEZ_08_SHCR_II_0_in__129365_4
340
0
102
{BLKREFS
331
123
102
}
 70
     0
280
     1
281
     0
  0
ENDTAB
  0
ENDSEC
  0
SECTION
  2
BLOCKS
  0
BLOCK
  5
20
330
1F
100
AcDbEntity
  8
0
100
AcDbBlockBegin
  2
*Model_Space
 70
     0
 10
0.0
 20
0.0
 30
0.0
  3
*Model_Space
  1

  0
ENDBLK
  5
21
330
1F
100
AcDbEntity
  8
0
100
AcDbBlockEnd
  0
BLOCK
  5
1C
330
1B
100
AcDbEntity
 67
     1
  8
0
100
AcDbBlockBegin
  2
*Paper_Space
 70
     0
 10
0.0
 20
0.0
 30
0.0
  3
*Paper_Space
  1

  0
ENDBLK
  5
1D
330
1B
100
AcDbEntity
 67
     1
  8
0
100
AcDbBlockEnd
  0
BLOCK
  5
24
330
23
100
AcDbEntity
  8
0
100
AcDbBlockBegin
  2
*Paper_Space0
 70
     0
 10
0.0
 20
0.0
 30
0.0
  3
*Paper_Space0
  1

  0
ENDBLK
  5
25
330
23
100
AcDbEntity
  8
0
100
AcDbBlockEnd
  0
BLOCK
  5
70
330
6E
100
AcDbEntity
  8
0
100
AcDbBlockBegin
  2
1__129365_4
 70
     2
 10
0.0
 20
0.0
 30
0.0
  3
1__129365_4
  1

  0
ATTDEF
  5
73
330
6E
100
AcDbEntity
  8
AM_6
100
AcDbText
 10
6.921999999999999
 20
0.068
 30
0.0
 40
0.5
  1
Grip Tight Two-Bolt Flange - Stainless Housing, Corrosion Resistant Insert Inch Bore
100
AcDbAttributeDefinition
  3

  2
NN
 70
     8
280
     0
  0
ATTDEF
  5
74
330
6E
100
AcDbEntity
  8
AM_6
100
AcDbText
 10
6.921999999999999
 20
-0.432
 30
0.0
 40
0.5
  1
GTEZ Normal Duty Stainless Steel Housed 2 Bolt Flange Bearings
100
AcDbAttributeDefinition
  3

  2
NT
 70
     8
280
     0
  0
ATTDEF
  5
75
330
6E
100
AcDbEntity
  8
AM_6
100
AcDbText
 10
6.921999999999999
 20
-0.9319999999999999
 30
0.0
 40
0.5
  1
 129365
100
AcDbAttributeDefinition
  3

  2
NB
 70
     8
280
     0
  0
ATTDEF
  5
76
330
6E
100
AcDbEntity
  8
AM_6
100
AcDbText
 10
6.921999999999999
 20
-1.432
 30
0.0
 40
0.5
  1
 $PN.$LUBE.
100
AcDbAttributeDefinition
  3

  2
NBSYN
 70
     8
280
     0
  0
ATTDEF
  5
77
330
6E
100
AcDbEntity
  8
AM_6
100
AcDbText
 10
6.921999999999999
 20
-1.932
 30
0.0
 40
0.5
  1
129365
100
AcDbAttributeDefinition
  3

  2
LINA
 70
     8
280
     0
  0
ATTDEF
  5
78
330
6E
100
AcDbEntity
  8
AM_6
100
AcDbText
 10
6.921999999999999
 20
-2.432
 30
0.0
 40
0.5
  1
208
100
AcDbAttributeDefinition
  3

  2
SERIES
 70
     8
280
     0
  0
ATTDEF
  5
79
330
6E
100
AcDbEntity
  8
AM_6
100
AcDbText
 10
6.921999999999999
 20
-2.932
 30
0.0
 40
0.5
  1
1-1/2
100
AcDbAttributeDefinition
  3

  2
SS
 70
     8
280
     0
  0
ATTDEF
  5
7A
330
6E
100
AcDbEntity
  8
AM_6
100
AcDbText
 10
6.921999999999999
 20
-3.432
 30
0.0
 40
0.5
  1
129365
100
AcDbAttributeDefinition
  3

  2
PN
 70
     8
280
     0
  0
ATTDEF
  5
7B
330
6E
100
AcDbEntity
  8
AM_6
100
AcDbText
 10
6.921999999999999
 20
-3.932
 30
0.0
 40
0.5
  1
F2B-GTEZ-108-SHCR
100
AcDbAttributeDefinition
  3

  2
DESCRIPTION
 70
     8
280
     0
  0
ATTDEF
  5
7C
330
6E
100
AcDbEntity
  8
AM_6
100
AcDbText
 10
6.921999999999999
 20
-4.432
 30
0.0
 40
0.5
  1
1-27/32
100
AcDbAttributeDefinition
  3

  2
A
 70
     8
280
     0
  0
ATTDEF
  5
7D
330
6E
100
AcDbEntity
  8
AM_6
100
AcDbText
 10
6.921999999999999
 20
-4.932
 30
0.0
 40
0.5
  1
6-23/32
100
AcDbAttributeDefinition
  3

  2
B
 70
     8
280
     0
  0
ATTDEF
  5
7E
330
6E
100
AcDbEntity
  8
AM_6
100
AcDbText
 10
6.921999999999999
 20
-5.432
 30
0.0
 40
0.5
  1
1-63/64
100
AcDbAttributeDefinition
  3

  2
C
 70
     8
280
     0
  0
ATTDEF
  5
7F
330
6E
100
AcDbEntity
  8
AM_6
100
AcDbText
 10
6.921999999999999
 20
-5.932
 30
0.0
 40
0.5
  1
5-21/32
100
AcDbAttributeDefinition
  3

  2
D
 70
     8
280
     0
  0
ATTDEF
  5
80
330
6E
100
AcDbEntity
  8
AM_6
100
AcDbText
 10
6.921999999999999
 20
-6.432
 30
0.0
 40
0.5
  1
1/2
100
AcDbAttributeDefinition
  3

  2
F
 70
     8
280
     0
  0
ATTDEF
  5
81
330
6E
100
AcDbEntity
  8
AM_6
100
AcDbText
 10
6.921999999999999
 20
-6.932
 30
0.0
 40
0.5
  1
0.500
100
AcDbAttributeDefinition
  3

  2
F1
 70
     8
280
     0
  0
ATTDEF
  5
82
330
6E
100
AcDbEntity
  8
AM_6
100
AcDbText
 10
6.921999999999999
 20
-7.432
 30
0.0
 40
0.5
  1
27/64
100
AcDbAttributeDefinition
  3

  2
H
 70
     8
280
     0
  0
ATTDEF
  5
83
330
6E
100
AcDbEntity
  8
AM_6
100
AcDbText
 10
6.921999999999999
 20
-7.932
 30
0.0
 40
0.5
  1
37/64
100
AcDbAttributeDefinition
  3

  2
J
 70
     8
280
     0
  0
ATTDEF
  5
84
330
6E
100
AcDbEntity
  8
AM_6
100
AcDbText
 10
6.921999999999999
 20
-8.432
 30
0.0
 40
0.5
  1
2-1/2
100
AcDbAttributeDefinition
  3

  2
L
 70
     8
280
     0
  0
ATTDEF
  5
85
330
6E
100
AcDbEntity
  8
AM_6
100
AcDbText
 10
6.921999999999999
 20
-8.932
 30
0.0
 40
0.5
  1
3-27/32
100
AcDbAttributeDefinition
  3

  2
M
 70
     8
280
     0
  0
ATTDEF
  5
86
330
6E
100
AcDbEntity
  8
AM_6
100
AcDbText
 10
6.921999999999999
 20
-9.432
 30
0.0
 40
0.5
  1
1-15/16
100
AcDbAttributeDefinition
  3

  2
Z
 70
     8
280
     0
  0
ATTDEF
  5
87
330
6E
100
AcDbEntity
  8
AM_6
100
AcDbText
 10
6.921999999999999
 20
-9.932
 30
0.0
 40
0.5
  1
baldor
100
AcDbAttributeDefinition
  3

  2
COMPANY
 70
     8
280
     0
  0
INSERT
  5
89
330
6E
100
AcDbEntity
  8
0
100
AcDbBlockReference
  2
2_INS_GT_08_CRI_0_in__129365_4
 10
0.0
 20
0.0
 30
0.0
  0
INSERT
  5
D1
330
6E
100
AcDbEntity
  8
0
100
AcDbBlockReference
  2
3_129975_0_in__129365_4
 10
0.0
 20
0.0
 30
0.0
  0
INSERT
  5
123
330
6E
100
AcDbEntity
  8
0
100
AcDbBlockReference
  2
4__F2B_GTEZ_08_SHCR_II_0_in__129365_4
 10
0.0
 20
0.0
 30
0.0
  0
ENDBLK
  5
71
330
6E
100
AcDbEntity
  8
0
100
AcDbBlockEnd
  0
BLOCK
  5
8A
330
88
100
AcDbEntity
  8
0
100
AcDbBlockBegin
  2
2_INS_GT_08_CRI_0_in__129365_4
 70
     2
 10
0.0
 20
0.0
 30
0.0
  3
2_INS_GT_08_CRI_0_in__129365_4
  1

  0
ATTDEF
  5
8C
330
88
100
AcDbEntity
  8
AM_6
100
AcDbText
 10
6.574795958817284
 20
-0.2056249999999998
 30
0.0
 40
0.5
  1
INS-GT-CR-I
100
AcDbAttributeDefinition
  3

  2
NN
 70
     8
280
     0
  0
ATTDEF
  5
8D
330
88
100
AcDbEntity
  8
AM_6
100
AcDbText
 10
6.574795958817284
 20
-0.7056249999999998
 30
0.0
 40
0.5
  1
GT Normal Duty Corrosion Resistant Bearing Inserts
100
AcDbAttributeDefinition
  3

  2
NT
 70
     8
280
     0
  0
ATTDEF
  5
8E
330
88
100
AcDbEntity
  8
AM_6
100
AcDbText
 10
6.574795958817284
 20
-1.205625
 30
0.0
 40
0.5
  1
INS-GT-08-CRI
100
AcDbAttributeDefinition
  3

  2
NB
 70
     8
280
     0
  0
ATTDEF
  5
8F
330
88
100
AcDbEntity
  8
AM_6
100
AcDbText
 10
6.574795958817284
 20
-1.705625
 30
0.0
 40
0.5
  1
$PN.I
100
AcDbAttributeDefinition
  3

  2
NBSYN
 70
     8
280
     0
  0
ATTDEF
  5
90
330
88
100
AcDbEntity
  8
AM_6
100
AcDbText
 10
6.574795958817284
 20
-2.205625
 30
0.0
 40
0.5
  1
INS-GT-08-CR
100
AcDbAttributeDefinition
  3

  2
LINA
 70
     8
280
     0
  0
ATTDEF
  5
91
330
88
100
AcDbEntity
  8
AM_6
100
AcDbText
 10
6.574795958817284
 20
-2.705625
 30
0.0
 40
0.5
  1
208
100
AcDbAttributeDefinition
  3

  2
SERIES
 70
     8
280
     0
  0
ATTDEF
  5
92
330
88
100
AcDbEntity
  8
AM_6
100
AcDbText
 10
6.574795958817284
 20
-3.205625
 30
0.0
 40
0.5
  1
INS-GT-08-CR
100
AcDbAttributeDefinition
  3

  2
PN
 70
     8
280
     0
  0
ATTDEF
  5
93
330
88
100
AcDbEntity
  8
AM_6
100
AcDbText
 10
6.574795958817284
 20
-3.705625
 30
0.0
 40
0.5
  1
INS-GT-08-CR
100
AcDbAttributeDefinition
  3

  2
DESCRIPTION
 70
     8
280
     0
  0
ATTDEF
  5
94
330
88
100
AcDbEntity
  8
AM_6
100
AcDbText
 10
6.574795958817284
 20
-4.205625
 30
0.0
 40
0.5
  1
1-27/32
100
AcDbAttributeDefinition
  3

  2
A
 70
     8
280
     0
  0
ATTDEF
  5
95
330
88
100
AcDbEntity
  8
AM_6
100
AcDbText
 10
6.574795958817284
 20
-4.705625
 30
0.0
 40
0.5
  1
0.8661
100
AcDbAttributeDefinition
  3

  2
C
 70
     8
280
     0
  0
ATTDEF
  5
96
330
88
100
AcDbEntity
  8
AM_6
100
AcDbText
 10
6.574795958817284
 20
-5.205625
 30
0.0
 40
0.5
  1
3.1496
100
AcDbAttributeDefinition
  3

  2
D
 70
     8
280
     0
  0
ATTDEF
  5
97
330
88
100
AcDbEntity
  8
AM_6
100
AcDbText
 10
6.574795958817284
 20
-5.705625
 30
0.0
 40
0.5
  1
0.224
100
AcDbAttributeDefinition
  3

  2
J
 70
     8
280
     0
  0
ATTDEF
  5
98
330
88
100
AcDbEntity
  8
AM_6
100
AcDbText
 10
6.574795958817284
 20
-6.205625
 30
0.0
 40
0.5
  1
2-1/2
100
AcDbAttributeDefinition
  3

  2
L
 70
     8
280
     0
  0
ATTDEF
  5
99
330
88
100
AcDbEntity
  8
AM_6
100
AcDbText
 10
6.574795958817284
 20
-6.705625
 30
0.0
 40
0.5
  1
10 - 32 x 1/4
100
AcDbAttributeDefinition
  3

  2
N
 70
     8
280
     0
  0
ATTDEF
  5
9A
330
88
100
AcDbEntity
  8
AM_6
100
AcDbText
 10
6.574795958817284
 20
-7.205625
 30
0.0
 40
0.5
  1
21/32
100
AcDbAttributeDefinition
  3

  2
W
 70
     8
280
     0
  0
ATTDEF
  5
9B
330
88
100
AcDbEntity
  8
AM_6
100
AcDbText
 10
6.574795958817284
 20
-7.705625
 30
0.0
 40
0.5
  1
1-9/64
100
AcDbAttributeDefinition
  3

  2
X
 70
     8
280
     0
  0
ATTDEF
  5
9C
330
88
100
AcDbEntity
  8
AM_6
100
AcDbText
 10
6.574795958817284
 20
-8.205625
 30
0.0
 40
0.5
  1
1-3/16
100
AcDbAttributeDefinition
  3

  2
Y
 70
     8
280
     0
  0
ATTDEF
  5
9D
330
88
100
AcDbEntity
  8
AM_6
100
AcDbText
 10
6.574795958817284
 20
-8.705625
 30
0.0
 40
0.5
  1
baldor
100
AcDbAttributeDefinition
  3

  2
COMPANY
 70
     8
280
     0
  0
LINE
  5
A0
330
88
100
AcDbEntity
  8
AM_9
100
AcDbLine
 10
0.9325396111111113
 20
-1.651718025701677
 30
0.0
 11
0.9325396111111113
 21
-1.223983650701678
 31
0.0
  0
LINE
  5
A1
330
88
100
AcDbEntity
  8
AM_9
100
AcDbLine
 10
-0.9325396111111109
 20
-1.223983650701678
 30
0.0
 11
-0.9325396111111109
 21
-1.651718025701677
 31
0.0
  0
LINE
  5
A2
330
88
100
AcDbEntity
  8
AM_9
100
AcDbLine
 10
-0.9325396111111109
 20
-1.223983650701678
 30
0.0
 11
0.9325396111111113
 21
-1.223983650701678
 31
0.0
  0
LINE
  5
A3
330
88
100
AcDbEntity
  8
AM_9
100
AcDbLine
 10
0.9325396111111113
 20
-1.223983650701678
 30
0.0
 11
0.9681014788121918
 21
-0.2056249999999998
 31
0.0
  0
LINE
  5
A4
330
88
100
AcDbEntity
  8
AM_9
100
AcDbLine
 10
-0.9681014788121914
 20
-0.2056249999999998
 30
0.0
 11
-0.9325396111111109
 21
-1.223983650701678
 31
0.0
  0
LINE
  5
A5
330
88
100
AcDbEntity
  8
AM_9
100
AcDbLine
 10
1.021825361111111
 20
-1.509139900701676
 30
0.0
 11
1.021825361111111
 21
-1.3665625
 31
0.0
  0
LINE
  5
A6
330
88
100
AcDbEntity
  8
AM_9
100
AcDbLine
 10
-1.021825361111111
 20
-1.3665625
 30
0.0
 11
-1.021825361111111
 21
-1.509139900701676
 31
0.0
  0
LINE
  5
A7
330
88
100
AcDbEntity
  8
AM_9
100
AcDbLine
 10
-1.076467111111111
 20
-0.2056249999999998
 30
0.0
 11
1.076467111111111
 21
-0.2056249999999998
 31
0.0
  0
LINE
  5
A8
330
88
100
AcDbEntity
  8
AM_9
100
AcDbLine
 10
-1.076467111111111
 20
-0.2056249999999998
 30
0.0
 11
-1.111111111111111
 21
-0.2402689999999998
 31
0.0
  0
LINE
  5
A9
330
88
100
AcDbEntity
  8
AM_9
100
AcDbLine
 10
1.111111111111111
 20
-0.2402689999999998
 30
0.0
 11
1.076467111111111
 21
-0.2056249999999998
 31
0.0
  0
LINE
  5
AA
330
88
100
AcDbEntity
  8
AM_9
100
AcDbLine
 10
1.111111111111111
 20
-1.36
 30
0.0
 11
1.111111111111111
 21
-1.2293
 31
0.0
  0
LINE
  5
AB
330
88
100
AcDbEntity
  8
AM_9
100
AcDbLine
 10
-1.111111111111111
 20
-1.2293
 30
0.0
 11
-1.111111111111111
 21
-1.36
 31
0.0
  0
LINE
  5
AC
330
88
100
AcDbEntity
  8
AM_9
100
AcDbLine
 10
1.111111111111111
 20
-1.617074025701676
 30
0.0
 11
1.111111111111111
 21
-1.509139900701676
 31
0.0
  0
LINE
  5
AD
330
88
100
AcDbEntity
  8
AM_9
100
AcDbLine
 10
-1.111111111111111
 20
-1.509139900701676
 30
0.0
 11
-1.111111111111111
 21
-1.617074025701676
 31
0.0
  0
LINE
  5
AE
330
88
100
AcDbEntity
  8
AM_9
100
AcDbLine
 10
-1.111111111111111
 20
-1.509139900701676
 30
0.0
 11
1.111111111111111
 21
-1.509139900701676
 31
0.0
  0
LINE
  5
AF
330
88
100
AcDbEntity
  8
AM_9
100
AcDbLine
 10
-1.111111111111111
 20
-0.2402689999999998
 30
0.0
 11
1.111111111111111
 21
-0.2402689999999998
 31
0.0
  0
LINE
  5
B0
330
88
100
AcDbEntity
  8
AM_9
100
AcDbLine
 10
1.111111111111111
 20
-0.3631999999999999
 30
0.0
 11
1.111111111111111
 21
-0.2402689999999998
 31
0.0
  0
LINE
  5
B1
330
88
100
AcDbEntity
  8
AM_9
100
AcDbLine
 10
-1.111111111111111
 20
-0.2402689999999998
 30
0.0
 11
-1.111111111111111
 21
-0.3631999999999999
 31
0.0
  0
LINE
  5
B2
330
88
100
AcDbEntity
  8
AM_9
100
AcDbLine
 10
1.076467111111111
 20
-1.651718025701677
 30
0.0
 11
1.111111111111111
 21
-1.617074025701676
 31
0.0
  0
LINE
  5
B3
330
88
100
AcDbEntity
  8
AM_9
100
AcDbLine
 10
-1.111111111111111
 20
-1.617074025701676
 30
0.0
 11
-1.076467111111111
 21
-1.651718025701677
 31
0.0
  0
LINE
  5
B4
330
88
100
AcDbEntity
  8
AM_9
100
AcDbLine
 10
-1.076467111111111
 20
-1.651718025701677
 30
0.0
 11
1.076467111111111
 21
-1.651718025701677
 31
0.0
  0
LINE
  5
B5
330
88
100
AcDbEntity
  8
AM_9
100
AcDbLine
 10
-1.111111111111111
 20
-1.617074025701676
 30
0.0
 11
1.111111111111111
 21
-1.617074025701676
 31
0.0
  0
LINE
  5
B6
330
88
100
AcDbEntity
  8
AM_9
100
AcDbLine
 10
1.48819
 20
-1.06505
 30
0.0
 11
1.48819
 21
-0.9754499999999998
 31
0.0
  0
LINE
  5
B7
330
88
100
AcDbEntity
  8
AM_9
100
AcDbLine
 10
-1.48819
 20
-0.9754499999999998
 30
0.0
 11
-1.48819
 21
-1.06505
 31
0.0
  0
LINE
  5
B8
330
88
100
AcDbEntity
  8
AM_9
100
AcDbLine
 10
-1.464831511554448
 20
-0.3631999999999999
 30
0.0
 11
1.464831511554448
 21
-0.3631999999999999
 31
0.0
  0
ARC
  5
B9
330
88
100
AcDbEntity
  8
AM_9
100
AcDbCircle
 10
1.464831511554448
 20
-0.3978440000000005
 30
0.0
 40
0.0346440000000004
100
AcDbArc
 50
21.41247735053864
 51
90.0
  0
ARC
  5
BA
330
88
100
AcDbEntity
  8
AM_9
100
AcDbCircle
 10
-1.464831511554448
 20
-0.3978440000000005
 30
0.0
 40
0.0346440000000006
100
AcDbArc
 50
90.0
 51
158.5875226494614
  0
LINE
  5
BB
330
88
100
AcDbEntity
  8
AM_9
100
AcDbLine
 10
-1.464831511554448
 20
-1.2293
 30
0.0
 11
1.464831511554448
 21
-1.2293
 31
0.0
  0
ARC
  5
BC
330
88
100
AcDbEntity
  8
AM_9
100
AcDbCircle
 10
1.464831511554448
 20
-1.194656
 30
0.0
 40
0.0346439999999995
100
AcDbArc
 50
270.0
 51
338.5875329531163
  0
ARC
  5
BD
330
88
100
AcDbEntity
  8
AM_9
100
AcDbCircle
 10
-1.464831511554447
 20
-1.194655999999999
 30
0.0
 40
0.0346440000000006
100
AcDbArc
 50
201.412467046885
 51
270.0
  0
LINE
  5
BE
330
88
100
AcDbEntity
  8
AM_9
100
AcDbLine
 10
-1.497084257953002
 20
-1.207303809523809
 30
0.0
 11
1.497084257953002
 21
-1.207303809523809
 31
0.0
  0
ARC
  5
BF
330
88
100
AcDbEntity
  8
AM_9
100
AcDbCircle
 10
0.4488700000002239
 20
-0.7962500000000707
 30
0.0
 40
1.125929999999765
100
AcDbArc
 50
338.5875329531151
 51
345.6207801714356
  0
ARC
  5
C0
330
88
100
AcDbEntity
  8
AM_9
100
AcDbCircle
 10
-0.4488699999999779
 20
-0.7962499999999914
 30
0.0
 40
1.125930000000023
100
AcDbArc
 50
194.3792198285652
 51
201.412467046884
  0
LINE
  5
C1
330
88
100
AcDbEntity
  8
AM_9
100
AcDbLine
 10
-1.539528320642737
 20
-1.075861860465116
 30
0.0
 11
1.539528320642737
 21
-1.075861860465116
 31
0.0
  0
LINE
  5
C2
330
88
100
AcDbEntity
  8
AM_9
100
AcDbLine
 10
-1.531138641253178
 20
-1.06505
 30
0.0
 11
1.531138641253178
 21
-1.06505
 31
0.0
  0
ARC
  5
C3
330
88
100
AcDbEntity
  8
AM_9
100
AcDbCircle
 10
1.531138641253178
 20
-1.073710999999999
 30
0.0
 40
0.0086609999999992
100
AcDbArc
 50
345.6207801714301
 51
90.0
  0
ARC
  5
C4
330
88
100
AcDbEntity
  8
AM_9
100
AcDbCircle
 10
-1.531138641253178
 20
-1.073710999999999
 30
0.0
 40
0.0086609999999994
100
AcDbArc
 50
90.0
 51
194.3792198285699
  0
LINE
  5
C5
330
88
100
AcDbEntity
  8
AM_9
100
AcDbLine
 10
-1.553046828157519
 20
-0.9754499999999999
 30
0.0
 11
1.553046828157519
 21
-0.9754499999999999
 31
0.0
  0
ARC
  5
C6
330
88
100
AcDbEntity
  8
AM_9
100
AcDbCircle
 10
1.553046828157518
 20
-0.9667889999999987
 30
0.0
 40
0.0086610000000013
100
AcDbArc
 50
270.0
 51
351.2200992343422
  0
ARC
  5
C7
330
88
100
AcDbEntity
  8
AM_9
100
AcDbCircle
 10
-1.553046828157518
 20
-0.9667889999999987
 30
0.0
 40
0.0086610000000013
100
AcDbArc
 50
188.7799007656578
 51
270.0
  0
LINE
  5
C8
330
88
100
AcDbEntity
  8
AM_9
100
AcDbLine
 10
-1.497084255678512
 20
-0.3851961846760927
 30
0.0
 11
1.497084255678512
 21
-0.3851961846760927
 31
0.0
  0
ARC
  5
C9
330
88
100
AcDbEntity
  8
AM_9
100
AcDbCircle
 10
0.4488700000000176
 20
-0.7962499999999998
 30
0.0
 40
1.125929999999982
100
AcDbArc
 50
351.2200992343486
 51
21.41246736391991
  0
ARC
  5
CA
330
88
100
AcDbEntity
  8
AM_9
100
AcDbCircle
 10
-0.4488699999999939
 20
-0.7962500000000026
 30
0.0
 40
1.125930000000005
100
AcDbArc
 50
158.5875326360804
 51
188.7799007656511
  0
LINE
  5
CB
330
88
100
AcDbEntity
  8
AM_9
100
AcDbLine
 10
-1.561606338453314
 20
-0.9681110077519378
 30
0.0
 11
1.561606338453314
 21
-0.9681110077519378
 31
0.0
  0
LINE
  5
CD
330
88
100
AcDbEntity
  8
AM_4
100
AcDbLine
 10
1.111111111111111
 20
-1.366561775701676
 30
0.0
 11
1.111111111111111
 21
-1.36
 31
0.0
  0
LINE
  5
CE
330
88
100
AcDbEntity
  8
AM_4
100
AcDbLine
 10
-1.111111111111111
 20
-1.36
 30
0.0
 11
-1.111111111111111
 21
-1.366561775701676
 31
0.0
  0
LINE
  5
CF
330
88
100
AcDbEntity
  8
AM_4
100
AcDbLine
 10
-1.111111111111111
 20
-1.366561775701676
 30
0.0
 11
1.111111111111111
 21
-1.366561775701676
 31
0.0
  0
ENDBLK
  5
8B
330
88
100
AcDbEntity
  8
0
100
AcDbBlockEnd
  0
BLOCK
  5
D2
330
D0
100
AcDbEntity
  8
0
100
AcDbBlockBegin
  2
3_129975_0_in__129365_4
 70
     2
 10
0.0
 20
0.0
 30
0.0
  3
3_129975_0_in__129365_4
  1

  0
ATTDEF
  5
D4
330
D0
100
AcDbEntity
  8
AM_6
100
AcDbText
 10
6.24497228884823
 20
-0.1399999999999999
 30
0.0
 40
0.5
  1
Grip Tight Adapter and Nut - Corrosion Resistant Inch Bore
100
AcDbAttributeDefinition
  3

  2
NN
 70
     8
280
     0
  0
ATTDEF
  5
D5
330
D0
100
AcDbEntity
  8
AM_6
100
AcDbText
 10
6.24497228884823
 20
-0.6399999999999999
 30
0.0
 40
0.5
  1
GT and GTM Adapter & Lock Nut Assemblies
100
AcDbAttributeDefinition
  3

  2
NT
 70
     8
280
     0
  0
ATTDEF
  5
D6
330
D0
100
AcDbEntity
  8
AM_6
100
AcDbText
 10
6.24497228884823
 20
-1.14
 30
0.0
 40
0.5
  1
129975
100
AcDbAttributeDefinition
  3

  2
NB
 70
     8
280
     0
  0
ATTDEF
  5
D7
330
D0
100
AcDbEntity
  8
AM_6
100
AcDbText
 10
6.24497228884823
 20
-1.64
 30
0.0
 40
0.5
  1
$PN.
100
AcDbAttributeDefinition
  3

  2
NBSYN
 70
     8
280
     0
  0
ATTDEF
  5
D8
330
D0
100
AcDbEntity
  8
AM_6
100
AcDbText
 10
6.24497228884823
 20
-2.14
 30
0.0
 40
0.5
  1
129975
100
AcDbAttributeDefinition
  3

  2
LINA
 70
     8
280
     0
  0
ATTDEF
  5
D9
330
D0
100
AcDbEntity
  8
AM_6
100
AcDbText
 10
6.24497228884823
 20
-2.64
 30
0.0
 40
0.5
  1
208
100
AcDbAttributeDefinition
  3

  2
SERIES
 70
     8
280
     0
  0
ATTDEF
  5
DA
330
D0
100
AcDbEntity
  8
AM_6
100
AcDbText
 10
6.24497228884823
 20
-3.14
 30
0.0
 40
0.5
  1
1-1/2
100
AcDbAttributeDefinition
  3

  2
SS
 70
     8
280
     0
  0
ATTDEF
  5
DB
330
D0
100
AcDbEntity
  8
AM_6
100
AcDbText
 10
6.24497228884823
 20
-3.64
 30
0.0
 40
0.5
  1
129975
100
AcDbAttributeDefinition
  3

  2
PN
 70
     8
280
     0
  0
ATTDEF
  5
DC
330
D0
100
AcDbEntity
  8
AM_6
100
AcDbText
 10
6.24497228884823
 20
-4.14
 30
0.0
 40
0.5
  1
AN-GT-08-108-CR
100
AcDbAttributeDefinition
  3

  2
DESCRIPTION
 70
     8
280
     0
  0
ATTDEF
  5
DD
330
D0
100
AcDbEntity
  8
AM_6
100
AcDbText
 10
6.24497228884823
 20
-4.64
 30
0.0
 40
0.5
  1
1-27/32
100
AcDbAttributeDefinition
  3

  2
A
 70
     8
280
     0
  0
ATTDEF
  5
DE
330
D0
100
AcDbEntity
  8
AM_6
100
AcDbText
 10
6.24497228884823
 20
-5.14
 30
0.0
 40
0.5
  1
0.8661
100
AcDbAttributeDefinition
  3

  2
C
 70
     8
280
     0
  0
ATTDEF
  5
DF
330
D0
100
AcDbEntity
  8
AM_6
100
AcDbText
 10
6.24497228884823
 20
-5.64
 30
0.0
 40
0.5
  1
3.1496
100
AcDbAttributeDefinition
  3

  2
D
 70
     8
280
     0
  0
ATTDEF
  5
E0
330
D0
100
AcDbEntity
  8
AM_6
100
AcDbText
 10
6.24497228884823
 20
-6.14
 30
0.0
 40
0.5
  1
0.224
100
AcDbAttributeDefinition
  3

  2
J
 70
     8
280
     0
  0
ATTDEF
  5
E1
330
D0
100
AcDbEntity
  8
AM_6
100
AcDbText
 10
6.24497228884823
 20
-6.64
 30
0.0
 40
0.5
  1
2-1/2
100
AcDbAttributeDefinition
  3

  2
L
 70
     8
280
     0
  0
ATTDEF
  5
E2
330
D0
100
AcDbEntity
  8
AM_6
100
AcDbText
 10
6.24497228884823
 20
-7.14
 30
0.0
 40
0.5
  1
10 - 32 x 1/4
100
AcDbAttributeDefinition
  3

  2
N
 70
     8
280
     0
  0
ATTDEF
  5
E3
330
D0
100
AcDbEntity
  8
AM_6
100
AcDbText
 10
6.24497228884823
 20
-7.64
 30
0.0
 40
0.5
  1
21/32
100
AcDbAttributeDefinition
  3

  2
W
 70
     8
280
     0
  0
ATTDEF
  5
E4
330
D0
100
AcDbEntity
  8
AM_6
100
AcDbText
 10
6.24497228884823
 20
-8.14
 30
0.0
 40
0.5
  1
1-9/64
100
AcDbAttributeDefinition
  3

  2
X
 70
     8
280
     0
  0
ATTDEF
  5
E5
330
D0
100
AcDbEntity
  8
AM_6
100
AcDbText
 10
6.24497228884823
 20
-8.64
 30
0.0
 40
0.5
  1
1-3/16
100
AcDbAttributeDefinition
  3

  2
Y
 70
     8
280
     0
  0
ATTDEF
  5
E6
330
D0
100
AcDbEntity
  8
AM_6
100
AcDbText
 10
6.24497228884823
 20
-9.14
 30
0.0
 40
0.5
  1
baldor
100
AcDbAttributeDefinition
  3

  2
COMPANY
 70
     8
280
     0
  0
LINE
  5
E7
330
D0
100
AcDbEntity
  8
AM_9
100
AcDbLine
 10
-1.233
 20
-1.898437683324867
 30
0.0
 11
-0.9544999999999998
 21
-1.898437683324867
 31
0.0
  0
LINE
  5
E8
330
D0
100
AcDbEntity
  8
AM_9
100
AcDbLine
 10
-0.9544999999999998
 20
-1.742437683324866
 30
0.0
 11
-1.233
 21
-1.742437683324866
 31
0.0
  0
LINE
  5
E9
330
D0
100
AcDbEntity
  8
AM_9
100
AcDbLine
 10
-0.9544999999999998
 20
-1.898437683324867
 30
0.0
 11
-0.9374999999999999
 21
-1.915437683324867
 31
0.0
  0
LINE
  5
EA
330
D0
100
AcDbEntity
  8
AM_9
100
AcDbLine
 10
-0.9374999999999999
 20
-1.725437683324867
 30
0.0
 11
-0.9544999999999998
 21
-1.742437683324866
 31
0.0
  0
LINE
  5
EB
330
D0
100
AcDbEntity
  8
AM_9
100
AcDbLine
 10
-0.9374999999999999
 20
-1.725437683324867
 30
0.0
 11
-0.9374999999999999
 21
-1.915437683324867
 31
0.0
  0
LINE
  5
EC
330
D0
100
AcDbEntity
  8
AM_9
100
AcDbLine
 10
-0.9544999999999998
 20
-1.742437683324866
 30
0.0
 11
-0.9544999999999998
 21
-1.898437683324867
 31
0.0
  0
LINE
  5
ED
330
D0
100
AcDbEntity
  8
AM_9
100
AcDbLine
 10
-1.233
 20
-1.742437683324866
 30
0.0
 11
-1.249958062831273
 21
-1.725479620493593
 31
0.0
  0
LINE
  5
EE
330
D0
100
AcDbEntity
  8
AM_9
100
AcDbLine
 10
-1.243389991728897
 20
-1.908827675053763
 30
0.0
 11
-1.233
 21
-1.898437683324867
 31
0.0
  0
LINE
  5
EF
330
D0
100
AcDbEntity
  8
AM_9
100
AcDbLine
 10
-1.233
 20
-1.742437683324866
 30
0.0
 11
-1.233
 21
-1.898437683324867
 31
0.0
  0
LINE
  5
F0
330
D0
100
AcDbEntity
  8
AM_9
100
AcDbLine
 10
1.166666454999577
 20
-1.3665625
 30
0.0
 11
1.166666454999577
 21
-1.936875
 31
0.0
  0
LINE
  5
F1
330
D0
100
AcDbEntity
  8
AM_9
100
AcDbLine
 10
0.7500000000000002
 20
-1.98375
 30
0.0
 11
0.7500000000000002
 21
-0.1400000000000002
 31
0.0
  0
LINE
  5
F2
330
D0
100
AcDbEntity
  8
AM_9
100
AcDbLine
 10
-0.7499999999999999
 20
-0.1400000000000002
 30
0.0
 11
-0.7499999999999999
 21
-1.98375
 31
0.0
  0
LINE
  5
F3
330
D0
100
AcDbEntity
  8
AM_9
100
AcDbLine
 10
0.9325396825396826
 20
-1.651718025701677
 30
0.0
 11
0.9325396825396826
 21
-1.223984375000001
 31
0.0
  0
LINE
  5
F4
330
D0
100
AcDbEntity
  8
AM_9
100
AcDbLine
 10
-0.9325396825396823
 20
-1.223984375000001
 30
0.0
 11
-0.9325396825396823
 21
-1.651718025701677
 31
0.0
  0
LINE
  5
F5
330
D0
100
AcDbEntity
  8
AM_9
100
AcDbLine
 10
0.0500000000000001
 20
-0.1399999999999999
 30
0.0
 11
0.0500000000000001
 21
-1.936875
 31
0.0
  0
LINE
  5
F6
330
D0
100
AcDbEntity
  8
AM_9
100
AcDbLine
 10
-0.0499999999999999
 20
-0.1399999999999999
 30
0.0
 11
-0.0499999999999998
 21
-1.936875
 31
0.0
  0
LINE
  5
F7
330
D0
100
AcDbEntity
  8
AM_9
100
AcDbLine
 10
0.9325396825396827
 20
-1.223984375000001
 30
0.0
 11
0.9703932510317139
 21
-0.1399999999999999
 31
0.0
  0
LINE
  5
F8
330
D0
100
AcDbEntity
  8
AM_9
100
AcDbLine
 10
-0.9703932510317137
 20
-0.1399999999999999
 30
0.0
 11
-0.9325396825396824
 21
-1.223984375000001
 31
0.0
  0
LINE
  5
F9
330
D0
100
AcDbEntity
  8
AM_9
100
AcDbLine
 10
-0.9325396825396824
 20
-1.223984375000001
 30
0.0
 11
0.9325396825396827
 21
-1.223984375000001
 31
0.0
  0
LINE
  5
FA
330
D0
100
AcDbEntity
  8
AM_9
100
AcDbLine
 10
-0.9703932510317137
 20
-0.1399999999999999
 30
0.0
 11
0.9703932510317139
 21
-0.1399999999999999
 31
0.0
  0
LINE
  5
FB
330
D0
100
AcDbEntity
  8
AM_9
100
AcDbLine
 10
1.021825396825397
 20
-1.509140625
 30
0.0
 11
1.021825396825397
 21
-1.3665625
 31
0.0
  0
LINE
  5
FC
330
D0
100
AcDbEntity
  8
AM_9
100
AcDbLine
 10
-1.021825396825397
 20
-1.3665625
 30
0.0
 11
-1.021825396825397
 21
-1.509140625
 31
0.0
  0
LINE
  5
FD
330
D0
100
AcDbEntity
  8
AM_9
100
AcDbLine
 10
-0.4863383822759316
 20
-1.3665625
 30
0.0
 11
-0.4863383822759316
 21
-1.936875
 31
0.0
  0
LINE
  5
FE
330
D0
100
AcDbEntity
  8
AM_9
100
AcDbLine
 10
-1.111111111111111
 20
-1.65171875
 30
0.0
 11
1.111111111111111
 21
-1.65171875
 31
0.0
  0
LINE
  5
FF
330
D0
100
AcDbEntity
  8
AM_9
100
AcDbLine
 10
-1.111111111111111
 20
-1.509140625
 30
0.0
 11
1.111111111111111
 21
-1.509140625
 31
0.0
  0
LINE
  5
100
330
D0
100
AcDbEntity
  8
AM_9
100
AcDbLine
 10
1.111111111111111
 20
-1.65171875
 30
0.0
 11
1.111111111111111
 21
-1.509140625
 31
0.0
  0
LINE
  5
101
330
D0
100
AcDbEntity
  8
AM_9
100
AcDbLine
 10
-1.111111111111111
 20
-1.509140625
 30
0.0
 11
-1.111111111111111
 21
-1.65171875
 31
0.0
  0
LINE
  5
103
330
D0
100
AcDbEntity
  8
AM_5
100
AcDbLine
 10
-1.236793316675133
 20
-1.915437683324867
 30
0.0
 11
-0.9374999999999999
 21
-1.915437683324867
 31
0.0
  0
LINE
  5
104
330
D0
100
AcDbEntity
  8
AM_5
100
AcDbLine
 10
-1.25
 20
-1.725437683324867
 30
0.0
 11
-0.9375
 21
-1.725437683324867
 31
0.0
  0
LINE
  5
107
330
D0
100
AcDbEntity
  8
AM_7
100
AcDbLine
 10
-0.9218749999999999
 20
-1.820437683324867
 30
0.0
 11
-1.265625
 21
-1.820437683324867
 31
0.0
  0
LINE
  5
108
330
D0
100
AcDbEntity
  8
AM_4
100
AcDbLine
 10
0.0500000000000001
 20
-1.98375
 30
0.0
 11
0.0500000000000001
 21
-1.936875
 31
0.0
  0
LINE
  5
109
330
D0
100
AcDbEntity
  8
AM_4
100
AcDbLine
 10
-0.0499999999999999
 20
-1.98375
 30
0.0
 11
-0.0499999999999998
 21
-1.936875
 31
0.0
  0
LINE
  5
10A
330
D0
100
AcDbEntity
  8
AM_4
100
AcDbLine
 10
0.9325396825396824
 20
-1.98375
 30
0.0
 11
0.9325396825396824
 21
-1.936875
 31
0.0
  0
LINE
  5
10B
330
D0
100
AcDbEntity
  8
AM_4
100
AcDbLine
 10
-0.9325396825396821
 20
-1.936875
 30
0.0
 11
-0.9325396825396821
 21
-1.98375
 31
0.0
  0
LINE
  5
10C
330
D0
100
AcDbEntity
  8
AM_4
100
AcDbLine
 10
-0.9325396825396821
 20
-1.98375
 30
0.0
 11
0.9325396825396824
 21
-1.98375
 31
0.0
  0
LINE
  5
10D
330
D0
100
AcDbEntity
  8
AM_4
100
AcDbLine
 10
-1.215356
 20
-1.3665625
 30
0.0
 11
-1.25
 21
-1.4012065
 31
0.0
  0
LINE
  5
10E
330
D0
100
AcDbEntity
  8
AM_4
100
AcDbLine
 10
-1.25
 20
-1.4012065
 30
0.0
 11
-1.25
 21
-1.725516247089276
 31
0.0
  0
LWPOLYLINE
  5
10F
330
D0
100
AcDbEntity
  8
AM_4
100
AcDbPolyline
 90
       17
 70
     0
 43
0.0
 10
-1.25
 20
-1.725437683324872
 10
-1.249918195160432
 20
-1.726602943672506
 10
-1.249674945919556
 20
-1.730155814470052
 10
-1.249283980571241
 20
-1.736176582547077
 10
-1.248801420944572
 20
-1.744255693823395
 10
-1.248258036161323
 20
-1.754519657338115
 10
-1.247721648711152
 20
-1.76652463479124
 10
-1.247239072605746
 20
-1.780271145639757
 10
-1.24687494275573
 20
-1.795176488213118
 10
-1.246668572495202
 20
-1.811182585781663
 10
-1.246654515450888
 20
-1.827368130397458
 10
-1.246840751474802
 20
-1.843816801565424
 10
-1.24719887264129
 20
-1.859240518711333
 10
-1.247706835014988
 20
-1.873981155397713
 10
-1.248139519577779
 20
-1.883898146914636
 10
-1.248594676036784
 20
-1.892885099189958
 10
-1.249131463919283
 20
-1.902231
  0
LINE
  5
110
330
D0
100
AcDbEntity
  8
AM_4
100
AcDbLine
 10
-1.25
 20
-1.4012065
 30
0.0
 11
-0.719480989647972
 21
-1.4012065
 31
0.0
  0
LINE
  5
111
330
D0
100
AcDbEntity
  8
AM_4
100
AcDbLine
 10
-1.249131463919283
 20
-1.902231
 30
0.0
 11
-0.7194809896479721
 21
-1.902231
 31
0.0
  0
LINE
  5
112
330
D0
100
AcDbEntity
  8
AM_4
100
AcDbLine
 10
-1.249131463919283
 20
-1.902231
 30
0.0
 11
-1.243396658337575
 21
-1.908834341662423
 31
0.0
  0
LINE
  5
113
330
D0
100
AcDbEntity
  8
AM_4
100
AcDbLine
 10
-1.24349129850301
 20
-1.90873970149699
 30
0.0
 11
-1.215356
 21
-1.936875
 31
0.0
  0
LINE
  5
114
330
D0
100
AcDbEntity
  8
AM_4
100
AcDbLine
 10
-0.7020870296751192
 20
-1.3665625
 30
0.0
 11
-0.719480989647972
 21
-1.4012065
 31
0.0
  0
LINE
  5
115
330
D0
100
AcDbEntity
  8
AM_4
100
AcDbLine
 10
-0.719480989647972
 20
-1.4012065
 30
0.0
 11
-0.7194809896479721
 21
-1.902231
 31
0.0
  0
LINE
  5
116
330
D0
100
AcDbEntity
  8
AM_4
100
AcDbLine
 10
-0.7194809896479721
 20
-1.902231
 30
0.0
 11
-0.7020870296751196
 21
-1.936875
 31
0.0
  0
LINE
  5
117
330
D0
100
AcDbEntity
  8
AM_4
100
AcDbLine
 10
-0.6803280727236455
 20
-1.3665625
 30
0.0
 11
-0.6803280727236455
 21
-1.936875
 31
0.0
  0
LINE
  5
118
330
D0
100
AcDbEntity
  8
AM_4
100
AcDbLine
 10
1.210184368902524
 20
-1.3665625
 30
0.0
 11
1.24497228884823
 21
-1.4012065
 31
0.0
  0
LINE
  5
119
330
D0
100
AcDbEntity
  8
AM_4
100
AcDbLine
 10
-1.215356
 20
-1.3665625
 30
0.0
 11
1.210184368902524
 21
-1.3665625
 31
0.0
  0
LINE
  5
11A
330
D0
100
AcDbEntity
  8
AM_4
100
AcDbLine
 10
-0.525491299200258
 20
-1.4012065
 30
0.0
 11
-0.5080973392274051
 21
-1.3665625
 31
0.0
  0
LINE
  5
11B
330
D0
100
AcDbEntity
  8
AM_4
100
AcDbLine
 10
1.24497228884823
 20
-1.902231
 30
0.0
 11
1.210184368902524
 21
-1.936875
 31
0.0
  0
LINE
  5
11C
330
D0
100
AcDbEntity
  8
AM_4
100
AcDbLine
 10
-0.5080973392274053
 20
-1.936875
 30
0.0
 11
-0.5254912992002583
 21
-1.902231
 31
0.0
  0
LINE
  5
11D
330
D0
100
AcDbEntity
  8
AM_4
100
AcDbLine
 10
-1.215356
 20
-1.936875
 30
0.0
 11
1.210184368902524
 21
-1.936875
 31
0.0
  0
LINE
  5
11E
330
D0
100
AcDbEntity
  8
AM_4
100
AcDbLine
 10
1.24497228884823
 20
-1.4012065
 30
0.0
 11
1.24497228884823
 21
-1.902231
 31
0.0
  0
LINE
  5
11F
330
D0
100
AcDbEntity
  8
AM_4
100
AcDbLine
 10
-0.525491299200258
 20
-1.4012065
 30
0.0
 11
1.24497228884823
 21
-1.4012065
 31
0.0
  0
LINE
  5
120
330
D0
100
AcDbEntity
  8
AM_4
100
AcDbLine
 10
-0.5254912992002583
 20
-1.902231
 30
0.0
 11
-0.525491299200258
 21
-1.4012065
 31
0.0
  0
LINE
  5
121
330
D0
100
AcDbEntity
  8
AM_4
100
AcDbLine
 10
-0.5254912992002583
 20
-1.902231
 30
0.0
 11
1.24497228884823
 21
-1.902231
 31
0.0
  0
ENDBLK
  5
D3
330
D0
100
AcDbEntity
  8
0
100
AcDbBlockEnd
  0
BLOCK
  5
124
330
122
100
AcDbEntity
  8
0
100
AcDbBlockBegin
  2
4__F2B_GTEZ_08_SHCR_II_0_in__129365_4
 70
     2
 10
0.0
 20
0.0
 30
0.0
  3
4__F2B_GTEZ_08_SHCR_II_0_in__129365_4
  1

  0
ATTDEF
  5
126
330
122
100
AcDbEntity
  8
AM_6
100
AcDbText
 10
6.921999999999999
 20
0.068
 30
0.0
 40
0.5
  1
F2B-GTEZ-SHCR -I
100
AcDbAttributeDefinition
  3

  2
NN
 70
     8
280
     0
  0
ATTDEF
  5
127
330
122
100
AcDbEntity
  8
AM_6
100
AcDbText
 10
6.921999999999999
 20
-0.432
 30
0.0
 40
0.5
  1
GTEZ Normal Duty Stainless Steel Housed 2 Bolt Flange Bearings
100
AcDbAttributeDefinition
  3

  2
NT
 70
     8
280
     0
  0
ATTDEF
  5
128
330
122
100
AcDbEntity
  8
AM_6
100
AcDbText
 10
6.921999999999999
 20
-0.9319999999999999
 30
0.0
 40
0.5
  1
 F2B-GTEZ-08-SHCR-II
100
AcDbAttributeDefinition
  3

  2
NB
 70
     8
280
     0
  0
ATTDEF
  5
129
330
122
100
AcDbEntity
  8
AM_6
100
AcDbText
 10
6.921999999999999
 20
-1.432
 30
0.0
 40
0.5
  1
 $PN.$LUBE.I
100
AcDbAttributeDefinition
  3

  2
NBSYN
 70
     8
280
     0
  0
ATTDEF
  5
12A
330
122
100
AcDbEntity
  8
AM_6
100
AcDbText
 10
6.921999999999999
 20
-1.932
 30
0.0
 40
0.5
  1
F2B-GTEZ-08-SHCR-I
100
AcDbAttributeDefinition
  3

  2
LINA
 70
     8
280
     0
  0
ATTDEF
  5
12B
330
122
100
AcDbEntity
  8
AM_6
100
AcDbText
 10
6.921999999999999
 20
-2.432
 30
0.0
 40
0.5
  1
208
100
AcDbAttributeDefinition
  3

  2
SERIES
 70
     8
280
     0
  0
ATTDEF
  5
12C
330
122
100
AcDbEntity
  8
AM_6
100
AcDbText
 10
6.921999999999999
 20
-2.932
 30
0.0
 40
0.5
  1
1-1/2
100
AcDbAttributeDefinition
  3

  2
SS
 70
     8
280
     0
  0
ATTDEF
  5
12D
330
122
100
AcDbEntity
  8
AM_6
100
AcDbText
 10
6.921999999999999
 20
-3.432
 30
0.0
 40
0.5
  1
F2B-GTEZ-08-SHCR-I
100
AcDbAttributeDefinition
  3

  2
PN
 70
     8
280
     0
  0
ATTDEF
  5
12E
330
122
100
AcDbEntity
  8
AM_6
100
AcDbText
 10
6.921999999999999
 20
-3.932
 30
0.0
 40
0.5
  1
F2B-GTEZ-08-SHCR
100
AcDbAttributeDefinition
  3

  2
DESCRIPTION
 70
     8
280
     0
  0
ATTDEF
  5
12F
330
122
100
AcDbEntity
  8
AM_6
100
AcDbText
 10
6.921999999999999
 20
-4.432
 30
0.0
 40
0.5
  1
3.91
100
AcDbAttributeDefinition
  3

  2
WEIGHT
 70
     8
280
     0
  0
ATTDEF
  5
130
330
122
100
AcDbEntity
  8
AM_6
100
AcDbText
 10
6.921999999999999
 20
-4.932
 30
0.0
 40
0.5
  1
1-27/32
100
AcDbAttributeDefinition
  3

  2
A
 70
     8
280
     0
  0
ATTDEF
  5
131
330
122
100
AcDbEntity
  8
AM_6
100
AcDbText
 10
6.921999999999999
 20
-5.432
 30
0.0
 40
0.5
  1
6-23/32
100
AcDbAttributeDefinition
  3

  2
B
 70
     8
280
     0
  0
ATTDEF
  5
132
330
122
100
AcDbEntity
  8
AM_6
100
AcDbText
 10
6.921999999999999
 20
-5.932
 30
0.0
 40
0.5
  1
1-63/64
100
AcDbAttributeDefinition
  3

  2
C
 70
     8
280
     0
  0
ATTDEF
  5
133
330
122
100
AcDbEntity
  8
AM_6
100
AcDbText
 10
6.921999999999999
 20
-6.432
 30
0.0
 40
0.5
  1
5-21/32
100
AcDbAttributeDefinition
  3

  2
D
 70
     8
280
     0
  0
ATTDEF
  5
134
330
122
100
AcDbEntity
  8
AM_6
100
AcDbText
 10
6.921999999999999
 20
-6.932
 30
0.0
 40
0.5
  1
1/2
100
AcDbAttributeDefinition
  3

  2
F
 70
     8
280
     0
  0
ATTDEF
  5
135
330
122
100
AcDbEntity
  8
AM_6
100
AcDbText
 10
6.921999999999999
 20
-7.432
 30
0.0
 40
0.5
  1
27/64
100
AcDbAttributeDefinition
  3

  2
H
 70
     8
280
     0
  0
ATTDEF
  5
136
330
122
100
AcDbEntity
  8
AM_6
100
AcDbText
 10
6.921999999999999
 20
-7.932
 30
0.0
 40
0.5
  1
37/64
100
AcDbAttributeDefinition
  3

  2
J
 70
     8
280
     0
  0
ATTDEF
  5
137
330
122
100
AcDbEntity
  8
AM_6
100
AcDbText
 10
6.921999999999999
 20
-8.432
 30
0.0
 40
0.5
  1
2-1/2
100
AcDbAttributeDefinition
  3

  2
L
 70
     8
280
     0
  0
ATTDEF
  5
138
330
122
100
AcDbEntity
  8
AM_6
100
AcDbText
 10
6.921999999999999
 20
-8.932
 30
0.0
 40
0.5
  1
3-27/32
100
AcDbAttributeDefinition
  3

  2
M
 70
     8
280
     0
  0
ATTDEF
  5
139
330
122
100
AcDbEntity
  8
AM_6
100
AcDbText
 10
6.921999999999999
 20
-9.432
 30
0.0
 40
0.5
  1
1-15/16
100
AcDbAttributeDefinition
  3

  2
Z
 70
     8
280
     0
  0
ATTDEF
  5
13A
330
122
100
AcDbEntity
  8
AM_6
100
AcDbText
 10
6.921999999999999
 20
-9.932
 30
0.0
 40
0.5
  1
f2b_gtez_shcr_templ.prj
100
AcDbAttributeDefinition
  3

  2
PPATH
 70
     8
280
     0
  0
ATTDEF
  5
13B
330
122
100
AcDbEntity
  8
AM_6
100
AcDbText
 10
6.921999999999999
 20
-10.432
 30
0.0
 40
0.5
  1
Infotext
100
AcDbAttributeDefinition
  3

  2
INFO
 70
     8
280
     0
  0
ATTDEF
  5
13C
330
122
100
AcDbEntity
  8
AM_6
100
AcDbText
 10
6.921999999999999
 20
-10.932
 30
0.0
 40
0.5
  1
baldor
100
AcDbAttributeDefinition
  3

  2
COMPANY
 70
     8
280
     0
  0
LINE
  5
13D
330
122
100
AcDbEntity
  8
AM_9
100
AcDbLine
 10
1.591383686428512
 20
-1.28125984
 30
0.0
 11
1.591383686428512
 21
-1.36
 31
0.0
  0
LINE
  5
13E
330
122
100
AcDbEntity
  8
AM_9
100
AcDbLine
 10
1.543554117610709
 20
-1.28125984
 30
0.0
 11
1.543554117610709
 21
-1.36
 31
0.0
  0
LINE
  5
13F
330
122
100
AcDbEntity
  8
AM_9
100
AcDbLine
 10
1.479135918161294
 20
-1.28125984
 30
0.0
 11
1.479135918161294
 21
-1.36
 31
0.0
  0
LINE
  5
140
330
122
100
AcDbEntity
  8
AM_9
100
AcDbLine
 10
1.60781018062161
 20
-1.28125984
 30
0.0
 11
1.60781018062161
 21
-1.36
 31
0.0
  0
LINE
  5
141
330
122
100
AcDbEntity
  8
AM_9
100
AcDbLine
 10
1.559980602406882
 20
-1.28125984
 30
0.0
 11
1.559980602406882
 21
-1.36
 31
0.0
  0
LINE
  5
142
330
122
100
AcDbEntity
  8
AM_9
100
AcDbLine
 10
1.622790185438801
 20
-1.28125984
 30
0.0
 11
1.622790185438801
 21
-1.36
 31
0.0
  0
LINE
  5
143
330
122
100
AcDbEntity
  8
AM_9
100
AcDbLine
 10
1.587199505968133
 20
-1.28125984
 30
0.0
 11
1.587199505968133
 21
-1.36
 31
0.0
  0
LINE
  5
144
330
122
100
AcDbEntity
  8
AM_9
100
AcDbLine
 10
1.495562412354393
 20
-1.28125984
 30
0.0
 11
1.495562412354393
 21
-1.36
 31
0.0
  0
LINE
  5
145
330
122
100
AcDbEntity
  8
AM_9
100
AcDbLine
 10
1.57077302117196
 20
-1.28125984
 30
0.0
 11
1.57077302117196
 21
-1.36
 31
0.0
  0
LINE
  5
146
330
122
100
AcDbEntity
  8
AM_9
100
AcDbLine
 10
1.526968911364682
 20
-1.28125984
 30
0.0
 11
1.526968911364682
 21
-1.36
 31
0.0
  0
LINE
  5
147
330
122
100
AcDbEntity
  8
AM_9
100
AcDbLine
 10
1.75110237
 20
-1.28125984
 30
0.0
 11
1.479135918161294
 21
-1.28125984
 31
0.0
  0
LINE
  5
148
330
122
100
AcDbEntity
  8
AM_9
100
AcDbLine
 10
1.672974385389508
 20
-1.28125984
 30
0.0
 11
1.672974385389508
 21
-1.36
 31
0.0
  0
LINE
  5
149
330
122
100
AcDbEntity
  8
AM_9
100
AcDbLine
 10
1.687851551535897
 20
-1.28125984
 30
0.0
 11
1.687851551535897
 21
-1.36
 31
0.0
  0
LINE
  5
14A
330
122
100
AcDbEntity
  8
AM_9
100
AcDbLine
 10
1.604113751660256
 20
-1.28125984
 30
0.0
 11
1.604113751660256
 21
-1.36
 31
0.0
  0
LINE
  5
14B
330
122
100
AcDbEntity
  8
AM_9
100
AcDbLine
 10
1.676163494949224
 20
-1.28125984
 30
0.0
 11
1.676163494949224
 21
-1.36
 31
0.0
  0
LINE
  5
14C
330
122
100
AcDbEntity
  8
AM_9
100
AcDbLine
 10
1.685302414561075
 20
-1.28125984
 30
0.0
 11
1.685302414561075
 21
-1.36
 31
0.0
  0
LINE
  5
14D
330
122
100
AcDbEntity
  8
AM_9
100
AcDbLine
 10
1.701454538193936
 20
-1.28125984
 30
0.0
 11
1.701454538193936
 21
-1.36
 31
0.0
  0
LINE
  5
14E
330
122
100
AcDbEntity
  8
AM_9
100
AcDbLine
 10
1.692635216743711
 20
-1.28125984
 30
0.0
 11
1.692635216743711
 21
-1.36
 31
0.0
  0
LINE
  5
14F
330
122
100
AcDbEntity
  8
AM_9
100
AcDbLine
 10
1.633125456071317
 20
-1.28125984
 30
0.0
 11
1.633125456071317
 21
-1.36
 31
0.0
  0
LINE
  5
150
330
122
100
AcDbEntity
  8
AM_9
100
AcDbLine
 10
1.61017202967183
 20
-1.28125984
 30
0.0
 11
1.61017202967183
 21
-1.36
 31
0.0
  0
LINE
  5
151
330
122
100
AcDbEntity
  8
AM_9
100
AcDbLine
 10
1.593168519916849
 20
-1.28125984
 30
0.0
 11
1.593168519916849
 21
-1.36
 31
0.0
  0
LINE
  5
152
330
122
100
AcDbEntity
  8
AM_9
100
AcDbLine
 10
1.602096037053306
 20
-1.28125984
 30
0.0
 11
1.602096037053306
 21
-1.36
 31
0.0
  0
LINE
  5
153
330
122
100
AcDbEntity
  8
AM_9
100
AcDbLine
 10
1.709318814935066
 20
-1.28125984
 30
0.0
 11
1.709318814935066
 21
-1.36
 31
0.0
  0
LINE
  5
154
330
122
100
AcDbEntity
  8
AM_9
100
AcDbLine
 10
1.697630758348394
 20
-1.28125984
 30
0.0
 11
1.697630758348394
 21
-1.36
 31
0.0
  0
LINE
  5
155
330
122
100
AcDbEntity
  8
AM_9
100
AcDbLine
 10
1.597952185124663
 20
-1.28125984
 30
0.0
 11
1.597952185124663
 21
-1.36
 31
0.0
  0
LINE
  5
156
330
122
100
AcDbEntity
  8
AM_9
100
AcDbLine
 10
1.583817883213851
 20
-1.28125984
 30
0.0
 11
1.583817883213851
 21
-1.36
 31
0.0
  0
LINE
  5
157
330
122
100
AcDbEntity
  8
AM_9
100
AcDbLine
 10
1.655124260015289
 20
-1.28125984
 30
0.0
 11
1.655124260015289
 21
-1.36
 31
0.0
  0
LINE
  5
158
330
122
100
AcDbEntity
  8
AM_9
100
AcDbLine
 10
1.647151485247759
 20
-1.28125984
 30
0.0
 11
1.647151485247759
 21
-1.36
 31
0.0
  0
LINE
  5
159
330
122
100
AcDbEntity
  8
AM_9
100
AcDbLine
 10
1.637909121279131
 20
-1.28125984
 30
0.0
 11
1.637909121279131
 21
-1.36
 31
0.0
  0
LINE
  5
15A
330
122
100
AcDbEntity
  8
AM_9
100
AcDbLine
 10
1.579993916254836
 20
-1.28125984
 30
0.0
 11
1.579993916254836
 21
-1.36
 31
0.0
  0
LINE
  5
15B
330
122
100
AcDbEntity
  8
AM_9
100
AcDbLine
 10
1.580205535387936
 20
-1.28125984
 30
0.0
 11
1.580205535387936
 21
-1.36
 31
0.0
  0
LINE
  5
15C
330
122
100
AcDbEntity
  8
AM_9
100
AcDbLine
 10
1.714845897084552
 20
-1.28125984
 30
0.0
 11
1.714845897084552
 21
-1.36
 31
0.0
  0
LINE
  5
15D
330
122
100
AcDbEntity
  8
AM_9
100
AcDbLine
 10
1.719417625118634
 20
-1.28125984
 30
0.0
 11
1.719417625118634
 21
-1.36
 31
0.0
  0
LINE
  5
15E
330
122
100
AcDbEntity
  8
AM_9
100
AcDbLine
 10
1.702414423556208
 20
-1.28125984
 30
0.0
 11
1.702414423556208
 21
-1.36
 31
0.0
  0
LINE
  5
15F
330
122
100
AcDbEntity
  8
AM_9
100
AcDbLine
 10
1.597209054990994
 20
-1.28125984
 30
0.0
 11
1.597209054990994
 21
-1.36
 31
0.0
  0
LINE
  5
160
330
122
100
AcDbEntity
  8
AM_9
100
AcDbLine
 10
1.58477758146265
 20
-1.28125984
 30
0.0
 11
1.58477758146265
 21
-1.36
 31
0.0
  0
LINE
  5
161
330
122
100
AcDbEntity
  8
AM_9
100
AcDbLine
 10
1.701670973621383
 20
-1.28125984
 30
0.0
 11
1.701670973621383
 21
-1.36
 31
0.0
  0
LINE
  5
162
330
122
100
AcDbEntity
  8
AM_9
100
AcDbLine
 10
1.697527267106608
 20
-1.28125984
 30
0.0
 11
1.697527267106608
 21
-1.36
 31
0.0
  0
LINE
  5
163
330
122
100
AcDbEntity
  8
AM_9
100
AcDbLine
 10
1.689982923980637
 20
-1.28125984
 30
0.0
 11
1.689982923980637
 21
-1.36
 31
0.0
  0
LINE
  5
164
330
122
100
AcDbEntity
  8
AM_9
100
AcDbLine
 10
1.590304345571504
 20
-1.28125984
 30
0.0
 11
1.590304345571504
 21
-1.36
 31
0.0
  0
LINE
  5
165
330
122
100
AcDbEntity
  8
AM_9
100
AcDbLine
 10
1.606987942002335
 20
-1.28125984
 30
0.0
 11
1.606987942002335
 21
-1.36
 31
0.0
  0
LINE
  5
166
330
122
100
AcDbEntity
  8
AM_9
100
AcDbLine
 10
1.706454611045488
 20
-1.28125984
 30
0.0
 11
1.706454611045488
 21
-1.36
 31
0.0
  0
LINE
  5
167
330
122
100
AcDbEntity
  8
AM_9
100
AcDbLine
 10
1.614320889598839
 20
-1.28125984
 30
0.0
 11
1.614320889598839
 21
-1.36
 31
0.0
  0
LINE
  5
168
330
122
100
AcDbEntity
  8
AM_9
100
AcDbLine
 10
1.623991458703243
 20
-1.28125984
 30
0.0
 11
1.623991458703243
 21
-1.36
 31
0.0
  0
LINE
  5
169
330
122
100
AcDbEntity
  8
AM_9
100
AcDbLine
 10
1.679037546276591
 20
-1.28125984
 30
0.0
 11
1.679037546276591
 21
-1.36
 31
0.0
  0
LINE
  5
16A
330
122
100
AcDbEntity
  8
AM_9
100
AcDbLine
 10
1.635999901321786
 20
-1.28125984
 30
0.0
 11
1.635999901321786
 21
-1.36
 31
0.0
  0
LINE
  5
16B
330
122
100
AcDbEntity
  8
AM_9
100
AcDbLine
 10
1.696041148708046
 20
-1.28125984
 30
0.0
 11
1.696041148708046
 21
-1.36
 31
0.0
  0
LINE
  5
16C
330
122
100
AcDbEntity
  8
AM_9
100
AcDbLine
 10
1.682226643680934
 20
-1.28125984
 30
0.0
 11
1.682226643680934
 21
-1.36
 31
0.0
  0
LINE
  5
16D
330
122
100
AcDbEntity
  8
AM_9
100
AcDbLine
 10
1.611771579426441
 20
-1.28125984
 30
0.0
 11
1.611771579426441
 21
-1.36
 31
0.0
  0
LINE
  5
16E
330
122
100
AcDbEntity
  8
AM_9
100
AcDbLine
 10
1.624311385919246
 20
-1.28125984
 30
0.0
 11
1.624311385919246
 21
-1.36
 31
0.0
  0
LINE
  5
16F
330
122
100
AcDbEntity
  8
AM_9
100
AcDbLine
 10
1.639188998726129
 20
-1.28125984
 30
0.0
 11
1.639188998726129
 21
-1.36
 31
0.0
  0
LINE
  5
170
330
122
100
AcDbEntity
  8
AM_9
100
AcDbLine
 10
1.64621803
 20
-1.28125984
 30
0.0
 11
1.64621803
 21
-1.36
 31
0.0
  0
LINE
  5
171
330
122
100
AcDbEntity
  8
AM_9
100
AcDbLine
 10
1.71905434
 20
-1.28125984
 30
0.0
 11
1.71905434
 21
-1.36
 31
0.0
  0
LINE
  5
172
330
122
100
AcDbEntity
  8
AM_9
100
AcDbLine
 10
1.66078544
 20
-1.28125984
 30
0.0
 11
1.66078544
 21
-1.36
 31
0.0
  0
LINE
  5
173
330
122
100
AcDbEntity
  8
AM_9
100
AcDbLine
 10
1.70448701
 20
-1.28125984
 30
0.0
 11
1.70448701
 21
-1.36
 31
0.0
  0
LINE
  5
174
330
122
100
AcDbEntity
  8
AM_9
100
AcDbLine
 10
1.71614095
 20
-1.28125984
 30
0.0
 11
1.71614095
 21
-1.36
 31
0.0
  0
LINE
  5
175
330
122
100
AcDbEntity
  8
AM_9
100
AcDbLine
 10
1.64913146
 20
-1.28125984
 30
0.0
 11
1.64913146
 21
-1.36
 31
0.0
  0
LINE
  5
176
330
122
100
AcDbEntity
  8
AM_9
100
AcDbLine
 10
1.64039114
 20
-1.28125984
 30
0.0
 11
1.64039114
 21
-1.36
 31
0.0
  0
LINE
  5
177
330
122
100
AcDbEntity
  8
AM_9
100
AcDbLine
 10
1.72488111
 20
-1.28125984
 30
0.0
 11
1.72488111
 21
-1.36
 31
0.0
  0
LINE
  5
178
330
122
100
AcDbEntity
  8
AM_9
100
AcDbLine
 10
1.62291043
 20
-1.28125984
 30
0.0
 11
1.62291043
 21
-1.36
 31
0.0
  0
LINE
  5
179
330
122
100
AcDbEntity
  8
AM_9
100
AcDbLine
 10
1.74236182
 20
-1.28125984
 30
0.0
 11
1.74236182
 21
-1.36
 31
0.0
  0
LINE
  5
17A
330
122
100
AcDbEntity
  8
AM_9
100
AcDbLine
 10
1.63456421
 20
-1.28125984
 30
0.0
 11
1.63456421
 21
-1.36
 31
0.0
  0
LINE
  5
17B
330
122
100
AcDbEntity
  8
AM_9
100
AcDbLine
 10
1.73070788
 20
-1.28125984
 30
0.0
 11
1.73070788
 21
-1.36
 31
0.0
  0
LINE
  5
17C
330
122
100
AcDbEntity
  8
AM_9
100
AcDbLine
 10
1.61708353
 20
-1.28125984
 30
0.0
 11
1.61708353
 21
-1.36
 31
0.0
  0
LINE
  5
17D
330
122
100
AcDbEntity
  8
AM_9
100
AcDbLine
 10
1.74818859
 20
-1.28125984
 30
0.0
 11
1.74818859
 21
-1.36
 31
0.0
  0
LINE
  5
17E
330
122
100
AcDbEntity
  8
AM_9
100
AcDbLine
 10
1.73362166
 20
-1.28125984
 30
0.0
 11
1.73362166
 21
-1.36
 31
0.0
  0
LINE
  5
17F
330
122
100
AcDbEntity
  8
AM_9
100
AcDbLine
 10
1.63165079
 20
-1.28125984
 30
0.0
 11
1.63165079
 21
-1.36
 31
0.0
  0
LINE
  5
180
330
122
100
AcDbEntity
  8
AM_9
100
AcDbLine
 10
1.61417008
 20
-1.28125984
 30
0.0
 11
1.61417008
 21
-1.36
 31
0.0
  0
LINE
  5
181
330
122
100
AcDbEntity
  8
AM_9
100
AcDbLine
 10
1.75110237
 20
-1.28125984
 30
0.0
 11
1.75110237
 21
-1.36
 31
0.0
  0
LINE
  5
182
330
122
100
AcDbEntity
  8
AM_9
100
AcDbLine
 10
1.641937427849048
 20
-1.28125984
 30
0.0
 11
1.641937427849048
 21
-1.36
 31
0.0
  0
LINE
  5
183
330
122
100
AcDbEntity
  8
AM_9
100
AcDbLine
 10
1.656814998980369
 20
-1.28125984
 30
0.0
 11
1.656814998980369
 21
-1.36
 31
0.0
  0
LINE
  5
184
330
122
100
AcDbEntity
  8
AM_9
100
AcDbLine
 10
1.699852643935174
 20
-1.28125984
 30
0.0
 11
1.699852643935174
 21
-1.36
 31
0.0
  0
LINE
  5
185
330
122
100
AcDbEntity
  8
AM_9
100
AcDbLine
 10
1.629397574471235
 20
-1.28125984
 30
0.0
 11
1.629397574471235
 21
-1.36
 31
0.0
  0
LINE
  5
186
330
122
100
AcDbEntity
  8
AM_9
100
AcDbLine
 10
1.653625889420653
 20
-1.28125984
 30
0.0
 11
1.653625889420653
 21
-1.36
 31
0.0
  0
LINE
  5
187
330
122
100
AcDbEntity
  8
AM_9
100
AcDbLine
 10
1.641617486741191
 20
-1.28125984
 30
0.0
 11
1.641617486741191
 21
-1.36
 31
0.0
  0
LINE
  5
188
330
122
100
AcDbEntity
  8
AM_9
100
AcDbLine
 10
1.713667190637849
 20
-1.28125984
 30
0.0
 11
1.713667190637849
 21
-1.36
 31
0.0
  0
LINE
  5
189
330
122
100
AcDbEntity
  8
AM_9
100
AcDbLine
 10
1.631946869015298
 20
-1.28125984
 30
0.0
 11
1.631946869015298
 21
-1.36
 31
0.0
  0
LINE
  5
18A
330
122
100
AcDbEntity
  8
AM_9
100
AcDbLine
 10
1.615794813105226
 20
-1.28125984
 30
0.0
 11
1.615794813105226
 21
-1.36
 31
0.0
  0
LINE
  5
18B
330
122
100
AcDbEntity
  8
AM_9
100
AcDbLine
 10
1.696663534375459
 20
-1.28125984
 30
0.0
 11
1.696663534375459
 21
-1.36
 31
0.0
  0
LINE
  5
18C
330
122
100
AcDbEntity
  8
AM_9
100
AcDbLine
 10
1.707608952018586
 20
-1.28125984
 30
0.0
 11
1.707608952018586
 21
-1.36
 31
0.0
  0
LINE
  5
18D
330
122
100
AcDbEntity
  8
AM_9
100
AcDbLine
 10
1.624613976986211
 20
-1.28125984
 30
0.0
 11
1.624613976986211
 21
-1.36
 31
0.0
  0
LINE
  5
18E
330
122
100
AcDbEntity
  8
AM_9
100
AcDbLine
 10
1.724080606090283
 20
-1.28125984
 30
0.0
 11
1.724080606090283
 21
-1.36
 31
0.0
  0
LINE
  5
18F
330
122
100
AcDbEntity
  8
AM_9
100
AcDbLine
 10
1.715153246523067
 20
-1.28125984
 30
0.0
 11
1.715153246523067
 21
-1.36
 31
0.0
  0
LINE
  5
190
330
122
100
AcDbEntity
  8
AM_9
100
AcDbLine
 10
1.607930340616298
 20
-1.28125984
 30
0.0
 11
1.607930340616298
 21
-1.36
 31
0.0
  0
LINE
  5
191
330
122
100
AcDbEntity
  8
AM_9
100
AcDbLine
 10
1.61961872218953
 20
-1.28125984
 30
0.0
 11
1.619618722189529
 21
-1.36
 31
0.0
  0
LINE
  5
192
330
122
100
AcDbEntity
  8
AM_9
100
AcDbLine
 10
1.719297008605258
 20
-1.28125984
 30
0.0
 11
1.719297008605258
 21
-1.36
 31
0.0
  0
LINE
  5
193
330
122
100
AcDbEntity
  8
AM_9
100
AcDbLine
 10
1.733431468085311
 20
-1.28125984
 30
0.0
 11
1.733431468085311
 21
-1.36
 31
0.0
  0
LINE
  5
194
330
122
100
AcDbEntity
  8
AM_9
100
AcDbLine
 10
1.737255564283088
 20
-1.28125984
 30
0.0
 11
1.737255564283088
 21
-1.36
 31
0.0
  0
LINE
  5
195
330
122
100
AcDbEntity
  8
AM_9
100
AcDbLine
 10
1.737043620163429
 20
-1.28125984
 30
0.0
 11
1.737043620163429
 21
-1.36
 31
0.0
  0
LINE
  5
196
330
122
100
AcDbEntity
  8
AM_9
100
AcDbLine
 10
1.59815145879036
 20
-1.28125984
 30
0.0
 11
1.59815145879036
 21
-1.36
 31
0.0
  0
LINE
  5
197
330
122
100
AcDbEntity
  8
AM_9
100
AcDbLine
 10
1.602403583453372
 20
-1.28125984
 30
0.0
 11
1.602403583453372
 21
-1.36
 31
0.0
  0
LINE
  5
198
330
122
100
AcDbEntity
  8
AM_9
100
AcDbLine
 10
1.598363070977533
 20
-1.28125984
 30
0.0
 11
1.598363070977533
 21
-1.36
 31
0.0
  0
LINE
  5
199
330
122
100
AcDbEntity
  8
AM_9
100
AcDbLine
 10
1.615366597526518
 20
-1.28125984
 30
0.0
 11
1.615366597526518
 21
-1.36
 31
0.0
  0
LINE
  5
19A
330
122
100
AcDbEntity
  8
AM_9
100
AcDbLine
 10
1.72004042554693
 20
-1.28125984
 30
0.0
 11
1.72004042554693
 21
-1.36
 31
0.0
  0
LINE
  5
19B
330
122
100
AcDbEntity
  8
AM_9
100
AcDbLine
 10
1.733003439620076
 20
-1.28125984
 30
0.0
 11
1.733003439620076
 21
-1.36
 31
0.0
  0
LINE
  5
19C
330
122
100
AcDbEntity
  8
AM_9
100
AcDbLine
 10
1.616109692930552
 20
-1.28125984
 30
0.0
 11
1.616109692930552
 21
-1.36
 31
0.0
  0
LINE
  5
19D
330
122
100
AcDbEntity
  8
AM_9
100
AcDbLine
 10
1.601975384073812
 20
-1.28125984
 30
0.0
 11
1.601975384073812
 21
-1.36
 31
0.0
  0
LINE
  5
19E
330
122
100
AcDbEntity
  8
AM_9
100
AcDbLine
 10
1.715788300883918
 20
-1.28125984
 30
0.0
 11
1.715788300883918
 21
-1.36
 31
0.0
  0
LINE
  5
19F
330
122
100
AcDbEntity
  8
AM_9
100
AcDbLine
 10
1.620253557014567
 20
-1.28125984
 30
0.0
 11
1.620253557014567
 21
-1.36
 31
0.0
  0
LINE
  5
1A0
330
122
100
AcDbEntity
  8
AM_9
100
AcDbLine
 10
1.606421787168067
 20
-1.28125984
 30
0.0
 11
1.606421787168067
 21
-1.36
 31
0.0
  0
LINE
  5
1A1
330
122
100
AcDbEntity
  8
AM_9
100
AcDbLine
 10
1.627798057709778
 20
-1.28125984
 30
0.0
 11
1.627798057709778
 21
-1.36
 31
0.0
  0
LINE
  5
1A2
330
122
100
AcDbEntity
  8
AM_9
100
AcDbLine
 10
1.727476350524664
 20
-1.28125984
 30
0.0
 11
1.727476350524664
 21
-1.36
 31
0.0
  0
LINE
  5
1A3
330
122
100
AcDbEntity
  8
AM_9
100
AcDbLine
 10
1.710792724549599
 20
-1.28125984
 30
0.0
 11
1.710792724549599
 21
-1.36
 31
0.0
  0
LINE
  5
1A4
330
122
100
AcDbEntity
  8
AM_9
100
AcDbLine
 10
1.703459934522336
 20
-1.28125984
 30
0.0
 11
1.703459934522336
 21
-1.36
 31
0.0
  0
LINE
  5
1A5
330
122
100
AcDbEntity
  8
AM_9
100
AcDbLine
 10
1.638743467860207
 20
-1.28125984
 30
0.0
 11
1.638743467860207
 21
-1.36
 31
0.0
  0
LINE
  5
1A6
330
122
100
AcDbEntity
  8
AM_9
100
AcDbLine
 10
1.693789522987172
 20
-1.28125984
 30
0.0
 11
1.693789522987172
 21
-1.36
 31
0.0
  0
LINE
  5
1A7
330
122
100
AcDbEntity
  8
AM_9
100
AcDbLine
 10
1.681781112815012
 20
-1.28125984
 30
0.0
 11
1.681781112815012
 21
-1.36
 31
0.0
  0
LINE
  5
1A8
330
122
100
AcDbEntity
  8
AM_9
100
AcDbLine
 10
1.719612039053898
 20
-1.28125984
 30
0.0
 11
1.719612039053898
 21
-1.36
 31
0.0
  0
LINE
  5
1A9
330
122
100
AcDbEntity
  8
AM_9
100
AcDbLine
 10
1.639554488788728
 20
-1.28125984
 30
0.0
 11
1.639554488788728
 21
-1.36
 31
0.0
  0
LINE
  5
1AA
330
122
100
AcDbEntity
  8
AM_9
100
AcDbLine
 10
1.706009087125493
 20
-1.28125984
 30
0.0
 11
1.706009087125493
 21
-1.36
 31
0.0
  0
LINE
  5
1AB
330
122
100
AcDbEntity
  8
AM_9
100
AcDbLine
 10
1.693469556378859
 20
-1.28125984
 30
0.0
 11
1.693469556378859
 21
-1.36
 31
0.0
  0
LINE
  5
1AC
330
122
100
AcDbEntity
  8
AM_9
100
AcDbLine
 10
1.678592022356596
 20
-1.28125984
 30
0.0
 11
1.678592022356596
 21
-1.36
 31
0.0
  0
LINE
  5
1AD
330
122
100
AcDbEntity
  8
AM_9
100
AcDbLine
 10
1.587767387813332
 20
-1.28125984
 30
0.0
 11
1.587767387813332
 21
-1.36
 31
0.0
  0
LINE
  5
1AE
330
122
100
AcDbEntity
  8
AM_9
100
AcDbLine
 10
1.574722518157119
 20
-1.28125984
 30
0.0
 11
1.574722518157119
 21
-1.36
 31
0.0
  0
LINE
  5
1AF
330
122
100
AcDbEntity
  8
AM_9
100
AcDbLine
 10
1.559584088445876
 20
-1.28125984
 30
0.0
 11
1.559584088445876
 21
-1.36
 31
0.0
  0
LINE
  5
1B0
330
122
100
AcDbEntity
  8
AM_9
100
AcDbLine
 10
1.596221752966336
 20
-1.28125984
 30
0.0
 11
1.596221752966336
 21
-1.36
 31
0.0
  0
LINE
  5
1B1
330
122
100
AcDbEntity
  8
AM_9
100
AcDbLine
 10
1.584223796846282
 20
-1.28125984
 30
0.0
 11
1.584223796846282
 21
-1.36
 31
0.0
  0
LINE
  5
1B2
330
122
100
AcDbEntity
  8
AM_9
100
AcDbLine
 10
1.573916851608384
 20
-1.28125984
 30
0.0
 11
1.573916851608384
 21
-1.36
 31
0.0
  0
LINE
  5
1B3
330
122
100
AcDbEntity
  8
AM_9
100
AcDbLine
 10
1.643569115451321
 20
-1.28125984
 30
0.0
 11
1.643569115451321
 21
-1.36
 31
0.0
  0
LINE
  5
1B4
330
122
100
AcDbEntity
  8
AM_9
100
AcDbLine
 10
1.565300670376035
 20
-1.28125984
 30
0.0
 11
1.565300670376035
 21
-1.36
 31
0.0
  0
LINE
  5
1B5
330
122
100
AcDbEntity
  8
AM_9
100
AcDbLine
 10
1.549921001484983
 20
-1.28125984
 30
0.0
 11
1.549921001484983
 21
-1.36
 31
0.0
  0
LINE
  5
1B6
330
122
100
AcDbEntity
  8
AM_9
100
AcDbLine
 10
1.637287795812095
 20
-1.28125984
 30
0.0
 11
1.637287795812095
 21
-1.36
 31
0.0
  0
LINE
  5
1B7
330
122
100
AcDbEntity
  8
AM_9
100
AcDbLine
 10
1.656211130845607
 20
-1.28125984
 30
0.0
 11
1.656211130845607
 21
-1.36
 31
0.0
  0
LINE
  5
1B8
330
122
100
AcDbEntity
  8
AM_9
100
AcDbLine
 10
1.558375359071949
 20
-1.28125984
 30
0.0
 11
1.55837535907195
 21
-1.36
 31
0.0
  0
LINE
  5
1B9
330
122
100
AcDbEntity
  8
AM_9
100
AcDbLine
 10
1.653311452947807
 20
-1.28125984
 30
0.0
 11
1.653311452947807
 21
-1.36
 31
0.0
  0
LINE
  5
1BA
330
122
100
AcDbEntity
  8
AM_9
100
AcDbLine
 10
1.665068015391395
 20
-1.28125984
 30
0.0
 11
1.665068015391395
 21
-1.36
 31
0.0
  0
LINE
  5
1BB
330
122
100
AcDbEntity
  8
AM_9
100
AcDbLine
 10
1.673119458914676
 20
-1.28125984
 30
0.0
 11
1.673119458914676
 21
-1.36
 31
0.0
  0
LINE
  5
1BC
330
122
100
AcDbEntity
  8
AM_9
100
AcDbLine
 10
1.671831678171496
 20
-1.28125984
 30
0.0
 11
1.671831678171496
 21
-1.36
 31
0.0
  0
LINE
  5
1BD
330
122
100
AcDbEntity
  8
AM_9
100
AcDbLine
 10
1.655646167610311
 20
-1.28125984
 30
0.0
 11
1.655646167610311
 21
-1.36
 31
0.0
  0
LINE
  5
1BE
330
122
100
AcDbEntity
  8
AM_9
100
AcDbLine
 10
1.670623127339167
 20
-1.28125984
 30
0.0
 11
1.670623127339167
 21
-1.36
 31
0.0
  0
LINE
  5
1BF
330
122
100
AcDbEntity
  8
AM_9
100
AcDbLine
 10
1.516823712869399
 20
-1.28125984
 30
0.0
 11
1.516823712869399
 21
-1.36
 31
0.0
  0
LINE
  5
1C0
330
122
100
AcDbEntity
  8
AM_9
100
AcDbLine
 10
1.541948864878851
 20
-1.28125984
 30
0.0
 11
1.541948864878851
 21
-1.36
 31
0.0
  0
LINE
  5
1C1
330
122
100
AcDbEntity
  8
AM_9
100
AcDbLine
 10
1.539531502760314
 20
-1.28125984
 30
0.0
 11
1.539531502760314
 21
-1.36
 31
0.0
  0
LINE
  5
1C2
330
122
100
AcDbEntity
  8
AM_9
100
AcDbLine
 10
1.654196633146068
 20
-1.28125984
 30
0.0
 11
1.654196633146068
 21
-1.36
 31
0.0
  0
LINE
  5
1C3
330
122
100
AcDbEntity
  8
AM_9
100
AcDbLine
 10
1.635352776834433
 20
-1.28125984
 30
0.0
 11
1.635352776834433
 21
-1.36
 31
0.0
  0
LINE
  5
1C4
330
122
100
AcDbEntity
  8
AM_9
100
AcDbLine
 10
1.645497975329715
 20
-1.28125984
 30
0.0
 11
1.645497975329715
 21
-1.36
 31
0.0
  0
LWPOLYLINE
  5
1C5
330
122
100
AcDbEntity
  8
AM_9
100
AcDbPolyline
 90
        3
 70
     0
 43
0.0
 10
1.398757056777842
 20
-0.7546180422838974
 10
1.427814265629706
 20
-0.7773483685699144
 10
1.459050649115761
 20
-0.8000786948559314
  0
LWPOLYLINE
  5
1C6
330
122
100
AcDbEntity
  8
AM_9
100
AcDbPolyline
 90
        3
 70
     0
 43
0.0
 10
1.459050649115761
 20
-0.8000786948559314
 10
1.455663879679625
 20
-0.8453349440926894
 10
1.454434757865556
 20
-0.8909999999999999
  0
LWPOLYLINE
  5
1C7
330
122
100
AcDbEntity
  8
AM_9
100
AcDbPolyline
 90
        3
 70
     0
 43
0.0
 10
1.459050649115761
 20
-0.9819213051440683
 10
1.427950200104055
 20
-1.004549429762447
 10
1.398757056777842
 20
-1.027381957716103
  0
LWPOLYLINE
  5
1C8
330
122
100
AcDbEntity
  8
AM_9
100
AcDbPolyline
 90
        3
 70
     0
 43
0.0
 10
1.454434757865556
 20
-0.8909999999999999
 10
1.455653116173563
 20
-0.9364606525720341
 10
1.459050649115761
 20
-0.9819213051440683
  0
LINE
  5
1C9
330
122
100
AcDbEntity
  8
AM_9
100
AcDbLine
 10
1.533335418246922
 20
-0.8000786948559314
 30
0.0
 11
1.459050649115761
 21
-0.8000786948559314
 31
0.0
  0
LINE
  5
1CA
330
122
100
AcDbEntity
  8
AM_9
100
AcDbLine
 10
1.533335418246922
 20
-0.9819213051440683
 30
0.0
 11
1.459050649115761
 21
-0.9819213051440683
 31
0.0
  0
LINE
  5
1CB
330
122
100
AcDbEntity
  8
AM_9
100
AcDbLine
 10
1.533335418246922
 20
-0.8000786948559314
 30
0.0
 11
1.518177132957989
 21
-0.7857705556218795
 31
0.0
  0
LWPOLYLINE
  5
1CC
330
122
100
AcDbEntity
  8
AM_9
100
AcDbPolyline
 90
        3
 70
     0
 43
0.0
 10
1.537951309497126
 20
-0.8909999999999999
 10
1.536732951189119
 20
-0.8455393474279655
 10
1.533335418246922
 20
-0.8000786948559314
  0
LINE
  5
1CD
330
122
100
AcDbEntity
  8
AM_9
100
AcDbLine
 10
1.518178949995308
 20
-0.9962277702049542
 30
0.0
 11
1.533335418246922
 21
-0.9819213051440683
 31
0.0
  0
LWPOLYLINE
  5
1CE
330
122
100
AcDbEntity
  8
AM_9
100
AcDbPolyline
 90
        3
 70
     0
 43
0.0
 10
1.533335418246922
 20
-0.9819213051440683
 10
1.536722187683057
 20
-0.9366650559073104
 10
1.537951309497126
 20
-0.8909999999999999
  0
LWPOLYLINE
  5
1CF
330
122
100
AcDbEntity
  8
AM_9
100
AcDbPolyline
 90
        3
 70
     0
 43
0.0
 10
1.347695246940333
 20
-0.7091573897118632
 10
1.372022157079767
 20
-0.7317855143302423
 10
1.398757056777842
 20
-0.7546180422838974
  0
LWPOLYLINE
  5
1D0
330
122
100
AcDbEntity
  8
AM_9
100
AcDbPolyline
 90
        3
 70
     0
 43
0.0
 10
1.398757056777842
 20
-1.027381957716103
 10
1.372136564541992
 20
-1.05011228400212
 10
1.347695246940333
 20
-1.072842610288137
  0
LINE
  5
1D1
330
122
100
AcDbEntity
  8
AM_9
100
AcDbLine
 10
1.331878103134102
 20
-1.00123622
 30
0.0
 11
1.343079355690129
 21
-1.00123622
 31
0.0
  0
LINE
  5
1D2
330
122
100
AcDbEntity
  8
AM_9
100
AcDbLine
 10
1.343079355690129
 20
-0.7807637799999999
 30
0.0
 11
1.331878103134102
 21
-0.7807637799999999
 31
0.0
  0
ELLIPSE
  5
1D3
330
122
100
AcDbEntity
  8
AM_9
100
AcDbEllipse
 10
1.440515332593629
 20
-0.8909999999999997
 30
0.0
 11
-2.025006509596549E-17
 21
-0.1102362199999999
 31
0.0
210
0.0
220
0.0
230
1.0
 40
0.7071067811865351
 41
0.6108110052479709
 42
2.529558494787398
  0
ELLIPSE
  5
1D4
330
122
100
AcDbEntity
  8
AM_9
100
AcDbEllipse
 10
1.426595907321698
 20
-0.8909999999999999
 30
0.0
 11
-2.025006509596558E-17
 21
-0.1102362200000003
 31
0.0
210
0.0
220
0.0
230
1.0
 40
0.7071067811865482
 41
0.0
 42
3.141592653589793
  0
ELLIPSE
  5
1D5
330
122
100
AcDbEntity
  8
AM_9
100
AcDbEllipse
 10
1.4265959073217
 20
-0.8910000000000019
 30
0.0
 11
-2.892866547250444E-17
 21
-0.1574803199999962
 31
0.0
210
0.0
220
0.0
230
1.0
 40
0.7071067811865532
 41
0.8503002718556427
 42
2.291044843047443
  0
LINE
  5
1D6
330
122
100
AcDbEntity
  8
AM_9
100
AcDbLine
 10
1.5748
 20
-1.36
 30
0.0
 11
1.5748
 21
0.0
 31
0.0
  0
LINE
  5
1D7
330
122
100
AcDbEntity
  8
AM_9
100
AcDbLine
 10
-1.5748
 20
0.0
 30
0.0
 11
-1.5748
 21
-1.36
 31
0.0
  0
LWPOLYLINE
  5
1D8
330
122
100
AcDbEntity
  8
AM_9
100
AcDbPolyline
 90
        3
 70
     0
 43
0.0
 10
1.448262134137276
 20
-0.9063042775796148
 10
1.447789860771417
 20
-0.9011313959053949
 10
1.447716051801509
 20
-0.9000543166214059
  0
LWPOLYLINE
  5
1D9
330
122
100
AcDbEntity
  8
AM_9
100
AcDbPolyline
 90
       46
 70
     0
 43
0.0
 10
1.461574054484961
 20
-0.8321418395358815
 10
1.461804483299518
 20
-0.8317406117620062
 10
1.465584963727524
 20
-0.8258492026126003
 10
1.469330994469118
 20
-0.8211153426136323
 10
1.472845078401994
 20
-0.8175336991146505
 10
1.475946513129028
 20
-0.815028204197794
 10
1.478485365772044
 20
-0.8134605747560204
 10
1.480368797391506
 20
-0.8126355232863952
 10
1.481613745017967
 20
-0.8123139263353643
 10
1.482521838248427
 20
-0.8122678453559791
 10
1.483569773375701
 20
-0.8124497417703739
 10
1.485209865470967
 20
-0.8130461823901505
 10
1.487492008335092
 20
-0.814286491247661
 10
1.490313434213188
 20
-0.8163353843019345
 10
1.493872541590638
 20
-0.8196518429268933
 10
1.497649192864524
 20
-0.8240753528783812
 10
1.501471866593506
 20
-0.8296198656069806
 10
1.50517429689274
 20
-0.8362612039218416
 10
1.508593580932556
 20
-0.8439251428008021
 10
1.511581791352975
 20
-0.8524951536789119
 10
1.514015401877142
 20
-0.8618312769133653
 10
1.515793408402683
 20
-0.8717644115607931
 10
1.516841227927594
 20
-0.8821027427963904
 10
1.517113490347417
 20
-0.8926385633651539
 10
1.516595917149608
 20
-0.9031551785825928
 10
1.515307370642869
 20
-0.9134284899325018
 10
1.513300291425506
 20
-0.923243473953003
 10
1.51065899144716
 20
-0.9324022542819889
 10
1.507498166364253
 20
-0.9407289037346612
 10
1.503960105274177
 20
-0.9480776549338188
 10
1.500210152451777
 20
-0.9543413116267205
 10
1.496429999888323
 20
-0.9594592338816434
 10
1.492818894834779
 20
-0.9634139226573722
 10
1.489563498105191
 20
-0.9662605056320468
 10
1.48682620826119
 20
-0.9681171759403887
 10
1.484722438449572
 20
-0.9691614042782611
 10
1.483280674586813
 20
-0.9696203981505852
 10
1.482332255055044
 20
-0.9697397093362825
 10
1.48113207171174
 20
-0.9695893829314934
 10
1.479592749302523
 20
-0.9690654399500164
 10
1.477390174251061
 20
-0.9679206379091689
 10
1.474632956313543
 20
-0.9659863063834286
 10
1.471109731789312
 20
-0.9627968455147922
 10
1.467349426690626
 20
-0.9585051301495412
 10
1.463523502490552
 20
-0.9530925477628208
 10
1.4609469988823
 20
-0.9487388490898612
  0
LINE
  5
1DA
330
122
100
AcDbEntity
  8
AM_9
100
AcDbLine
 10
1.455799178395066
 20
-0.8443170755242858
 30
0.0
 11
1.457751790902901
 21
-0.8396739783098364
 31
0.0
  0
LINE
  5
1DB
330
122
100
AcDbEntity
  8
AM_9
100
AcDbLine
 10
1.455183325450772
 20
-0.8459277308950186
 30
0.0
 11
1.455799178395066
 21
-0.8443170755242858
 31
0.0
  0
LWPOLYLINE
  5
1DC
330
122
100
AcDbEntity
  8
AM_9
100
AcDbPolyline
 90
        7
 70
     0
 43
0.0
 10
1.447424192000477
 20
-0.8909999999999999
 10
1.447517081355793
 20
-0.8858874589841372
 10
1.448291539495002
 20
-0.8754315657287093
 10
1.449823533608216
 20
-0.8652860046725716
 10
1.452049825036352
 20
-0.8556657127601867
 10
1.454875897085639
 20
-0.84676224281641
 10
1.455183325450772
 20
-0.8459277308950186
  0
ELLIPSE
  5
1DD
330
122
100
AcDbEntity
  8
AM_9
100
AcDbEllipse
 10
1.518348936167476
 20
-0.8910000000000001
 30
0.0
 11
-1.842731267306006E-17
 21
-0.1003136179666381
 31
0.0
210
0.0
220
0.0
230
1.0
 40
0.707106781186548
 41
5.224512453896199
 42
10.52392361855918
  0
ELLIPSE
  5
1DE
330
122
100
AcDbEntity
  8
AM_9
100
AcDbEllipse
 10
1.518348936167498
 20
-0.8909999999999897
 30
0.0
 11
-1.842731267307148E-17
 21
-0.1003136179667002
 31
0.0
210
0.0
220
0.0
230
1.0
 40
0.7071067811863422
 41
4.803778141275635
 42
4.949926602252713
  0
ELLIPSE
  5
1DF
330
122
100
AcDbEntity
  8
AM_9
100
AcDbEllipse
 10
1.533504729558487
 20
-0.8910000000007365
 30
0.0
 11
-1.926569708667644E-17
 21
-0.1048775701428906
 31
0.0
210
0.0
220
0.0
230
1.0
 40
0.7071067811900005
 41
0.4115167906548161
 42
2.730075862940594
  0
ELLIPSE
  5
1E0
330
122
100
AcDbEntity
  8
AM_9
100
AcDbEllipse
 10
1.570959704241202
 20
-0.8910000000000171
 30
0.0
 11
-1.537357412142831E-17
 21
-0.08368983956371201
 31
0.0
210
0.0
220
0.0
230
1.0
 40
0.7071067811865481
 41
0.4079248866979883
 42
2.711514789089426
  0
LINE
  5
1E1
330
122
100
AcDbEntity
  8
AM_9
100
AcDbLine
 10
1.602327208127822
 20
-0.9619413076284901
 30
0.0
 11
1.602327208127822
 21
-0.8200779986410458
 31
0.0
  0
LINE
  5
1E2
330
122
100
AcDbEntity
  8
AM_9
100
AcDbLine
 10
1.06142899814039
 20
-1.31
 30
0.0
 11
1.602327208127822
 21
-1.31
 31
0.0
  0
LINE
  5
1E3
330
122
100
AcDbEntity
  8
AM_9
100
AcDbLine
 10
0.25
 20
-0.4219999999999998
 30
0.0
 11
0.25
 21
0.0000000000000002
 31
0.0
  0
LINE
  5
1E4
330
122
100
AcDbEntity
  8
AM_9
100
AcDbLine
 10
-0.25
 20
0.0000000000000002
 30
0.0
 11
-0.25
 21
-0.4219999999999998
 31
0.0
  0
ELLIPSE
  5
1E5
330
122
100
AcDbEntity
  8
AM_9
100
AcDbEllipse
 10
1.34307935569013
 20
-0.8909999999999986
 30
0.0
 11
-2.892866547250554E-17
 21
-0.1574803200000022
 31
0.0
210
0.0
220
0.0
230
1.0
 40
0.7071067811865475
 41
0.0
 42
6.283185307179586
  0
ELLIPSE
  5
1E6
330
122
100
AcDbEntity
  8
AM_9
100
AcDbEllipse
 10
1.343079355690128
 20
-0.8910000000000001
 30
0.0
 11
-2.025006509596549E-17
 21
-0.1102362199999999
 31
0.0
210
0.0
220
0.0
230
1.0
 40
0.7071067811865492
 41
0.0
 42
6.283185307179586
  0
ELLIPSE
  5
1E7
330
122
100
AcDbEntity
  8
AM_9
100
AcDbEllipse
 10
1.331878103134102
 20
-0.8909999999999998
 30
0.0
 11
-2.025006509596551E-17
 21
-0.11023622
 31
0.0
210
0.0
220
0.0
230
1.0
 40
0.7071067811865466
 41
0.0
 42
6.283185307179586
  0
LINE
  5
1E8
330
122
100
AcDbEntity
  8
AM_7
100
AcDbLine
 10
0.0
 20
0.068
 30
0.0
 11
0.0000000000000001
 21
-2.0759375
 31
0.0
  0
LWPOLYLINE
  5
1E9
330
122
100
AcDbEntity
  8
AM_4
100
AcDbPolyline
 90
        3
 70
     0
 43
0.0
 10
1.518177132957989
 20
-0.7857705556218795
 10
1.509008508107488
 20
-0.7774505702375524
 10
1.482273608409413
 20
-0.7546180422838974
  0
LWPOLYLINE
  5
1EA
330
122
100
AcDbEntity
  8
AM_4
100
AcDbPolyline
 90
        3
 70
     0
 43
0.0
 10
1.482273608409413
 20
-1.027381957716102
 10
1.508894100645263
 20
-1.004651631430085
 10
1.518178949995308
 20
-0.9962277702049542
  0
LWPOLYLINE
  5
1EB
330
122
100
AcDbEntity
  8
AM_4
100
AcDbPolyline
 90
        3
 70
     0
 43
0.0
 10
1.421980016071494
 20
-1.072842610288137
 10
1.453080465083199
 20
-1.050214485669758
 10
1.482273608409413
 20
-1.027381957716102
  0
LWPOLYLINE
  5
1EC
330
122
100
AcDbEntity
  8
AM_4
100
AcDbPolyline
 90
        3
 70
     0
 43
0.0
 10
1.482273608409413
 20
-0.7546180422838974
 10
1.453216399557549
 20
-0.7318877159978804
 10
1.421980016071494
 20
-0.7091573897118632
  0
LINE
  5
1ED
330
122
100
AcDbEntity
  8
AM_4
100
AcDbLine
 10
1.426595907321699
 20
-1.00123622
 30
0.0
 11
1.440515332593627
 21
-1.00123622
 31
0.0
  0
LINE
  5
1EE
330
122
100
AcDbEntity
  8
AM_4
100
AcDbLine
 10
1.440515332593627
 20
-0.7807637799999998
 30
0.0
 11
1.426595907321699
 21
-0.7807637799999998
 31
0.0
  0
ELLIPSE
  5
1EF
330
122
100
AcDbEntity
  8
AM_4
100
AcDbEllipse
 10
1.440515332593628
 20
-0.8910000000000003
 30
0.0
 11
-2.025006509596545E-17
 21
-0.1102362199999997
 31
0.0
210
0.0
220
0.0
230
1.0
 40
0.7071067811865467
 41
2.529558494787399
 42
6.893996312427564
  0
ELLIPSE
  5
1F0
330
122
100
AcDbEntity
  8
AM_4
100
AcDbEllipse
 10
1.426595907321699
 20
-0.891
 30
0.0
 11
-2.025006509596555E-17
 21
-0.1102362200000002
 31
0.0
210
0.0
220
0.0
230
1.0
 40
0.7071067811865451
 41
3.141592653589793
 42
6.283185307179586
  0
LWPOLYLINE
  5
1F1
330
122
100
AcDbEntity
  8
AM_4
100
AcDbPolyline
 90
        3
 70
     0
 43
0.0
 10
1.421980016071494
 20
-0.7091573897118632
 10
1.397653105932061
 20
-0.731785514330242
 10
1.370918206233985
 20
-0.7546180422838972
  0
LINE
  5
1F2
330
122
100
AcDbEntity
  8
AM_4
100
AcDbLine
 10
1.421980016071494
 20
-0.7091573897118632
 30
0.0
 11
1.347695246940333
 21
-0.7091573897118632
 31
0.0
  0
LWPOLYLINE
  5
1F3
330
122
100
AcDbEntity
  8
AM_4
100
AcDbPolyline
 90
        3
 70
     0
 43
0.0
 10
1.287401654602415
 20
-0.7546180422838972
 10
1.316458863454279
 20
-0.73188771599788
 10
1.347695246940333
 20
-0.7091573897118632
  0
LWPOLYLINE
  5
1F4
330
122
100
AcDbEntity
  8
AM_4
100
AcDbPolyline
 90
        3
 70
     0
 43
0.0
 10
1.236339844764906
 20
-0.8000786948559314
 10
1.260666754904339
 20
-0.7774505702375526
 10
1.287401654602415
 20
-0.7546180422838972
  0
LINE
  5
1F5
330
122
100
AcDbEntity
  8
AM_4
100
AcDbLine
 10
1.421980016071494
 20
-1.072842610288137
 30
0.0
 11
1.347695246940333
 21
-1.072842610288137
 31
0.0
  0
LWPOLYLINE
  5
1F6
330
122
100
AcDbEntity
  8
AM_4
100
AcDbPolyline
 90
        3
 70
     0
 43
0.0
 10
1.370918206233985
 20
-1.027381957716103
 10
1.397538698469835
 20
-1.05011228400212
 10
1.421980016071494
 20
-1.072842610288137
  0
LWPOLYLINE
  5
1F7
330
122
100
AcDbEntity
  8
AM_4
100
AcDbPolyline
 90
        3
 70
     0
 43
0.0
 10
1.287401654602415
 20
-1.027381957716103
 10
1.260781162366565
 20
-1.004651631430085
 10
1.236339844764906
 20
-0.9819213051440683
  0
LWPOLYLINE
  5
1F8
330
122
100
AcDbEntity
  8
AM_4
100
AcDbPolyline
 90
        3
 70
     0
 43
0.0
 10
1.347695246940333
 20
-1.072842610288137
 10
1.316594797928628
 20
-1.050214485669758
 10
1.287401654602415
 20
-1.027381957716103
  0
LWPOLYLINE
  5
1F9
330
122
100
AcDbEntity
  8
AM_4
100
AcDbPolyline
 90
        3
 70
     0
 43
0.0
 10
1.310624613896066
 20
-0.9819213051440683
 10
1.341725062907772
 20
-1.004549429762447
 10
1.370918206233985
 20
-1.027381957716103
  0
ELLIPSE
  5
1FA
330
122
100
AcDbEntity
  8
AM_4
100
AcDbEllipse
 10
1.426595907321698
 20
-0.8909999999999992
 30
0.0
 11
-2.892866547250493E-17
 21
-0.1574803199999989
 31
0.0
210
0.0
220
0.0
230
1.0
 40
0.7071067811865483
 41
2.291044843047412
 42
7.133485579035234
  0
LWPOLYLINE
  5
1FB
330
122
100
AcDbEntity
  8
AM_4
100
AcDbPolyline
 90
        3
 70
     0
 43
0.0
 10
1.370918206233985
 20
-0.7546180422838972
 10
1.341860997382121
 20
-0.7773483685699144
 10
1.310624613896066
 20
-0.8000786948559314
  0
LINE
  5
1FC
330
122
100
AcDbEntity
  8
AM_4
100
AcDbLine
 10
1.310624613896066
 20
-0.9819213051440683
 30
0.0
 11
1.236339844764906
 21
-0.9819213051440683
 31
0.0
  0
LWPOLYLINE
  5
1FD
330
122
100
AcDbEntity
  8
AM_4
100
AcDbPolyline
 90
        3
 70
     0
 43
0.0
 10
1.315240505146271
 20
-0.8909999999999999
 10
1.314022146838264
 20
-0.9364606525720341
 10
1.310624613896066
 20
-0.9819213051440683
  0
LWPOLYLINE
  5
1FE
330
122
100
AcDbEntity
  8
AM_4
100
AcDbPolyline
 90
        3
 70
     0
 43
0.0
 10
1.310624613896066
 20
-0.8000786948559314
 10
1.314011383332202
 20
-0.8453349440926894
 10
1.315240505146271
 20
-0.8909999999999999
  0
LINE
  5
1FF
330
122
100
AcDbEntity
  8
AM_4
100
AcDbLine
 10
1.310624613896066
 20
-0.8000786948559314
 30
0.0
 11
1.236339844764906
 21
-0.8000786948559314
 31
0.0
  0
LWPOLYLINE
  5
200
330
122
100
AcDbEntity
  8
AM_4
100
AcDbPolyline
 90
        3
 70
     0
 43
0.0
 10
1.231723953514701
 20
-0.8909999999999999
 10
1.232942311822708
 20
-0.8455393474279655
 10
1.236339844764906
 20
-0.8000786948559314
  0
LWPOLYLINE
  5
201
330
122
100
AcDbEntity
  8
AM_4
100
AcDbPolyline
 90
        3
 70
     0
 43
0.0
 10
1.236339844764906
 20
-0.9819213051440683
 10
1.23295307532877
 20
-0.9366650559073103
 10
1.231723953514701
 20
-0.8909999999999999
  0
ELLIPSE
  5
202
330
122
100
AcDbEntity
  8
AM_4
100
AcDbEllipse
 10
1.518348936167703
 20
-0.8909999999999941
 30
0.0
 11
-1.842731267309155E-17
 21
-0.1003136179668095
 31
0.0
210
0.0
220
0.0
230
1.0
 40
0.7071067811876063
 41
4.240738311380493
 42
4.803778141275489
  0
LINE
  5
203
330
122
100
AcDbEntity
  8
AM_4
100
AcDbLine
 10
1.561488816283954
 20
-0.9881279727838125
 30
0.0
 11
1.594630762463745
 21
-0.9677030067953478
 31
0.0
  0
LWPOLYLINE
  5
204
330
122
100
AcDbEntity
  8
AM_4
100
AcDbPolyline
 90
       19
 70
     0
 43
0.0
 10
1.447414366459426
 20
-0.8909999999999999
 10
1.447576415890475
 20
-0.8977840925304789
 10
1.448710790084815
 20
-0.910117099334733
 10
1.450922732849797
 20
-0.9222185625310181
 10
1.454196488732151
 20
-0.9339288834444529
 10
1.458508241629368
 20
-0.9450944783831523
 10
1.463824409703572
 20
-0.9555614696304295
 10
1.470095451467208
 20
-0.9651707292261424
 10
1.477249262170629
 20
-0.9737614044416127
 10
1.485185648094981
 20
-0.981179346235687
 10
1.493771776173409
 20
-0.9872877229193086
 10
1.502847526640661
 20
-0.9919830855490972
 10
1.512240775224929
 20
-0.9952067828737506
 10
1.521785720205591
 20
-0.9969443830362967
 10
1.531335530758474
 20
-0.9972140206774461
 10
1.540765940369663
 20
-0.9960509159022933
 10
1.549955347157706
 20
-0.9935005953916318
 10
1.55881105625287
 20
-0.9896083958239972
 10
1.561488816283954
 20
-0.9881279727838125
  0
LWPOLYLINE
  5
205
330
122
100
AcDbEntity
  8
AM_4
100
AcDbPolyline
 90
       15
 70
     0
 43
0.0
 10
1.554525764123315
 20
-0.7903224722195417
 10
1.551532743562027
 20
-0.7890853127171007
 10
1.542087341319667
 20
-0.7862277146509741
 10
1.532528447464875
 20
-0.7848541764036474
 10
1.522997337539324
 20
-0.7849409428212565
 10
1.513614343923697
 20
-0.7864504236829405
 10
1.504499284560001
 20
-0.7893352593844255
 10
1.495738643300743
 20
-0.7935517154293967
 10
1.487417300603523
 20
-0.7990592192144899
 10
1.479627170511641
 20
-0.805810893209222
 10
1.472469568915895
 20
-0.8137406619857053
 10
1.466049961554109
 20
-0.8227535457918045
 10
1.460467878290853
 20
-0.83272453663939
 10
1.455807665926652
 20
-0.8435058468060187
 10
1.455231542352297
 20
-0.8450741693534882
  0
LWPOLYLINE
  5
206
330
122
100
AcDbEntity
  8
AM_4
100
AcDbPolyline
 90
        3
 70
     0
 43
0.0
 10
1.564898787299491
 20
-0.7959793418887895
 10
1.560702694285844
 20
-0.7934219266152887
 10
1.554525764123315
 20
-0.7903224722195417
  0
ELLIPSE
  5
207
330
122
100
AcDbEntity
  8
AM_4
100
AcDbEllipse
 10
1.533504729559591
 20
-0.891
 30
0.0
 11
-1.926569708652815E-17
 21
-0.1048775701420833
 31
0.0
210
0.0
220
0.0
230
1.0
 40
0.7071067811865467
 41
2.730075862949649
 42
6.694702097819734
  0
LINE
  5
208
330
122
100
AcDbEntity
  8
AM_4
100
AcDbLine
 10
1.594630762463745
 20
-0.814296993204652
 30
0.0
 11
1.563168582209016
 21
-0.7948781168989383
 31
0.0
  0
ELLIPSE
  5
209
330
122
100
AcDbEntity
  8
AM_4
100
AcDbEllipse
 10
1.570959704241209
 20
-0.8909999999999998
 30
0.0
 11
-1.537357412142462E-17
 21
-0.08368983956369191
 31
0.0
210
0.0
220
0.0
230
1.0
 40
0.7071067811865508
 41
2.730075862949652
 42
6.691110193877382
  0
ELLIPSE
  5
20A
330
122
100
AcDbEntity
  8
AM_4
100
AcDbEllipse
 10
1.579709585312912
 20
-0.8909999999999999
 30
0.0
 11
4.005375037968881E-18
 21
0.06541273844438378
 31
0.0
210
0.0
220
0.0
230
1.0
 40
0.7071067811865486
 41
0.0
 42
6.283185307179586
  0
LWPOLYLINE
  5
20B
330
122
100
AcDbEntity
  8
AM_4
100
AcDbPolyline
 90
       19
 70
     0
 43
0.0
 10
1.594419085616756
 20
-0.9678330571777765
 10
1.596892881049759
 20
-0.9662368304805604
 10
1.604086766327016
 20
-0.9605504781208785
 10
1.610669704923788
 20
-0.9536808402404997
 10
1.616529893248397
 20
-0.9457144722087094
 10
1.621554021282802
 20
-0.9367778995308886
 10
1.625642635433576
 20
-0.9270332700543242
 10
1.628720416717459
 20
-0.9166632076680596
 10
1.630736797131641
 20
-0.9058606443873899
 10
1.631664364402722
 20
-0.8948070498089088
 10
1.631489708182204
 20
-0.883679680465025
 10
1.63021016523115
 20
-0.8726534005617397
 10
1.627832904350532
 20
-0.8619035072513646
 10
1.624373517042458
 20
-0.8516011307039216
 10
1.619857308857169
 20
-0.8419193073044768
 10
1.614326637374678
 20
-0.8330397795351141
 10
1.607855370311167
 20
-0.8251553419527821
 10
1.600558130960977
 20
-0.8184531888357018
 10
1.595807183922806
 20
-0.8150418345566178
  0
ELLIPSE
  5
20C
330
122
100
AcDbEntity
  8
AM_4
100
AcDbEllipse
 10
1.570959704240784
 20
-0.8910000000013568
 30
0.0
 11
-1.537357412169728E-17
 21
-0.08368983956517617
 31
0.0
210
0.0
220
0.0
230
1.0
 40
0.7071067811865464
 41
-3.571670518089905
 42
-3.553109444230032
  0
LINE
  5
20D
330
122
100
AcDbEntity
  8
AM_4
100
AcDbLine
 10
1.921999999999999
 20
0.0
 30
0.0
 11
-1.921999999999999
 21
0.0
 31
0.0
  0
LINE
  5
20E
330
122
100
AcDbEntity
  8
AM_4
100
AcDbLine
 10
1.602327208127822
 20
-0.8200779986410458
 30
0.0
 11
1.602327208127822
 21
0.0000000000000001
 31
0.0
  0
LINE
  5
20F
330
122
100
AcDbEntity
  8
AM_4
100
AcDbLine
 10
1.602327208127822
 20
-1.310000000000001
 30
0.0
 11
1.602327208127822
 21
-0.9619413076284901
 31
0.0
  0
LINE
  5
210
330
122
100
AcDbEntity
  8
AM_4
100
AcDbLine
 10
1.06142899814039
 20
-1.31
 30
0.0
 11
1.061428998140382
 21
0.0000000000000001
 31
0.0
  0
LINE
  5
211
330
122
100
AcDbEntity
  8
AM_4
100
AcDbLine
 10
-1.921999999999999
 20
0.0
 30
0.0
 11
-1.921999999999999
 21
-1.31
 31
0.0
  0
LINE
  5
212
330
122
100
AcDbEntity
  8
AM_4
100
AcDbLine
 10
1.921999999999999
 20
-1.31
 30
0.0
 11
1.921999999999999
 21
0.0
 31
0.0
  0
LWPOLYLINE
  5
213
330
122
100
AcDbEntity
  8
AM_4
100
AcDbPolyline
 90
       23
 70
     0
 43
0.0
 10
1.06142899814039
 20
-1.31
 10
1.06188063751335
 20
-1.313561449658077
 10
1.063523734517168
 20
-1.317641124328182
 10
1.067841788839563
 20
-1.32323751220943
 10
1.075681449001994
 20
-1.329381574443869
 10
1.084260194265514
 20
-1.334049939064292
 10
1.102730060116152
 20
-1.340994783130988
 10
1.121695858990813
 20
-1.34583448344421
 10
1.160450508511387
 20
-1.352020181874783
 10
1.198533871602257
 20
-1.355387085559638
 10
1.236704974060737
 20
-1.357246753989529
 10
1.313184865537235
 20
-1.358600835179832
 10
1.38983659386728
 20
-1.358186860123384
 10
1.466494244518009
 20
-1.355303444153597
 10
1.511857843266029
 20
-1.350956866644951
 10
1.542490056022069
 20
-1.345741969079866
 10
1.563230289330456
 20
-1.340310522922076
 10
1.577290013673143
 20
-1.335057058091733
 10
1.586811791766666
 20
-1.330163304331621
 10
1.596013050374754
 20
-1.323138296632324
 10
1.599284704097366
 20
-1.319188883164202
 10
1.601725604267009
 20
-1.314109005548451
 10
1.602327208127822
 20
-1.310000000000001
  0
LINE
  5
214
330
122
100
AcDbEntity
  8
AM_4
100
AcDbLine
 10
1.06142899814039
 20
-1.31
 30
0.0
 11
-1.921999999999999
 21
-1.31
 31
0.0
  0
LINE
  5
215
330
122
100
AcDbEntity
  8
AM_4
100
AcDbLine
 10
1.871999999999999
 20
-1.36
 30
0.0
 11
-1.871999999999492
 21
-1.36
 31
0.0
  0
ARC
  5
216
330
122
100
AcDbEntity
  8
AM_4
100
AcDbCircle
 10
-1.872
 20
-1.310000000000001
 30
0.0
 40
0.0499999999999989
100
AcDbArc
 50
180.0
 51
270.0
  0
ARC
  5
217
330
122
100
AcDbEntity
  8
AM_4
100
AcDbCircle
 10
1.872
 20
-1.310000000000001
 30
0.0
 40
0.0499999999999989
100
AcDbArc
 50
270.0
 51
0.0
  0
LINE
  5
218
330
122
100
AcDbEntity
  8
AM_4
100
AcDbLine
 10
1.921999999999999
 20
-1.31
 30
0.0
 11
1.602327208127822
 21
-1.310000000000001
 31
0.0
  0
LINE
  5
219
330
122
100
AcDbEntity
  8
AM_4
100
AcDbLine
 10
0.7156191084310163
 20
-0.4219999999999999
 30
0.0
 11
0.7156191084310163
 21
0.0000000000000001
 31
0.0
  0
LINE
  5
21A
330
122
100
AcDbEntity
  8
AM_4
100
AcDbLine
 10
0.7156191084310163
 20
-0.4219999999999999
 30
0.0
 11
-0.7156191084310158
 21
-0.4219999999999999
 31
0.0
  0
LINE
  5
21B
330
122
100
AcDbEntity
  8
AM_4
100
AcDbLine
 10
-0.7156191084310158
 20
-0.4219999999999999
 30
0.0
 11
-0.7156191084310157
 21
0.0000000000000001
 31
0.0
  0
LINE
  5
21C
330
122
100
AcDbEntity
  8
AM_4
100
AcDbLine
 10
0.5315000000000004
 20
-0.4219999999999997
 30
0.0
 11
0.5315000000000004
 21
0.0000000000000002
 31
0.0
  0
LINE
  5
21D
330
122
100
AcDbEntity
  8
AM_4
100
AcDbLine
 10
-0.5315000000000004
 20
-0.4219999999999997
 30
0.0
 11
-0.5315000000000004
 21
0.0000000000000002
 31
0.0
  0
ENDBLK
  5
125
330
122
100
AcDbEntity
  8
0
100
AcDbBlockEnd
  0
ENDSEC
  0
SECTION
  2
ENTITIES
  0
INSERT
  5
6F
330
1F
100
AcDbEntity
  8
0
100
AcDbBlockReference
  2
1__129365_4
 10
0.0
 20
0.0
 30
0.0
  0
POINT
  5
21F
330
1F
100
AcDbEntity
  8
ConnectionPoints
100
AcDbPoint
 10
0.0000000000000001
 20
-0.7962499999999999
 30
0.0
  0
POINT
  5
220
330
1F
100
AcDbEntity
  8
ConnectionPoints
100
AcDbPoint
 10
0.0000000000000001
 20
-0.1399999999999999
 30
0.0
  0
POINT
  5
221
330
1F
100
AcDbEntity
  8
ConnectionPoints
100
AcDbPoint
 10
0.0
 20
-0.1399999999999999
 30
0.0
  0
ENDSEC
  0
SECTION
  2
OBJECTS
  0
DICTIONARY
  5
C
330
0
100
AcDbDictionary
281
     1
  3
ACAD_DETAILVIEWSTYLE
350
229
  3
ACAD_GROUP
350
D
  3
ACAD_LAYOUT
350
1A
  3
ACAD_MATERIAL
350
43
  3
ACAD_MLEADERSTYLE
350
6B
  3
ACAD_MLINESTYLE
350
17
  3
ACAD_PLOTSETTINGS
350
19
  3
ACAD_PLOTSTYLENAME
350
E
  3
ACAD_SCALELIST
350
47
  3
ACAD_SECTIONVIEWSTYLE
350
22A
  3
ACAD_TABLESTYLE
350
69
  3
ACAD_VISUALSTYLE
350
2A
  3
ACDB_RECOMPOSE_DATA
350
226
  3
AcDbVariableDictionary
350
222
  0
SUN
  5
6D
330
29
100
AcDbSun
 90
        1
290
     0
 63
     7
421
 16777215
 40
1.0
291
     1
 91
  2455826
 92
 54000000
292
     0
 70
     2
 71
   256
280
     1
  0
DICTIONARY
  5
229
102
{ACAD_REACTORS
330
C
102
}
330
C
100
AcDbDictionary
281
     1
  0
DICTIONARY
  5
D
102
{ACAD_REACTORS
330
C
102
}
330
C
100
AcDbDictionary
281
     1
  0
DICTIONARY
  5
1A
102
{ACAD_REACTORS
330
C
102
}
330
C
100
AcDbDictionary
281
     1
  3
Layout1
350
1E
  3
Layout2
350
26
  3
Model
350
22
  0
DICTIONARY
  5
43
102
{ACAD_REACTORS
330
C
102
}
330
C
100
AcDbDictionary
281
     1
  3
ByBlock
350
45
  3
ByLayer
350
44
  3
Global
350
46
  0
DICTIONARY
  5
6B
102
{ACAD_REACTORS
330
C
102
}
330
C
100
AcDbDictionary
281
     1
  3
Standard
350
6C
  0
DICTIONARY
  5
17
102
{ACAD_REACTORS
330
C
102
}
330
C
100
AcDbDictionary
281
     1
  3
Standard
350
18
  0
DICTIONARY
  5
19
102
{ACAD_REACTORS
330
C
102
}
330
C
100
AcDbDictionary
281
     1
  0
ACDBDICTIONARYWDFLT
  5
E
102
{ACAD_REACTORS
330
C
102
}
330
C
100
AcDbDictionary
281
     1
  3
Normal
350
F
100
AcDbDictionaryWithDefault
340
F
  0
DICTIONARY
  5
47
102
{ACAD_REACTORS
330
C
102
}
330
C
100
AcDbDictionary
281
     1
  3
A0
350
48
  3
A1
350
49
  3
A2
350
4A
  3
A3
350
4B
  3
A4
350
4C
  3
A5
350
4D
  3
A6
350
4E
  3
A7
350
4F
  3
A8
350
50
  3
A9
350
51
  3
B0
350
52
  3
B1
350
53
  3
B2
350
54
  3
B3
350
55
  3
B4
350
56
  3
B5
350
57
  3
B6
350
58
  3
B7
350
59
  3
B8
350
5A
  3
B9
350
5B
  3
C0
350
5C
  3
C1
350
5D
  3
C2
350
5E
  3
C3
350
5F
  3
C4
350
60
  3
C5
350
61
  3
C6
350
62
  3
C7
350
63
  3
C8
350
64
  3
C9
350
65
  3
D0
350
66
  3
D1
350
67
  3
D2
350
68
  0
DICTIONARY
  5
22A
102
{ACAD_REACTORS
330
C
102
}
330
C
100
AcDbDictionary
281
     1
  0
DICTIONARY
  5
69
102
{ACAD_REACTORS
330
C
102
}
330
C
100
AcDbDictionary
281
     1
  3
Standard
350
6A
  0
DICTIONARY
  5
2A
102
{ACAD_REACTORS
330
C
102
}
330
C
100
AcDbDictionary
281
     1
  3
2dWireframe
350
2F
  3
Basic
350
32
  3
Brighten
350
36
  3
ColorChange
350
3A
  3
Conceptual
350
34
  3
Dim
350
35
  3
EdgeColorOff
350
3D
  3
Facepattern
350
39
  3
Flat
350
2B
  3
FlatWithEdges
350
2C
  3
Gouraud
350
2D
  3
GouraudWithEdges
350
2E
  3
Hidden
350
31
  3
JitterOff
350
3B
  3
Linepattern
350
38
  3
OverhangOff
350
3C
  3
Realistic
350
33
  3
Shaded
350
42
  3
Shaded with edges
350
41
  3
Shades of Gray
350
3E
  3
Sketchy
350
3F
  3
Thicken
350
37
  3
Wireframe
350
30
  3
X-Ray
350
40
  0
XRECORD
  5
226
102
{ACAD_REACTORS
330
C
102
}
330
C
100
AcDbXrecord
280
     1
 90
        1
330
6A
  0
DICTIONARY
  5
222
102
{ACAD_REACTORS
330
C
102
}
330
C
100
AcDbDictionary
281
     1
  3
CANNOSCALE
350
223
  3
CMLEADERSTYLE
350
228
  3
CTABLESTYLE
350
227
  0
LAYOUT
  5
1E
102
{ACAD_REACTORS
330
1A
102
}
330
1A
100
AcDbPlotSettings
  1

  2
none_device
  4

  6

 40
0.0
 41
0.0
 42
0.0
 43
0.0
 44
0.0
 45
0.0
 46
0.0
 47
0.0
 48
0.0
 49
0.0
140
0.0
141
0.0
142
1.0
143
1.0
 70
   688
 72
     0
 73
     0
 74
     5
  7

 75
    16
 76
     0
 77
     2
 78
   300
147
1.0
148
0.0
149
0.0
100
AcDbLayout
  1
Layout1
 70
     1
 71
     1
 10
0.0
 20
0.0
 11
12.0
 21
9.0
 12
0.0
 22
0.0
 32
0.0
 14
1.000000000000000E+20
 24
1.000000000000000E+20
 34
1.000000000000000E+20
 15
-1.000000000000000E+20
 25
-1.000000000000000E+20
 35
-1.000000000000000E+20
146
0.0
 13
0.0
 23
0.0
 33
0.0
 16
1.0
 26
0.0
 36
0.0
 17
0.0
 27
1.0
 37
0.0
 76
     0
330
1B
  0
LAYOUT
  5
26
102
{ACAD_REACTORS
330
1A
102
}
330
1A
100
AcDbPlotSettings
  1

  2
none_device
  4

  6

 40
0.0
 41
0.0
 42
0.0
 43
0.0
 44
0.0
 45
0.0
 46
0.0
 47
0.0
 48
0.0
 49
0.0
140
0.0
141
0.0
142
1.0
143
1.0
 70
   688
 72
     0
 73
     0
 74
     5
  7

 75
    16
 76
     0
 77
     2
 78
   300
147
1.0
148
0.0
149
0.0
100
AcDbLayout
  1
Layout2
 70
     1
 71
     2
 10
0.0
 20
0.0
 11
0.0
 21
0.0
 12
0.0
 22
0.0
 32
0.0
 14
0.0
 24
0.0
 34
0.0
 15
0.0
 25
0.0
 35
0.0
146
0.0
 13
0.0
 23
0.0
 33
0.0
 16
1.0
 26
0.0
 36
0.0
 17
0.0
 27
1.0
 37
0.0
 76
     0
330
23
  0
LAYOUT
  5
22
102
{ACAD_REACTORS
330
1A
102
}
330
1A
100
AcDbPlotSettings
  1

  2
none_device
  4
Letter_(8.50_x_11.00_Inches)
  6

 40
6.35
 41
6.35
 42
6.35000508
 43
6.35000508
 44
215.9
 45
279.4
 46
0.0
 47
0.0
 48
0.0
 49
0.0
140
0.0
141
0.0
142
1.0
143
1.0
 70
  1712
 72
     0
 73
     0
 74
     0
  7

 75
     0
 76
     0
 77
     2
 78
   300
147
1.0
148
0.0
149
0.0
100
AcDbLayout
  1
Model
 70
     1
 71
     0
 10
0.0
 20
0.0
 11
12.0
 21
9.0
 12
0.0
 22
0.0
 32
0.0
 14
1.000000000000000E+20
 24
1.000000000000000E+20
 34
1.000000000000000E+20
 15
-1.000000000000000E+20
 25
-1.000000000000000E+20
 35
-1.000000000000000E+20
146
0.0
 13
0.0
 23
0.0
 33
0.0
 16
1.0
 26
0.0
 36
0.0
 17
0.0
 27
1.0
 37
0.0
 76
     0
330
1F
331
29
  0
MATERIAL
  5
45
102
{ACAD_REACTORS
330
43
102
}
330
43
100
AcDbMaterial
  1
ByBlock
 72
     1
 94
      127
  0
MATERIAL
  5
44
102
{ACAD_REACTORS
330
43
102
}
330
43
100
AcDbMaterial
  1
ByLayer
 72
     1
 94
      127
  0
MATERIAL
  5
46
102
{ACAD_REACTORS
330
43
102
}
330
43
100
AcDbMaterial
  1
Global
 72
     1
 94
      127
  0
MLEADERSTYLE
  5
6C
102
{ACAD_REACTORS
330
6B
102
}
330
6B
100
AcDbMLeaderStyle
179
     2
170
     2
171
     1
172
     0
 90
        2
 40
0.0
 41
0.0
173
     1
 91
-1056964608
340
14
 92
       -2
290
     1
 42
0.09
291
     1
 43
0.36
  3
Standard
341
0
 44
0.18
300

342
11
174
     1
178
     6
175
     1
176
     0
 93
-1056964608
 45
0.18
292
     0
297
     0
 46
0.18
343
0
 94
-1056964608
 47
1.0
 49
1.0
140
1.0
293
     1
141
0.0
294
     1
177
     0
142
1.0
295
     0
296
     0
143
0.125
271
     0
272
     9
273
     9
298
     0
  0
MLINESTYLE
  5
18
102
{ACAD_REACTORS
330
17
102
}
330
17
100
AcDbMlineStyle
  2
Standard
 70
     0
  3

 62
   256
 51
90.0
 52
90.0
 71
     2
 49
0.5
 62
   256
  6
BYLAYER
 49
-0.5
 62
   256
  6
BYLAYER
  0
ACDBPLACEHOLDER
  5
F
102
{ACAD_REACTORS
330
E
102
}
330
E
  0
SCALE
  5
48
102
{ACAD_REACTORS
330
47
102
}
330
47
100
AcDbScale
 70
     0
300
1:1
140
1.0
141
1.0
290
     1
  0
SCALE
  5
49
102
{ACAD_REACTORS
330
47
102
}
330
47
100
AcDbScale
 70
     0
300
1:2
140
1.0
141
2.0
290
     0
  0
SCALE
  5
4A
102
{ACAD_REACTORS
330
47
102
}
330
47
100
AcDbScale
 70
     0
300
1:4
140
1.0
141
4.0
290
     0
  0
SCALE
  5
4B
102
{ACAD_REACTORS
330
47
102
}
330
47
100
AcDbScale
 70
     0
300
1:5
140
1.0
141
5.0
290
     0
  0
SCALE
  5
4C
102
{ACAD_REACTORS
330
47
102
}
330
47
100
AcDbScale
 70
     0
300
1:8
140
1.0
141
8.0
290
     0
  0
SCALE
  5
4D
102
{ACAD_REACTORS
330
47
102
}
330
47
100
AcDbScale
 70
     0
300
1:10
140
1.0
141
10.0
290
     0
  0
SCALE
  5
4E
102
{ACAD_REACTORS
330
47
102
}
330
47
100
AcDbScale
 70
     0
300
1:16
140
1.0
141
16.0
290
     0
  0
SCALE
  5
4F
102
{ACAD_REACTORS
330
47
102
}
330
47
100
AcDbScale
 70
     0
300
1:20
140
1.0
141
20.0
290
     0
  0
SCALE
  5
50
102
{ACAD_REACTORS
330
47
102
}
330
47
100
AcDbScale
 70
     0
300
1:30
140
1.0
141
30.0
290
     0
  0
SCALE
  5
51
102
{ACAD_REACTORS
330
47
102
}
330
47
100
AcDbScale
 70
     0
300
1:40
140
1.0
141
40.0
290
     0
  0
SCALE
  5
52
102
{ACAD_REACTORS
330
47
102
}
330
47
100
AcDbScale
 70
     0
300
1:50
140
1.0
141
50.0
290
     0
  0
SCALE
  5
53
102
{ACAD_REACTORS
330
47
102
}
330
47
100
AcDbScale
 70
     0
300
1:100
140
1.0
141
100.0
290
     0
  0
SCALE
  5
54
102
{ACAD_REACTORS
330
47
102
}
330
47
100
AcDbScale
 70
     0
300
2:1
140
2.0
141
1.0
290
     0
  0
SCALE
  5
55
102
{ACAD_REACTORS
330
47
102
}
330
47
100
AcDbScale
 70
     0
300
4:1
140
4.0
141
1.0
290
     0
  0
SCALE
  5
56
102
{ACAD_REACTORS
330
47
102
}
330
47
100
AcDbScale
 70
     0
300
8:1
140
8.0
141
1.0
290
     0
  0
SCALE
  5
57
102
{ACAD_REACTORS
330
47
102
}
330
47
100
AcDbScale
 70
     0
300
10:1
140
10.0
141
1.0
290
     0
  0
SCALE
  5
58
102
{ACAD_REACTORS
330
47
102
}
330
47
100
AcDbScale
 70
     0
300
100:1
140
100.0
141
1.0
290
     0
  0
SCALE
  5
59
102
{ACAD_REACTORS
330
47
102
}
330
47
100
AcDbScale
 70
     0
300
1/128" = 1'-0"
140
0.0078125
141
12.0
290
     0
  0
SCALE
  5
5A
102
{ACAD_REACTORS
330
47
102
}
330
47
100
AcDbScale
 70
     0
300
1/64" = 1'-0"
140
0.015625
141
12.0
290
     0
  0
SCALE
  5
5B
102
{ACAD_REACTORS
330
47
102
}
330
47
100
AcDbScale
 70
     0
300
1/32" = 1'-0"
140
0.03125
141
12.0
290
     0
  0
SCALE
  5
5C
102
{ACAD_REACTORS
330
47
102
}
330
47
100
AcDbScale
 70
     0
300
1/16" = 1'-0"
140
0.0625
141
12.0
290
     0
  0
SCALE
  5
5D
102
{ACAD_REACTORS
330
47
102
}
330
47
100
AcDbScale
 70
     0
300
3/32" = 1'-0"
140
0.09375
141
12.0
290
     0
  0
SCALE
  5
5E
102
{ACAD_REACTORS
330
47
102
}
330
47
100
AcDbScale
 70
     0
300
1/8" = 1'-0"
140
0.125
141
12.0
290
     0
  0
SCALE
  5
5F
102
{ACAD_REACTORS
330
47
102
}
330
47
100
AcDbScale
 70
     0
300
3/16" = 1'-0"
140
0.1875
141
12.0
290
     0
  0
SCALE
  5
60
102
{ACAD_REACTORS
330
47
102
}
330
47
100
AcDbScale
 70
     0
300
1/4" = 1'-0"
140
0.25
141
12.0
290
     0
  0
SCALE
  5
61
102
{ACAD_REACTORS
330
47
102
}
330
47
100
AcDbScale
 70
     0
300
3/8" = 1'-0"
140
0.375
141
12.0
290
     0
  0
SCALE
  5
62
102
{ACAD_REACTORS
330
47
102
}
330
47
100
AcDbScale
 70
     0
300
1/2" = 1'-0"
140
0.5
141
12.0
290
     0
  0
SCALE
  5
63
102
{ACAD_REACTORS
330
47
102
}
330
47
100
AcDbScale
 70
     0
300
3/4" = 1'-0"
140
0.75
141
12.0
290
     0
  0
SCALE
  5
64
102
{ACAD_REACTORS
330
47
102
}
330
47
100
AcDbScale
 70
     0
300
1" = 1'-0"
140
1.0
141
12.0
290
     0
  0
SCALE
  5
65
102
{ACAD_REACTORS
330
47
102
}
330
47
100
AcDbScale
 70
     0
300
1-1/2" = 1'-0"
140
1.5
141
12.0
290
     0
  0
SCALE
  5
66
102
{ACAD_REACTORS
330
47
102
}
330
47
100
AcDbScale
 70
     0
300
3" = 1'-0"
140
3.0
141
12.0
290
     0
  0
SCALE
  5
67
102
{ACAD_REACTORS
330
47
102
}
330
47
100
AcDbScale
 70
     0
300
6" = 1'-0"
140
6.0
141
12.0
290
     0
  0
SCALE
  5
68
102
{ACAD_REACTORS
330
47
102
}
330
47
100
AcDbScale
 70
     0
300
1'-0" = 1'-0"
140
12.0
141
12.0
290
     0
  0
TABLESTYLE
  5
6A
102
{ACAD_REACTORS
330
69
102
}
102
{ACAD_XDICTIONARY
360
224
102
}
330
69
100
AcDbTableStyle
  3
Standard
 70
     0
 71
     0
 40
0.06
 41
0.06
280
     0
281
     0
  7
Standard
140
0.18
170
     2
 62
     0
 63
   257
283
     0
 90
        4
 91
        0
  1

274
    -2
284
     1
 64
     0
275
    -2
285
     1
 65
     0
276
    -2
286
     1
 66
     0
277
    -2
287
     1
 67
     0
278
    -2
288
     1
 68
     0
279
    -2
289
     1
 69
     0
  7
Standard
140
0.25
170
     5
 62
     0
 63
   257
283
     0
 90
        4
 91
        0
  1

274
    -2
284
     1
 64
     0
275
    -2
285
     1
 65
     0
276
    -2
286
     1
 66
     0
277
    -2
287
     1
 67
     0
278
    -2
288
     1
 68
     0
279
    -2
289
     1
 69
     0
  7
Standard
140
0.18
170
     5
 62
     0
 63
   257
283
     0
 90
        4
 91
        0
  1

274
    -2
284
     1
 64
     0
275
    -2
285
     1
 65
     0
276
    -2
286
     1
 66
     0
277
    -2
287
     1
 67
     0
278
    -2
288
     1
 68
     0
279
    -2
289
     1
 69
     0
  0
VISUALSTYLE
  5
2F
102
{ACAD_REACTORS
330
2A
102
}
330
2A
100
AcDbVisualStyle
  2
2dWireframe
 70
     4
177
     3
291
     0
 70
    58
 90
        0
176
     1
 90
        2
176
     1
 90
        0
176
     1
 90
        0
176
     1
 40
0.6
176
     1
 40
30.0
176
     1
 62
     7
420
 16777215
176
     1
 90
        1
176
     1
 90
        4
176
     1
 62
     7
176
     1
 62
   257
176
     1
 90
        1
176
     1
 90
        1
176
     1
 40
1.0
176
     1
 90
        0
176
     1
 62
   257
176
     1
 40
1.0
176
     1
 90
        1
176
     1
 90
        6
176
     1
 90
        2
176
     1
 62
     7
176
     1
 90
        5
176
     1
 90
        0
176
     1
 90
        0
176
     1
290
     0
176
     1
 90
        1
176
     1
 40
0.0
176
     1
 90
        0
176
     1
290
     1
176
     1
290
     1
176
     1
290
     0
176
     1
290
     0
176
     1
290
     0
176
     1
290
     0
176
     1
290
     0
176
     1
290
     0
176
     1
290
     0
176
     1
 90
       50
176
     1
 40
0.0
176
     1
 40
1.0
176
     1
 90
        0
176
     1
 62
    18
420
        0
176
     1
 90
       50
176
     1
 90
        3
176
     1
 62
     5
420
      255
176
     1
290
     0
176
     1
 90
       50
176
     1
 90
       50
176
     1
 90
       50
176
     1
290
     0
176
     1
 90
       50
176
     1
 62
   256
176
     0
 40
1.0
176
     0
 90
        2
176
     1
  1
strokes_ogs.tif
176
     1
290
     0
176
     1
 40
1.0
176
     1
 40
1.0
176
     1
  0
VISUALSTYLE
  5
32
102
{ACAD_REACTORS
330
2A
102
}
330
2A
100
AcDbVisualStyle
  2
Basic
 70
     7
177
     3
291
     1
 70
    58
 90
        1
176
     1
 90
        0
176
     1
 90
        1
176
     1
 90
        0
176
     1
 40
0.6
176
     1
 40
30.0
176
     1
 62
     7
420
 16777215
176
     1
 90
        0
176
     1
 90
        4
176
     1
 62
     7
176
     1
 62
   257
176
     1
 90
        1
176
     1
 90
        1
176
     1
 40
1.0
176
     1
 90
        8
176
     1
 62
     7
176
     1
 40
1.0
176
     1
 90
        1
176
     1
 90
        6
176
     1
 90
        2
176
     1
 62
     7
176
     1
 90
        5
176
     1
 90
        0
176
     1
 90
        0
176
     1
290
     0
176
     1
 90
        1
176
     1
 40
0.0
176
     1
 90
        0
176
     1
290
     0
176
     1
290
     1
176
     1
290
     1
176
     1
290
     0
176
     1
290
     0
176
     1
290
     0
176
     1
290
     0
176
     1
290
     0
176
     1
290
     0
176
     1
 90
       50
176
     1
 40
0.0
176
     1
 40
1.0
176
     1
 90
        0
176
     1
 62
    18
420
        0
176
     1
 90
       50
176
     1
 90
        3
176
     1
 62
     5
420
      255
176
     1
290
     0
176
     1
 90
       50
176
     1
 90
       50
176
     1
 90
       50
176
     1
290
     0
176
     1
 90
       50
176
     1
 62
   256
176
     0
 40
1.0
176
     0
 90
        2
176
     1
  1
strokes_ogs.tif
176
     1
290
     0
176
     1
 40
1.0
176
     1
 40
1.0
176
     1
  0
VISUALSTYLE
  5
36
102
{ACAD_REACTORS
330
2A
102
}
330
2A
100
AcDbVisualStyle
  2
Brighten
 70
    12
177
     3
291
     1
 70
    58
 90
        2
176
     1
 90
        2
176
     1
 90
        0
176
     1
 90
        0
176
     1
 40
0.6
176
     1
 40
30.0
176
     1
 62
     7
420
 16777215
176
     1
 90
        1
176
     1
 90
        4
176
     1
 62
     7
176
     1
 62
   257
176
     1
 90
        1
176
     1
 90
        1
176
     1
 40
1.0
176
     1
 90
        8
176
     1
 62
     7
176
     1
 40
1.0
176
     1
 90
        1
176
     1
 90
        6
176
     1
 90
        2
176
     1
 62
     7
176
     1
 90
        5
176
     1
 90
        0
176
     1
 90
        0
176
     1
290
     0
176
     1
 90
        1
176
     1
 40
50.0
176
     1
 90
        0
176
     1
290
     0
176
     1
290
     1
176
     1
290
     1
176
     1
290
     0
176
     1
290
     0
176
     1
290
     0
176
     1
290
     0
176
     1
290
     0
176
     1
290
     0
176
     1
 90
       50
176
     1
 40
0.0
176
     1
 40
1.0
176
     1
 90
        0
176
     1
 62
    18
420
        0
176
     1
 90
       50
176
     1
 90
        3
176
     1
 62
     5
420
      255
176
     1
290
     0
176
     1
 90
       50
176
     1
 90
       50
176
     1
 90
       50
176
     1
290
     0
176
     1
 90
       50
176
     1
 62
   256
176
     0
 40
1.0
176
     0
 90
        2
176
     1
  1
strokes_ogs.tif
176
     1
290
     0
176
     1
 40
1.0
176
     1
 40
1.0
176
     1
  0
VISUALSTYLE
  5
3A
102
{ACAD_REACTORS
330
2A
102
}
330
2A
100
AcDbVisualStyle
  2
ColorChange
 70
    16
177
     3
291
     1
 70
    58
 90
        2
176
     1
 90
        2
176
     1
 90
        3
176
     1
 90
        0
176
     1
 40
0.6
176
     1
 40
30.0
176
     1
 62
     8
420
  8421504
176
     1
 90
        1
176
     1
 90
        4
176
     1
 62
     7
176
     1
 62
   257
176
     1
 90
        1
176
     1
 90
        1
176
     1
 40
1.0
176
     1
 90
        8
176
     1
 62
     8
420
  8421504
176
     1
 40
1.0
176
     1
 90
        1
176
     1
 90
        6
176
     1
 90
        2
176
     1
 62
     7
176
     1
 90
        5
176
     1
 90
        0
176
     1
 90
        0
176
     1
290
     0
176
     1
 90
        1
176
     1
 40
0.0
176
     1
 90
        0
176
     1
290
     0
176
     1
290
     1
176
     1
290
     1
176
     1
290
     0
176
     1
290
     0
176
     1
290
     0
176
     1
290
     0
176
     1
290
     0
176
     1
290
     0
176
     1
 90
       50
176
     1
 40
0.0
176
     1
 40
1.0
176
     1
 90
        0
176
     1
 62
    18
420
        0
176
     1
 90
       50
176
     1
 90
        3
176
     1
 62
     5
420
      255
176
     1
290
     0
176
     1
 90
       50
176
     1
 90
       50
176
     1
 90
       50
176
     1
290
     0
176
     1
 90
       50
176
     1
 62
   256
176
     0
 40
1.0
176
     0
 90
        2
176
     1
  1
strokes_ogs.tif
176
     1
290
     0
176
     1
 40
1.0
176
     1
 40
1.0
176
     1
  0
VISUALSTYLE
  5
34
102
{ACAD_REACTORS
330
2A
102
}
330
2A
100
AcDbVisualStyle
  2
Conceptual
 70
     9
177
     3
291
     0
 70
    58
 90
        3
176
     1
 90
        2
176
     1
 90
        0
176
     1
 90
        0
176
     1
 40
0.6
176
     1
 40
30.0
176
     1
 62
     7
420
 16777215
176
     1
 90
        2
176
     1
 90
        2
176
     1
 62
     7
176
     1
 62
   257
176
     1
 90
        1
176
     1
 90
        1
176
     1
 40
179.0
176
     1
 90
        8
176
     1
 62
     7
176
     1
 40
1.0
176
     1
 90
        1
176
     1
 90
        6
176
     1
 90
        2
176
     1
 62
     7
176
     1
 90
        3
176
     1
 90
        0
176
     1
 90
        0
176
     1
290
     0
176
     1
 90
        1
176
     1
 40
0.0
176
     1
 90
        0
176
     1
290
     0
176
     1
290
     1
176
     1
290
     1
176
     1
290
     0
176
     1
290
     0
176
     1
290
     0
176
     1
290
     0
176
     1
290
     0
176
     1
290
     0
176
     1
 90
       50
176
     1
 40
0.0
176
     1
 40
1.0
176
     1
 90
        0
176
     1
 62
    18
420
        0
176
     1
 90
       50
176
     1
 90
        3
176
     1
 62
     5
420
      255
176
     1
290
     0
176
     1
 90
       50
176
     1
 90
       50
176
     1
 90
       50
176
     1
290
     0
176
     1
 90
       50
176
     1
 62
   256
176
     0
 40
1.0
176
     0
 90
        2
176
     1
  1
strokes_ogs.tif
176
     1
290
     0
176
     1
 40
1.0
176
     1
 40
1.0
176
     1
  0
VISUALSTYLE
  5
35
102
{ACAD_REACTORS
330
2A
102
}
330
2A
100
AcDbVisualStyle
  2
Dim
 70
    11
177
     3
291
     1
 70
    58
 90
        2
176
     1
 90
        2
176
     1
 90
        0
176
     1
 90
        0
176
     1
 40
0.6
176
     1
 40
30.0
176
     1
 62
     7
420
 16777215
176
     1
 90
        1
176
     1
 90
        4
176
     1
 62
     7
176
     1
 62
   257
176
     1
 90
        1
176
     1
 90
        1
176
     1
 40
1.0
176
     1
 90
        8
176
     1
 62
     7
176
     1
 40
1.0
176
     1
 90
        1
176
     1
 90
        6
176
     1
 90
        2
176
     1
 62
     7
176
     1
 90
        5
176
     1
 90
        0
176
     1
 90
        0
176
     1
290
     0
176
     1
 90
        1
176
     1
 40
-50.0
176
     1
 90
        0
176
     1
290
     0
176
     1
290
     1
176
     1
290
     1
176
     1
290
     0
176
     1
290
     0
176
     1
290
     0
176
     1
290
     0
176
     1
290
     0
176
     1
290
     0
176
     1
 90
       50
176
     1
 40
0.0
176
     1
 40
1.0
176
     1
 90
        0
176
     1
 62
    18
420
        0
176
     1
 90
       50
176
     1
 90
        3
176
     1
 62
     5
420
      255
176
     1
290
     0
176
     1
 90
       50
176
     1
 90
       50
176
     1
 90
       50
176
     1
290
     0
176
     1
 90
       50
176
     1
 62
   256
176
     0
 40
1.0
176
     0
 90
        2
176
     1
  1
strokes_ogs.tif
176
     1
290
     0
176
     1
 40
1.0
176
     1
 40
1.0
176
     1
  0
VISUALSTYLE
  5
3D
102
{ACAD_REACTORS
330
2A
102
}
330
2A
100
AcDbVisualStyle
  2
EdgeColorOff
 70
    22
177
     3
291
     1
 70
    58
 90
        2
176
     0
 90
        2
176
     0
 90
        0
176
     0
 90
        0
176
     0
 40
0.6
176
     0
 40
30.0
176
     0
 62
     7
420
 16777215
176
     0
 90
        1
176
     0
 90
        4
176
     0
 62
     7
176
     0
 62
   257
176
     0
 90
        1
176
     0
 90
        1
176
     0
 40
1.0
176
     0
 90
        8
176
     2
 62
     7
176
     0
 40
1.0
176
     0
 90
        1
176
     0
 90
        6
176
     0
 90
        2
176
     0
 62
     7
176
     0
 90
        5
176
     0
 90
        0
176
     0
 90
        0
176
     0
290
     0
176
     0
 90
        1
176
     0
 40
0.0
176
     0
 90
        0
176
     0
290
     0
176
     0
290
     1
176
     0
290
     1
176
     0
290
     0
176
     0
290
     0
176
     0
290
     0
176
     0
290
     0
176
     0
290
     0
176
     0
290
     0
176
     0
 90
       50
176
     0
 40
0.0
176
     0
 40
1.0
176
     0
 90
        0
176
     0
 62
    18
420
        0
176
     0
 90
       50
176
     0
 90
        3
176
     0
 62
     5
420
      255
176
     0
290
     0
176
     0
 90
       50
176
     0
 90
       50
176
     0
 90
       50
176
     0
290
     0
176
     0
 90
       50
176
     0
 62
   256
176
     0
 40
1.0
176
     0
 90
        2
176
     0
  1
strokes_ogs.tif
176
     0
290
     0
176
     0
 40
1.0
176
     0
 40
1.0
176
     0
  0
VISUALSTYLE
  5
39
102
{ACAD_REACTORS
330
2A
102
}
330
2A
100
AcDbVisualStyle
  2
Facepattern
 70
    15
177
     3
291
     1
 70
    58
 90
        2
176
     1
 90
        2
176
     1
 90
        0
176
     1
 90
        0
176
     1
 40
0.6
176
     1
 40
30.0
176
     1
 62
     7
420
 16777215
176
     1
 90
        1
176
     1
 90
        4
176
     1
 62
     7
176
     1
 62
   257
176
     1
 90
        1
176
     1
 90
        1
176
     1
 40
1.0
176
     1
 90
        8
176
     1
 62
     7
176
     1
 40
1.0
176
     1
 90
        1
176
     1
 90
        6
176
     1
 90
        2
176
     1
 62
     7
176
     1
 90
        5
176
     1
 90
        0
176
     1
 90
        0
176
     1
290
     0
176
     1
 90
        1
176
     1
 40
0.0
176
     1
 90
        0
176
     1
290
     0
176
     1
290
     1
176
     1
290
     1
176
     1
290
     0
176
     1
290
     0
176
     1
290
     0
176
     1
290
     0
176
     1
290
     0
176
     1
290
     0
176
     1
 90
       50
176
     1
 40
0.0
176
     1
 40
1.0
176
     1
 90
        0
176
     1
 62
    18
420
        0
176
     1
 90
       50
176
     1
 90
        3
176
     1
 62
     5
420
      255
176
     1
290
     0
176
     1
 90
       50
176
     1
 90
       50
176
     1
 90
       50
176
     1
290
     0
176
     1
 90
       50
176
     1
 62
   256
176
     0
 40
1.0
176
     0
 90
        2
176
     1
  1
strokes_ogs.tif
176
     1
290
     0
176
     1
 40
1.0
176
     1
 40
1.0
176
     1
  0
VISUALSTYLE
  5
2B
102
{ACAD_REACTORS
330
2A
102
}
330
2A
100
AcDbVisualStyle
  2
Flat
 70
     0
177
     3
291
     1
 70
    58
 90
        2
176
     1
 90
        1
176
     1
 90
        1
176
     1
 90
        2
176
     1
 40
0.6
176
     1
 40
30.0
176
     1
 62
     7
420
 16777215
176
     1
 90
        0
176
     1
 90
        0
176
     1
 62
     7
176
     1
 62
   257
176
     1
 90
        1
176
     1
 90
        1
176
     1
 40
1.0
176
     1
 90
        8
176
     1
 62
     7
176
     1
 40
1.0
176
     1
 90
        1
176
     1
 90
        6
176
     1
 90
        2
176
     1
 62
     7
176
     1
 90
        5
176
     1
 90
        0
176
     1
 90
        0
176
     1
290
     0
176
     1
 90
       13
176
     1
 40
0.0
176
     1
 90
        0
176
     1
290
     0
176
     1
290
     1
176
     1
290
     1
176
     1
290
     0
176
     1
290
     0
176
     1
290
     0
176
     1
290
     0
176
     1
290
     0
176
     1
290
     0
176
     1
 90
       50
176
     1
 40
0.0
176
     1
 40
1.0
176
     1
 90
        0
176
     1
 62
    18
420
        0
176
     1
 90
       50
176
     1
 90
        3
176
     1
 62
     5
420
      255
176
     1
290
     0
176
     1
 90
       50
176
     1
 90
       50
176
     1
 90
       50
176
     1
290
     0
176
     1
 90
       50
176
     1
 62
   256
176
     0
 40
1.0
176
     0
 90
        2
176
     1
  1
strokes_ogs.tif
176
     1
290
     0
176
     1
 40
1.0
176
     1
 40
1.0
176
     1
  0
VISUALSTYLE
  5
2C
102
{ACAD_REACTORS
330
2A
102
}
330
2A
100
AcDbVisualStyle
  2
FlatWithEdges
 70
     1
177
     3
291
     1
 70
    58
 90
        2
176
     1
 90
        1
176
     1
 90
        1
176
     1
 90
        2
176
     1
 40
0.6
176
     1
 40
30.0
176
     1
 62
     7
420
 16777215
176
     1
 90
        1
176
     1
 90
        0
176
     1
 62
     7
176
     1
 62
   257
176
     1
 90
        1
176
     1
 90
        1
176
     1
 40
1.0
176
     1
 90
        0
176
     1
 62
   257
176
     1
 40
1.0
176
     1
 90
        1
176
     1
 90
        6
176
     1
 90
        2
176
     1
 62
     7
176
     1
 90
        5
176
     1
 90
        0
176
     1
 90
        0
176
     1
290
     0
176
     1
 90
       13
176
     1
 40
0.0
176
     1
 90
        0
176
     1
290
     0
176
     1
290
     1
176
     1
290
     1
176
     1
290
     0
176
     1
290
     0
176
     1
290
     0
176
     1
290
     0
176
     1
290
     0
176
     1
290
     0
176
     1
 90
       50
176
     1
 40
0.0
176
     1
 40
1.0
176
     1
 90
        0
176
     1
 62
    18
420
        0
176
     1
 90
       50
176
     1
 90
        3
176
     1
 62
     5
420
      255
176
     1
290
     0
176
     1
 90
       50
176
     1
 90
       50
176
     1
 90
       50
176
     1
290
     0
176
     1
 90
       50
176
     1
 62
   256
176
     0
 40
1.0
176
     0
 90
        2
176
     1
  1
strokes_ogs.tif
176
     1
290
     0
176
     1
 40
1.0
176
     1
 40
1.0
176
     1
  0
VISUALSTYLE
  5
2D
102
{ACAD_REACTORS
330
2A
102
}
330
2A
100
AcDbVisualStyle
  2
Gouraud
 70
     2
177
     3
291
     1
 70
    58
 90
        2
176
     1
 90
        2
176
     1
 90
        1
176
     1
 90
        2
176
     1
 40
0.6
176
     1
 40
30.0
176
     1
 62
     7
420
 16777215
176
     1
 90
        0
176
     1
 90
        0
176
     1
 62
     7
176
     1
 62
   257
176
     1
 90
        1
176
     1
 90
        1
176
     1
 40
1.0
176
     1
 90
        0
176
     1
 62
     7
176
     1
 40
1.0
176
     1
 90
        1
176
     1
 90
        6
176
     1
 90
        2
176
     1
 62
     7
176
     1
 90
        5
176
     1
 90
        0
176
     1
 90
        0
176
     1
290
     0
176
     1
 90
       13
176
     1
 40
0.0
176
     1
 90
        0
176
     1
290
     0
176
     1
290
     1
176
     1
290
     1
176
     1
290
     0
176
     1
290
     0
176
     1
290
     0
176
     1
290
     0
176
     1
290
     0
176
     1
290
     0
176
     1
 90
       50
176
     1
 40
0.0
176
     1
 40
1.0
176
     1
 90
        0
176
     1
 62
    18
420
        0
176
     1
 90
       50
176
     1
 90
        3
176
     1
 62
     5
420
      255
176
     1
290
     0
176
     1
 90
       50
176
     1
 90
       50
176
     1
 90
       50
176
     1
290
     0
176
     1
 90
       50
176
     1
 62
   256
176
     0
 40
1.0
176
     0
 90
        2
176
     1
  1
strokes_ogs.tif
176
     1
290
     0
176
     1
 40
1.0
176
     1
 40
1.0
176
     1
  0
VISUALSTYLE
  5
2E
102
{ACAD_REACTORS
330
2A
102
}
330
2A
100
AcDbVisualStyle
  2
GouraudWithEdges
 70
     3
177
     3
291
     1
 70
    58
 90
        2
176
     1
 90
        2
176
     1
 90
        1
176
     1
 90
        2
176
     1
 40
0.6
176
     1
 40
30.0
176
     1
 62
     7
420
 16777215
176
     1
 90
        1
176
     1
 90
        0
176
     1
 62
     7
176
     1
 62
   257
176
     1
 90
        1
176
     1
 90
        1
176
     1
 40
1.0
176
     1
 90
        0
176
     1
 62
   257
176
     1
 40
1.0
176
     1
 90
        1
176
     1
 90
        6
176
     1
 90
        2
176
     1
 62
     7
176
     1
 90
        5
176
     1
 90
        0
176
     1
 90
        0
176
     1
290
     0
176
     1
 90
       13
176
     1
 40
0.0
176
     1
 90
        0
176
     1
290
     0
176
     1
290
     1
176
     1
290
     1
176
     1
290
     0
176
     1
290
     0
176
     1
290
     0
176
     1
290
     0
176
     1
290
     0
176
     1
290
     0
176
     1
 90
       50
176
     1
 40
0.0
176
     1
 40
1.0
176
     1
 90
        0
176
     1
 62
    18
420
        0
176
     1
 90
       50
176
     1
 90
        3
176
     1
 62
     5
420
      255
176
     1
290
     0
176
     1
 90
       50
176
     1
 90
       50
176
     1
 90
       50
176
     1
290
     0
176
     1
 90
       50
176
     1
 62
   256
176
     0
 40
1.0
176
     0
 90
        2
176
     1
  1
strokes_ogs.tif
176
     1
290
     0
176
     1
 40
1.0
176
     1
 40
1.0
176
     1
  0
VISUALSTYLE
  5
31
102
{ACAD_REACTORS
330
2A
102
}
330
2A
100
AcDbVisualStyle
  2
Hidden
 70
     6
177
     3
291
     0
 70
    58
 90
        1
176
     1
 90
        2
176
     1
 90
        2
176
     1
 90
        0
176
     1
 40
0.6
176
     1
 40
30.0
176
     1
 62
     7
420
 16777215
176
     1
 90
        2
176
     1
 90
        2
176
     1
 62
     7
176
     1
 62
   257
176
     1
 90
        2
176
     1
 90
        1
176
     1
 40
40.0
176
     1
 90
        0
176
     1
 62
   257
176
     1
 40
1.0
176
     1
 90
        1
176
     1
 90
        6
176
     1
 90
        2
176
     1
 62
     7
176
     1
 90
        3
176
     1
 90
        0
176
     1
 90
        0
176
     1
290
     0
176
     1
 90
        1
176
     1
 40
0.0
176
     1
 90
        0
176
     1
290
     0
176
     1
290
     1
176
     1
290
     1
176
     1
290
     0
176
     1
290
     0
176
     1
290
     0
176
     1
290
     0
176
     1
290
     0
176
     1
290
     0
176
     1
 90
       50
176
     1
 40
0.0
176
     1
 40
1.0
176
     1
 90
        0
176
     1
 62
    18
420
        0
176
     1
 90
       50
176
     1
 90
        3
176
     1
 62
     5
420
      255
176
     1
290
     0
176
     1
 90
       50
176
     1
 90
       50
176
     1
 90
       50
176
     1
290
     0
176
     1
 90
       50
176
     1
 62
   256
176
     0
 40
1.0
176
     0
 90
        2
176
     1
  1
strokes_ogs.tif
176
     1
290
     0
176
     1
 40
1.0
176
     1
 40
1.0
176
     1
  0
VISUALSTYLE
  5
3B
102
{ACAD_REACTORS
330
2A
102
}
330
2A
100
AcDbVisualStyle
  2
JitterOff
 70
    20
177
     3
291
     1
 70
    58
 90
        2
176
     0
 90
        2
176
     0
 90
        0
176
     0
 90
        0
176
     0
 40
0.6
176
     0
 40
30.0
176
     0
 62
     7
420
 16777215
176
     0
 90
        1
176
     0
 90
        4
176
     0
 62
     7
176
     0
 62
   257
176
     0
 90
        1
176
     0
 90
        1
176
     0
 40
1.0
176
     0
 90
       10
176
     2
 62
     7
176
     0
 40
1.0
176
     0
 90
        1
176
     0
 90
        6
176
     0
 90
        2
176
     0
 62
     7
176
     0
 90
        5
176
     0
 90
        0
176
     0
 90
        0
176
     0
290
     0
176
     0
 90
        1
176
     0
 40
0.0
176
     0
 90
        0
176
     0
290
     0
176
     0
290
     1
176
     0
290
     1
176
     0
290
     0
176
     0
290
     0
176
     0
290
     0
176
     0
290
     0
176
     0
290
     0
176
     0
290
     0
176
     0
 90
       50
176
     0
 40
0.0
176
     0
 40
1.0
176
     0
 90
        0
176
     0
 62
    18
420
        0
176
     0
 90
       50
176
     0
 90
        3
176
     0
 62
     5
420
      255
176
     0
290
     0
176
     0
 90
       50
176
     0
 90
       50
176
     0
 90
       50
176
     0
290
     0
176
     0
 90
       50
176
     0
 62
   256
176
     0
 40
1.0
176
     0
 90
        2
176
     0
  1
strokes_ogs.tif
176
     0
290
     0
176
     0
 40
1.0
176
     0
 40
1.0
176
     0
  0
VISUALSTYLE
  5
38
102
{ACAD_REACTORS
330
2A
102
}
330
2A
100
AcDbVisualStyle
  2
Linepattern
 70
    14
177
     3
291
     1
 70
    58
 90
        2
176
     1
 90
        2
176
     1
 90
        0
176
     1
 90
        0
176
     1
 40
0.6
176
     1
 40
30.0
176
     1
 62
     7
420
 16777215
176
     1
 90
        1
176
     1
 90
        4
176
     1
 62
     7
176
     1
 62
   257
176
     1
 90
        7
176
     1
 90
        7
176
     1
 40
1.0
176
     1
 90
        8
176
     1
 62
     7
176
     1
 40
1.0
176
     1
 90
        1
176
     1
 90
        6
176
     1
 90
        2
176
     1
 62
     7
176
     1
 90
        5
176
     1
 90
        0
176
     1
 90
        0
176
     1
290
     0
176
     1
 90
        1
176
     1
 40
0.0
176
     1
 90
        0
176
     1
290
     0
176
     1
290
     1
176
     1
290
     1
176
     1
290
     0
176
     1
290
     0
176
     1
290
     0
176
     1
290
     0
176
     1
290
     0
176
     1
290
     0
176
     1
 90
       50
176
     1
 40
0.0
176
     1
 40
1.0
176
     1
 90
        0
176
     1
 62
    18
420
        0
176
     1
 90
       50
176
     1
 90
        3
176
     1
 62
     5
420
      255
176
     1
290
     0
176
     1
 90
       50
176
     1
 90
       50
176
     1
 90
       50
176
     1
290
     0
176
     1
 90
       50
176
     1
 62
   256
176
     0
 40
1.0
176
     0
 90
        2
176
     1
  1
strokes_ogs.tif
176
     1
290
     0
176
     1
 40
1.0
176
     1
 40
1.0
176
     1
  0
VISUALSTYLE
  5
3C
102
{ACAD_REACTORS
330
2A
102
}
330
2A
100
AcDbVisualStyle
  2
OverhangOff
 70
    21
177
     3
291
     1
 70
    58
 90
        2
176
     0
 90
        2
176
     0
 90
        0
176
     0
 90
        0
176
     0
 40
0.6
176
     0
 40
30.0
176
     0
 62
     7
420
 16777215
176
     0
 90
        1
176
     0
 90
        4
176
     0
 62
     7
176
     0
 62
   257
176
     0
 90
        1
176
     0
 90
        1
176
     0
 40
1.0
176
     0
 90
        9
176
     2
 62
     7
176
     0
 40
1.0
176
     0
 90
        1
176
     0
 90
        6
176
     0
 90
        2
176
     0
 62
     7
176
     0
 90
        5
176
     0
 90
        0
176
     0
 90
        0
176
     0
290
     0
176
     0
 90
        1
176
     0
 40
0.0
176
     0
 90
        0
176
     0
290
     0
176
     0
290
     1
176
     0
290
     1
176
     0
290
     0
176
     0
290
     0
176
     0
290
     0
176
     0
290
     0
176
     0
290
     0
176
     0
290
     0
176
     0
 90
       50
176
     0
 40
0.0
176
     0
 40
1.0
176
     0
 90
        0
176
     0
 62
    18
420
        0
176
     0
 90
       50
176
     0
 90
        3
176
     0
 62
     5
420
      255
176
     0
290
     0
176
     0
 90
       50
176
     0
 90
       50
176
     0
 90
       50
176
     0
290
     0
176
     0
 90
       50
176
     0
 62
   256
176
     0
 40
1.0
176
     0
 90
        2
176
     0
  1
strokes_ogs.tif
176
     0
290
     0
176
     0
 40
1.0
176
     0
 40
1.0
176
     0
  0
VISUALSTYLE
  5
33
102
{ACAD_REACTORS
330
2A
102
}
330
2A
100
AcDbVisualStyle
  2
Realistic
 70
     8
177
     3
291
     0
 70
    58
 90
        2
176
     1
 90
        3
176
     1
 90
        0
176
     1
 90
        2
176
     1
 40
0.6
176
     1
 40
30.0
176
     1
 62
     7
420
 16777215
176
     1
 90
        0
176
     1
 90
        0
176
     1
 62
     7
176
     1
 62
   257
176
     1
 90
        1
176
     1
 90
        1
176
     1
 40
1.0
176
     1
 90
        8
176
     1
 62
   257
176
     1
 40
1.0
176
     1
 90
        1
176
     1
 90
        6
176
     1
 90
        2
176
     1
 62
     7
176
     1
 90
        3
176
     1
 90
        0
176
     1
 90
        0
176
     1
290
     0
176
     1
 90
       13
176
     1
 40
0.0
176
     1
 90
        0
176
     1
290
     0
176
     1
290
     1
176
     1
290
     1
176
     1
290
     0
176
     1
290
     0
176
     1
290
     0
176
     1
290
     0
176
     1
290
     0
176
     1
290
     0
176
     1
 90
       50
176
     1
 40
0.0
176
     1
 40
1.0
176
     1
 90
        0
176
     1
 62
    18
420
        0
176
     1
 90
       50
176
     1
 90
        3
176
     1
 62
     5
420
      255
176
     1
290
     0
176
     1
 90
       50
176
     1
 90
       50
176
     1
 90
       50
176
     1
290
     0
176
     1
 90
       50
176
     1
 62
   256
176
     0
 40
1.0
176
     0
 90
        2
176
     1
  1
strokes_ogs.tif
176
     1
290
     0
176
     1
 40
1.0
176
     1
 40
1.0
176
     1
  0
VISUALSTYLE
  5
42
102
{ACAD_REACTORS
330
2A
102
}
330
2A
100
AcDbVisualStyle
  2
Shaded
 70
    27
177
     3
291
     0
 70
    58
 90
        2
176
     1
 90
        2
176
     1
 90
        1
176
     1
 90
        2
176
     1
 40
0.6
176
     1
 40
30.0
176
     1
 62
     7
420
 16777215
176
     1
 90
        0
176
     1
 90
        4
176
     1
 62
     7
176
     1
 62
   257
176
     1
 90
        1
176
     1
 90
        1
176
     1
 40
1.0
176
     1
 90
        8
176
     1
 62
   257
176
     1
 40
1.0
176
     1
 90
        1
176
     1
 90
        6
176
     1
 90
        2
176
     1
 62
     8
420
  7895160
176
     1
 90
        3
176
     1
 90
        0
176
     1
 90
        0
176
     1
290
     0
176
     1
 90
        5
176
     1
 40
0.0
176
     1
 90
        0
176
     1
290
     0
176
     1
290
     1
176
     1
290
     1
176
     1
290
     0
176
     1
290
     0
176
     1
290
     0
176
     1
290
     0
176
     1
290
     0
176
     1
290
     0
176
     1
 90
       50
176
     1
 40
0.0
176
     1
 40
1.0
176
     1
 90
        0
176
     1
 62
    18
420
        0
176
     1
 90
       50
176
     1
 90
        3
176
     1
 62
     5
420
      255
176
     1
290
     0
176
     1
 90
       50
176
     1
 90
       50
176
     1
 90
       50
176
     1
290
     0
176
     1
 90
       50
176
     1
 62
   256
176
     0
 40
1.0
176
     0
 90
        2
176
     1
  1
strokes_ogs.tif
176
     1
290
     0
176
     1
 40
1.0
176
     1
 40
1.0
176
     1
  0
VISUALSTYLE
  5
41
102
{ACAD_REACTORS
330
2A
102
}
330
2A
100
AcDbVisualStyle
  2
Shaded with edges
 70
    26
177
     3
291
     0
 70
    58
 90
        2
176
     1
 90
        2
176
     1
 90
        1
176
     1
 90
        2
176
     1
 40
0.6
176
     1
 40
30.0
176
     1
 62
     7
420
 16777215
176
     1
 90
        1
176
     1
 90
       10
176
     1
 62
     7
176
     1
 62
   257
176
     1
 90
        2
176
     1
 90
        1
176
     1
 40
1.0
176
     1
 90
        8
176
     1
 62
   257
176
     1
 40
1.0
176
     1
 90
        1
176
     1
 90
        6
176
     1
 90
        2
176
     1
 62
     7
176
     1
 90
        3
176
     1
 90
        0
176
     1
 90
        0
176
     1
290
     0
176
     1
 90
        5
176
     1
 40
0.0
176
     1
 90
        0
176
     1
290
     0
176
     1
290
     1
176
     1
290
     1
176
     1
290
     0
176
     1
290
     0
176
     1
290
     0
176
     1
290
     0
176
     1
290
     0
176
     1
290
     0
176
     1
 90
       50
176
     1
 40
0.0
176
     1
 40
1.0
176
     1
 90
        0
176
     1
 62
    18
420
        0
176
     1
 90
       50
176
     1
 90
        3
176
     1
 62
     5
420
      255
176
     1
290
     0
176
     1
 90
       50
176
     1
 90
       50
176
     1
 90
       50
176
     1
290
     0
176
     1
 90
       50
176
     1
 62
   256
176
     0
 40
1.0
176
     0
 90
        2
176
     1
  1
strokes_ogs.tif
176
     1
290
     0
176
     1
 40
1.0
176
     1
 40
1.0
176
     1
  0
VISUALSTYLE
  5
3E
102
{ACAD_REACTORS
330
2A
102
}
330
2A
100
AcDbVisualStyle
  2
Shades of Gray
 70
    23
177
     3
291
     0
 70
    58
 90
        2
176
     1
 90
        2
176
     1
 90
        3
176
     1
 90
        0
176
     1
 40
0.6
176
     1
 40
30.0
176
     1
 62
     7
420
 16777215
176
     1
 90
        2
176
     1
 90
        2
176
     1
 62
     7
176
     1
 62
     7
176
     1
 90
        1
176
     1
 90
        1
176
     1
 40
40.0
176
     1
 90
        8
176
     1
 62
     7
176
     1
 40
1.0
176
     1
 90
        1
176
     1
 90
        6
176
     1
 90
        2
176
     1
 62
     7
176
     1
 90
        3
176
     1
 90
        0
176
     1
 90
        0
176
     1
290
     0
176
     1
 90
        1
176
     1
 40
0.0
176
     1
 90
        0
176
     1
290
     0
176
     1
290
     1
176
     1
290
     1
176
     1
290
     0
176
     1
290
     0
176
     1
290
     0
176
     1
290
     0
176
     1
290
     0
176
     1
290
     0
176
     1
 90
       50
176
     1
 40
0.0
176
     1
 40
1.0
176
     1
 90
        0
176
     1
 62
    18
420
        0
176
     1
 90
       50
176
     1
 90
        3
176
     1
 62
     5
420
      255
176
     1
290
     0
176
     1
 90
       50
176
     1
 90
       50
176
     1
 90
       50
176
     1
290
     0
176
     1
 90
       50
176
     1
 62
   256
176
     0
 40
1.0
176
     0
 90
        2
176
     1
  1
strokes_ogs.tif
176
     1
290
     0
176
     1
 40
1.0
176
     1
 40
1.0
176
     1
  0
VISUALSTYLE
  5
3F
102
{ACAD_REACTORS
330
2A
102
}
330
2A
100
AcDbVisualStyle
  2
Sketchy
 70
    24
177
     3
291
     0
 70
    58
 90
        1
176
     1
 90
        2
176
     1
 90
        2
176
     1
 90
        0
176
     1
 40
0.6
176
     1
 40
30.0
176
     1
 62
     7
420
 16777215
176
     1
 90
        2
176
     1
 90
        2
176
     1
 62
     7
176
     1
 62
     7
176
     1
 90
        1
176
     1
 90
        1
176
     1
 40
40.0
176
     1
 90
       11
176
     1
 62
     7
176
     1
 40
1.0
176
     1
 90
        1
176
     1
 90
        6
176
     1
 90
        2
176
     1
 62
     7
176
     1
 90
        6
176
     1
 90
        0
176
     1
 90
        0
176
     1
290
     0
176
     1
 90
        1
176
     1
 40
0.0
176
     1
 90
        0
176
     1
290
     0
176
     1
290
     1
176
     1
290
     1
176
     1
290
     0
176
     1
290
     0
176
     1
290
     0
176
     1
290
     0
176
     1
290
     0
176
     1
290
     0
176
     1
 90
       50
176
     1
 40
0.0
176
     1
 40
1.0
176
     1
 90
        0
176
     1
 62
    18
420
        0
176
     1
 90
       50
176
     1
 90
        3
176
     1
 62
     5
420
      255
176
     1
290
     0
176
     1
 90
       50
176
     1
 90
       50
176
     1
 90
       50
176
     1
290
     0
176
     1
 90
       50
176
     1
 62
   256
176
     0
 40
1.0
176
     0
 90
        2
176
     1
  1
strokes_ogs.tif
176
     1
290
     0
176
     1
 40
1.0
176
     1
 40
1.0
176
     1
  0
VISUALSTYLE
  5
37
102
{ACAD_REACTORS
330
2A
102
}
330
2A
100
AcDbVisualStyle
  2
Thicken
 70
    13
177
     3
291
     1
 70
    58
 90
        2
176
     1
 90
        2
176
     1
 90
        0
176
     1
 90
        0
176
     1
 40
0.6
176
     1
 40
30.0
176
     1
 62
     7
420
 16777215
176
     1
 90
        1
176
     1
 90
        4
176
     1
 62
     7
176
     1
 62
   257
176
     1
 90
        1
176
     1
 90
        1
176
     1
 40
1.0
176
     1
 90
       12
176
     1
 62
     7
176
     1
 40
1.0
176
     1
 90
        1
176
     1
 90
        6
176
     1
 90
        2
176
     1
 62
     7
176
     1
 90
        5
176
     1
 90
        0
176
     1
 90
        0
176
     1
290
     0
176
     1
 90
        1
176
     1
 40
0.0
176
     1
 90
        0
176
     1
290
     0
176
     1
290
     1
176
     1
290
     1
176
     1
290
     0
176
     1
290
     0
176
     1
290
     0
176
     1
290
     0
176
     1
290
     0
176
     1
290
     0
176
     1
 90
       50
176
     1
 40
0.0
176
     1
 40
1.0
176
     1
 90
        0
176
     1
 62
    18
420
        0
176
     1
 90
       50
176
     1
 90
        3
176
     1
 62
     5
420
      255
176
     1
290
     0
176
     1
 90
       50
176
     1
 90
       50
176
     1
 90
       50
176
     1
290
     0
176
     1
 90
       50
176
     1
 62
   256
176
     0
 40
1.0
176
     0
 90
        2
176
     1
  1
strokes_ogs.tif
176
     1
290
     0
176
     1
 40
1.0
176
     1
 40
1.0
176
     1
  0
VISUALSTYLE
  5
30
102
{ACAD_REACTORS
330
2A
102
}
330
2A
100
AcDbVisualStyle
  2
Wireframe
 70
     5
177
     3
291
     0
 70
    58
 90
        0
176
     1
 90
        2
176
     1
 90
        0
176
     1
 90
        0
176
     1
 40
0.6
176
     1
 40
30.0
176
     1
 62
     7
420
 16777215
176
     1
 90
        1
176
     1
 90
        4
176
     1
 62
     7
176
     1
 62
   257
176
     1
 90
        1
176
     1
 90
        1
176
     1
 40
1.0
176
     1
 90
        0
176
     1
 62
   257
176
     1
 40
1.0
176
     1
 90
        1
176
     1
 90
        6
176
     1
 90
        2
176
     1
 62
     7
176
     1
 90
        3
176
     1
 90
        0
176
     1
 90
        0
176
     1
290
     0
176
     1
 90
        1
176
     1
 40
0.0
176
     1
 90
        0
176
     1
290
     0
176
     1
290
     1
176
     1
290
     1
176
     1
290
     0
176
     1
290
     0
176
     1
290
     0
176
     1
290
     0
176
     1
290
     0
176
     1
290
     0
176
     1
 90
       50
176
     1
 40
0.0
176
     1
 40
1.0
176
     1
 90
        0
176
     1
 62
    18
420
        0
176
     1
 90
       50
176
     1
 90
        3
176
     1
 62
     5
420
      255
176
     1
290
     0
176
     1
 90
       50
176
     1
 90
       50
176
     1
 90
       50
176
     1
290
     0
176
     1
 90
       50
176
     1
 62
   256
176
     0
 40
1.0
176
     0
 90
        2
176
     1
  1
strokes_ogs.tif
176
     1
290
     0
176
     1
 40
1.0
176
     1
 40
1.0
176
     1
  0
VISUALSTYLE
  5
40
102
{ACAD_REACTORS
330
2A
102
}
330
2A
100
AcDbVisualStyle
  2
X-Ray
 70
    25
177
     3
291
     0
 70
    58
 90
        2
176
     1
 90
        2
176
     1
 90
        1
176
     1
 90
        1
176
     1
 40
0.5
176
     1
 40
30.0
176
     1
 62
     7
420
 16777215
176
     1
 90
        1
176
     1
 90
        0
176
     1
 62
     7
176
     1
 62
   257
176
     1
 90
        1
176
     1
 90
        1
176
     1
 40
1.0
176
     1
 90
        8
176
     1
 62
     7
176
     1
 40
1.0
176
     1
 90
        1
176
     1
 90
        6
176
     1
 90
        2
176
     1
 62
     7
176
     1
 90
        3
176
     1
 90
        0
176
     1
 90
        0
176
     1
290
     0
176
     1
 90
       13
176
     1
 40
0.0
176
     1
 90
        0
176
     1
290
     0
176
     1
290
     1
176
     1
290
     1
176
     1
290
     0
176
     1
290
     0
176
     1
290
     0
176
     1
290
     0
176
     1
290
     0
176
     1
290
     0
176
     1
 90
       50
176
     1
 40
0.0
176
     1
 40
1.0
176
     1
 90
        0
176
     1
 62
    18
420
        0
176
     1
 90
       50
176
     1
 90
        3
176
     1
 62
     5
420
      255
176
     1
290
     0
176
     1
 90
       50
176
     1
 90
       50
176
     1
 90
       50
176
     1
290
     0
176
     1
 90
       50
176
     1
 62
   256
176
     0
 40
1.0
176
     0
 90
        2
176
     1
  1
strokes_ogs.tif
176
     1
290
     0
176
     1
 40
1.0
176
     1
 40
1.0
176
     1
  0
DICTIONARYVAR
  5
223
102
{ACAD_REACTORS
330
222
102
}
330
222
100
DictionaryVariables
280
     0
  1
1:1
  0
DICTIONARYVAR
  5
228
102
{ACAD_REACTORS
330
222
102
}
330
222
100
DictionaryVariables
280
     0
  1
Standard
  0
DICTIONARYVAR
  5
227
102
{ACAD_REACTORS
330
222
102
}
330
222
100
DictionaryVariables
280
     0
  1
Standard
  0
DICTIONARY
  5
224
330
6A
100
AcDbDictionary
280
     1
281
     1
  3
ACAD_ROUNDTRIP_2008_TABLESTYLE_CELLSTYLEMAP
360
225
  0
CELLSTYLEMAP
  5
225
102
{ACAD_REACTORS
330
224
102
}
330
224
100
AcDbCellStyleMap
 90
        3
300
CELLSTYLE
  1
TABLEFORMAT_BEGIN
 90
        5
170
     1
 91
        0
 92
    32768
 62
   257
 93
        1
300
CONTENTFORMAT
  1
CONTENTFORMAT_BEGIN
 90
        0
 91
        0
 92
        4
 93
        0
300

 40
0.0
140
1.0
 94
        5
 62
     0
340
11
144
0.25
309
CONTENTFORMAT_END
171
     1
301
MARGIN
  1
CELLMARGIN_BEGIN
 40
0.06
 40
0.06
 40
0.06
 40
0.06
 40
0.06
 40
0.06
309
CELLMARGIN_END
 94
        6
 95
        1
302
GRIDFORMAT
  1
GRIDFORMAT_BEGIN
 90
        0
 91
        1
 62
     0
 92
       -2
340
14
 93
        0
 40
0.045
309
GRIDFORMAT_END
 95
        2
302
GRIDFORMAT
  1
GRIDFORMAT_BEGIN
 90
        0
 91
        1
 62
     0
 92
       -2
340
14
 93
        0
 40
0.045
309
GRIDFORMAT_END
 95
        4
302
GRIDFORMAT
  1
GRIDFORMAT_BEGIN
 90
        0
 91
        1
 62
     0
 92
       -2
340
14
 93
        0
 40
0.045
309
GRIDFORMAT_END
 95
        8
302
GRIDFORMAT
  1
GRIDFORMAT_BEGIN
 90
        0
 91
        1
 62
     0
 92
       -2
340
14
 93
        0
 40
0.045
309
GRIDFORMAT_END
 95
       16
302
GRIDFORMAT
  1
GRIDFORMAT_BEGIN
 90
        0
 91
        1
 62
     0
 92
       -2
340
14
 93
        0
 40
0.045
309
GRIDFORMAT_END
 95
       32
302
GRIDFORMAT
  1
GRIDFORMAT_BEGIN
 90
        0
 91
        1
 62
     0
 92
       -2
340
14
 93
        0
 40
0.045
309
GRIDFORMAT_END
309
TABLEFORMAT_END
  1
CELLSTYLE_BEGIN
 90
        1
 91
        1
300
_TITLE
309
CELLSTYLE_END
300
CELLSTYLE
  1
TABLEFORMAT_BEGIN
 90
        5
170
     1
 91
        0
 92
        0
 62
   257
 93
        1
300
CONTENTFORMAT
  1
CONTENTFORMAT_BEGIN
 90
        0
 91
        0
 92
        4
 93
        0
300

 40
0.0
140
1.0
 94
        5
 62
     0
340
11
144
0.18
309
CONTENTFORMAT_END
171
     1
301
MARGIN
  1
CELLMARGIN_BEGIN
 40
0.06
 40
0.06
 40
0.06
 40
0.06
 40
0.06
 40
0.06
309
CELLMARGIN_END
 94
        6
 95
        1
302
GRIDFORMAT
  1
GRIDFORMAT_BEGIN
 90
        0
 91
        1
 62
     0
 92
       -2
340
14
 93
        0
 40
0.045
309
GRIDFORMAT_END
 95
        2
302
GRIDFORMAT
  1
GRIDFORMAT_BEGIN
 90
        0
 91
        1
 62
     0
 92
       -2
340
14
 93
        0
 40
0.045
309
GRIDFORMAT_END
 95
        4
302
GRIDFORMAT
  1
GRIDFORMAT_BEGIN
 90
        0
 91
        1
 62
     0
 92
       -2
340
14
 93
        0
 40
0.045
309
GRIDFORMAT_END
 95
        8
302
GRIDFORMAT
  1
GRIDFORMAT_BEGIN
 90
        0
 91
        1
 62
     0
 92
       -2
340
14
 93
        0
 40
0.045
309
GRIDFORMAT_END
 95
       16
302
GRIDFORMAT
  1
GRIDFORMAT_BEGIN
 90
        0
 91
        1
 62
     0
 92
       -2
340
14
 93
        0
 40
0.045
309
GRIDFORMAT_END
 95
       32
302
GRIDFORMAT
  1
GRIDFORMAT_BEGIN
 90
        0
 91
        1
 62
     0
 92
       -2
340
14
 93
        0
 40
0.045
309
GRIDFORMAT_END
309
TABLEFORMAT_END
  1
CELLSTYLE_BEGIN
 90
        2
 91
        1
300
_HEADER
309
CELLSTYLE_END
300
CELLSTYLE
  1
TABLEFORMAT_BEGIN
 90
        5
170
     1
 91
        0
 92
        0
 62
   257
 93
        1
300
CONTENTFORMAT
  1
CONTENTFORMAT_BEGIN
 90
        0
 91
        0
 92
        4
 93
        0
300

 40
0.0
140
1.0
 94
        2
 62
     0
340
11
144
0.18
309
CONTENTFORMAT_END
171
     1
301
MARGIN
  1
CELLMARGIN_BEGIN
 40
0.06
 40
0.06
 40
0.06
 40
0.06
 40
0.06
 40
0.06
309
CELLMARGIN_END
 94
        6
 95
        1
302
GRIDFORMAT
  1
GRIDFORMAT_BEGIN
 90
        0
 91
        1
 62
     0
 92
       -2
340
14
 93
        0
 40
0.045
309
GRIDFORMAT_END
 95
        2
302
GRIDFORMAT
  1
GRIDFORMAT_BEGIN
 90
        0
 91
        1
 62
     0
 92
       -2
340
14
 93
        0
 40
0.045
309
GRIDFORMAT_END
 95
        4
302
GRIDFORMAT
  1
GRIDFORMAT_BEGIN
 90
        0
 91
        1
 62
     0
 92
       -2
340
14
 93
        0
 40
0.045
309
GRIDFORMAT_END
 95
        8
302
GRIDFORMAT
  1
GRIDFORMAT_BEGIN
 90
        0
 91
        1
 62
     0
 92
       -2
340
14
 93
        0
 40
0.045
309
GRIDFORMAT_END
 95
       16
302
GRIDFORMAT
  1
GRIDFORMAT_BEGIN
 90
        0
 91
        1
 62
     0
 92
       -2
340
14
 93
        0
 40
0.045
309
GRIDFORMAT_END
 95
       32
302
GRIDFORMAT
  1
GRIDFORMAT_BEGIN
 90
        0
 91
        1
 62
     0
 92
       -2
340
14
 93
        0
 40
0.045
309
GRIDFORMAT_END
309
TABLEFORMAT_END
  1
CELLSTYLE_BEGIN
 90
        3
 91
        2
300
_DATA
309
CELLSTYLE_END
  0
ENDSEC
  0
EOF