0
SECTION
  2
HEADER
  9
$ACADVER
  1
AC1027
  9
$ACADMAINTVER
 70
     8
  9
$DWGCODEPAGE
  3
ANSI_1252
  9
$REQUIREDVERSIONS
160
                 0
  9
$COMMENTS
  1
File was created by Cadenas
  9
$CUSTOMPROPERTYTAG
  1
NN
  9
$CUSTOMPROPERTY
  1
Grip Tight Two-Bolt Flange - Stainless Housing, Corrosion Resistant Insert Metric Bore
  9
$CUSTOMPROPERTYTAG
  1
NT
  9
$CUSTOMPROPERTY
  1
GTEZ Normal Duty Stainless Steel Housed 2 Bolt Flange Bearings^M^J
  9
$CUSTOMPROPERTYTAG
  1
NB
  9
$CUSTOMPROPERTY
  1
 129361
  9
$CUSTOMPROPERTYTAG
  1
NBSYN
  9
$CUSTOMPROPERTY
  1
 $PN.$LUBE.
  9
$CUSTOMPROPERTYTAG
  1
LINA
  9
$CUSTOMPROPERTY
  1
129361
  9
$CUSTOMPROPERTYTAG
  1
SERIES
  9
$CUSTOMPROPERTY
  1
206
  9
$CUSTOMPROPERTYTAG
  1
SS
  9
$CUSTOMPROPERTY
  1
30
  9
$CUSTOMPROPERTYTAG
  1
PN
  9
$CUSTOMPROPERTY
  1
129361
  9
$CUSTOMPROPERTYTAG
  1
DESCRIPTION
  9
$CUSTOMPROPERTY
  1
F2B-GTEZ-30M-SHCR
  9
$CUSTOMPROPERTYTAG
  1
A
  9
$CUSTOMPROPERTY
  1
40.9
  9
$CUSTOMPROPERTYTAG
  1
B
  9
$CUSTOMPROPERTY
  1
140.1
  9
$CUSTOMPROPERTYTAG
  1
C
  9
$CUSTOMPROPERTY
  1
44.1
  9
$CUSTOMPROPERTYTAG
  1
D
  9
$CUSTOMPROPERTY
  1
116.7
  9
$CUSTOMPROPERTYTAG
  1
H
  9
$CUSTOMPROPERTY
  1
9.1
  9
$CUSTOMPROPERTYTAG
  1
J
  9
$CUSTOMPROPERTY
  1
13.9
  9
$CUSTOMPROPERTYTAG
  1
F
  9
$CUSTOMPROPERTY
  1
M10
  9
$CUSTOMPROPERTYTAG
  1
L
  9
$CUSTOMPROPERTY
  1
50.8
  9
$CUSTOMPROPERTYTAG
  1
M
  9
$CUSTOMPROPERTY
  1
79.4
  9
$CUSTOMPROPERTYTAG
  1
Z
  9
$CUSTOMPROPERTY
  1
42.9
  9
$CUSTOMPROPERTYTAG
  1
COMPANY
  9
$CUSTOMPROPERTY
  1
baldor
  9
$INSBASE
 10
0.0
 20
0.0
 30
0.0
  9
$EXTMIN
 10
1.000000000000000E+20
 20
1.000000000000000E+20
 30
1.000000000000000E+20
  9
$EXTMAX
 10
-1.000000000000000E+20
 20
-1.000000000000000E+20
 30
-1.000000000000000E+20
  9
$LIMMIN
 10
0.0
 20
0.0
  9
$LIMMAX
 10
420.0
 20
297.0
  9
$ORTHOMODE
 70
     0
  9
$REGENMODE
 70
     1
  9
$FILLMODE
 70
     1
  9
$QTEXTMODE
 70
     0
  9
$MIRRTEXT
 70
     1
  9
$LTSCALE
 40
1.0
  9
$ATTMODE
 70
     1
  9
$TEXTSIZE
 40
2.5
  9
$TRACEWID
 40
1.0
  9
$TEXTSTYLE
  7
Standard
  9
$CLAYER
  8
0
  9
$CELTYPE
  6
ByLayer
  9
$CECOLOR
 62
   256
  9
$CELTSCALE
 40
1.0
  9
$DISPSILH
 70
     0
  9
$DIMSCALE
 40
1.0
  9
$DIMASZ
 40
2.5
  9
$DIMEXO
 40
0.625
  9
$DIMDLI
 40
3.75
  9
$DIMRND
 40
0.0
  9
$DIMDLE
 40
0.0
  9
$DIMEXE
 40
1.25
  9
$DIMTP
 40
0.0
  9
$DIMTM
 40
0.0
  9
$DIMTXT
 40
2.5
  9
$DIMCEN
 40
2.5
  9
$DIMTSZ
 40
0.0
  9
$DIMTOL
 70
     0
  9
$DIMLIM
 70
     0
  9
$DIMTIH
 70
     0
  9
$DIMTOH
 70
     0
  9
$DIMSE1
 70
     0
  9
$DIMSE2
 70
     0
  9
$DIMTAD
 70
     1
  9
$DIMZIN
 70
     8
  9
$DIMBLK
  1

  9
$DIMASO
 70
     1
  9
$DIMSHO
 70
     1
  9
$DIMPOST
  1

  9
$DIMAPOST
  1

  9
$DIMALT
 70
     0
  9
$DIMALTD
 70
     3
  9
$DIMALTF
 40
0.03937007874016
  9
$DIMLFAC
 40
1.0
  9
$DIMTOFL
 70
     1
  9
$DIMTVP
 40
0.0
  9
$DIMTIX
 70
     0
  9
$DIMSOXD
 70
     0
  9
$DIMSAH
 70
     0
  9
$DIMBLK1
  1

  9
$DIMBLK2
  1

  9
$DIMSTYLE
  2
ISO-25
  9
$DIMCLRD
 70
     0
  9
$DIMCLRE
 70
     0
  9
$DIMCLRT
 70
     0
  9
$DIMTFAC
 40
1.0
  9
$DIMGAP
 40
0.625
  9
$DIMJUST
 70
     0
  9
$DIMSD1
 70
     0
  9
$DIMSD2
 70
     0
  9
$DIMTOLJ
 70
     0
  9
$DIMTZIN
 70
     8
  9
$DIMALTZ
 70
     0
  9
$DIMALTTZ
 70
     0
  9
$DIMUPT
 70
     0
  9
$DIMDEC
 70
     2
  9
$DIMTDEC
 70
     2
  9
$DIMALTU
 70
     2
  9
$DIMALTTD
 70
     3
  9
$DIMTXSTY
  7
Standard
  9
$DIMAUNIT
 70
     0
  9
$DIMADEC
 70
     0
  9
$DIMALTRND
 40
0.0
  9
$DIMAZIN
 70
     0
  9
$DIMDSEP
 70
    44
  9
$DIMATFIT
 70
     3
  9
$DIMFRAC
 70
     0
  9
$DIMLDRBLK
  1

  9
$DIMLUNIT
 70
     2
  9
$DIMLWD
 70
    -2
  9
$DIMLWE
 70
    -2
  9
$DIMTMOVE
 70
     0
  9
$DIMFXL
 40
1.0
  9
$DIMFXLON
 70
     0
  9
$DIMJOGANG
 40
0.7853981633974483
  9
$DIMTFILL
 70
     0
  9
$DIMTFILLCLR
 70
     0
  9
$DIMARCSYM
 70
     0
  9
$DIMLTYPE
  6

  9
$DIMLTEX1
  6

  9
$DIMLTEX2
  6

  9
$DIMTXTDIRECTION
 70
     0
  9
$LUNITS
 70
     2
  9
$LUPREC
 70
     4
  9
$SKETCHINC
 40
1.0
  9
$FILLETRAD
 40
10.0
  9
$AUNITS
 70
     0
  9
$AUPREC
 70
     0
  9
$MENU
  1
.
  9
$ELEVATION
 40
0.0
  9
$PELEVATION
 40
0.0
  9
$THICKNESS
 40
0.0
  9
$LIMCHECK
 70
     0
  9
$CHAMFERA
 40
0.0
  9
$CHAMFERB
 40
0.0
  9
$CHAMFERC
 40
0.0
  9
$CHAMFERD
 40
0.0
  9
$SKPOLY
 70
     0
  9
$TDCREATE
 40
2458168.99182485
  9
$TDUCREATE
 40
2458168.950158183
  9
$TDUPDATE
 40
2458168.991825035
  9
$TDUUPDATE
 40
2458168.950158368
  9
$TDINDWG
 40
0.0000000116
  9
$TDUSRTIMER
 40
0.0000000116
  9
$USRTIMER
 70
     1
  9
$ANGBASE
 50
0.0
  9
$ANGDIR
 70
     0
  9
$PDMODE
 70
     0
  9
$PDSIZE
 40
0.0
  9
$PLINEWID
 40
0.0
  9
$SPLFRAME
 70
     0
  9
$SPLINETYPE
 70
     6
  9
$SPLINESEGS
 70
     8
  9
$HANDSEED
  5
1E2
  9
$SURFTAB1
 70
     6
  9
$SURFTAB2
 70
     6
  9
$SURFTYPE
 70
     6
  9
$SURFU
 70
     6
  9
$SURFV
 70
     6
  9
$UCSBASE
  2

  9
$UCSNAME
  2

  9
$UCSORG
 10
0.0
 20
0.0
 30
0.0
  9
$UCSXDIR
 10
1.0
 20
0.0
 30
0.0
  9
$UCSYDIR
 10
0.0
 20
1.0
 30
0.0
  9
$UCSORTHOREF
  2

  9
$UCSORTHOVIEW
 70
     0
  9
$UCSORGTOP
 10
0.0
 20
0.0
 30
0.0
  9
$UCSORGBOTTOM
 10
0.0
 20
0.0
 30
0.0
  9
$UCSORGLEFT
 10
0.0
 20
0.0
 30
0.0
  9
$UCSORGRIGHT
 10
0.0
 20
0.0
 30
0.0
  9
$UCSORGFRONT
 10
0.0
 20
0.0
 30
0.0
  9
$UCSORGBACK
 10
0.0
 20
0.0
 30
0.0
  9
$PUCSBASE
  2

  9
$PUCSNAME
  2

  9
$PUCSORG
 10
0.0
 20
0.0
 30
0.0
  9
$PUCSXDIR
 10
1.0
 20
0.0
 30
0.0
  9
$PUCSYDIR
 10
0.0
 20
1.0
 30
0.0
  9
$PUCSORTHOREF
  2

  9
$PUCSORTHOVIEW
 70
     0
  9
$PUCSORGTOP
 10
0.0
 20
0.0
 30
0.0
  9
$PUCSORGBOTTOM
 10
0.0
 20
0.0
 30
0.0
  9
$PUCSORGLEFT
 10
0.0
 20
0.0
 30
0.0
  9
$PUCSORGRIGHT
 10
0.0
 20
0.0
 30
0.0
  9
$PUCSORGFRONT
 10
0.0
 20
0.0
 30
0.0
  9
$PUCSORGBACK
 10
0.0
 20
0.0
 30
0.0
  9
$USERI1
 70
     0
  9
$USERI2
 70
     0
  9
$USERI3
 70
     0
  9
$USERI4
 70
     0
  9
$USERI5
 70
     0
  9
$USERR1
 40
0.0
  9
$USERR2
 40
0.0
  9
$USERR3
 40
0.0
  9
$USERR4
 40
0.0
  9
$USERR5
 40
0.0
  9
$WORLDVIEW
 70
     1
  9
$SHADEDGE
 70
     3
  9
$SHADEDIF
 70
    70
  9
$TILEMODE
 70
     1
  9
$MAXACTVP
 70
    64
  9
$PINSBASE
 10
0.0
 20
0.0
 30
0.0
  9
$PLIMCHECK
 70
     0
  9
$PEXTMIN
 10
1.000000000000000E+20
 20
1.000000000000000E+20
 30
1.000000000000000E+20
  9
$PEXTMAX
 10
-1.000000000000000E+20
 20
-1.000000000000000E+20
 30
-1.000000000000000E+20
  9
$PLIMMIN
 10
0.0
 20
0.0
  9
$PLIMMAX
 10
420.0
 20
297.0
  9
$UNITMODE
 70
     0
  9
$VISRETAIN
 70
     1
  9
$PLINEGEN
 70
     0
  9
$PSLTSCALE
 70
     1
  9
$TREEDEPTH
 70
  3020
  9
$CMLSTYLE
  2
Standard
  9
$CMLJUST
 70
     0
  9
$CMLSCALE
 40
20.0
  9
$PROXYGRAPHICS
 70
     1
  9
$MEASUREMENT
 70
     1
  9
$CELWEIGHT
370
    -1
  9
$ENDCAPS
280
     0
  9
$JOINSTYLE
280
     0
  9
$LWDISPLAY
290
     0
  9
$INSUNITS
 70
     4
  9
$HYPERLINKBASE
  1

  9
$STYLESHEET
  1

  9
$XEDIT
290
     1
  9
$CEPSNTYPE
380
     0
  9
$PSTYLEMODE
290
     1
  9
$FINGERPRINTGUID
  2
{DA25996D-59AF-40FD-A444-F5CBFDC7AC7D}
  9
$VERSIONGUID
  2
{FAEB1C32-E019-11D5-929B-00C0DF256EC4}
  9
$EXTNAMES
290
     1
  9
$PSVPSCALE
 40
0.0
  9
$OLESTARTUP
290
     0
  9
$SORTENTS
280
   127
  9
$INDEXCTL
280
     0
  9
$HIDETEXT
280
     1
  9
$XCLIPFRAME
280
     2
  9
$HALOGAP
280
     0
  9
$OBSCOLOR
 70
   257
  9
$OBSLTYPE
280
     0
  9
$INTERSECTIONDISPLAY
280
     0
  9
$INTERSECTIONCOLOR
 70
   257
  9
$DIMASSOC
280
     2
  9
$PROJECTNAME
  1

  9
$CAMERADISPLAY
290
     0
  9
$LENSLENGTH
 40
50.0
  9
$CAMERAHEIGHT
 40
0.0
  9
$STEPSPERSEC
 40
2.0
  9
$STEPSIZE
 40
6.0
  9
$3DDWFPREC
 40
2.0
  9
$PSOLWIDTH
 40
5.0
  9
$PSOLHEIGHT
 40
80.0
  9
$LOFTANG1
 40
1.570796326794897
  9
$LOFTANG2
 40
1.570796326794897
  9
$LOFTMAG1
 40
0.0
  9
$LOFTMAG2
 40
0.0
  9
$LOFTPARAM
 70
     7
  9
$LOFTNORMALS
280
     1
  9
$LATITUDE
 40
37.795
  9
$LONGITUDE
 40
-122.394
  9
$NORTHDIRECTION
 40
0.0
  9
$TIMEZONE
 70
 -8000
  9
$LIGHTGLYPHDISPLAY
280
     1
  9
$TILEMODELIGHTSYNCH
280
     1
  9
$CMATERIAL
347
44
  9
$SOLIDHIST
280
     0
  9
$SHOWHIST
280
     1
  9
$DWFFRAME
280
     2
  9
$DGNFRAME
280
     2
  9
$REALWORLDSCALE
290
     1
  9
$INTERFERECOLOR
 62
   256
  9
$CSHADOW
280
     0
  9
$SHADOWPLANELOCATION
 40
0.0
  0
ENDSEC
  0
SECTION
  2
CLASSES
  0
CLASS
  1
ACDBDICTIONARYWDFLT
  2
AcDbDictionaryWithDefault
  3
ObjectDBX Classes
 90
        0
 91
        4
280
     0
281
     0
  0
CLASS
  1
VISUALSTYLE
  2
AcDbVisualStyle
  3
ObjectDBX Classes
 90
     4095
 91
        4
280
     0
281
     0
  0
CLASS
  1
MATERIAL
  2
AcDbMaterial
  3
ObjectDBX Classes
 90
     1153
 91
        4
280
     0
281
     0
  0
CLASS
  1
SCALE
  2
AcDbScale
  3
ObjectDBX Classes
 90
     1153
 91
        4
280
     0
281
     0
  0
CLASS
  1
TABLESTYLE
  2
AcDbTableStyle
  3
ObjectDBX Classes
 90
     4095
 91
        4
280
     0
281
     0
  0
CLASS
  1
MLEADERSTYLE
  2
AcDbMLeaderStyle
  3
ACDB_MLEADERSTYLE_CLASS
 90
     4095
 91
        4
280
     0
281
     0
  0
CLASS
  1
SUN
  2
AcDbSun
  3
SCENEOE
 90
     1153
 91
        4
280
     0
281
     0
  0
CLASS
  1
DICTIONARYVAR
  2
AcDbDictionaryVar
  3
ObjectDBX Classes
 90
        0
 91
        4
280
     0
281
     0
  0
CLASS
  1
CELLSTYLEMAP
  2
AcDbCellStyleMap
  3
ObjectDBX Classes
 90
     1152
 91
        4
280
     0
281
     0
  0
ENDSEC
  0
SECTION
  2
TABLES
  0
TABLE
  2
VPORT
  5
8
330
0
100
AcDbSymbolTable
 70
     1
  0
VPORT
  5
29
330
8
100
AcDbSymbolTableRecord
100
AcDbViewportTableRecord
  2
*Active
 70
     0
 10
0.0
 20
0.0
 11
1.0
 21
1.0
 12
0.0
 22
0.0
 13
0.0
 23
0.0
 14
10.0
 24
10.0
 15
10.0
 25
10.0
 16
0.0
 26
0.0
 36
1.0
 17
0.0
 27
0.0
 37
0.0
 40
144.0954
 41
0.5901465279252496
 42
50.0
 43
0.0
 44
0.0
 50
0.0
 51
0.0
 71
     0
 72
   100
 73
     1
 74
     3
 75
     0
 76
     0
 77
     0
 78
     0
281
     0
 65
     1
110
0.0
120
0.0
130
0.0
111
1.0
121
0.0
131
0.0
112
0.0
122
1.0
132
0.0
 79
     0
146
0.0
348
2F
 60
     3
 61
     5
292
     1
282
     1
141
0.0
142
0.0
 63
   250
361
6D
  0
ENDTAB
  0
TABLE
  2
LTYPE
  5
5
330
0
100
AcDbSymbolTable
 70
     3
  0
LTYPE
  5
14
330
5
100
AcDbSymbolTableRecord
100
AcDbLinetypeTableRecord
  2
ByBlock
 70
     0
  3

 72
    65
 73
     0
 40
0.0
  0
LTYPE
  5
15
330
5
100
AcDbSymbolTableRecord
100
AcDbLinetypeTableRecord
  2
ByLayer
 70
     0
  3

 72
    65
 73
     0
 40
0.0
  0
LTYPE
  5
16
330
5
100
AcDbSymbolTableRecord
100
AcDbLinetypeTableRecord
  2
Continuous
 70
     0
  3
Solid line
 72
    65
 73
     0
 40
0.0
  0
LTYPE
  5
9D
330
5
100
AcDbSymbolTableRecord
100
AcDbLinetypeTableRecord
  2
Dashed
 70
     0
  3

 72
    65
 73
     2
 40
2.0
 49
1.0
 74
     0
 49
-1.0
 74
     0
  0
LTYPE
  5
10A
330
5
100
AcDbSymbolTableRecord
100
AcDbLinetypeTableRecord
  2
Center
 70
     0
  3

 72
    65
 73
     4
 40
1.5
 49
0.45
 74
     0
 49
-0.5
 74
     0
 49
0.05
 74
     0
 49
-0.5
 74
     0
  0
ENDTAB
  0
TABLE
  2
LAYER
  5
2
330
0
100
AcDbSymbolTable
 70
     7
  0
LAYER
  5
10
330
2
100
AcDbSymbolTableRecord
100
AcDbLayerTableRecord
  2
0
 70
     0
 62
     7
  6
Continuous
370
    -3
390
F
347
46
348
0
  0
LAYER
  5
72
330
2
100
AcDbSymbolTableRecord
100
AcDbLayerTableRecord
  2
AM_6
 70
     0
 62
    -2
  6
Continuous
370
    35
390
F
347
46
348
0
  0
LAYER
  5
9E
330
2
100
AcDbSymbolTableRecord
100
AcDbLayerTableRecord
  2
AM_9
 70
     0
 62
     6
  6
Dashed
370
    25
390
F
347
46
348
0
  0
LAYER
  5
A5
330
2
100
AcDbSymbolTableRecord
100
AcDbLayerTableRecord
  2
AM_4
 70
     0
 62
     3
  6
Continuous
370
    25
390
F
347
46
348
0
  0
LAYER
  5
D8
330
2
100
AcDbSymbolTableRecord
100
AcDbLayerTableRecord
  2
AM_5
 70
     0
 62
     3
  6
Continuous
370
    25
390
F
347
46
348
0
  0
LAYER
  5
10B
330
2
100
AcDbSymbolTableRecord
100
AcDbLayerTableRecord
  2
AM_7
 70
     0
 62
     7
  6
Center
370
    25
390
F
347
46
348
0
  0
LAYER
  5
1D5
330
2
100
AcDbSymbolTableRecord
100
AcDbLayerTableRecord
  2
ConnectionPoints
 70
     0
 62
     7
  6
Continuous
370
    50
390
F
347
46
348
0
  0
ENDTAB
  0
TABLE
  2
STYLE
  5
3
330
0
100
AcDbSymbolTable
 70
     1
  0
STYLE
  5
11
330
3
100
AcDbSymbolTableRecord
100
AcDbTextStyleTableRecord
  2
Standard
 70
     0
 40
0.0
 41
1.0
 50
0.0
 71
     0
 42
2.5
  3
txt
  4

  0
ENDTAB
  0
TABLE
  2
VIEW
  5
6
330
0
100
AcDbSymbolTable
 70
     0
  0
ENDTAB
  0
TABLE
  2
UCS
  5
7
330
0
100
AcDbSymbolTable
 70
     0
  0
ENDTAB
  0
TABLE
  2
APPID
  5
9
330
0
100
AcDbSymbolTable
 70
     1
  0
APPID
  5
12
330
9
100
AcDbSymbolTableRecord
100
AcDbRegAppTableRecord
  2
ACAD
 70
     0
  0
ENDTAB
  0
TABLE
  2
DIMSTYLE
  5
A
330
0
100
AcDbSymbolTable
 70
     1
100
AcDbDimStyleTable
  0
DIMSTYLE
105
27
330
A
100
AcDbSymbolTableRecord
100
AcDbDimStyleTableRecord
  2
ISO-25
 70
     0
 41
2.5
 42
0.625
 43
3.75
 44
1.25
 73
     0
 74
     0
 77
     1
 78
     8
140
2.5
141
2.5
143
0.03937007874016
147
0.625
171
     3
172
     1
178
     0
271
     2
272
     2
274
     3
278
    44
283
     0
284
     8
340
11
  0
ENDTAB
  0
TABLE
  2
BLOCK_RECORD
  5
1
330
0
100
AcDbSymbolTable
 70
     5
  0
BLOCK_RECORD
  5
1F
330
1
100
AcDbSymbolTableRecord
100
AcDbBlockTableRecord
  2
*Model_Space
340
22
 70
     0
280
     1
281
     0
  0
BLOCK_RECORD
  5
1B
330
1
100
AcDbSymbolTableRecord
100
AcDbBlockTableRecord
  2
*Paper_Space
340
1E
 70
     0
280
     1
281
     0
  0
BLOCK_RECORD
  5
23
330
1
100
AcDbSymbolTableRecord
100
AcDbBlockTableRecord
  2
*Paper_Space0
340
26
 70
     0
280
     1
281
     0
  0
BLOCK_RECORD
  5
6E
330
1
100
AcDbSymbolTableRecord
100
AcDbBlockTableRecord
  2
1__129361_0
340
0
102
{BLKREFS
331
6F
102
}
 70
     0
280
     1
281
     0
  0
BLOCK_RECORD
  5
87
330
1
100
AcDbSymbolTableRecord
100
AcDbBlockTableRecord
  2
2_INS_GT_06_CR_0_in__129361_0
340
0
102
{BLKREFS
331
88
102
}
 70
     0
280
     1
281
     0
  0
BLOCK_RECORD
  5
AD
330
1
100
AcDbSymbolTableRecord
100
AcDbBlockTableRecord
  2
3_129982_0_in__129361_0
340
0
102
{BLKREFS
331
AE
102
}
 70
     0
280
     1
281
     0
  0
BLOCK_RECORD
  5
F1
330
1
100
AcDbSymbolTableRecord
100
AcDbBlockTableRecord
  2
4_F2B_GTEZ_06_SHCR_M_0_in__129361_0
340
0
102
{BLKREFS
331
F2
102
}
 70
     0
280
     1
281
     0
  0
ENDTAB
  0
ENDSEC
  0
SECTION
  2
BLOCKS
  0
BLOCK
  5
20
330
1F
100
AcDbEntity
  8
0
100
AcDbBlockBegin
  2
*Model_Space
 70
     0
 10
0.0
 20
0.0
 30
0.0
  3
*Model_Space
  1

  0
ENDBLK
  5
21
330
1F
100
AcDbEntity
  8
0
100
AcDbBlockEnd
  0
BLOCK
  5
1C
330
1B
100
AcDbEntity
 67
     1
  8
0
100
AcDbBlockBegin
  2
*Paper_Space
 70
     0
 10
0.0
 20
0.0
 30
0.0
  3
*Paper_Space
  1

  0
ENDBLK
  5
1D
330
1B
100
AcDbEntity
 67
     1
  8
0
100
AcDbBlockEnd
  0
BLOCK
  5
24
330
23
100
AcDbEntity
  8
0
100
AcDbBlockBegin
  2
*Paper_Space0
 70
     0
 10
0.0
 20
0.0
 30
0.0
  3
*Paper_Space0
  1

  0
ENDBLK
  5
25
330
23
100
AcDbEntity
  8
0
100
AcDbBlockEnd
  0
BLOCK
  5
70
330
6E
100
AcDbEntity
  8
0
100
AcDbBlockBegin
  2
1__129361_0
 70
     2
 10
0.0
 20
0.0
 30
0.0
  3
1__129361_0
  1

  0
ATTDEF
  5
73
330
6E
100
AcDbEntity
  8
AM_6
100
AcDbText
 10
46.68500000000001
 20
70.63499999999999
 30
0.0
 40
0.5
  1
Grip Tight Two-Bolt Flange - Stainless Housing, Corrosion Resistant Insert Metric Bore
100
AcDbAttributeDefinition
  3

  2
NN
 70
     8
280
     0
  0
ATTDEF
  5
74
330
6E
100
AcDbEntity
  8
AM_6
100
AcDbText
 10
46.68500000000001
 20
70.13499999999999
 30
0.0
 40
0.5
  1
GTEZ Normal Duty Stainless Steel Housed 2 Bolt Flange Bearings^M^J
100
AcDbAttributeDefinition
  3

  2
NT
 70
     8
280
     0
  0
ATTDEF
  5
75
330
6E
100
AcDbEntity
  8
AM_6
100
AcDbText
 10
46.68500000000001
 20
69.63499999999999
 30
0.0
 40
0.5
  1
 129361
100
AcDbAttributeDefinition
  3

  2
NB
 70
     8
280
     0
  0
ATTDEF
  5
76
330
6E
100
AcDbEntity
  8
AM_6
100
AcDbText
 10
46.68500000000001
 20
69.13499999999999
 30
0.0
 40
0.5
  1
 $PN.$LUBE.
100
AcDbAttributeDefinition
  3

  2
NBSYN
 70
     8
280
     0
  0
ATTDEF
  5
77
330
6E
100
AcDbEntity
  8
AM_6
100
AcDbText
 10
46.68500000000001
 20
68.63499999999999
 30
0.0
 40
0.5
  1
129361
100
AcDbAttributeDefinition
  3

  2
LINA
 70
     8
280
     0
  0
ATTDEF
  5
78
330
6E
100
AcDbEntity
  8
AM_6
100
AcDbText
 10
46.68500000000001
 20
68.13499999999999
 30
0.0
 40
0.5
  1
206
100
AcDbAttributeDefinition
  3

  2
SERIES
 70
     8
280
     0
  0
ATTDEF
  5
79
330
6E
100
AcDbEntity
  8
AM_6
100
AcDbText
 10
46.68500000000001
 20
67.63499999999999
 30
0.0
 40
0.5
  1
30
100
AcDbAttributeDefinition
  3

  2
SS
 70
     8
280
     0
  0
ATTDEF
  5
7A
330
6E
100
AcDbEntity
  8
AM_6
100
AcDbText
 10
46.68500000000001
 20
67.13499999999999
 30
0.0
 40
0.5
  1
129361
100
AcDbAttributeDefinition
  3

  2
PN
 70
     8
280
     0
  0
ATTDEF
  5
7B
330
6E
100
AcDbEntity
  8
AM_6
100
AcDbText
 10
46.68500000000001
 20
66.63499999999999
 30
0.0
 40
0.5
  1
F2B-GTEZ-30M-SHCR
100
AcDbAttributeDefinition
  3

  2
DESCRIPTION
 70
     8
280
     0
  0
ATTDEF
  5
7C
330
6E
100
AcDbEntity
  8
AM_6
100
AcDbText
 10
46.68500000000001
 20
66.13499999999999
 30
0.0
 40
0.5
  1
40.9
100
AcDbAttributeDefinition
  3

  2
A
 70
     8
280
     0
  0
ATTDEF
  5
7D
330
6E
100
AcDbEntity
  8
AM_6
100
AcDbText
 10
46.68500000000001
 20
65.63499999999999
 30
0.0
 40
0.5
  1
140.1
100
AcDbAttributeDefinition
  3

  2
B
 70
     8
280
     0
  0
ATTDEF
  5
7E
330
6E
100
AcDbEntity
  8
AM_6
100
AcDbText
 10
46.68500000000001
 20
65.13499999999999
 30
0.0
 40
0.5
  1
44.1
100
AcDbAttributeDefinition
  3

  2
C
 70
     8
280
     0
  0
ATTDEF
  5
7F
330
6E
100
AcDbEntity
  8
AM_6
100
AcDbText
 10
46.68500000000001
 20
64.63499999999999
 30
0.0
 40
0.5
  1
116.7
100
AcDbAttributeDefinition
  3

  2
D
 70
     8
280
     0
  0
ATTDEF
  5
80
330
6E
100
AcDbEntity
  8
AM_6
100
AcDbText
 10
46.68500000000001
 20
64.13499999999999
 30
0.0
 40
0.5
  1
9.1
100
AcDbAttributeDefinition
  3

  2
H
 70
     8
280
     0
  0
ATTDEF
  5
81
330
6E
100
AcDbEntity
  8
AM_6
100
AcDbText
 10
46.68500000000001
 20
63.63499999999999
 30
0.0
 40
0.5
  1
13.9
100
AcDbAttributeDefinition
  3

  2
J
 70
     8
280
     0
  0
ATTDEF
  5
82
330
6E
100
AcDbEntity
  8
AM_6
100
AcDbText
 10
46.68500000000001
 20
63.13499999999999
 30
0.0
 40
0.5
  1
M10
100
AcDbAttributeDefinition
  3

  2
F
 70
     8
280
     0
  0
ATTDEF
  5
83
330
6E
100
AcDbEntity
  8
AM_6
100
AcDbText
 10
46.68500000000001
 20
62.63499999999999
 30
0.0
 40
0.5
  1
50.8
100
AcDbAttributeDefinition
  3

  2
L
 70
     8
280
     0
  0
ATTDEF
  5
84
330
6E
100
AcDbEntity
  8
AM_6
100
AcDbText
 10
46.68500000000001
 20
62.13499999999999
 30
0.0
 40
0.5
  1
79.4
100
AcDbAttributeDefinition
  3

  2
M
 70
     8
280
     0
  0
ATTDEF
  5
85
330
6E
100
AcDbEntity
  8
AM_6
100
AcDbText
 10
46.68500000000001
 20
61.63499999999999
 30
0.0
 40
0.5
  1
42.9
100
AcDbAttributeDefinition
  3

  2
Z
 70
     8
280
     0
  0
ATTDEF
  5
86
330
6E
100
AcDbEntity
  8
AM_6
100
AcDbText
 10
46.68500000000001
 20
61.13499999999999
 30
0.0
 40
0.5
  1
baldor
100
AcDbAttributeDefinition
  3

  2
COMPANY
 70
     8
280
     0
  0
INSERT
  5
88
330
6E
100
AcDbEntity
  8
0
100
AcDbBlockReference
  2
2_INS_GT_06_CR_0_in__129361_0
 10
0.0
 20
0.0
 30
0.0
  0
INSERT
  5
AE
330
6E
100
AcDbEntity
  8
0
100
AcDbBlockReference
  2
3_129982_0_in__129361_0
 10
0.0
 20
0.0
 30
0.0
  0
INSERT
  5
F2
330
6E
100
AcDbEntity
  8
0
100
AcDbBlockReference
  2
4_F2B_GTEZ_06_SHCR_M_0_in__129361_0
 10
0.0
 20
0.0
 30
0.0
  0
ENDBLK
  5
71
330
6E
100
AcDbEntity
  8
0
100
AcDbBlockEnd
  0
BLOCK
  5
89
330
87
100
AcDbEntity
  8
0
100
AcDbBlockBegin
  2
2_INS_GT_06_CR_0_in__129361_0
 70
     2
 10
0.0
 20
0.0
 30
0.0
  3
2_INS_GT_06_CR_0_in__129361_0
  1

  0
ATTDEF
  5
8B
330
87
100
AcDbEntity
  8
AM_6
100
AcDbText
 10
35.70748611980416
 20
30.70748611980416
 30
0.0
 40
0.5
  1
INS-GT-CR-M
100
AcDbAttributeDefinition
  3

  2
NN
 70
     8
280
     0
  0
ATTDEF
  5
8C
330
87
100
AcDbEntity
  8
AM_6
100
AcDbText
 10
35.70748611980416
 20
30.20748611980416
 30
0.0
 40
0.5
  1
GT Normal Duty Corrosion Resistant Bearing Inserts
100
AcDbAttributeDefinition
  3

  2
NT
 70
     8
280
     0
  0
ATTDEF
  5
8D
330
87
100
AcDbEntity
  8
AM_6
100
AcDbText
 10
35.70748611980416
 20
29.70748611980416
 30
0.0
 40
0.5
  1
INS-GT-06-CR
100
AcDbAttributeDefinition
  3

  2
NB
 70
     8
280
     0
  0
ATTDEF
  5
8E
330
87
100
AcDbEntity
  8
AM_6
100
AcDbText
 10
35.70748611980416
 20
29.20748611980416
 30
0.0
 40
0.5
  1
$PN.
100
AcDbAttributeDefinition
  3

  2
NBSYN
 70
     8
280
     0
  0
ATTDEF
  5
8F
330
87
100
AcDbEntity
  8
AM_6
100
AcDbText
 10
35.70748611980416
 20
28.70748611980416
 30
0.0
 40
0.5
  1
INS-GT-06-CR
100
AcDbAttributeDefinition
  3

  2
LINA
 70
     8
280
     0
  0
ATTDEF
  5
90
330
87
100
AcDbEntity
  8
AM_6
100
AcDbText
 10
35.70748611980416
 20
28.20748611980416
 30
0.0
 40
0.5
  1
206
100
AcDbAttributeDefinition
  3

  2
SERIES
 70
     8
280
     0
  0
ATTDEF
  5
91
330
87
100
AcDbEntity
  8
AM_6
100
AcDbText
 10
35.70748611980416
 20
27.70748611980416
 30
0.0
 40
0.5
  1
INS-GT-06-CR
100
AcDbAttributeDefinition
  3

  2
PN
 70
     8
280
     0
  0
ATTDEF
  5
92
330
87
100
AcDbEntity
  8
AM_6
100
AcDbText
 10
35.70748611980416
 20
27.20748611980416
 30
0.0
 40
0.5
  1
INS-GT-06-CR
100
AcDbAttributeDefinition
  3

  2
DESCRIPTION
 70
     8
280
     0
  0
ATTDEF
  5
93
330
87
100
AcDbEntity
  8
AM_6
100
AcDbText
 10
35.70748611980416
 20
26.70748611980416
 30
0.0
 40
0.5
  1
40.9
100
AcDbAttributeDefinition
  3

  2
A
 70
     8
280
     0
  0
ATTDEF
  5
94
330
87
100
AcDbEntity
  8
AM_6
100
AcDbText
 10
35.70748611980416
 20
26.20748611980416
 30
0.0
 40
0.5
  1
18.0
100
AcDbAttributeDefinition
  3

  2
C
 70
     8
280
     0
  0
ATTDEF
  5
95
330
87
100
AcDbEntity
  8
AM_6
100
AcDbText
 10
35.70748611980416
 20
25.70748611980416
 30
0.0
 40
0.5
  1
62.0
100
AcDbAttributeDefinition
  3

  2
D
 70
     8
280
     0
  0
ATTDEF
  5
96
330
87
100
AcDbEntity
  8
AM_6
100
AcDbText
 10
35.70748611980416
 20
25.20748611980416
 30
0.0
 40
0.5
  1
4.8
100
AcDbAttributeDefinition
  3

  2
J
 70
     8
280
     0
  0
ATTDEF
  5
97
330
87
100
AcDbEntity
  8
AM_6
100
AcDbText
 10
35.70748611980416
 20
24.70748611980416
 30
0.0
 40
0.5
  1
50.8
100
AcDbAttributeDefinition
  3

  2
L
 70
     8
280
     0
  0
ATTDEF
  5
98
330
87
100
AcDbEntity
  8
AM_6
100
AcDbText
 10
35.70748611980416
 20
24.20748611980416
 30
0.0
 40
0.5
  1
10 - 32 x 1/4
100
AcDbAttributeDefinition
  3

  2
N
 70
     8
280
     0
  0
ATTDEF
  5
99
330
87
100
AcDbEntity
  8
AM_6
100
AcDbText
 10
35.70748611980416
 20
23.70748611980416
 30
0.0
 40
0.5
  1
13.5
100
AcDbAttributeDefinition
  3

  2
W
 70
     8
280
     0
  0
ATTDEF
  5
9A
330
87
100
AcDbEntity
  8
AM_6
100
AcDbText
 10
35.70748611980416
 20
23.20748611980416
 30
0.0
 40
0.5
  1
26.2
100
AcDbAttributeDefinition
  3

  2
X
 70
     8
280
     0
  0
ATTDEF
  5
9B
330
87
100
AcDbEntity
  8
AM_6
100
AcDbText
 10
35.70748611980416
 20
22.70748611980416
 30
0.0
 40
0.5
  1
27.4
100
AcDbAttributeDefinition
  3

  2
Y
 70
     8
280
     0
  0
ATTDEF
  5
9C
330
87
100
AcDbEntity
  8
AM_6
100
AcDbText
 10
35.70748611980416
 20
22.20748611980416
 30
0.0
 40
0.5
  1
baldor
100
AcDbAttributeDefinition
  3

  2
COMPANY
 70
     8
280
     0
  0
CIRCLE
  5
9F
330
87
100
AcDbEntity
  8
AM_9
100
AcDbCircle
 10
0.0000000000000017
 20
0.0
 30
0.0
 40
19.7165902587875
  0
CIRCLE
  5
A0
330
87
100
AcDbEntity
  8
AM_9
100
AcDbCircle
 10
0.0000000000000017
 20
0.0
 30
0.0
 40
29.2
  0
CIRCLE
  5
A1
330
87
100
AcDbEntity
  8
AM_9
100
AcDbCircle
 10
0.0000000000000017
 20
0.0
 30
0.0
 40
30.04737846609265
  0
CIRCLE
  5
A2
330
87
100
AcDbEntity
  8
AM_9
100
AcDbCircle
 10
0.0000000000000017
 20
0.0
 30
0.0
 40
20.76349206349206
  0
CIRCLE
  5
A3
330
87
100
AcDbEntity
  8
AM_9
100
AcDbCircle
 10
0.0000000000000017
 20
0.0
 30
0.0
 40
21.85777777777778
  0
CIRCLE
  5
A4
330
87
100
AcDbEntity
  8
AM_9
100
AcDbCircle
 10
0.0000000000000017
 20
0.0
 30
0.0
 40
22.57777777777778
  0
CIRCLE
  5
A6
330
87
100
AcDbEntity
  8
AM_4
100
AcDbCircle
 10
0.0000000000000017
 20
0.0
 30
0.0
 40
30.70748611980416
  0
CIRCLE
  5
A7
330
87
100
AcDbEntity
  8
AM_4
100
AcDbCircle
 10
0.0000000000000017
 20
0.0
 30
0.0
 40
30.52973615199332
  0
CIRCLE
  5
A8
330
87
100
AcDbEntity
  8
AM_4
100
AcDbCircle
 10
0.0000000000000017
 20
0.0
 30
0.0
 40
30.22737846609265
  0
CIRCLE
  5
A9
330
87
100
AcDbEntity
  8
AM_4
100
AcDbCircle
 10
0.0000000000000017
 20
0.0
 30
0.0
 40
30.22138915537779
  0
CIRCLE
  5
AA
330
87
100
AcDbEntity
  8
AM_4
100
AcDbCircle
 10
0.0000000000000017
 20
0.0
 30
0.0
 40
29.38484775794256
  0
CIRCLE
  5
AB
330
87
100
AcDbEntity
  8
AM_4
100
AcDbCircle
 10
0.0000000000000017
 20
0.0
 30
0.0
 40
28.71454475000586
  0
ARC
  5
AC
330
87
100
AcDbEntity
  8
AM_4
100
AcDbCircle
 10
0.0000000000000017
 20
-0.0000000000036806
 30
0.0
 40
18.94920634921003
100
AcDbArc
 50
86.21769022246676
 51
93.78230977753324
  0
ENDBLK
  5
8A
330
87
100
AcDbEntity
  8
0
100
AcDbBlockEnd
  0
BLOCK
  5
AF
330
AD
100
AcDbEntity
  8
0
100
AcDbBlockBegin
  2
3_129982_0_in__129361_0
 70
     2
 10
0.0
 20
0.0
 30
0.0
  3
3_129982_0_in__129361_0
  1

  0
ATTDEF
  5
B1
330
AD
100
AcDbEntity
  8
AM_6
100
AcDbText
 10
30.28635995947222
 20
25.39979515883224
 30
0.0
 40
0.5
  1
Grip Tight Adapter and Nut - Corrosion Resistant Metric Bore
100
AcDbAttributeDefinition
  3

  2
NN
 70
     8
280
     0
  0
ATTDEF
  5
B2
330
AD
100
AcDbEntity
  8
AM_6
100
AcDbText
 10
30.28635995947222
 20
24.89979515883224
 30
0.0
 40
0.5
  1
GT and GTM Adapter & Lock Nut Assemblies
100
AcDbAttributeDefinition
  3

  2
NT
 70
     8
280
     0
  0
ATTDEF
  5
B3
330
AD
100
AcDbEntity
  8
AM_6
100
AcDbText
 10
30.28635995947222
 20
24.39979515883224
 30
0.0
 40
0.5
  1
129982
100
AcDbAttributeDefinition
  3

  2
NB
 70
     8
280
     0
  0
ATTDEF
  5
B4
330
AD
100
AcDbEntity
  8
AM_6
100
AcDbText
 10
30.28635995947222
 20
23.89979515883224
 30
0.0
 40
0.5
  1
$PN.
100
AcDbAttributeDefinition
  3

  2
NBSYN
 70
     8
280
     0
  0
ATTDEF
  5
B5
330
AD
100
AcDbEntity
  8
AM_6
100
AcDbText
 10
30.28635995947222
 20
23.39979515883224
 30
0.0
 40
0.5
  1
129982
100
AcDbAttributeDefinition
  3

  2
LINA
 70
     8
280
     0
  0
ATTDEF
  5
B6
330
AD
100
AcDbEntity
  8
AM_6
100
AcDbText
 10
30.28635995947222
 20
22.89979515883224
 30
0.0
 40
0.5
  1
206
100
AcDbAttributeDefinition
  3

  2
SERIES
 70
     8
280
     0
  0
ATTDEF
  5
B7
330
AD
100
AcDbEntity
  8
AM_6
100
AcDbText
 10
30.28635995947222
 20
22.39979515883224
 30
0.0
 40
0.5
  1
30
100
AcDbAttributeDefinition
  3

  2
SS
 70
     8
280
     0
  0
ATTDEF
  5
B8
330
AD
100
AcDbEntity
  8
AM_6
100
AcDbText
 10
30.28635995947222
 20
21.89979515883224
 30
0.0
 40
0.5
  1
129982
100
AcDbAttributeDefinition
  3

  2
PN
 70
     8
280
     0
  0
ATTDEF
  5
B9
330
AD
100
AcDbEntity
  8
AM_6
100
AcDbText
 10
30.28635995947222
 20
21.39979515883224
 30
0.0
 40
0.5
  1
AN-GT-06-30M-CR
100
AcDbAttributeDefinition
  3

  2
DESCRIPTION
 70
     8
280
     0
  0
ATTDEF
  5
BA
330
AD
100
AcDbEntity
  8
AM_6
100
AcDbText
 10
30.28635995947222
 20
20.89979515883224
 30
0.0
 40
0.5
  1
40.9
100
AcDbAttributeDefinition
  3

  2
A
 70
     8
280
     0
  0
ATTDEF
  5
BB
330
AD
100
AcDbEntity
  8
AM_6
100
AcDbText
 10
30.28635995947222
 20
20.39979515883224
 30
0.0
 40
0.5
  1
18.0
100
AcDbAttributeDefinition
  3

  2
C
 70
     8
280
     0
  0
ATTDEF
  5
BC
330
AD
100
AcDbEntity
  8
AM_6
100
AcDbText
 10
30.28635995947222
 20
19.89979515883224
 30
0.0
 40
0.5
  1
62.0
100
AcDbAttributeDefinition
  3

  2
D
 70
     8
280
     0
  0
ATTDEF
  5
BD
330
AD
100
AcDbEntity
  8
AM_6
100
AcDbText
 10
30.28635995947222
 20
19.39979515883224
 30
0.0
 40
0.5
  1
4.8
100
AcDbAttributeDefinition
  3

  2
J
 70
     8
280
     0
  0
ATTDEF
  5
BE
330
AD
100
AcDbEntity
  8
AM_6
100
AcDbText
 10
30.28635995947222
 20
18.89979515883224
 30
0.0
 40
0.5
  1
50.8
100
AcDbAttributeDefinition
  3

  2
L
 70
     8
280
     0
  0
ATTDEF
  5
BF
330
AD
100
AcDbEntity
  8
AM_6
100
AcDbText
 10
30.28635995947222
 20
18.39979515883224
 30
0.0
 40
0.5
  1
10 - 32 x 1/4
100
AcDbAttributeDefinition
  3

  2
N
 70
     8
280
     0
  0
ATTDEF
  5
C0
330
AD
100
AcDbEntity
  8
AM_6
100
AcDbText
 10
30.28635995947222
 20
17.89979515883224
 30
0.0
 40
0.5
  1
13.5
100
AcDbAttributeDefinition
  3

  2
W
 70
     8
280
     0
  0
ATTDEF
  5
C1
330
AD
100
AcDbEntity
  8
AM_6
100
AcDbText
 10
30.28635995947222
 20
17.39979515883224
 30
0.0
 40
0.5
  1
26.2
100
AcDbAttributeDefinition
  3

  2
X
 70
     8
280
     0
  0
ATTDEF
  5
C2
330
AD
100
AcDbEntity
  8
AM_6
100
AcDbText
 10
30.28635995947222
 20
16.89979515883224
 30
0.0
 40
0.5
  1
27.4
100
AcDbAttributeDefinition
  3

  2
Y
 70
     8
280
     0
  0
ATTDEF
  5
C3
330
AD
100
AcDbEntity
  8
AM_6
100
AcDbText
 10
30.28635995947222
 20
16.39979515883224
 30
0.0
 40
0.5
  1
baldor
100
AcDbAttributeDefinition
  3

  2
COMPANY
 70
     8
280
     0
  0
LINE
  5
C4
330
AD
100
AcDbEntity
  8
AM_9
100
AcDbLine
 10
1.250000000000002
 20
18.94943254666444
 30
0.0
 11
1.250000000000002
 21
19.72416421191825
 31
0.0
  0
LINE
  5
C5
330
AD
100
AcDbEntity
  8
AM_9
100
AcDbLine
 10
-1.249999999999998
 20
18.94943254666444
 30
0.0
 11
-1.249999999999998
 21
19.72416421191825
 31
0.0
  0
ARC
  5
C6
330
AD
100
AcDbEntity
  8
AM_9
100
AcDbCircle
 10
0.0000000000000018
 20
0.0000000000000018
 30
0.0
 40
19.76373329760136
100
AcDbArc
 50
93.62621567386442
 51
86.37378432613559
  0
CIRCLE
  5
C7
330
AD
100
AcDbEntity
  8
AM_9
100
AcDbCircle
 10
0.0000000000000017
 20
0.0
 30
0.0
 40
20.76349206349208
  0
CIRCLE
  5
C8
330
AD
100
AcDbEntity
  8
AM_9
100
AcDbCircle
 10
0.0000000000000017
 20
0.0
 30
0.0
 40
22.8317777777778
  0
LINE
  5
C9
330
AD
100
AcDbEntity
  8
AM_9
100
AcDbLine
 10
-24.9682
 20
-1.981199999999999
 30
0.0
 11
-19.4818
 21
-1.981199999999999
 31
0.0
  0
LINE
  5
CA
330
AD
100
AcDbEntity
  8
AM_9
100
AcDbLine
 10
-19.4818
 20
1.981199999999999
 30
0.0
 11
-24.9682
 21
1.981199999999999
 31
0.0
  0
LINE
  5
CB
330
AD
100
AcDbEntity
  8
AM_9
100
AcDbLine
 10
-19.4818
 20
-1.981199999999999
 30
0.0
 11
-19.05
 21
-2.412999999999998
 31
0.0
  0
LINE
  5
CC
330
AD
100
AcDbEntity
  8
AM_9
100
AcDbLine
 10
-19.05
 20
2.412999999999998
 30
0.0
 11
-19.4818
 21
1.981199999999999
 31
0.0
  0
LINE
  5
CD
330
AD
100
AcDbEntity
  8
AM_9
100
AcDbLine
 10
-19.05
 20
2.412999999999998
 30
0.0
 11
-19.05
 21
-2.412999999999998
 31
0.0
  0
LINE
  5
CE
330
AD
100
AcDbEntity
  8
AM_9
100
AcDbLine
 10
-19.4818
 20
1.981199999999999
 30
0.0
 11
-19.4818
 21
-1.981199999999999
 31
0.0
  0
LINE
  5
CF
330
AD
100
AcDbEntity
  8
AM_9
100
AcDbLine
 10
-24.9682
 20
1.981199999999999
 30
0.0
 11
-25.29157987183648
 21
2.304579871836474
 31
0.0
  0
LINE
  5
D0
330
AD
100
AcDbEntity
  8
AM_9
100
AcDbLine
 10
-25.29144652932979
 20
-2.304446529329793
 30
0.0
 11
-24.9682
 21
-1.981199999999999
 31
0.0
  0
LINE
  5
D1
330
AD
100
AcDbEntity
  8
AM_9
100
AcDbLine
 10
-24.9682
 20
1.981199999999999
 30
0.0
 11
-24.9682
 21
-1.981199999999999
 31
0.0
  0
LINE
  5
D2
330
AD
100
AcDbEntity
  8
AM_9
100
AcDbLine
 10
-25.30050357239649
 20
2.246000664103398
 30
0.0
 11
-25.29492955499098
 21
2.307929550060928
 31
0.0
  0
LWPOLYLINE
  5
D3
330
AD
100
AcDbEntity
  8
AM_9
100
AcDbPolyline
 90
        8
 70
     0
 43
0.0
 10
-25.39700520661733
 20
0.3900340178150752
 10
-25.39564476302661
 20
0.4703478182786595
 10
-25.38643016692052
 20
0.830158647529539
 10
-25.35777478450607
 20
1.463987014378448
 10
-25.34092970714361
 20
1.731265888766631
 10
-25.32445150031309
 20
1.957589387049899
 10
-25.31030186287101
 20
2.132749307900196
 10
-25.30050357239649
 20
2.246000664103398
  0
LINE
  5
D4
330
AD
100
AcDbEntity
  8
AM_9
100
AcDbLine
 10
-25.39774360016618
 20
0.3385557859764755
 30
0.0
 11
-25.39700520661733
 21
0.3900340178150752
 31
0.0
  0
LINE
  5
D5
330
AD
100
AcDbEntity
  8
AM_9
100
AcDbLine
 10
-25.39659721771324
 20
-0.4157520429783665
 30
0.0
 11
-25.39755838185155
 21
-0.3521764336837159
 31
0.0
  0
LWPOLYLINE
  5
D6
330
AD
100
AcDbEntity
  8
AM_9
100
AcDbPolyline
 90
        6
 70
     0
 43
0.0
 10
-25.30090447356489
 20
-2.241480051114557
 10
-25.3115839281897
 20
-2.117479408686072
 10
-25.32735971175893
 20
-1.919596319847178
 10
-25.34499083646173
 20
-1.67076015623775
 10
-25.36358383371394
 20
-1.359637859933721
 10
-25.36497136858482
 20
-1.333501957581207
  0
LINE
  5
D7
330
AD
100
AcDbEntity
  8
AM_9
100
AcDbLine
 10
-25.29492955482608
 20
-2.307929551868247
 30
0.0
 11
-25.30090447356489
 21
-2.241480051114557
 31
0.0
  0
LINE
  5
D9
330
AD
100
AcDbEntity
  8
AM_5
100
AcDbLine
 10
-25.28512272068302
 20
-2.412999999999998
 30
0.0
 11
-19.05
 21
-2.412999999999998
 31
0.0
  0
LINE
  5
DA
330
AD
100
AcDbEntity
  8
AM_5
100
AcDbLine
 10
-25.28512272068302
 20
2.413000000000002
 30
0.0
 11
-19.05
 21
2.413000000000002
 31
0.0
  0
LINE
  5
DB
330
AD
100
AcDbEntity
  8
AM_4
100
AcDbLine
 10
-13.93179148018435
 20
-19.33057068413452
 30
0.0
 11
-14.72164094881876
 21
-20.6986300941406
 31
0.0
  0
LINE
  5
DC
330
AD
100
AcDbEntity
  8
AM_4
100
AcDbLine
 10
-14.72164094881877
 20
20.69863009414058
 30
0.0
 11
-13.93179148018436
 21
19.3305706841345
 31
0.0
  0
ARC
  5
DD
330
AD
100
AcDbEntity
  8
AM_4
100
AcDbCircle
 10
-0.000000000000032
 20
0.0000000000000178
 30
0.0
 40
25.39999999999996
100
AcDbArc
 50
125.4218626924051
 51
179.1426289878456
  0
LINE
  5
DE
330
AD
100
AcDbEntity
  8
AM_4
100
AcDbLine
 10
-25.39715627272193
 20
0.3800700710933154
 30
0.0
 11
-25.39715627272193
 21
-0.3800700710933208
 31
0.0
  0
ARC
  5
DF
330
AD
100
AcDbEntity
  8
AM_4
100
AcDbCircle
 10
-0.0000000000000107
 20
-0.0000000000000098
 30
0.0
 40
25.39999999999999
100
AcDbArc
 50
180.8573710121545
 51
234.5781373075949
  0
LINE
  5
E0
330
AD
100
AcDbEntity
  8
AM_4
100
AcDbLine
 10
-10.56471901065345
 20
-23.09863009414059
 30
0.0
 11
-9.774869542019042
 21
-21.73057068413452
 31
0.0
  0
LINE
  5
E1
330
AD
100
AcDbEntity
  8
AM_4
100
AcDbLine
 10
23.70666102220341
 20
-2.4
 30
0.0
 11
25.28635995947222
 21
-2.4
 31
0.0
  0
ARC
  5
E2
330
AD
100
AcDbEntity
  8
AM_4
100
AcDbCircle
 10
0.000000000000004
 20
-0.0000000000000071
 30
0.0
 40
25.39999999999999
100
AcDbArc
 50
245.4218626924051
 51
354.5781373075948
  0
LINE
  5
E3
330
AD
100
AcDbEntity
  8
AM_4
100
AcDbLine
 10
1.250000000000002
 20
14.94782592887675
 30
0.0
 11
1.250000000000002
 21
18.94920634920635
 31
0.0
  0
LINE
  5
E4
330
AD
100
AcDbEntity
  8
AM_4
100
AcDbLine
 10
-1.249999999999998
 20
14.94782592887675
 30
0.0
 11
-1.249999999999999
 21
18.94920634920635
 31
0.0
  0
LINE
  5
E5
330
AD
100
AcDbEntity
  8
AM_4
100
AcDbLine
 10
-13.93179148018436
 20
19.3305706841345
 30
0.0
 11
-9.77486954201906
 21
21.73057068413451
 31
0.0
  0
LINE
  5
E6
330
AD
100
AcDbEntity
  8
AM_4
100
AcDbLine
 10
-1.249999999999999
 20
18.94920634920635
 30
0.0
 11
1.250000000000002
 21
18.94920634920635
 31
0.0
  0
LINE
  5
E7
330
AD
100
AcDbEntity
  8
AM_4
100
AcDbLine
 10
23.70666102220341
 20
2.4
 30
0.0
 11
23.70666102220341
 21
-2.4
 31
0.0
  0
LINE
  5
E8
330
AD
100
AcDbEntity
  8
AM_4
100
AcDbLine
 10
25.28635995947222
 20
2.4
 30
0.0
 11
23.70666102220341
 21
2.4
 31
0.0
  0
LINE
  5
E9
330
AD
100
AcDbEntity
  8
AM_4
100
AcDbLine
 10
-9.77486954201906
 20
21.73057068413451
 30
0.0
 11
-10.56471901065347
 21
23.09863009414059
 31
0.0
  0
ARC
  5
EA
330
AD
100
AcDbEntity
  8
AM_4
100
AcDbCircle
 10
0.0000000000000036
 20
-0.0000000000000018
 30
0.0
 40
24.68
100
AcDbArc
 50
125.5805318564098
 51
234.4194681435902
  0
LINE
  5
EB
330
AD
100
AcDbEntity
  8
AM_4
100
AcDbLine
 10
-9.774869542019042
 20
-21.73057068413452
 30
0.0
 11
-13.93179148018435
 21
-19.33057068413452
 31
0.0
  0
ARC
  5
EC
330
AD
100
AcDbEntity
  8
AM_4
100
AcDbCircle
 10
0.0000000000000091
 20
-0.0000000000000071
 30
0.0
 40
24.67999999999999
100
AcDbArc
 50
245.5805318564098
 51
354.4194681435903
  0
ARC
  5
ED
330
AD
100
AcDbEntity
  8
AM_4
100
AcDbCircle
 10
0.0000000000000107
 20
0.0000000000000124
 30
0.0
 40
25.39999999999999
100
AcDbArc
 50
5.421862692405187
 51
114.5781373075949
  0
ARC
  5
EE
330
AD
100
AcDbEntity
  8
AM_4
100
AcDbCircle
 10
0.0
 20
0.0000000000000071
 30
0.0
 40
24.68
100
AcDbArc
 50
5.580531856409738
 51
114.4194681435902
  0
ARC
  5
EF
330
AD
100
AcDbEntity
  8
AM_4
100
AcDbCircle
 10
0.0000000000000018
 20
0.0000000000000011
 30
0.0
 40
15.0
100
AcDbArc
 50
94.78019184719916
 51
85.21980815280085
  0
ARC
  5
F0
330
AD
100
AcDbEntity
  8
AM_4
100
AcDbCircle
 10
0.0000000000000018
 20
0.0000000000000022
 30
0.0
 40
18.94920634920635
100
AcDbArc
 50
93.78230977753398
 51
86.21769022246603
  0
ENDBLK
  5
B0
330
AD
100
AcDbEntity
  8
0
100
AcDbBlockEnd
  0
BLOCK
  5
F3
330
F1
100
AcDbEntity
  8
0
100
AcDbBlockBegin
  2
4_F2B_GTEZ_06_SHCR_M_0_in__129361_0
 70
     2
 10
0.0
 20
0.0
 30
0.0
  3
4_F2B_GTEZ_06_SHCR_M_0_in__129361_0
  1

  0
ATTDEF
  5
F5
330
F1
100
AcDbEntity
  8
AM_6
100
AcDbText
 10
46.68500000000001
 20
70.63499999999999
 30
0.0
 40
0.5
  1
F2B-GTEZ- SHCR-M
100
AcDbAttributeDefinition
  3

  2
NN
 70
     8
280
     0
  0
ATTDEF
  5
F6
330
F1
100
AcDbEntity
  8
AM_6
100
AcDbText
 10
46.68500000000001
 20
70.13499999999999
 30
0.0
 40
0.5
  1
GTEZ  Normal Duty Stainless Steel Housed 2 Bolt Flange Bearings
100
AcDbAttributeDefinition
  3

  2
NT
 70
     8
280
     0
  0
ATTDEF
  5
F7
330
F1
100
AcDbEntity
  8
AM_6
100
AcDbText
 10
46.68500000000001
 20
69.63499999999999
 30
0.0
 40
0.5
  1
F2B-GTEZ-06-SHCR-M
100
AcDbAttributeDefinition
  3

  2
NB
 70
     8
280
     0
  0
ATTDEF
  5
F8
330
F1
100
AcDbEntity
  8
AM_6
100
AcDbText
 10
46.68500000000001
 20
69.13499999999999
 30
0.0
 40
0.5
  1
$PN.$LUBE.
100
AcDbAttributeDefinition
  3

  2
NBSYN
 70
     8
280
     0
  0
ATTDEF
  5
F9
330
F1
100
AcDbEntity
  8
AM_6
100
AcDbText
 10
46.68500000000001
 20
68.63499999999999
 30
0.0
 40
0.5
  1
F2B-GTEZ-06-SHCR-M
100
AcDbAttributeDefinition
  3

  2
LINA
 70
     8
280
     0
  0
ATTDEF
  5
FA
330
F1
100
AcDbEntity
  8
AM_6
100
AcDbText
 10
46.68500000000001
 20
68.13499999999999
 30
0.0
 40
0.5
  1
206
100
AcDbAttributeDefinition
  3

  2
SERIES
 70
     8
280
     0
  0
ATTDEF
  5
FB
330
F1
100
AcDbEntity
  8
AM_6
100
AcDbText
 10
46.68500000000001
 20
67.63499999999999
 30
0.0
 40
0.5
  1
30
100
AcDbAttributeDefinition
  3

  2
SS
 70
     8
280
     0
  0
ATTDEF
  5
FC
330
F1
100
AcDbEntity
  8
AM_6
100
AcDbText
 10
46.68500000000001
 20
67.13499999999999
 30
0.0
 40
0.5
  1
F2B-GTEZ-06-SHCR-M
100
AcDbAttributeDefinition
  3

  2
PN
 70
     8
280
     0
  0
ATTDEF
  5
FD
330
F1
100
AcDbEntity
  8
AM_6
100
AcDbText
 10
46.68500000000001
 20
66.63499999999999
 30
0.0
 40
0.5
  1
F2B-GTEZ-06-SHCR
100
AcDbAttributeDefinition
  3

  2
DESCRIPTION
 70
     8
280
     0
  0
ATTDEF
  5
FE
330
F1
100
AcDbEntity
  8
AM_6
100
AcDbText
 10
46.68500000000001
 20
66.13499999999999
 30
0.0
 40
0.5
  1
0.98
100
AcDbAttributeDefinition
  3

  2
WEIGHT
 70
     8
280
     0
  0
ATTDEF
  5
FF
330
F1
100
AcDbEntity
  8
AM_6
100
AcDbText
 10
46.68500000000001
 20
65.63499999999999
 30
0.0
 40
0.5
  1
40.9
100
AcDbAttributeDefinition
  3

  2
A
 70
     8
280
     0
  0
ATTDEF
  5
100
330
F1
100
AcDbEntity
  8
AM_6
100
AcDbText
 10
46.68500000000001
 20
65.13499999999999
 30
0.0
 40
0.5
  1
140.1
100
AcDbAttributeDefinition
  3

  2
B
 70
     8
280
     0
  0
ATTDEF
  5
101
330
F1
100
AcDbEntity
  8
AM_6
100
AcDbText
 10
46.68500000000001
 20
64.63499999999999
 30
0.0
 40
0.5
  1
44.1
100
AcDbAttributeDefinition
  3

  2
C
 70
     8
280
     0
  0
ATTDEF
  5
102
330
F1
100
AcDbEntity
  8
AM_6
100
AcDbText
 10
46.68500000000001
 20
64.13499999999999
 30
0.0
 40
0.5
  1
116.7
100
AcDbAttributeDefinition
  3

  2
D
 70
     8
280
     0
  0
ATTDEF
  5
103
330
F1
100
AcDbEntity
  8
AM_6
100
AcDbText
 10
46.68500000000001
 20
63.63499999999999
 30
0.0
 40
0.5
  1
M10
100
AcDbAttributeDefinition
  3

  2
F
 70
     8
280
     0
  0
ATTDEF
  5
104
330
F1
100
AcDbEntity
  8
AM_6
100
AcDbText
 10
46.68500000000001
 20
63.13499999999999
 30
0.0
 40
0.5
  1
9.1
100
AcDbAttributeDefinition
  3

  2
H
 70
     8
280
     0
  0
ATTDEF
  5
105
330
F1
100
AcDbEntity
  8
AM_6
100
AcDbText
 10
46.68500000000001
 20
62.63499999999999
 30
0.0
 40
0.5
  1
13.9
100
AcDbAttributeDefinition
  3

  2
J
 70
     8
280
     0
  0
ATTDEF
  5
106
330
F1
100
AcDbEntity
  8
AM_6
100
AcDbText
 10
46.68500000000001
 20
62.13499999999999
 30
0.0
 40
0.5
  1
50.8
100
AcDbAttributeDefinition
  3

  2
L
 70
     8
280
     0
  0
ATTDEF
  5
107
330
F1
100
AcDbEntity
  8
AM_6
100
AcDbText
 10
46.68500000000001
 20
61.63499999999999
 30
0.0
 40
0.5
  1
79.4
100
AcDbAttributeDefinition
  3

  2
M
 70
     8
280
     0
  0
ATTDEF
  5
108
330
F1
100
AcDbEntity
  8
AM_6
100
AcDbText
 10
46.68500000000001
 20
61.13499999999999
 30
0.0
 40
0.5
  1
42.9
100
AcDbAttributeDefinition
  3

  2
Z
 70
     8
280
     0
  0
ATTDEF
  5
109
330
F1
100
AcDbEntity
  8
AM_6
100
AcDbText
 10
46.68500000000001
 20
60.63499999999999
 30
0.0
 40
0.5
  1
baldor
100
AcDbAttributeDefinition
  3

  2
COMPANY
 70
     8
280
     0
  0
LINE
  5
10C
330
F1
100
AcDbEntity
  8
AM_7
100
AcDbLine
 10
24.88926456493221
 20
24.88926456493221
 30
0.0
 11
34.93576779236596
 21
34.93576779236596
 31
0.0
  0
LINE
  5
10D
330
F1
100
AcDbEntity
  8
AM_7
100
AcDbLine
 10
-12.28500000000005
 20
-58.34999999999998
 30
0.0
 11
12.28499999999999
 21
-58.34999999999998
 31
0.0
  0
LINE
  5
10E
330
F1
100
AcDbEntity
  8
AM_7
100
AcDbLine
 10
-0.0000000000000311
 20
-70.63499999999999
 30
0.0
 11
-0.0000000000000311
 21
-46.06499999999996
 31
0.0
  0
LINE
  5
10F
330
F1
100
AcDbEntity
  8
AM_7
100
AcDbLine
 10
-12.28499999999999
 20
58.34999999999998
 30
0.0
 11
12.28500000000005
 21
58.34999999999998
 31
0.0
  0
LINE
  5
110
330
F1
100
AcDbEntity
  8
AM_7
100
AcDbLine
 10
0.0000000000000284
 20
46.06499999999996
 30
0.0
 11
0.0000000000000284
 21
70.63499999999999
 31
0.0
  0
LINE
  5
111
330
F1
100
AcDbEntity
  8
AM_7
100
AcDbLine
 10
-41.685
 20
-0.0000000000000018
 30
0.0
 11
41.68500000000001
 21
-0.0000000000000018
 31
0.0
  0
LINE
  5
112
330
F1
100
AcDbEntity
  8
AM_7
100
AcDbLine
 10
0.000000000000004
 20
-41.685
 30
0.0
 11
0.000000000000004
 21
41.685
 31
0.0
  0
LINE
  5
113
330
F1
100
AcDbEntity
  8
AM_4
100
AcDbLine
 10
-11.7
 20
58.35000000000001
 30
0.0
 11
-15.54764845602214
 21
36.52890126308142
 31
0.0
  0
LINE
  5
114
330
F1
100
AcDbEntity
  8
AM_4
100
AcDbLine
 10
15.54764845602214
 20
36.52890126308143
 30
0.0
 11
11.7
 21
58.35000000000001
 31
0.0
  0
ARC
  5
115
330
F1
100
AcDbEntity
  8
AM_4
100
AcDbCircle
 10
-0.0000000000000027
 20
58.35
 30
0.0
 40
11.7
100
AcDbArc
 50
0.0
 51
180.0
  0
CIRCLE
  5
116
330
F1
100
AcDbEntity
  8
AM_4
100
AcDbCircle
 10
0.0
 20
58.35000000000001
 30
0.0
 40
5.4
  0
LINE
  5
117
330
F1
100
AcDbEntity
  8
AM_4
100
AcDbLine
 10
-15.54764845602215
 20
-36.52890126308141
 30
0.0
 11
-11.69999999999999
 21
-58.35000000000003
 31
0.0
  0
ARC
  5
118
330
F1
100
AcDbEntity
  8
AM_4
100
AcDbCircle
 10
0.0
 20
-58.35000000000001
 30
0.0
 40
11.69999999999999
100
AcDbArc
 50
180.0
 51
0.0
  0
LINE
  5
119
330
F1
100
AcDbEntity
  8
AM_4
100
AcDbLine
 10
11.69999999999999
 20
-58.35000000000001
 30
0.0
 11
15.54764845602215
 21
-36.52890126308142
 31
0.0
  0
CIRCLE
  5
11A
330
F1
100
AcDbEntity
  8
AM_4
100
AcDbCircle
 10
0.0
 20
-58.35000000000001
 30
0.0
 40
5.4
  0
LINE
  5
11B
330
F1
100
AcDbEntity
  8
AM_4
100
AcDbLine
 10
32.64366691777933
 20
34.99335944441375
 30
0.0
 11
34.99332040999393
 21
32.64370595219914
 31
0.0
  0
ARC
  5
11C
330
F1
100
AcDbEntity
  8
AM_4
100
AcDbCircle
 10
34.63980605382047
 20
32.29011352718607
 30
0.0
 40
0.4999999999999963
100
AcDbArc
 50
336.8014094863528
 51
44.99999999999998
  0
ARC
  5
11D
330
F1
100
AcDbEntity
  8
AM_4
100
AcDbCircle
 10
32.29011352718607
 20
34.63980605382049
 30
0.0
 40
0.4999999999999789
100
AcDbArc
 50
44.99999999999942
 51
113.198590513649
  0
LINE
  5
11E
330
F1
100
AcDbEntity
  8
AM_4
100
AcDbLine
 10
32.09315387789648
 20
35.0993785688295
 30
0.0
 11
35.09937856882949
 21
32.09315387789649
 31
0.0
  0
LINE
  5
11F
330
F1
100
AcDbEntity
  8
AM_4
100
AcDbLine
 10
32.09315387789648
 20
35.0993785688295
 30
0.0
 11
30.76125504068242
 21
34.52856478145205
 31
0.0
  0
LINE
  5
120
330
F1
100
AcDbEntity
  8
AM_4
100
AcDbLine
 10
34.52856478145205
 20
30.76125504068243
 30
0.0
 11
35.09937856882949
 21
32.09315387789649
 31
0.0
  0
LINE
  5
121
330
F1
100
AcDbEntity
  8
AM_4
100
AcDbLine
 10
30.76125504068242
 20
34.52856478145205
 30
0.0
 11
34.52856478145205
 21
30.76125504068243
 31
0.0
  0
ARC
  5
122
330
F1
100
AcDbEntity
  8
AM_4
100
AcDbCircle
 10
34.06899226644304
 20
30.95821468997199
 30
0.0
 40
0.4999999999999747
100
AcDbArc
 50
269.1570816963481
 51
336.801409486354
  0
ARC
  5
123
330
F1
100
AcDbEntity
  8
AM_4
100
AcDbCircle
 10
30.95821468997203
 20
34.06899226644301
 30
0.0
 40
0.5000000000000219
100
AcDbArc
 50
113.19859051365
 51
180.8429183036473
  0
LINE
  5
124
330
F1
100
AcDbEntity
  8
AM_4
100
AcDbLine
 10
31.90932487189285
 20
27.9495268972482
 30
0.0
 11
32.26287826248613
 21
28.30308028784147
 31
0.0
  0
LINE
  5
125
330
F1
100
AcDbEntity
  8
AM_4
100
AcDbLine
 10
28.30308028784146
 20
32.26287826248613
 30
0.0
 11
27.94952689724819
 21
31.90932487189286
 31
0.0
  0
LINE
  5
126
330
F1
100
AcDbEntity
  8
AM_4
100
AcDbLine
 10
29.49059541616615
 20
25.53079744152149
 30
0.0
 11
29.78800452833321
 21
25.82820655368855
 31
0.0
  0
LINE
  5
127
330
F1
100
AcDbEntity
  8
AM_4
100
AcDbLine
 10
25.82820655368855
 20
29.78800452833322
 30
0.0
 11
25.53079744152149
 21
29.49059541616615
 31
0.0
  0
LINE
  5
128
330
F1
100
AcDbEntity
  8
AM_4
100
AcDbLine
 10
30.4582687975233
 20
34.06163668192095
 30
0.0
 11
34.06163668192094
 21
30.4582687975233
 31
0.0
  0
LINE
  5
129
330
F1
100
AcDbEntity
  8
AM_4
100
AcDbLine
 10
28.30308028784146
 20
32.26287826248613
 30
0.0
 11
32.26287826248613
 21
28.30308028784147
 31
0.0
  0
ARC
  5
12A
330
F1
100
AcDbEntity
  8
AM_4
100
AcDbCircle
 10
34.03506463283492
 20
28.65221426105232
 30
0.0
 40
1.806250000000011
100
AcDbArc
 50
89.15708169634968
 51
191.1449738717057
  0
ARC
  5
12B
330
F1
100
AcDbEntity
  8
AM_4
100
AcDbCircle
 10
28.65221426105232
 20
34.03506463283492
 30
0.0
 40
1.806250000000006
100
AcDbArc
 50
258.8550261282941
 51
0.8429183036512035
  0
LINE
  5
12C
330
F1
100
AcDbEntity
  8
AM_4
100
AcDbLine
 10
27.10099875982433
 20
32.75785300931672
 30
0.0
 11
32.75785300931671
 21
27.10099875982434
 31
0.0
  0
LINE
  5
12D
330
F1
100
AcDbEntity
  8
AM_4
100
AcDbLine
 10
30.63653266575707
 20
24.97967841626469
 30
0.0
 11
32.75785300931671
 21
27.10099875982434
 31
0.0
  0
LINE
  5
12E
330
F1
100
AcDbEntity
  8
AM_4
100
AcDbLine
 10
24.97967841626469
 20
30.63653266575708
 30
0.0
 11
30.63653266575707
 21
24.97967841626469
 31
0.0
  0
LINE
  5
12F
330
F1
100
AcDbEntity
  8
AM_4
100
AcDbLine
 10
27.10099875982433
 20
32.75785300931672
 30
0.0
 11
24.97967841626469
 21
30.63653266575708
 31
0.0
  0
LWPOLYLINE
  5
130
330
F1
100
AcDbEntity
  8
AM_4
100
AcDbPolyline
 90
        3
 70
     0
 43
0.0
 10
31.34363944694361
 20
28.51521232219743
 10
32.01979992809708
 20
27.7771592409778
 10
32.64060937531332
 20
26.98375512582093
  0
LWPOLYLINE
  5
131
330
F1
100
AcDbEntity
  8
AM_4
100
AcDbPolyline
 90
        3
 70
     0
 43
0.0
 10
29.81218225056712
 20
29.81218225056713
 10
30.60213363018599
 20
29.19427875279843
 10
31.34363944694361
 20
28.51521232219743
  0
LWPOLYLINE
  5
132
330
F1
100
AcDbEntity
  8
AM_4
100
AcDbPolyline
 90
        3
 70
     0
 43
0.0
 10
30.75377629976048
 20
25.0969220502681
 10
29.9638249201416
 20
25.7148255480368
 10
29.22231910338397
 20
26.39389197863779
  0
LWPOLYLINE
  5
133
330
F1
100
AcDbEntity
  8
AM_4
100
AcDbPolyline
 90
        3
 70
     0
 43
0.0
 10
29.22231910338397
 20
26.39389197863779
 10
28.54615862223051
 20
27.13194505985743
 10
27.92534917501428
 20
27.92534917501429
  0
LINE
  5
134
330
F1
100
AcDbEntity
  8
AM_4
100
AcDbLine
 10
29.81218225056712
 20
29.81218225056713
 30
0.0
 11
27.92534917501428
 21
27.92534917501429
 31
0.0
  0
LWPOLYLINE
  5
135
330
F1
100
AcDbEntity
  8
AM_4
100
AcDbPolyline
 90
        3
 70
     0
 43
0.0
 10
28.51521232219742
 20
31.34363944694362
 10
29.19137280335089
 20
30.60558636572399
 10
29.81218225056712
 20
29.81218225056713
  0
LWPOLYLINE
  5
136
330
F1
100
AcDbEntity
  8
AM_4
100
AcDbPolyline
 90
        3
 70
     0
 43
0.0
 10
26.98375512582093
 20
32.64060937531332
 10
27.7737065054398
 20
32.02270587754462
 10
28.51521232219742
 20
31.34363944694362
  0
LWPOLYLINE
  5
137
330
F1
100
AcDbEntity
  8
AM_4
100
AcDbPolyline
 90
        3
 70
     0
 43
0.0
 10
26.39389197863779
 20
29.22231910338398
 10
25.71773149748433
 20
29.96037218460362
 10
25.09692205026809
 20
30.75377629976048
  0
LWPOLYLINE
  5
138
330
F1
100
AcDbEntity
  8
AM_4
100
AcDbPolyline
 90
        3
 70
     0
 43
0.0
 10
27.92534917501428
 20
27.92534917501429
 10
27.13539779539541
 20
28.54325267278299
 10
26.39389197863779
 20
29.22231910338398
  0
LINE
  5
139
330
F1
100
AcDbEntity
  8
AM_4
100
AcDbLine
 10
35.03407
 20
-0.4664779999999998
 30
0.0
 11
32.44401000000001
 21
-0.466478
 31
0.0
  0
LINE
  5
13A
330
F1
100
AcDbEntity
  8
AM_4
100
AcDbLine
 10
35.03407
 20
-1.86591
 30
0.0
 11
35.03407
 21
-0.4664779999999998
 31
0.0
  0
LINE
  5
13B
330
F1
100
AcDbEntity
  8
AM_4
100
AcDbLine
 10
34.96006
 20
-2.1769
 30
0.0
 11
35.03407
 21
-1.86591
 31
0.0
  0
LINE
  5
13C
330
F1
100
AcDbEntity
  8
AM_4
100
AcDbLine
 10
34.81206
 20
-2.41014
 30
0.0
 11
34.96006
 21
-2.1769
 31
0.0
  0
LINE
  5
13D
330
F1
100
AcDbEntity
  8
AM_4
100
AcDbLine
 10
34.59006
 20
-2.56563
 30
0.0
 11
34.81206
 21
-2.41014
 31
0.0
  0
LINE
  5
13E
330
F1
100
AcDbEntity
  8
AM_4
100
AcDbLine
 10
34.29405
 20
-2.64337
 30
0.0
 11
34.59006
 21
-2.56563
 31
0.0
  0
LINE
  5
13F
330
F1
100
AcDbEntity
  8
AM_4
100
AcDbLine
 10
33.18403
 20
-2.64337
 30
0.0
 11
34.29405
 21
-2.64337
 31
0.0
  0
LINE
  5
140
330
F1
100
AcDbEntity
  8
AM_4
100
AcDbLine
 10
32.888019
 20
-2.56563
 30
0.0
 11
33.18403
 21
-2.64337
 31
0.0
  0
LINE
  5
141
330
F1
100
AcDbEntity
  8
AM_4
100
AcDbLine
 10
32.666015
 20
-2.41014
 30
0.0
 11
32.888019
 21
-2.56563
 31
0.0
  0
LINE
  5
142
330
F1
100
AcDbEntity
  8
AM_4
100
AcDbLine
 10
32.44401000000001
 20
-1.865909999999998
 30
0.0
 11
32.518011
 21
-2.1769
 31
0.0
  0
LINE
  5
143
330
F1
100
AcDbEntity
  8
AM_4
100
AcDbLine
 10
32.44401000000001
 20
-0.466478
 30
0.0
 11
32.44401000000001
 21
-1.865909999999998
 31
0.0
  0
LINE
  5
144
330
F1
100
AcDbEntity
  8
AM_4
100
AcDbLine
 10
32.518011
 20
-2.1769
 30
0.0
 11
32.666015
 21
-2.41014
 31
0.0
  0
LINE
  5
145
330
F1
100
AcDbEntity
  8
AM_4
100
AcDbLine
 10
31.88129831696038
 20
-8.160570760957768
 30
0.0
 11
32.9744565885745
 21
-8.353324058427969
 31
0.0
  0
LINE
  5
146
330
F1
100
AcDbEntity
  8
AM_4
100
AcDbLine
 10
31.60328947422811
 20
-8.032600882034414
 30
0.0
 11
31.88129831696038
 21
-8.160570760957768
 31
0.0
  0
LINE
  5
147
330
F1
100
AcDbEntity
  8
AM_4
100
AcDbLine
 10
31.87213326971516
 20
8.373803747039911
 30
0.0
 11
32.24641946165954
 21
8.427303599972234
 31
0.0
  0
LINE
  5
148
330
F1
100
AcDbEntity
  8
AM_4
100
AcDbLine
 10
32.24641946165954
 20
8.427303599972234
 30
0.0
 11
33.28949706458431
 21
8.80695279946659
 31
0.0
  0
LINE
  5
149
330
F1
100
AcDbEntity
  8
AM_4
100
AcDbLine
 10
33.28949706458431
 20
8.80695279946659
 30
0.0
 11
33.61060408525917
 21
9.006555377038419
 31
0.0
  0
LINE
  5
14A
330
F1
100
AcDbEntity
  8
AM_4
100
AcDbLine
 10
33.61060408525917
 20
9.006555377038419
 30
0.0
 11
33.83556896872466
 21
9.253915541995026
 31
0.0
  0
LINE
  5
14B
330
F1
100
AcDbEntity
  8
AM_4
100
AcDbLine
 10
33.83556896872466
 20
9.253915541995026
 30
0.0
 11
34.00736595723208
 21
9.647382535832861
 31
0.0
  0
LINE
  5
14C
330
F1
100
AcDbEntity
  8
AM_4
100
AcDbLine
 10
34.04007562073554
 20
9.990236525183269
 30
0.0
 11
33.97666878128491
 21
10.38083614846891
 31
0.0
  0
LINE
  5
14D
330
F1
100
AcDbEntity
  8
AM_4
100
AcDbLine
 10
34.00736595723208
 20
9.647382535832861
 30
0.0
 11
34.04007562073554
 21
9.990236525183269
 31
0.0
  0
LINE
  5
14E
330
F1
100
AcDbEntity
  8
AM_4
100
AcDbLine
 10
31.15627746574728
 20
8.609671189673465
 30
0.0
 11
31.54079354382706
 21
8.41868559300672
 31
0.0
  0
LINE
  5
14F
330
F1
100
AcDbEntity
  8
AM_4
100
AcDbLine
 10
31.54079354382706
 20
8.41868559300672
 30
0.0
 11
31.87213326971516
 21
8.373803747039911
 31
0.0
  0
LINE
  5
150
330
F1
100
AcDbEntity
  8
AM_4
100
AcDbLine
 10
33.97666878128491
 20
10.38083614846891
 30
0.0
 11
33.33848997565213
 21
12.13421800651954
 31
0.0
  0
LINE
  5
151
330
F1
100
AcDbEntity
  8
AM_4
100
AcDbLine
 10
32.38122005710221
 20
-14.7642954920586
 30
0.0
 11
33.33848997565213
 21
-12.13421800651953
 31
0.0
  0
LINE
  5
152
330
F1
100
AcDbEntity
  8
AM_4
100
AcDbLine
 10
35.47808000000001
 20
0.0000000000000002
 30
0.0
 11
32.0
 21
0.0
 31
0.0
  0
LINE
  5
153
330
F1
100
AcDbEntity
  8
AM_4
100
AcDbLine
 10
31.82698384744074
 20
5.059336434449397
 30
0.0
 11
31.73523093018033
 21
4.72737547468039
 31
0.0
  0
LINE
  5
154
330
F1
100
AcDbEntity
  8
AM_4
100
AcDbLine
 10
32.518011
 20
-2.87661
 30
0.0
 11
32.814018
 21
-3.03211
 31
0.0
  0
LINE
  5
155
330
F1
100
AcDbEntity
  8
AM_4
100
AcDbLine
 10
31.39015954132757
 20
-6.258214338965848
 30
0.0
 11
31.26865443845046
 21
-6.947304019903551
 31
0.0
  0
LINE
  5
156
330
F1
100
AcDbEntity
  8
AM_4
100
AcDbLine
 10
31.26865443845046
 20
-6.947304019903551
 30
0.0
 11
31.27402953176131
 21
-7.342978580716424
 31
0.0
  0
LINE
  5
157
330
F1
100
AcDbEntity
  8
AM_4
100
AcDbLine
 10
31.27402953176131
 20
-7.342978580716424
 30
0.0
 11
31.36578331726261
 21
-7.67493461644667
 31
0.0
  0
LINE
  5
158
330
F1
100
AcDbEntity
  8
AM_4
100
AcDbLine
 10
31.36578331726261
 20
-7.67493461644667
 30
0.0
 11
31.60328947422811
 21
-8.032600882034414
 31
0.0
  0
LINE
  5
159
330
F1
100
AcDbEntity
  8
AM_4
100
AcDbLine
 10
35.40407
 20
-2.254640000000001
 30
0.0
 11
35.47808000000001
 21
-1.865909999999998
 31
0.0
  0
LINE
  5
15A
330
F1
100
AcDbEntity
  8
AM_4
100
AcDbLine
 10
32.9744565885745
 20
-8.353324058427969
 30
0.0
 11
33.17696509336967
 21
-7.204841256865132
 31
0.0
  0
LINE
  5
15B
330
F1
100
AcDbEntity
  8
AM_4
100
AcDbLine
 10
33.17696509336967
 20
-7.204841256865132
 30
0.0
 11
32.73970060295472
 21
-7.127739729499238
 31
0.0
  0
LINE
  5
15C
330
F1
100
AcDbEntity
  8
AM_4
100
AcDbLine
 10
32.73970060295472
 20
-7.127739729499238
 30
0.0
 11
32.61819550007762
 21
-7.816829410436941
 31
0.0
  0
LINE
  5
15D
330
F1
100
AcDbEntity
  8
AM_4
100
AcDbLine
 10
32.61819550007762
 20
-7.816829410436941
 30
0.0
 11
32.03517847740911
 21
-7.714027779128163
 31
0.0
  0
LINE
  5
15E
330
F1
100
AcDbEntity
  8
AM_4
100
AcDbLine
 10
32.03517847740911
 20
-7.714027779128163
 30
0.0
 11
31.83004836282299
 21
-7.598908386296696
 31
0.0
  0
LINE
  5
15F
330
F1
100
AcDbEntity
  8
AM_4
100
AcDbLine
 10
31.83004836282299
 20
-7.598908386296696
 30
0.0
 11
31.72479457710522
 21
-7.343511201096712
 31
0.0
  0
LINE
  5
160
330
F1
100
AcDbEntity
  8
AM_4
100
AcDbLine
 10
31.72479457710522
 20
-7.343511201096712
 30
0.0
 11
31.70591892886542
 21
-7.024405547269445
 31
0.0
  0
LINE
  5
161
330
F1
100
AcDbEntity
  8
AM_4
100
AcDbLine
 10
31.70591892886542
 20
-7.024405547269445
 30
0.0
 11
31.82742403174252
 21
-6.335315866331742
 31
0.0
  0
CIRCLE
  5
162
330
F1
100
AcDbEntity
  8
AM_4
100
AcDbCircle
 10
0.0
 20
0.0
 30
0.0
 40
31.0
  0
LINE
  5
163
330
F1
100
AcDbEntity
  8
AM_4
100
AcDbLine
 10
31.95430276880493
 20
-6.041905566056772
 30
0.0
 11
32.14055960914443
 21
-5.837911600247127
 31
0.0
  0
LINE
  5
164
330
F1
100
AcDbEntity
  8
AM_4
100
AcDbLine
 10
29.11289394659915
 20
-13.57472207196046
 30
0.0
 11
29.53012686715431
 21
-13.72658243579849
 31
0.0
  0
LINE
  5
165
330
F1
100
AcDbEntity
  8
AM_4
100
AcDbLine
 10
30.07016386514907
 20
-10.9446445864214
 30
0.0
 11
29.11289394659915
 21
-13.57472207196046
 31
0.0
  0
LINE
  5
166
330
F1
100
AcDbEntity
  8
AM_4
100
AcDbLine
 10
33.33848997565213
 20
-12.13421800651953
 30
0.0
 11
30.07016386514907
 21
-10.9446445864214
 31
0.0
  0
LINE
  5
167
330
F1
100
AcDbEntity
  8
AM_4
100
AcDbLine
 10
31.96398713654706
 20
-14.61243512822057
 30
0.0
 11
32.38122005710221
 21
-14.7642954920586
 31
0.0
  0
LINE
  5
168
330
F1
100
AcDbEntity
  8
AM_4
100
AcDbLine
 10
32.76171218267871
 20
-12.42070357704048
 30
0.0
 11
31.96398713654706
 21
-14.61243512822057
 31
0.0
  0
LINE
  5
169
330
F1
100
AcDbEntity
  8
AM_4
100
AcDbLine
 10
31.85770908763023
 20
-12.09167335875832
 30
0.0
 11
32.76171218267871
 21
-12.42070357704048
 31
0.0
  0
LINE
  5
16A
330
F1
100
AcDbEntity
  8
AM_4
100
AcDbLine
 10
31.16634888587144
 20
-13.9911699018002
 30
0.0
 11
31.85770908763023
 21
-12.09167335875832
 31
0.0
  0
LINE
  5
16B
330
F1
100
AcDbEntity
  8
AM_4
100
AcDbLine
 10
30.7491159653163
 20
-13.83930953796217
 30
0.0
 11
31.16634888587144
 21
-13.9911699018002
 31
0.0
  0
LINE
  5
16C
330
F1
100
AcDbEntity
  8
AM_4
100
AcDbLine
 10
31.44047616707509
 20
-11.93981299492029
 30
0.0
 11
30.7491159653163
 21
-13.83930953796217
 31
0.0
  0
LINE
  5
16D
330
F1
100
AcDbEntity
  8
AM_4
100
AcDbLine
 10
30.32785191328595
 20
-11.5348508846184
 30
0.0
 11
31.44047616707509
 21
-11.93981299492029
 31
0.0
  0
LINE
  5
16E
330
F1
100
AcDbEntity
  8
AM_4
100
AcDbLine
 10
29.53012686715431
 20
-13.72658243579849
 30
0.0
 11
30.32785191328595
 21
-11.5348508846184
 31
0.0
  0
LINE
  5
16F
330
F1
100
AcDbEntity
  8
AM_4
100
AcDbLine
 10
31.53053932049552
 20
-5.888239279314096
 30
0.0
 11
31.39015954132757
 21
-6.258214338965848
 31
0.0
  0
LINE
  5
170
330
F1
100
AcDbEntity
  8
AM_4
100
AcDbLine
 10
31.73029619481944
 20
-5.607679360942106
 30
0.0
 11
31.53053932049552
 21
-5.888239279314096
 31
0.0
  0
LINE
  5
171
330
F1
100
AcDbEntity
  8
AM_4
100
AcDbLine
 10
32.07580717708932
 20
-5.352819824350082
 30
0.0
 11
31.73029619481944
 21
-5.607679360942106
 31
0.0
  0
LINE
  5
172
330
F1
100
AcDbEntity
  8
AM_4
100
AcDbLine
 10
32.39431820699553
 20
-5.251090385499158
 30
0.0
 11
32.07580717708932
 21
-5.352819824350082
 31
0.0
  0
LINE
  5
173
330
F1
100
AcDbEntity
  8
AM_4
100
AcDbLine
 10
32.77220937925362
 20
-5.238777234486817
 30
0.0
 11
32.39431820699553
 21
-5.251090385499158
 31
0.0
  0
LINE
  5
174
330
F1
100
AcDbEntity
  8
AM_4
100
AcDbLine
 10
33.86536568125223
 20
-5.431530184660663
 30
0.0
 11
32.77220937925362
 21
-5.238777234486817
 31
0.0
  0
LINE
  5
175
330
F1
100
AcDbEntity
  8
AM_4
100
AcDbLine
 10
34.21625391199375
 20
-5.572346807406443
 30
0.0
 11
33.86536568125223
 21
-5.431530184660663
 31
0.0
  0
LINE
  5
176
330
F1
100
AcDbEntity
  8
AM_4
100
AcDbLine
 10
34.48075596552503
 20
-5.776877182973431
 30
0.0
 11
34.21625391199375
 21
-5.572346807406443
 31
0.0
  0
LINE
  5
177
330
F1
100
AcDbEntity
  8
AM_4
100
AcDbLine
 10
34.71826692996243
 20
-6.13453921911512
 30
0.0
 11
34.48075596552503
 21
-5.776877182973431
 31
0.0
  0
LINE
  5
178
330
F1
100
AcDbEntity
  8
AM_4
100
AcDbLine
 10
34.81001649887647
 20
-6.466499588480326
 30
0.0
 11
34.71826692996243
 21
-6.13453921911512
 31
0.0
  0
LINE
  5
179
330
F1
100
AcDbEntity
  8
AM_4
100
AcDbLine
 10
34.81539969092427
 20
-6.862176592745644
 30
0.0
 11
34.81001649887647
 21
-6.466499588480326
 31
0.0
  0
LINE
  5
17A
330
F1
100
AcDbEntity
  8
AM_4
100
AcDbLine
 10
34.69389458804716
 20
-7.551266273683346
 30
0.0
 11
34.81539969092427
 21
-6.862176592745644
 31
0.0
  0
LINE
  5
17B
330
F1
100
AcDbEntity
  8
AM_4
100
AcDbLine
 10
34.55350671014227
 20
-7.921238889882654
 30
0.0
 11
34.69389458804716
 21
-7.551266273683346
 31
0.0
  0
LINE
  5
17C
330
F1
100
AcDbEntity
  8
AM_4
100
AcDbLine
 10
34.3537540524056
 20
-8.201794474619685
 30
0.0
 11
34.55350671014227
 21
-7.921238889882654
 31
0.0
  0
LINE
  5
17D
330
F1
100
AcDbEntity
  8
AM_4
100
AcDbLine
 10
34.00823826266381
 20
-8.456658240657763
 30
0.0
 11
34.3537540524056
 21
-8.201794474619685
 31
0.0
  0
LINE
  5
17E
330
F1
100
AcDbEntity
  8
AM_4
100
AcDbLine
 10
33.63035824823569
 20
-8.468977217717697
 30
0.0
 11
34.00823826266381
 21
-8.456658240657763
 31
0.0
  0
LINE
  5
17F
330
F1
100
AcDbEntity
  8
AM_4
100
AcDbLine
 10
33.71136165015376
 20
-8.009584097092564
 30
0.0
 11
33.63035824823569
 21
-8.468977217717697
 31
0.0
  0
LINE
  5
180
330
F1
100
AcDbEntity
  8
AM_4
100
AcDbLine
 10
33.94349011713608
 20
-7.971565189737923
 30
0.0
 11
33.71136165015376
 21
-8.009584097092564
 31
0.0
  0
LINE
  5
181
330
F1
100
AcDbEntity
  8
AM_4
100
AcDbLine
 10
34.12974336554092
 20
-7.767568559720061
 30
0.0
 11
33.94349011713608
 21
-7.971565189737923
 31
0.0
  0
LINE
  5
182
330
F1
100
AcDbEntity
  8
AM_4
100
AcDbLine
 10
34.25663009763222
 20
-7.474164746317453
 30
0.0
 11
34.12974336554092
 21
-7.767568559720061
 31
0.0
  0
LINE
  5
183
330
F1
100
AcDbEntity
  8
AM_4
100
AcDbLine
 10
34.37813520050932
 20
-6.785075065379751
 30
0.0
 11
34.25663009763222
 21
-7.474164746317453
 31
0.0
  0
LINE
  5
184
330
F1
100
AcDbEntity
  8
AM_4
100
AcDbLine
 10
34.35925155724063
 20
-6.46596292468012
 30
0.0
 11
34.37813520050932
 21
-6.785075065379751
 31
0.0
  0
LINE
  5
185
330
F1
100
AcDbEntity
  8
AM_4
100
AcDbLine
 10
34.25400136345751
 20
-6.210568403688353
 30
0.0
 11
34.35925155724063
 21
-6.46596292468012
 31
0.0
  0
LINE
  5
186
330
F1
100
AcDbEntity
  8
AM_4
100
AcDbLine
 10
34.06237511837877
 20
-6.018887796307167
 30
0.0
 11
34.25400136345751
 21
-6.210568403688353
 31
0.0
  0
LINE
  5
187
330
F1
100
AcDbEntity
  8
AM_4
100
AcDbLine
 10
33.78436262663051
 20
-5.890921335670292
 30
0.0
 11
34.06237511837877
 21
-6.018887796307167
 31
0.0
  0
LINE
  5
188
330
F1
100
AcDbEntity
  8
AM_4
100
AcDbLine
 10
32.6912063246319
 20
-5.698168385496446
 30
0.0
 11
33.78436262663051
 21
-5.890921335670292
 31
0.0
  0
LINE
  5
189
330
F1
100
AcDbEntity
  8
AM_4
100
AcDbLine
 10
32.38619194563411
 20
-5.723331478342768
 30
0.0
 11
32.6912063246319
 21
-5.698168385496446
 31
0.0
  0
LINE
  5
18A
330
F1
100
AcDbEntity
  8
AM_4
100
AcDbLine
 10
32.14055960914443
 20
-5.837911600247127
 30
0.0
 11
32.38619194563411
 21
-5.723331478342768
 31
0.0
  0
LINE
  5
18B
330
F1
100
AcDbEntity
  8
AM_4
100
AcDbLine
 10
31.82742403174252
 20
-6.335315866331742
 30
0.0
 11
31.95430276880493
 21
-6.041905566056772
 31
0.0
  0
LINE
  5
18C
330
F1
100
AcDbEntity
  8
AM_4
100
AcDbLine
 10
31.72985601051766
 20
4.331699929059765
 30
0.0
 11
31.83785996758116
 21
3.719179050918762
 31
0.0
  0
LINE
  5
18D
330
F1
100
AcDbEntity
  8
AM_4
100
AcDbLine
 10
31.73523093018033
 20
4.72737547468039
 30
0.0
 11
31.72985601051766
 21
4.331699929059765
 31
0.0
  0
LINE
  5
18E
330
F1
100
AcDbEntity
  8
AM_4
100
AcDbLine
 10
32.06449087264713
 20
5.416997775998381
 30
0.0
 11
31.82698384744074
 21
5.059336434449397
 31
0.0
  0
LINE
  5
18F
330
F1
100
AcDbEntity
  8
AM_4
100
AcDbLine
 10
32.32899981983268
 20
5.621529367102611
 30
0.0
 11
32.06449087264713
 21
5.416997775998381
 31
0.0
  0
LINE
  5
190
330
F1
100
AcDbEntity
  8
AM_4
100
AcDbLine
 10
32.6798900201897
 20
5.762346337144746
 30
0.0
 11
32.32899981983268
 21
5.621529367102611
 31
0.0
  0
LINE
  5
191
330
F1
100
AcDbEntity
  8
AM_4
100
AcDbLine
 10
33.77304632218831
 20
5.955099287318592
 30
0.0
 11
32.6798900201897
 21
5.762346337144746
 31
0.0
  0
LINE
  5
192
330
F1
100
AcDbEntity
  8
AM_4
100
AcDbLine
 10
34.15093552483089
 20
5.942785789009895
 30
0.0
 11
33.77304632218831
 21
5.955099287318592
 31
0.0
  0
LINE
  5
193
330
F1
100
AcDbEntity
  8
AM_4
100
AcDbLine
 10
34.46943966108283
 20
5.841055134621731
 30
0.0
 11
34.15093552483089
 21
5.942785789009895
 31
0.0
  0
LINE
  5
194
330
F1
100
AcDbEntity
  8
AM_4
100
AcDbLine
 10
34.81495458258373
 20
5.586196292622417
 30
0.0
 11
34.46943966108283
 21
5.841055134621731
 31
0.0
  0
LINE
  5
195
330
F1
100
AcDbEntity
  8
AM_4
100
AcDbLine
 10
35.01470810856129
 20
5.30563578384662
 30
0.0
 11
34.81495458258373
 21
5.586196292622417
 31
0.0
  0
LINE
  5
196
330
F1
100
AcDbEntity
  8
AM_4
100
AcDbLine
 10
35.15509616011436
 20
4.935662182839561
 30
0.0
 11
35.01470810856129
 21
5.30563578384662
 31
0.0
  0
LINE
  5
197
330
F1
100
AcDbEntity
  8
AM_4
100
AcDbLine
 10
35.26310011717786
 20
4.323141304698559
 30
0.0
 11
35.15509616011436
 21
4.935662182839561
 31
0.0
  0
LINE
  5
198
330
F1
100
AcDbEntity
  8
AM_4
100
AcDbLine
 10
35.25771675148189
 20
3.927465285240993
 30
0.0
 11
35.26310011717786
 21
4.323141304698559
 31
0.0
  0
LINE
  5
199
330
F1
100
AcDbEntity
  8
AM_4
100
AcDbLine
 10
35.16596805080873
 20
3.595499991837022
 30
0.0
 11
35.25771675148189
 21
3.927465285240993
 31
0.0
  0
LINE
  5
19A
330
F1
100
AcDbEntity
  8
AM_4
100
AcDbLine
 10
34.92845621813044
 20
3.237842879734097
 30
0.0
 11
35.16596805080873
 21
3.595499991837022
 31
0.0
  0
LINE
  5
19B
330
F1
100
AcDbEntity
  8
AM_4
100
AcDbLine
 10
34.66395541486604
 20
3.033305413551287
 30
0.0
 11
34.92845621813044
 21
3.237842879734097
 31
0.0
  0
LINE
  5
19C
330
F1
100
AcDbEntity
  8
AM_4
100
AcDbLine
 10
34.31306610750582
 20
2.892494896613577
 30
0.0
 11
34.66395541486604
 21
3.033305413551287
 31
0.0
  0
LINE
  5
19D
330
F1
100
AcDbEntity
  8
AM_4
100
AcDbLine
 10
33.21990980550721
 20
2.699741946439731
 30
0.0
 11
34.31306610750582
 21
2.892494896613577
 31
0.0
  0
LINE
  5
19E
330
F1
100
AcDbEntity
  8
AM_4
100
AcDbLine
 10
32.84201970986782
 20
2.712048991644003
 30
0.0
 11
33.21990980550721
 21
2.699741946439731
 31
0.0
  0
LINE
  5
19F
330
F1
100
AcDbEntity
  8
AM_4
100
AcDbLine
 10
32.52350742969474
 20
2.813785521110748
 30
0.0
 11
32.84201970986782
 21
2.712048991644003
 31
0.0
  0
LINE
  5
1A0
330
F1
100
AcDbEntity
  8
AM_4
100
AcDbLine
 10
32.17799731566574
 20
3.068640133664007
 30
0.0
 11
32.52350742969474
 21
2.813785521110748
 31
0.0
  0
LINE
  5
1A1
330
F1
100
AcDbEntity
  8
AM_4
100
AcDbLine
 10
31.97823957310093
 20
3.349204976074763
 30
0.0
 11
32.17799731566574
 21
3.068640133664007
 31
0.0
  0
LINE
  5
1A2
330
F1
100
AcDbEntity
  8
AM_4
100
AcDbLine
 10
31.83785996758116
 20
3.719179050918762
 30
0.0
 11
31.97823957310093
 21
3.349204976074763
 31
0.0
  0
LINE
  5
1A3
330
F1
100
AcDbEntity
  8
AM_4
100
AcDbLine
 10
32.0
 20
0.0
 30
0.0
 11
32.0
 21
-1.86591
 31
0.0
  0
LINE
  5
1A4
330
F1
100
AcDbEntity
  8
AM_4
100
AcDbLine
 10
35.47808000000001
 20
-1.865909999999998
 30
0.0
 11
35.47808000000001
 21
0.0000000000000002
 31
0.0
  0
LINE
  5
1A5
330
F1
100
AcDbEntity
  8
AM_4
100
AcDbLine
 10
35.25607
 20
-2.56563
 30
0.0
 11
35.40407
 21
-2.254640000000001
 31
0.0
  0
LINE
  5
1A6
330
F1
100
AcDbEntity
  8
AM_4
100
AcDbLine
 10
34.96006
 20
-2.87661
 30
0.0
 11
35.25607
 21
-2.56563
 31
0.0
  0
LINE
  5
1A7
330
F1
100
AcDbEntity
  8
AM_4
100
AcDbLine
 10
34.66406
 20
-3.03211
 30
0.0
 11
34.96006
 21
-2.87661
 31
0.0
  0
LINE
  5
1A8
330
F1
100
AcDbEntity
  8
AM_4
100
AcDbLine
 10
34.29405
 20
-3.10985
 30
0.0
 11
34.66406
 21
-3.03211
 31
0.0
  0
LINE
  5
1A9
330
F1
100
AcDbEntity
  8
AM_4
100
AcDbLine
 10
33.18403
 20
-3.10985
 30
0.0
 11
34.29405
 21
-3.10985
 31
0.0
  0
LINE
  5
1AA
330
F1
100
AcDbEntity
  8
AM_4
100
AcDbLine
 10
32.814018
 20
-3.03211
 30
0.0
 11
33.18403
 21
-3.10985
 31
0.0
  0
LINE
  5
1AB
330
F1
100
AcDbEntity
  8
AM_4
100
AcDbLine
 10
32.222005
 20
-2.56563
 30
0.0
 11
32.518011
 21
-2.87661
 31
0.0
  0
LINE
  5
1AC
330
F1
100
AcDbEntity
  8
AM_4
100
AcDbLine
 10
32.0740016
 20
-2.254640000000001
 30
0.0
 11
32.222005
 21
-2.56563
 31
0.0
  0
LINE
  5
1AD
330
F1
100
AcDbEntity
  8
AM_4
100
AcDbLine
 10
32.0
 20
-1.86591
 30
0.0
 11
32.0740016
 21
-2.254640000000001
 31
0.0
  0
LINE
  5
1AE
330
F1
100
AcDbEntity
  8
AM_4
100
AcDbLine
 10
30.07016386514907
 20
10.9446445864214
 30
0.0
 11
30.70834267078187
 21
9.191262728370765
 31
0.0
  0
LINE
  5
1AF
330
F1
100
AcDbEntity
  8
AM_4
100
AcDbLine
 10
33.33848997565213
 20
12.13421800651954
 30
0.0
 11
30.07016386514907
 21
10.9446445864214
 31
0.0
  0
LINE
  5
1B0
330
F1
100
AcDbEntity
  8
AM_4
100
AcDbLine
 10
30.91083491854321
 20
8.851286053730988
 30
0.0
 11
31.15627746574728
 21
8.609671189673465
 31
0.0
  0
LINE
  5
1B1
330
F1
100
AcDbEntity
  8
AM_4
100
AcDbLine
 10
30.70834267078187
 20
9.191262728370765
 30
0.0
 11
30.91083491854321
 21
8.851286053730988
 31
0.0
  0
LINE
  5
1B2
330
F1
100
AcDbEntity
  8
AM_4
100
AcDbLine
 10
33.13890640358914
 20
3.159135067064866
 30
0.0
 11
34.23206270558775
 21
3.351888017238712
 31
0.0
  0
LINE
  5
1B3
330
F1
100
AcDbEntity
  8
AM_4
100
AcDbLine
 10
34.51007623922506
 20
3.479848569029069
 30
0.0
 11
34.70170126876656
 21
3.671536070064526
 31
0.0
  0
LINE
  5
1B4
330
F1
100
AcDbEntity
  8
AM_4
100
AcDbLine
 10
34.23206270558775
 20
3.351888017238712
 30
0.0
 11
34.51007623922506
 21
3.479848569029069
 31
0.0
  0
LINE
  5
1B5
330
F1
100
AcDbEntity
  8
AM_4
100
AcDbLine
 10
32.83389306648041
 20
3.184292251064669
 30
0.0
 11
33.13890640358914
 21
3.159135067064866
 31
0.0
  0
LINE
  5
1B6
330
F1
100
AcDbEntity
  8
AM_4
100
AcDbLine
 10
34.80695285173511
 20
3.92692271259427
 30
0.0
 11
34.82583562676291
 21
4.246039777332665
 31
0.0
  0
LINE
  5
1B7
330
F1
100
AcDbEntity
  8
AM_4
100
AcDbLine
 10
34.70170126876656
 20
3.671536070064526
 30
0.0
 11
34.80695285173511
 21
3.92692271259427
 31
0.0
  0
LINE
  5
1B8
330
F1
100
AcDbEntity
  8
AM_4
100
AcDbLine
 10
32.58825951445348
 20
3.298879266623298
 30
0.0
 11
32.83389306648041
 21
3.184292251064669
 31
0.0
  0
LINE
  5
1B9
330
F1
100
AcDbEntity
  8
AM_4
100
AcDbLine
 10
32.40200406329941
 20
3.50286535397092
 30
0.0
 11
32.58825951445348
 21
3.298879266623298
 31
0.0
  0
LINE
  5
1BA
330
F1
100
AcDbEntity
  8
AM_4
100
AcDbLine
 10
32.2751244579961
 20
3.796280578284652
 30
0.0
 11
32.40200406329941
 21
3.50286535397092
 31
0.0
  0
LINE
  5
1BB
330
F1
100
AcDbEntity
  8
AM_4
100
AcDbLine
 10
32.16712050093262
 20
4.408801456425659
 30
0.0
 11
32.2751244579961
 21
3.796280578284652
 31
0.0
  0
LINE
  5
1BC
330
F1
100
AcDbEntity
  8
AM_4
100
AcDbLine
 10
32.18599528093152
 20
4.727912034291691
 30
0.0
 11
32.16712050093262
 21
4.408801456425659
 31
0.0
  0
LINE
  5
1BD
330
F1
100
AcDbEntity
  8
AM_4
100
AcDbLine
 10
34.82583562676291
 20
4.246039777332665
 30
0.0
 11
34.71783166969942
 21
4.858560655473668
 31
0.0
  0
LINE
  5
1BE
330
F1
100
AcDbEntity
  8
AM_4
100
AcDbLine
 10
34.71783166969942
 20
4.858560655473668
 30
0.0
 11
34.59094406936723
 21
5.15196939291504
 31
0.0
  0
LINE
  5
1BF
330
F1
100
AcDbEntity
  8
AM_4
100
AcDbLine
 10
34.59094406936723
 20
5.15196939291504
 30
0.0
 11
34.40469116825874
 21
5.355964053317396
 31
0.0
  0
LINE
  5
1C0
330
F1
100
AcDbEntity
  8
AM_4
100
AcDbLine
 10
34.40469116825874
 20
5.355964053317396
 30
0.0
 11
34.15906277100007
 21
5.470544869814464
 31
0.0
  0
LINE
  5
1C1
330
F1
100
AcDbEntity
  8
AM_4
100
AcDbLine
 10
34.15906277100007
 20
5.470544869814464
 30
0.0
 11
33.85404920316185
 21
5.495709121116716
 31
0.0
  0
LINE
  5
1C2
330
F1
100
AcDbEntity
  8
AM_4
100
AcDbLine
 10
33.85404920316185
 20
5.495709121116716
 30
0.0
 11
32.76089290116324
 21
5.302956170942871
 31
0.0
  0
LINE
  5
1C3
330
F1
100
AcDbEntity
  8
AM_4
100
AcDbLine
 10
32.76089290116324
 20
5.302956170942871
 30
0.0
 11
32.48287959825542
 21
5.174988551850064
 31
0.0
  0
LINE
  5
1C4
330
F1
100
AcDbEntity
  8
AM_4
100
AcDbLine
 10
32.48287959825542
 20
5.174988551850064
 30
0.0
 11
32.29124941394566
 21
4.983307249876169
 31
0.0
  0
LINE
  5
1C5
330
F1
100
AcDbEntity
  8
AM_4
100
AcDbLine
 10
32.29124941394566
 20
4.983307249876169
 30
0.0
 11
32.18599528093152
 21
4.727912034291691
 31
0.0
  0
LINE
  5
1C6
330
F1
100
AcDbEntity
  8
AM_4
100
AcDbLine
 10
33.08080192751525
 20
11.54401170832254
 30
0.0
 11
30.64694165812249
 21
10.65815901590046
 31
0.0
  0
LINE
  5
1C7
330
F1
100
AcDbEntity
  8
AM_4
100
AcDbLine
 10
33.55943586072977
 20
10.22897578463088
 30
0.0
 11
33.08080192751525
 21
11.54401170832254
 31
0.0
  0
LINE
  5
1C8
330
F1
100
AcDbEntity
  8
AM_4
100
AcDbLine
 10
33.59625405423825
 20
9.911427865685134
 30
0.0
 11
33.55943586072977
 21
10.22897578463088
 31
0.0
  0
LINE
  5
1C9
330
F1
100
AcDbEntity
  8
AM_4
100
AcDbLine
 10
33.53695232459123
 20
9.64163497760083
 30
0.0
 11
33.59625405423825
 21
9.911427865685134
 31
0.0
  0
LINE
  5
1CA
330
F1
100
AcDbEntity
  8
AM_4
100
AcDbLine
 10
33.38152127486246
 20
9.41959370017653
 30
0.0
 11
33.53695232459123
 21
9.64163497760083
 31
0.0
  0
LINE
  5
1CB
330
F1
100
AcDbEntity
  8
AM_4
100
AcDbLine
 10
33.12995150812576
 20
9.245300613210802
 30
0.0
 11
33.38152127486246
 21
9.41959370017653
 31
0.0
  0
LINE
  5
1CC
330
F1
100
AcDbEntity
  8
AM_4
100
AcDbLine
 10
30.64694165812249
 20
10.65815901590046
 30
0.0
 11
31.12557559133703
 21
9.34312309220879
 31
0.0
  0
LINE
  5
1CD
330
F1
100
AcDbEntity
  8
AM_4
100
AcDbLine
 10
31.12557559133703
 20
9.34312309220879
 30
0.0
 11
31.30147862934065
 21
9.076197916696827
 31
0.0
  0
LINE
  5
1CE
330
F1
100
AcDbEntity
  8
AM_4
100
AcDbLine
 10
31.30147862934065
 20
9.076197916696827
 30
0.0
 11
31.52032967421673
 21
8.907644359117494
 31
0.0
  0
LINE
  5
1CF
330
F1
100
AcDbEntity
  8
AM_4
100
AcDbLine
 10
31.52032967421673
 20
8.907644359117494
 30
0.0
 11
31.78212590688739
 21
8.837461393410365
 31
0.0
  0
LINE
  5
1D0
330
F1
100
AcDbEntity
  8
AM_4
100
AcDbLine
 10
31.78212590688739
 20
8.837461393410365
 30
0.0
 11
32.08687390520099
 21
8.865651413716444
 31
0.0
  0
LINE
  5
1D1
330
F1
100
AcDbEntity
  8
AM_4
100
AcDbLine
 10
32.08687390520099
 20
8.865651413716444
 30
0.0
 11
33.12995150812576
 21
9.245300613210802
 31
0.0
  0
LINE
  5
1D2
330
F1
100
AcDbEntity
  8
AM_4
100
AcDbLine
 10
21.92441125889409
 20
33.09698159879355
 30
0.0
 11
33.09698159879351
 21
21.92441125889416
 31
0.0
  0
ARC
  5
1D3
330
F1
100
AcDbEntity
  8
AM_4
100
AcDbCircle
 10
-0.0000000000000009
 20
0.0000000000000084
 30
0.0
 40
39.7
100
AcDbArc
 50
56.47834095453362
 51
33.52165904546648
  0
CIRCLE
  5
1D4
330
F1
100
AcDbEntity
  8
AM_4
100
AcDbCircle
 10
0.0
 20
0.0
 30
0.0
 40
37.7
  0
ENDBLK
  5
F4
330
F1
100
AcDbEntity
  8
0
100
AcDbBlockEnd
  0
ENDSEC
  0
SECTION
  2
ENTITIES
  0
INSERT
  5
6F
330
1F
100
AcDbEntity
  8
0
100
AcDbBlockReference
  2
1__129361_0
 10
0.0
 20
0.0
 30
0.0
  0
POINT
  5
1D6
330
1F
100
AcDbEntity
  8
ConnectionPoints
100
AcDbPoint
 10
0.0000000000000017
 20
0.0
 30
16.7
  0
POINT
  5
1D7
330
1F
100
AcDbEntity
  8
ConnectionPoints
100
AcDbPoint
 10
0.0000000000000017
 20
0.0
 30
3.200000000000003
  0
POINT
  5
1D8
330
1F
100
AcDbEntity
  8
ConnectionPoints
100
AcDbPoint
 10
0.0
 20
0.0
 30
3.200000000000003
  0
ENDSEC
  0
SECTION
  2
OBJECTS
  0
DICTIONARY
  5
C
330
0
100
AcDbDictionary
281
     1
  3
ACAD_DETAILVIEWSTYLE
350
1E0
  3
ACAD_GROUP
350
D
  3
ACAD_LAYOUT
350
1A
  3
ACAD_MATERIAL
350
43
  3
ACAD_MLEADERSTYLE
350
6B
  3
ACAD_MLINESTYLE
350
17
  3
ACAD_PLOTSETTINGS
350
19
  3
ACAD_PLOTSTYLENAME
350
E
  3
ACAD_SCALELIST
350
47
  3
ACAD_SECTIONVIEWSTYLE
350
1E1
  3
ACAD_TABLESTYLE
350
69
  3
ACAD_VISUALSTYLE
350
2A
  3
ACDB_RECOMPOSE_DATA
350
1DD
  3
AcDbVariableDictionary
350
1D9
  0
SUN
  5
6D
330
29
100
AcDbSun
 90
        1
290
     0
 63
     7
421
 16777215
 40
1.0
291
     1
 91
  2455826
 92
 54000000
292
     0
 70
     2
 71
   256
280
     1
  0
DICTIONARY
  5
1E0
102
{ACAD_REACTORS
330
C
102
}
330
C
100
AcDbDictionary
281
     1
  0
DICTIONARY
  5
D
102
{ACAD_REACTORS
330
C
102
}
330
C
100
AcDbDictionary
281
     1
  0
DICTIONARY
  5
1A
102
{ACAD_REACTORS
330
C
102
}
330
C
100
AcDbDictionary
281
     1
  3
Layout1
350
1E
  3
Layout2
350
26
  3
Model
350
22
  0
DICTIONARY
  5
43
102
{ACAD_REACTORS
330
C
102
}
330
C
100
AcDbDictionary
281
     1
  3
ByBlock
350
45
  3
ByLayer
350
44
  3
Global
350
46
  0
DICTIONARY
  5
6B
102
{ACAD_REACTORS
330
C
102
}
330
C
100
AcDbDictionary
281
     1
  3
Standard
350
6C
  0
DICTIONARY
  5
17
102
{ACAD_REACTORS
330
C
102
}
330
C
100
AcDbDictionary
281
     1
  3
Standard
350
18
  0
DICTIONARY
  5
19
102
{ACAD_REACTORS
330
C
102
}
330
C
100
AcDbDictionary
281
     1
  0
ACDBDICTIONARYWDFLT
  5
E
102
{ACAD_REACTORS
330
C
102
}
330
C
100
AcDbDictionary
281
     1
  3
Normal
350
F
100
AcDbDictionaryWithDefault
340
F
  0
DICTIONARY
  5
47
102
{ACAD_REACTORS
330
C
102
}
330
C
100
AcDbDictionary
281
     1
  3
A0
350
48
  3
A1
350
49
  3
A2
350
4A
  3
A3
350
4B
  3
A4
350
4C
  3
A5
350
4D
  3
A6
350
4E
  3
A7
350
4F
  3
A8
350
50
  3
A9
350
51
  3
B0
350
52
  3
B1
350
53
  3
B2
350
54
  3
B3
350
55
  3
B4
350
56
  3
B5
350
57
  3
B6
350
58
  3
B7
350
59
  3
B8
350
5A
  3
B9
350
5B
  3
C0
350
5C
  3
C1
350
5D
  3
C2
350
5E
  3
C3
350
5F
  3
C4
350
60
  3
C5
350
61
  3
C6
350
62
  3
C7
350
63
  3
C8
350
64
  3
C9
350
65
  3
D0
350
66
  3
D1
350
67
  3
D2
350
68
  0
DICTIONARY
  5
1E1
102
{ACAD_REACTORS
330
C
102
}
330
C
100
AcDbDictionary
281
     1
  0
DICTIONARY
  5
69
102
{ACAD_REACTORS
330
C
102
}
330
C
100
AcDbDictionary
281
     1
  3
Standard
350
6A
  0
DICTIONARY
  5
2A
102
{ACAD_REACTORS
330
C
102
}
330
C
100
AcDbDictionary
281
     1
  3
2dWireframe
350
2F
  3
Basic
350
32
  3
Brighten
350
36
  3
ColorChange
350
3A
  3
Conceptual
350
34
  3
Dim
350
35
  3
EdgeColorOff
350
3D
  3
Facepattern
350
39
  3
Flat
350
2B
  3
FlatWithEdges
350
2C
  3
Gouraud
350
2D
  3
GouraudWithEdges
350
2E
  3
Hidden
350
31
  3
JitterOff
350
3B
  3
Linepattern
350
38
  3
OverhangOff
350
3C
  3
Realistic
350
33
  3
Shaded
350
42
  3
Shaded with edges
350
41
  3
Shades of Gray
350
3E
  3
Sketchy
350
3F
  3
Thicken
350
37
  3
Wireframe
350
30
  3
X-Ray
350
40
  0
XRECORD
  5
1DD
102
{ACAD_REACTORS
330
C
102
}
330
C
100
AcDbXrecord
280
     1
 90
        1
330
6A
  0
DICTIONARY
  5
1D9
102
{ACAD_REACTORS
330
C
102
}
330
C
100
AcDbDictionary
281
     1
  3
CANNOSCALE
350
1DA
  3
CMLEADERSTYLE
350
1DF
  3
CTABLESTYLE
350
1DE
  0
LAYOUT
  5
1E
102
{ACAD_REACTORS
330
1A
102
}
330
1A
100
AcDbPlotSettings
  1

  2
none_device
  4

  6

 40
0.0
 41
0.0
 42
0.0
 43
0.0
 44
0.0
 45
0.0
 46
0.0
 47
0.0
 48
0.0
 49
0.0
140
0.0
141
0.0
142
1.0
143
1.0
 70
   688
 72
     1
 73
     0
 74
     5
  7

 75
    16
 76
     0
 77
     2
 78
   300
147
1.0
148
0.0
149
0.0
100
AcDbLayout
  1
Layout1
 70
     1
 71
     1
 10
0.0
 20
0.0
 11
420.0
 21
297.0
 12
0.0
 22
0.0
 32
0.0
 14
1.000000000000000E+20
 24
1.000000000000000E+20
 34
1.000000000000000E+20
 15
-1.000000000000000E+20
 25
-1.000000000000000E+20
 35
-1.000000000000000E+20
146
0.0
 13
0.0
 23
0.0
 33
0.0
 16
1.0
 26
0.0
 36
0.0
 17
0.0
 27
1.0
 37
0.0
 76
     0
330
1B
  0
LAYOUT
  5
26
102
{ACAD_REACTORS
330
1A
102
}
330
1A
100
AcDbPlotSettings
  1

  2
none_device
  4

  6

 40
0.0
 41
0.0
 42
0.0
 43
0.0
 44
0.0
 45
0.0
 46
0.0
 47
0.0
 48
0.0
 49
0.0
140
0.0
141
0.0
142
1.0
143
1.0
 70
   688
 72
     1
 73
     0
 74
     5
  7

 75
    16
 76
     0
 77
     2
 78
   300
147
1.0
148
0.0
149
0.0
100
AcDbLayout
  1
Layout2
 70
     1
 71
     2
 10
0.0
 20
0.0
 11
0.0
 21
0.0
 12
0.0
 22
0.0
 32
0.0
 14
0.0
 24
0.0
 34
0.0
 15
0.0
 25
0.0
 35
0.0
146
0.0
 13
0.0
 23
0.0
 33
0.0
 16
1.0
 26
0.0
 36
0.0
 17
0.0
 27
1.0
 37
0.0
 76
     0
330
23
  0
LAYOUT
  5
22
102
{ACAD_REACTORS
330
1A
102
}
330
1A
100
AcDbPlotSettings
  1

  2
none_device
  4
Letter_(8.50_x_11.00_Inches)
  6

 40
6.35
 41
6.35
 42
6.35000508
 43
6.35000508
 44
215.9
 45
279.4
 46
0.0
 47
0.0
 48
0.0
 49
0.0
140
0.0
141
0.0
142
1.0
143
1.0
 70
  1712
 72
     1
 73
     0
 74
     0
  7

 75
     0
 76
     0
 77
     2
 78
   300
147
1.0
148
0.0
149
0.0
100
AcDbLayout
  1
Model
 70
     1
 71
     0
 10
0.0
 20
0.0
 11
420.0
 21
297.0
 12
0.0
 22
0.0
 32
0.0
 14
1.000000000000000E+20
 24
1.000000000000000E+20
 34
1.000000000000000E+20
 15
-1.000000000000000E+20
 25
-1.000000000000000E+20
 35
-1.000000000000000E+20
146
0.0
 13
0.0
 23
0.0
 33
0.0
 16
1.0
 26
0.0
 36
0.0
 17
0.0
 27
1.0
 37
0.0
 76
     0
330
1F
331
29
  0
MATERIAL
  5
45
102
{ACAD_REACTORS
330
43
102
}
330
43
100
AcDbMaterial
  1
ByBlock
 72
     1
 94
      127
  0
MATERIAL
  5
44
102
{ACAD_REACTORS
330
43
102
}
330
43
100
AcDbMaterial
  1
ByLayer
 72
     1
 94
      127
  0
MATERIAL
  5
46
102
{ACAD_REACTORS
330
43
102
}
330
43
100
AcDbMaterial
  1
Global
 72
     1
 94
      127
  0
MLEADERSTYLE
  5
6C
102
{ACAD_REACTORS
330
6B
102
}
330
6B
100
AcDbMLeaderStyle
179
     2
170
     2
171
     1
172
     0
 90
        2
 40
0.0
 41
0.0
173
     1
 91
-1056964608
340
14
 92
       -2
290
     1
 42
2.0
291
     1
 43
8.0
  3
Standard
341
0
 44
4.0
300

342
11
174
     1
178
     6
175
     1
176
     0
 93
-1056964608
 45
4.0
292
     0
297
     0
 46
4.0
343
0
 94
-1056964608
 47
1.0
 49
1.0
140
1.0
293
     1
141
0.0
294
     1
177
     0
142
1.0
295
     0
296
     0
143
3.75
271
     0
272
     9
273
     9
298
     0
  0
MLINESTYLE
  5
18
102
{ACAD_REACTORS
330
17
102
}
330
17
100
AcDbMlineStyle
  2
Standard
 70
     0
  3

 62
   256
 51
90.0
 52
90.0
 71
     2
 49
0.5
 62
   256
  6
BYLAYER
 49
-0.5
 62
   256
  6
BYLAYER
  0
ACDBPLACEHOLDER
  5
F
102
{ACAD_REACTORS
330
E
102
}
330
E
  0
SCALE
  5
48
102
{ACAD_REACTORS
330
47
102
}
330
47
100
AcDbScale
 70
     0
300
1:1
140
1.0
141
1.0
290
     1
  0
SCALE
  5
49
102
{ACAD_REACTORS
330
47
102
}
330
47
100
AcDbScale
 70
     0
300
1:2
140
1.0
141
2.0
290
     0
  0
SCALE
  5
4A
102
{ACAD_REACTORS
330
47
102
}
330
47
100
AcDbScale
 70
     0
300
1:4
140
1.0
141
4.0
290
     0
  0
SCALE
  5
4B
102
{ACAD_REACTORS
330
47
102
}
330
47
100
AcDbScale
 70
     0
300
1:5
140
1.0
141
5.0
290
     0
  0
SCALE
  5
4C
102
{ACAD_REACTORS
330
47
102
}
330
47
100
AcDbScale
 70
     0
300
1:8
140
1.0
141
8.0
290
     0
  0
SCALE
  5
4D
102
{ACAD_REACTORS
330
47
102
}
330
47
100
AcDbScale
 70
     0
300
1:10
140
1.0
141
10.0
290
     0
  0
SCALE
  5
4E
102
{ACAD_REACTORS
330
47
102
}
330
47
100
AcDbScale
 70
     0
300
1:16
140
1.0
141
16.0
290
     0
  0
SCALE
  5
4F
102
{ACAD_REACTORS
330
47
102
}
330
47
100
AcDbScale
 70
     0
300
1:20
140
1.0
141
20.0
290
     0
  0
SCALE
  5
50
102
{ACAD_REACTORS
330
47
102
}
330
47
100
AcDbScale
 70
     0
300
1:30
140
1.0
141
30.0
290
     0
  0
SCALE
  5
51
102
{ACAD_REACTORS
330
47
102
}
330
47
100
AcDbScale
 70
     0
300
1:40
140
1.0
141
40.0
290
     0
  0
SCALE
  5
52
102
{ACAD_REACTORS
330
47
102
}
330
47
100
AcDbScale
 70
     0
300
1:50
140
1.0
141
50.0
290
     0
  0
SCALE
  5
53
102
{ACAD_REACTORS
330
47
102
}
330
47
100
AcDbScale
 70
     0
300
1:100
140
1.0
141
100.0
290
     0
  0
SCALE
  5
54
102
{ACAD_REACTORS
330
47
102
}
330
47
100
AcDbScale
 70
     0
300
2:1
140
2.0
141
1.0
290
     0
  0
SCALE
  5
55
102
{ACAD_REACTORS
330
47
102
}
330
47
100
AcDbScale
 70
     0
300
4:1
140
4.0
141
1.0
290
     0
  0
SCALE
  5
56
102
{ACAD_REACTORS
330
47
102
}
330
47
100
AcDbScale
 70
     0
300
8:1
140
8.0
141
1.0
290
     0
  0
SCALE
  5
57
102
{ACAD_REACTORS
330
47
102
}
330
47
100
AcDbScale
 70
     0
300
10:1
140
10.0
141
1.0
290
     0
  0
SCALE
  5
58
102
{ACAD_REACTORS
330
47
102
}
330
47
100
AcDbScale
 70
     0
300
100:1
140
100.0
141
1.0
290
     0
  0
SCALE
  5
59
102
{ACAD_REACTORS
330
47
102
}
330
47
100
AcDbScale
 70
     0
300
1/128" = 1'-0"
140
0.0078125
141
12.0
290
     0
  0
SCALE
  5
5A
102
{ACAD_REACTORS
330
47
102
}
330
47
100
AcDbScale
 70
     0
300
1/64" = 1'-0"
140
0.015625
141
12.0
290
     0
  0
SCALE
  5
5B
102
{ACAD_REACTORS
330
47
102
}
330
47
100
AcDbScale
 70
     0
300
1/32" = 1'-0"
140
0.03125
141
12.0
290
     0
  0
SCALE
  5
5C
102
{ACAD_REACTORS
330
47
102
}
330
47
100
AcDbScale
 70
     0
300
1/16" = 1'-0"
140
0.0625
141
12.0
290
     0
  0
SCALE
  5
5D
102
{ACAD_REACTORS
330
47
102
}
330
47
100
AcDbScale
 70
     0
300
3/32" = 1'-0"
140
0.09375
141
12.0
290
     0
  0
SCALE
  5
5E
102
{ACAD_REACTORS
330
47
102
}
330
47
100
AcDbScale
 70
     0
300
1/8" = 1'-0"
140
0.125
141
12.0
290
     0
  0
SCALE
  5
5F
102
{ACAD_REACTORS
330
47
102
}
330
47
100
AcDbScale
 70
     0
300
3/16" = 1'-0"
140
0.1875
141
12.0
290
     0
  0
SCALE
  5
60
102
{ACAD_REACTORS
330
47
102
}
330
47
100
AcDbScale
 70
     0
300
1/4" = 1'-0"
140
0.25
141
12.0
290
     0
  0
SCALE
  5
61
102
{ACAD_REACTORS
330
47
102
}
330
47
100
AcDbScale
 70
     0
300
3/8" = 1'-0"
140
0.375
141
12.0
290
     0
  0
SCALE
  5
62
102
{ACAD_REACTORS
330
47
102
}
330
47
100
AcDbScale
 70
     0
300
1/2" = 1'-0"
140
0.5
141
12.0
290
     0
  0
SCALE
  5
63
102
{ACAD_REACTORS
330
47
102
}
330
47
100
AcDbScale
 70
     0
300
3/4" = 1'-0"
140
0.75
141
12.0
290
     0
  0
SCALE
  5
64
102
{ACAD_REACTORS
330
47
102
}
330
47
100
AcDbScale
 70
     0
300
1" = 1'-0"
140
1.0
141
12.0
290
     0
  0
SCALE
  5
65
102
{ACAD_REACTORS
330
47
102
}
330
47
100
AcDbScale
 70
     0
300
1-1/2" = 1'-0"
140
1.5
141
12.0
290
     0
  0
SCALE
  5
66
102
{ACAD_REACTORS
330
47
102
}
330
47
100
AcDbScale
 70
     0
300
3" = 1'-0"
140
3.0
141
12.0
290
     0
  0
SCALE
  5
67
102
{ACAD_REACTORS
330
47
102
}
330
47
100
AcDbScale
 70
     0
300
6" = 1'-0"
140
6.0
141
12.0
290
     0
  0
SCALE
  5
68
102
{ACAD_REACTORS
330
47
102
}
330
47
100
AcDbScale
 70
     0
300
1'-0" = 1'-0"
140
12.0
141
12.0
290
     0
  0
TABLESTYLE
  5
6A
102
{ACAD_REACTORS
330
69
102
}
102
{ACAD_XDICTIONARY
360
1DB
102
}
330
69
100
AcDbTableStyle
  3
Standard
 70
     0
 71
     0
 40
0.06
 41
0.06
280
     0
281
     0
  7
Standard
140
4.5
170
     2
 62
     0
 63
   257
283
     0
 90
        4
 91
        0
  1

274
    -2
284
     1
 64
     0
275
    -2
285
     1
 65
     0
276
    -2
286
     1
 66
     0
277
    -2
287
     1
 67
     0
278
    -2
288
     1
 68
     0
279
    -2
289
     1
 69
     0
  7
Standard
140
6.0
170
     5
 62
     0
 63
   257
283
     0
 90
        4
 91
        0
  1

274
    -2
284
     1
 64
     0
275
    -2
285
     1
 65
     0
276
    -2
286
     1
 66
     0
277
    -2
287
     1
 67
     0
278
    -2
288
     1
 68
     0
279
    -2
289
     1
 69
     0
  7
Standard
140
4.5
170
     5
 62
     0
 63
   257
283
     0
 90
        4
 91
        0
  1

274
    -2
284
     1
 64
     0
275
    -2
285
     1
 65
     0
276
    -2
286
     1
 66
     0
277
    -2
287
     1
 67
     0
278
    -2
288
     1
 68
     0
279
    -2
289
     1
 69
     0
  0
VISUALSTYLE
  5
2F
102
{ACAD_REACTORS
330
2A
102
}
330
2A
100
AcDbVisualStyle
  2
2dWireframe
 70
     4
177
     3
291
     0
 70
    58
 90
        0
176
     1
 90
        2
176
     1
 90
        0
176
     1
 90
        0
176
     1
 40
0.6
176
     1
 40
30.0
176
     1
 62
     7
420
 16777215
176
     1
 90
        1
176
     1
 90
        4
176
     1
 62
     7
176
     1
 62
   257
176
     1
 90
        1
176
     1
 90
        1
176
     1
 40
1.0
176
     1
 90
        0
176
     1
 62
   257
176
     1
 40
1.0
176
     1
 90
        1
176
     1
 90
        6
176
     1
 90
        2
176
     1
 62
     7
176
     1
 90
        5
176
     1
 90
        0
176
     1
 90
        0
176
     1
290
     0
176
     1
 90
        1
176
     1
 40
0.0
176
     1
 90
        0
176
     1
290
     1
176
     1
290
     1
176
     1
290
     0
176
     1
290
     0
176
     1
290
     0
176
     1
290
     0
176
     1
290
     0
176
     1
290
     0
176
     1
290
     0
176
     1
 90
       50
176
     1
 40
0.0
176
     1
 40
1.0
176
     1
 90
        0
176
     1
 62
    18
420
        0
176
     1
 90
       50
176
     1
 90
        3
176
     1
 62
     5
420
      255
176
     1
290
     0
176
     1
 90
       50
176
     1
 90
       50
176
     1
 90
       50
176
     1
290
     0
176
     1
 90
       50
176
     1
 62
   256
176
     0
 40
1.0
176
     0
 90
        2
176
     1
  1
strokes_ogs.tif
176
     1
290
     0
176
     1
 40
1.0
176
     1
 40
1.0
176
     1
  0
VISUALSTYLE
  5
32
102
{ACAD_REACTORS
330
2A
102
}
330
2A
100
AcDbVisualStyle
  2
Basic
 70
     7
177
     3
291
     1
 70
    58
 90
        1
176
     1
 90
        0
176
     1
 90
        1
176
     1
 90
        0
176
     1
 40
0.6
176
     1
 40
30.0
176
     1
 62
     7
420
 16777215
176
     1
 90
        0
176
     1
 90
        4
176
     1
 62
     7
176
     1
 62
   257
176
     1
 90
        1
176
     1
 90
        1
176
     1
 40
1.0
176
     1
 90
        8
176
     1
 62
     7
176
     1
 40
1.0
176
     1
 90
        1
176
     1
 90
        6
176
     1
 90
        2
176
     1
 62
     7
176
     1
 90
        5
176
     1
 90
        0
176
     1
 90
        0
176
     1
290
     0
176
     1
 90
        1
176
     1
 40
0.0
176
     1
 90
        0
176
     1
290
     0
176
     1
290
     1
176
     1
290
     1
176
     1
290
     0
176
     1
290
     0
176
     1
290
     0
176
     1
290
     0
176
     1
290
     0
176
     1
290
     0
176
     1
 90
       50
176
     1
 40
0.0
176
     1
 40
1.0
176
     1
 90
        0
176
     1
 62
    18
420
        0
176
     1
 90
       50
176
     1
 90
        3
176
     1
 62
     5
420
      255
176
     1
290
     0
176
     1
 90
       50
176
     1
 90
       50
176
     1
 90
       50
176
     1
290
     0
176
     1
 90
       50
176
     1
 62
   256
176
     0
 40
1.0
176
     0
 90
        2
176
     1
  1
strokes_ogs.tif
176
     1
290
     0
176
     1
 40
1.0
176
     1
 40
1.0
176
     1
  0
VISUALSTYLE
  5
36
102
{ACAD_REACTORS
330
2A
102
}
330
2A
100
AcDbVisualStyle
  2
Brighten
 70
    12
177
     3
291
     1
 70
    58
 90
        2
176
     1
 90
        2
176
     1
 90
        0
176
     1
 90
        0
176
     1
 40
0.6
176
     1
 40
30.0
176
     1
 62
     7
420
 16777215
176
     1
 90
        1
176
     1
 90
        4
176
     1
 62
     7
176
     1
 62
   257
176
     1
 90
        1
176
     1
 90
        1
176
     1
 40
1.0
176
     1
 90
        8
176
     1
 62
     7
176
     1
 40
1.0
176
     1
 90
        1
176
     1
 90
        6
176
     1
 90
        2
176
     1
 62
     7
176
     1
 90
        5
176
     1
 90
        0
176
     1
 90
        0
176
     1
290
     0
176
     1
 90
        1
176
     1
 40
50.0
176
     1
 90
        0
176
     1
290
     0
176
     1
290
     1
176
     1
290
     1
176
     1
290
     0
176
     1
290
     0
176
     1
290
     0
176
     1
290
     0
176
     1
290
     0
176
     1
290
     0
176
     1
 90
       50
176
     1
 40
0.0
176
     1
 40
1.0
176
     1
 90
        0
176
     1
 62
    18
420
        0
176
     1
 90
       50
176
     1
 90
        3
176
     1
 62
     5
420
      255
176
     1
290
     0
176
     1
 90
       50
176
     1
 90
       50
176
     1
 90
       50
176
     1
290
     0
176
     1
 90
       50
176
     1
 62
   256
176
     0
 40
1.0
176
     0
 90
        2
176
     1
  1
strokes_ogs.tif
176
     1
290
     0
176
     1
 40
1.0
176
     1
 40
1.0
176
     1
  0
VISUALSTYLE
  5
3A
102
{ACAD_REACTORS
330
2A
102
}
330
2A
100
AcDbVisualStyle
  2
ColorChange
 70
    16
177
     3
291
     1
 70
    58
 90
        2
176
     1
 90
        2
176
     1
 90
        3
176
     1
 90
        0
176
     1
 40
0.6
176
     1
 40
30.0
176
     1
 62
     8
420
  8421504
176
     1
 90
        1
176
     1
 90
        4
176
     1
 62
     7
176
     1
 62
   257
176
     1
 90
        1
176
     1
 90
        1
176
     1
 40
1.0
176
     1
 90
        8
176
     1
 62
     8
420
  8421504
176
     1
 40
1.0
176
     1
 90
        1
176
     1
 90
        6
176
     1
 90
        2
176
     1
 62
     7
176
     1
 90
        5
176
     1
 90
        0
176
     1
 90
        0
176
     1
290
     0
176
     1
 90
        1
176
     1
 40
0.0
176
     1
 90
        0
176
     1
290
     0
176
     1
290
     1
176
     1
290
     1
176
     1
290
     0
176
     1
290
     0
176
     1
290
     0
176
     1
290
     0
176
     1
290
     0
176
     1
290
     0
176
     1
 90
       50
176
     1
 40
0.0
176
     1
 40
1.0
176
     1
 90
        0
176
     1
 62
    18
420
        0
176
     1
 90
       50
176
     1
 90
        3
176
     1
 62
     5
420
      255
176
     1
290
     0
176
     1
 90
       50
176
     1
 90
       50
176
     1
 90
       50
176
     1
290
     0
176
     1
 90
       50
176
     1
 62
   256
176
     0
 40
1.0
176
     0
 90
        2
176
     1
  1
strokes_ogs.tif
176
     1
290
     0
176
     1
 40
1.0
176
     1
 40
1.0
176
     1
  0
VISUALSTYLE
  5
34
102
{ACAD_REACTORS
330
2A
102
}
330
2A
100
AcDbVisualStyle
  2
Conceptual
 70
     9
177
     3
291
     0
 70
    58
 90
        3
176
     1
 90
        2
176
     1
 90
        0
176
     1
 90
        0
176
     1
 40
0.6
176
     1
 40
30.0
176
     1
 62
     7
420
 16777215
176
     1
 90
        2
176
     1
 90
        2
176
     1
 62
     7
176
     1
 62
   257
176
     1
 90
        1
176
     1
 90
        1
176
     1
 40
179.0
176
     1
 90
        8
176
     1
 62
     7
176
     1
 40
1.0
176
     1
 90
        1
176
     1
 90
        6
176
     1
 90
        2
176
     1
 62
     7
176
     1
 90
        3
176
     1
 90
        0
176
     1
 90
        0
176
     1
290
     0
176
     1
 90
        1
176
     1
 40
0.0
176
     1
 90
        0
176
     1
290
     0
176
     1
290
     1
176
     1
290
     1
176
     1
290
     0
176
     1
290
     0
176
     1
290
     0
176
     1
290
     0
176
     1
290
     0
176
     1
290
     0
176
     1
 90
       50
176
     1
 40
0.0
176
     1
 40
1.0
176
     1
 90
        0
176
     1
 62
    18
420
        0
176
     1
 90
       50
176
     1
 90
        3
176
     1
 62
     5
420
      255
176
     1
290
     0
176
     1
 90
       50
176
     1
 90
       50
176
     1
 90
       50
176
     1
290
     0
176
     1
 90
       50
176
     1
 62
   256
176
     0
 40
1.0
176
     0
 90
        2
176
     1
  1
strokes_ogs.tif
176
     1
290
     0
176
     1
 40
1.0
176
     1
 40
1.0
176
     1
  0
VISUALSTYLE
  5
35
102
{ACAD_REACTORS
330
2A
102
}
330
2A
100
AcDbVisualStyle
  2
Dim
 70
    11
177
     3
291
     1
 70
    58
 90
        2
176
     1
 90
        2
176
     1
 90
        0
176
     1
 90
        0
176
     1
 40
0.6
176
     1
 40
30.0
176
     1
 62
     7
420
 16777215
176
     1
 90
        1
176
     1
 90
        4
176
     1
 62
     7
176
     1
 62
   257
176
     1
 90
        1
176
     1
 90
        1
176
     1
 40
1.0
176
     1
 90
        8
176
     1
 62
     7
176
     1
 40
1.0
176
     1
 90
        1
176
     1
 90
        6
176
     1
 90
        2
176
     1
 62
     7
176
     1
 90
        5
176
     1
 90
        0
176
     1
 90
        0
176
     1
290
     0
176
     1
 90
        1
176
     1
 40
-50.0
176
     1
 90
        0
176
     1
290
     0
176
     1
290
     1
176
     1
290
     1
176
     1
290
     0
176
     1
290
     0
176
     1
290
     0
176
     1
290
     0
176
     1
290
     0
176
     1
290
     0
176
     1
 90
       50
176
     1
 40
0.0
176
     1
 40
1.0
176
     1
 90
        0
176
     1
 62
    18
420
        0
176
     1
 90
       50
176
     1
 90
        3
176
     1
 62
     5
420
      255
176
     1
290
     0
176
     1
 90
       50
176
     1
 90
       50
176
     1
 90
       50
176
     1
290
     0
176
     1
 90
       50
176
     1
 62
   256
176
     0
 40
1.0
176
     0
 90
        2
176
     1
  1
strokes_ogs.tif
176
     1
290
     0
176
     1
 40
1.0
176
     1
 40
1.0
176
     1
  0
VISUALSTYLE
  5
3D
102
{ACAD_REACTORS
330
2A
102
}
330
2A
100
AcDbVisualStyle
  2
EdgeColorOff
 70
    22
177
     3
291
     1
 70
    58
 90
        2
176
     0
 90
        2
176
     0
 90
        0
176
     0
 90
        0
176
     0
 40
0.6
176
     0
 40
30.0
176
     0
 62
     7
420
 16777215
176
     0
 90
        1
176
     0
 90
        4
176
     0
 62
     7
176
     0
 62
   257
176
     0
 90
        1
176
     0
 90
        1
176
     0
 40
1.0
176
     0
 90
        8
176
     2
 62
     7
176
     0
 40
1.0
176
     0
 90
        1
176
     0
 90
        6
176
     0
 90
        2
176
     0
 62
     7
176
     0
 90
        5
176
     0
 90
        0
176
     0
 90
        0
176
     0
290
     0
176
     0
 90
        1
176
     0
 40
0.0
176
     0
 90
        0
176
     0
290
     0
176
     0
290
     1
176
     0
290
     1
176
     0
290
     0
176
     0
290
     0
176
     0
290
     0
176
     0
290
     0
176
     0
290
     0
176
     0
290
     0
176
     0
 90
       50
176
     0
 40
0.0
176
     0
 40
1.0
176
     0
 90
        0
176
     0
 62
    18
420
        0
176
     0
 90
       50
176
     0
 90
        3
176
     0
 62
     5
420
      255
176
     0
290
     0
176
     0
 90
       50
176
     0
 90
       50
176
     0
 90
       50
176
     0
290
     0
176
     0
 90
       50
176
     0
 62
   256
176
     0
 40
1.0
176
     0
 90
        2
176
     0
  1
strokes_ogs.tif
176
     0
290
     0
176
     0
 40
1.0
176
     0
 40
1.0
176
     0
  0
VISUALSTYLE
  5
39
102
{ACAD_REACTORS
330
2A
102
}
330
2A
100
AcDbVisualStyle
  2
Facepattern
 70
    15
177
     3
291
     1
 70
    58
 90
        2
176
     1
 90
        2
176
     1
 90
        0
176
     1
 90
        0
176
     1
 40
0.6
176
     1
 40
30.0
176
     1
 62
     7
420
 16777215
176
     1
 90
        1
176
     1
 90
        4
176
     1
 62
     7
176
     1
 62
   257
176
     1
 90
        1
176
     1
 90
        1
176
     1
 40
1.0
176
     1
 90
        8
176
     1
 62
     7
176
     1
 40
1.0
176
     1
 90
        1
176
     1
 90
        6
176
     1
 90
        2
176
     1
 62
     7
176
     1
 90
        5
176
     1
 90
        0
176
     1
 90
        0
176
     1
290
     0
176
     1
 90
        1
176
     1
 40
0.0
176
     1
 90
        0
176
     1
290
     0
176
     1
290
     1
176
     1
290
     1
176
     1
290
     0
176
     1
290
     0
176
     1
290
     0
176
     1
290
     0
176
     1
290
     0
176
     1
290
     0
176
     1
 90
       50
176
     1
 40
0.0
176
     1
 40
1.0
176
     1
 90
        0
176
     1
 62
    18
420
        0
176
     1
 90
       50
176
     1
 90
        3
176
     1
 62
     5
420
      255
176
     1
290
     0
176
     1
 90
       50
176
     1
 90
       50
176
     1
 90
       50
176
     1
290
     0
176
     1
 90
       50
176
     1
 62
   256
176
     0
 40
1.0
176
     0
 90
        2
176
     1
  1
strokes_ogs.tif
176
     1
290
     0
176
     1
 40
1.0
176
     1
 40
1.0
176
     1
  0
VISUALSTYLE
  5
2B
102
{ACAD_REACTORS
330
2A
102
}
330
2A
100
AcDbVisualStyle
  2
Flat
 70
     0
177
     3
291
     1
 70
    58
 90
        2
176
     1
 90
        1
176
     1
 90
        1
176
     1
 90
        2
176
     1
 40
0.6
176
     1
 40
30.0
176
     1
 62
     7
420
 16777215
176
     1
 90
        0
176
     1
 90
        0
176
     1
 62
     7
176
     1
 62
   257
176
     1
 90
        1
176
     1
 90
        1
176
     1
 40
1.0
176
     1
 90
        8
176
     1
 62
     7
176
     1
 40
1.0
176
     1
 90
        1
176
     1
 90
        6
176
     1
 90
        2
176
     1
 62
     7
176
     1
 90
        5
176
     1
 90
        0
176
     1
 90
        0
176
     1
290
     0
176
     1
 90
       13
176
     1
 40
0.0
176
     1
 90
        0
176
     1
290
     0
176
     1
290
     1
176
     1
290
     1
176
     1
290
     0
176
     1
290
     0
176
     1
290
     0
176
     1
290
     0
176
     1
290
     0
176
     1
290
     0
176
     1
 90
       50
176
     1
 40
0.0
176
     1
 40
1.0
176
     1
 90
        0
176
     1
 62
    18
420
        0
176
     1
 90
       50
176
     1
 90
        3
176
     1
 62
     5
420
      255
176
     1
290
     0
176
     1
 90
       50
176
     1
 90
       50
176
     1
 90
       50
176
     1
290
     0
176
     1
 90
       50
176
     1
 62
   256
176
     0
 40
1.0
176
     0
 90
        2
176
     1
  1
strokes_ogs.tif
176
     1
290
     0
176
     1
 40
1.0
176
     1
 40
1.0
176
     1
  0
VISUALSTYLE
  5
2C
102
{ACAD_REACTORS
330
2A
102
}
330
2A
100
AcDbVisualStyle
  2
FlatWithEdges
 70
     1
177
     3
291
     1
 70
    58
 90
        2
176
     1
 90
        1
176
     1
 90
        1
176
     1
 90
        2
176
     1
 40
0.6
176
     1
 40
30.0
176
     1
 62
     7
420
 16777215
176
     1
 90
        1
176
     1
 90
        0
176
     1
 62
     7
176
     1
 62
   257
176
     1
 90
        1
176
     1
 90
        1
176
     1
 40
1.0
176
     1
 90
        0
176
     1
 62
   257
176
     1
 40
1.0
176
     1
 90
        1
176
     1
 90
        6
176
     1
 90
        2
176
     1
 62
     7
176
     1
 90
        5
176
     1
 90
        0
176
     1
 90
        0
176
     1
290
     0
176
     1
 90
       13
176
     1
 40
0.0
176
     1
 90
        0
176
     1
290
     0
176
     1
290
     1
176
     1
290
     1
176
     1
290
     0
176
     1
290
     0
176
     1
290
     0
176
     1
290
     0
176
     1
290
     0
176
     1
290
     0
176
     1
 90
       50
176
     1
 40
0.0
176
     1
 40
1.0
176
     1
 90
        0
176
     1
 62
    18
420
        0
176
     1
 90
       50
176
     1
 90
        3
176
     1
 62
     5
420
      255
176
     1
290
     0
176
     1
 90
       50
176
     1
 90
       50
176
     1
 90
       50
176
     1
290
     0
176
     1
 90
       50
176
     1
 62
   256
176
     0
 40
1.0
176
     0
 90
        2
176
     1
  1
strokes_ogs.tif
176
     1
290
     0
176
     1
 40
1.0
176
     1
 40
1.0
176
     1
  0
VISUALSTYLE
  5
2D
102
{ACAD_REACTORS
330
2A
102
}
330
2A
100
AcDbVisualStyle
  2
Gouraud
 70
     2
177
     3
291
     1
 70
    58
 90
        2
176
     1
 90
        2
176
     1
 90
        1
176
     1
 90
        2
176
     1
 40
0.6
176
     1
 40
30.0
176
     1
 62
     7
420
 16777215
176
     1
 90
        0
176
     1
 90
        0
176
     1
 62
     7
176
     1
 62
   257
176
     1
 90
        1
176
     1
 90
        1
176
     1
 40
1.0
176
     1
 90
        0
176
     1
 62
     7
176
     1
 40
1.0
176
     1
 90
        1
176
     1
 90
        6
176
     1
 90
        2
176
     1
 62
     7
176
     1
 90
        5
176
     1
 90
        0
176
     1
 90
        0
176
     1
290
     0
176
     1
 90
       13
176
     1
 40
0.0
176
     1
 90
        0
176
     1
290
     0
176
     1
290
     1
176
     1
290
     1
176
     1
290
     0
176
     1
290
     0
176
     1
290
     0
176
     1
290
     0
176
     1
290
     0
176
     1
290
     0
176
     1
 90
       50
176
     1
 40
0.0
176
     1
 40
1.0
176
     1
 90
        0
176
     1
 62
    18
420
        0
176
     1
 90
       50
176
     1
 90
        3
176
     1
 62
     5
420
      255
176
     1
290
     0
176
     1
 90
       50
176
     1
 90
       50
176
     1
 90
       50
176
     1
290
     0
176
     1
 90
       50
176
     1
 62
   256
176
     0
 40
1.0
176
     0
 90
        2
176
     1
  1
strokes_ogs.tif
176
     1
290
     0
176
     1
 40
1.0
176
     1
 40
1.0
176
     1
  0
VISUALSTYLE
  5
2E
102
{ACAD_REACTORS
330
2A
102
}
330
2A
100
AcDbVisualStyle
  2
GouraudWithEdges
 70
     3
177
     3
291
     1
 70
    58
 90
        2
176
     1
 90
        2
176
     1
 90
        1
176
     1
 90
        2
176
     1
 40
0.6
176
     1
 40
30.0
176
     1
 62
     7
420
 16777215
176
     1
 90
        1
176
     1
 90
        0
176
     1
 62
     7
176
     1
 62
   257
176
     1
 90
        1
176
     1
 90
        1
176
     1
 40
1.0
176
     1
 90
        0
176
     1
 62
   257
176
     1
 40
1.0
176
     1
 90
        1
176
     1
 90
        6
176
     1
 90
        2
176
     1
 62
     7
176
     1
 90
        5
176
     1
 90
        0
176
     1
 90
        0
176
     1
290
     0
176
     1
 90
       13
176
     1
 40
0.0
176
     1
 90
        0
176
     1
290
     0
176
     1
290
     1
176
     1
290
     1
176
     1
290
     0
176
     1
290
     0
176
     1
290
     0
176
     1
290
     0
176
     1
290
     0
176
     1
290
     0
176
     1
 90
       50
176
     1
 40
0.0
176
     1
 40
1.0
176
     1
 90
        0
176
     1
 62
    18
420
        0
176
     1
 90
       50
176
     1
 90
        3
176
     1
 62
     5
420
      255
176
     1
290
     0
176
     1
 90
       50
176
     1
 90
       50
176
     1
 90
       50
176
     1
290
     0
176
     1
 90
       50
176
     1
 62
   256
176
     0
 40
1.0
176
     0
 90
        2
176
     1
  1
strokes_ogs.tif
176
     1
290
     0
176
     1
 40
1.0
176
     1
 40
1.0
176
     1
  0
VISUALSTYLE
  5
31
102
{ACAD_REACTORS
330
2A
102
}
330
2A
100
AcDbVisualStyle
  2
Hidden
 70
     6
177
     3
291
     0
 70
    58
 90
        1
176
     1
 90
        2
176
     1
 90
        2
176
     1
 90
        0
176
     1
 40
0.6
176
     1
 40
30.0
176
     1
 62
     7
420
 16777215
176
     1
 90
        2
176
     1
 90
        2
176
     1
 62
     7
176
     1
 62
   257
176
     1
 90
        2
176
     1
 90
        1
176
     1
 40
40.0
176
     1
 90
        0
176
     1
 62
   257
176
     1
 40
1.0
176
     1
 90
        1
176
     1
 90
        6
176
     1
 90
        2
176
     1
 62
     7
176
     1
 90
        3
176
     1
 90
        0
176
     1
 90
        0
176
     1
290
     0
176
     1
 90
        1
176
     1
 40
0.0
176
     1
 90
        0
176
     1
290
     0
176
     1
290
     1
176
     1
290
     1
176
     1
290
     0
176
     1
290
     0
176
     1
290
     0
176
     1
290
     0
176
     1
290
     0
176
     1
290
     0
176
     1
 90
       50
176
     1
 40
0.0
176
     1
 40
1.0
176
     1
 90
        0
176
     1
 62
    18
420
        0
176
     1
 90
       50
176
     1
 90
        3
176
     1
 62
     5
420
      255
176
     1
290
     0
176
     1
 90
       50
176
     1
 90
       50
176
     1
 90
       50
176
     1
290
     0
176
     1
 90
       50
176
     1
 62
   256
176
     0
 40
1.0
176
     0
 90
        2
176
     1
  1
strokes_ogs.tif
176
     1
290
     0
176
     1
 40
1.0
176
     1
 40
1.0
176
     1
  0
VISUALSTYLE
  5
3B
102
{ACAD_REACTORS
330
2A
102
}
330
2A
100
AcDbVisualStyle
  2
JitterOff
 70
    20
177
     3
291
     1
 70
    58
 90
        2
176
     0
 90
        2
176
     0
 90
        0
176
     0
 90
        0
176
     0
 40
0.6
176
     0
 40
30.0
176
     0
 62
     7
420
 16777215
176
     0
 90
        1
176
     0
 90
        4
176
     0
 62
     7
176
     0
 62
   257
176
     0
 90
        1
176
     0
 90
        1
176
     0
 40
1.0
176
     0
 90
       10
176
     2
 62
     7
176
     0
 40
1.0
176
     0
 90
        1
176
     0
 90
        6
176
     0
 90
        2
176
     0
 62
     7
176
     0
 90
        5
176
     0
 90
        0
176
     0
 90
        0
176
     0
290
     0
176
     0
 90
        1
176
     0
 40
0.0
176
     0
 90
        0
176
     0
290
     0
176
     0
290
     1
176
     0
290
     1
176
     0
290
     0
176
     0
290
     0
176
     0
290
     0
176
     0
290
     0
176
     0
290
     0
176
     0
290
     0
176
     0
 90
       50
176
     0
 40
0.0
176
     0
 40
1.0
176
     0
 90
        0
176
     0
 62
    18
420
        0
176
     0
 90
       50
176
     0
 90
        3
176
     0
 62
     5
420
      255
176
     0
290
     0
176
     0
 90
       50
176
     0
 90
       50
176
     0
 90
       50
176
     0
290
     0
176
     0
 90
       50
176
     0
 62
   256
176
     0
 40
1.0
176
     0
 90
        2
176
     0
  1
strokes_ogs.tif
176
     0
290
     0
176
     0
 40
1.0
176
     0
 40
1.0
176
     0
  0
VISUALSTYLE
  5
38
102
{ACAD_REACTORS
330
2A
102
}
330
2A
100
AcDbVisualStyle
  2
Linepattern
 70
    14
177
     3
291
     1
 70
    58
 90
        2
176
     1
 90
        2
176
     1
 90
        0
176
     1
 90
        0
176
     1
 40
0.6
176
     1
 40
30.0
176
     1
 62
     7
420
 16777215
176
     1
 90
        1
176
     1
 90
        4
176
     1
 62
     7
176
     1
 62
   257
176
     1
 90
        7
176
     1
 90
        7
176
     1
 40
1.0
176
     1
 90
        8
176
     1
 62
     7
176
     1
 40
1.0
176
     1
 90
        1
176
     1
 90
        6
176
     1
 90
        2
176
     1
 62
     7
176
     1
 90
        5
176
     1
 90
        0
176
     1
 90
        0
176
     1
290
     0
176
     1
 90
        1
176
     1
 40
0.0
176
     1
 90
        0
176
     1
290
     0
176
     1
290
     1
176
     1
290
     1
176
     1
290
     0
176
     1
290
     0
176
     1
290
     0
176
     1
290
     0
176
     1
290
     0
176
     1
290
     0
176
     1
 90
       50
176
     1
 40
0.0
176
     1
 40
1.0
176
     1
 90
        0
176
     1
 62
    18
420
        0
176
     1
 90
       50
176
     1
 90
        3
176
     1
 62
     5
420
      255
176
     1
290
     0
176
     1
 90
       50
176
     1
 90
       50
176
     1
 90
       50
176
     1
290
     0
176
     1
 90
       50
176
     1
 62
   256
176
     0
 40
1.0
176
     0
 90
        2
176
     1
  1
strokes_ogs.tif
176
     1
290
     0
176
     1
 40
1.0
176
     1
 40
1.0
176
     1
  0
VISUALSTYLE
  5
3C
102
{ACAD_REACTORS
330
2A
102
}
330
2A
100
AcDbVisualStyle
  2
OverhangOff
 70
    21
177
     3
291
     1
 70
    58
 90
        2
176
     0
 90
        2
176
     0
 90
        0
176
     0
 90
        0
176
     0
 40
0.6
176
     0
 40
30.0
176
     0
 62
     7
420
 16777215
176
     0
 90
        1
176
     0
 90
        4
176
     0
 62
     7
176
     0
 62
   257
176
     0
 90
        1
176
     0
 90
        1
176
     0
 40
1.0
176
     0
 90
        9
176
     2
 62
     7
176
     0
 40
1.0
176
     0
 90
        1
176
     0
 90
        6
176
     0
 90
        2
176
     0
 62
     7
176
     0
 90
        5
176
     0
 90
        0
176
     0
 90
        0
176
     0
290
     0
176
     0
 90
        1
176
     0
 40
0.0
176
     0
 90
        0
176
     0
290
     0
176
     0
290
     1
176
     0
290
     1
176
     0
290
     0
176
     0
290
     0
176
     0
290
     0
176
     0
290
     0
176
     0
290
     0
176
     0
290
     0
176
     0
 90
       50
176
     0
 40
0.0
176
     0
 40
1.0
176
     0
 90
        0
176
     0
 62
    18
420
        0
176
     0
 90
       50
176
     0
 90
        3
176
     0
 62
     5
420
      255
176
     0
290
     0
176
     0
 90
       50
176
     0
 90
       50
176
     0
 90
       50
176
     0
290
     0
176
     0
 90
       50
176
     0
 62
   256
176
     0
 40
1.0
176
     0
 90
        2
176
     0
  1
strokes_ogs.tif
176
     0
290
     0
176
     0
 40
1.0
176
     0
 40
1.0
176
     0
  0
VISUALSTYLE
  5
33
102
{ACAD_REACTORS
330
2A
102
}
330
2A
100
AcDbVisualStyle
  2
Realistic
 70
     8
177
     3
291
     0
 70
    58
 90
        2
176
     1
 90
        3
176
     1
 90
        0
176
     1
 90
        2
176
     1
 40
0.6
176
     1
 40
30.0
176
     1
 62
     7
420
 16777215
176
     1
 90
        0
176
     1
 90
        0
176
     1
 62
     7
176
     1
 62
   257
176
     1
 90
        1
176
     1
 90
        1
176
     1
 40
1.0
176
     1
 90
        8
176
     1
 62
   257
176
     1
 40
1.0
176
     1
 90
        1
176
     1
 90
        6
176
     1
 90
        2
176
     1
 62
     7
176
     1
 90
        3
176
     1
 90
        0
176
     1
 90
        0
176
     1
290
     0
176
     1
 90
       13
176
     1
 40
0.0
176
     1
 90
        0
176
     1
290
     0
176
     1
290
     1
176
     1
290
     1
176
     1
290
     0
176
     1
290
     0
176
     1
290
     0
176
     1
290
     0
176
     1
290
     0
176
     1
290
     0
176
     1
 90
       50
176
     1
 40
0.0
176
     1
 40
1.0
176
     1
 90
        0
176
     1
 62
    18
420
        0
176
     1
 90
       50
176
     1
 90
        3
176
     1
 62
     5
420
      255
176
     1
290
     0
176
     1
 90
       50
176
     1
 90
       50
176
     1
 90
       50
176
     1
290
     0
176
     1
 90
       50
176
     1
 62
   256
176
     0
 40
1.0
176
     0
 90
        2
176
     1
  1
strokes_ogs.tif
176
     1
290
     0
176
     1
 40
1.0
176
     1
 40
1.0
176
     1
  0
VISUALSTYLE
  5
42
102
{ACAD_REACTORS
330
2A
102
}
330
2A
100
AcDbVisualStyle
  2
Shaded
 70
    27
177
     3
291
     0
 70
    58
 90
        2
176
     1
 90
        2
176
     1
 90
        1
176
     1
 90
        2
176
     1
 40
0.6
176
     1
 40
30.0
176
     1
 62
     7
420
 16777215
176
     1
 90
        0
176
     1
 90
        4
176
     1
 62
     7
176
     1
 62
   257
176
     1
 90
        1
176
     1
 90
        1
176
     1
 40
1.0
176
     1
 90
        8
176
     1
 62
   257
176
     1
 40
1.0
176
     1
 90
        1
176
     1
 90
        6
176
     1
 90
        2
176
     1
 62
     8
420
  7895160
176
     1
 90
        3
176
     1
 90
        0
176
     1
 90
        0
176
     1
290
     0
176
     1
 90
        5
176
     1
 40
0.0
176
     1
 90
        0
176
     1
290
     0
176
     1
290
     1
176
     1
290
     1
176
     1
290
     0
176
     1
290
     0
176
     1
290
     0
176
     1
290
     0
176
     1
290
     0
176
     1
290
     0
176
     1
 90
       50
176
     1
 40
0.0
176
     1
 40
1.0
176
     1
 90
        0
176
     1
 62
    18
420
        0
176
     1
 90
       50
176
     1
 90
        3
176
     1
 62
     5
420
      255
176
     1
290
     0
176
     1
 90
       50
176
     1
 90
       50
176
     1
 90
       50
176
     1
290
     0
176
     1
 90
       50
176
     1
 62
   256
176
     0
 40
1.0
176
     0
 90
        2
176
     1
  1
strokes_ogs.tif
176
     1
290
     0
176
     1
 40
1.0
176
     1
 40
1.0
176
     1
  0
VISUALSTYLE
  5
41
102
{ACAD_REACTORS
330
2A
102
}
330
2A
100
AcDbVisualStyle
  2
Shaded with edges
 70
    26
177
     3
291
     0
 70
    58
 90
        2
176
     1
 90
        2
176
     1
 90
        1
176
     1
 90
        2
176
     1
 40
0.6
176
     1
 40
30.0
176
     1
 62
     7
420
 16777215
176
     1
 90
        1
176
     1
 90
       10
176
     1
 62
     7
176
     1
 62
   257
176
     1
 90
        2
176
     1
 90
        1
176
     1
 40
1.0
176
     1
 90
        8
176
     1
 62
   257
176
     1
 40
1.0
176
     1
 90
        1
176
     1
 90
        6
176
     1
 90
        2
176
     1
 62
     7
176
     1
 90
        3
176
     1
 90
        0
176
     1
 90
        0
176
     1
290
     0
176
     1
 90
        5
176
     1
 40
0.0
176
     1
 90
        0
176
     1
290
     0
176
     1
290
     1
176
     1
290
     1
176
     1
290
     0
176
     1
290
     0
176
     1
290
     0
176
     1
290
     0
176
     1
290
     0
176
     1
290
     0
176
     1
 90
       50
176
     1
 40
0.0
176
     1
 40
1.0
176
     1
 90
        0
176
     1
 62
    18
420
        0
176
     1
 90
       50
176
     1
 90
        3
176
     1
 62
     5
420
      255
176
     1
290
     0
176
     1
 90
       50
176
     1
 90
       50
176
     1
 90
       50
176
     1
290
     0
176
     1
 90
       50
176
     1
 62
   256
176
     0
 40
1.0
176
     0
 90
        2
176
     1
  1
strokes_ogs.tif
176
     1
290
     0
176
     1
 40
1.0
176
     1
 40
1.0
176
     1
  0
VISUALSTYLE
  5
3E
102
{ACAD_REACTORS
330
2A
102
}
330
2A
100
AcDbVisualStyle
  2
Shades of Gray
 70
    23
177
     3
291
     0
 70
    58
 90
        2
176
     1
 90
        2
176
     1
 90
        3
176
     1
 90
        0
176
     1
 40
0.6
176
     1
 40
30.0
176
     1
 62
     7
420
 16777215
176
     1
 90
        2
176
     1
 90
        2
176
     1
 62
     7
176
     1
 62
     7
176
     1
 90
        1
176
     1
 90
        1
176
     1
 40
40.0
176
     1
 90
        8
176
     1
 62
     7
176
     1
 40
1.0
176
     1
 90
        1
176
     1
 90
        6
176
     1
 90
        2
176
     1
 62
     7
176
     1
 90
        3
176
     1
 90
        0
176
     1
 90
        0
176
     1
290
     0
176
     1
 90
        1
176
     1
 40
0.0
176
     1
 90
        0
176
     1
290
     0
176
     1
290
     1
176
     1
290
     1
176
     1
290
     0
176
     1
290
     0
176
     1
290
     0
176
     1
290
     0
176
     1
290
     0
176
     1
290
     0
176
     1
 90
       50
176
     1
 40
0.0
176
     1
 40
1.0
176
     1
 90
        0
176
     1
 62
    18
420
        0
176
     1
 90
       50
176
     1
 90
        3
176
     1
 62
     5
420
      255
176
     1
290
     0
176
     1
 90
       50
176
     1
 90
       50
176
     1
 90
       50
176
     1
290
     0
176
     1
 90
       50
176
     1
 62
   256
176
     0
 40
1.0
176
     0
 90
        2
176
     1
  1
strokes_ogs.tif
176
     1
290
     0
176
     1
 40
1.0
176
     1
 40
1.0
176
     1
  0
VISUALSTYLE
  5
3F
102
{ACAD_REACTORS
330
2A
102
}
330
2A
100
AcDbVisualStyle
  2
Sketchy
 70
    24
177
     3
291
     0
 70
    58
 90
        1
176
     1
 90
        2
176
     1
 90
        2
176
     1
 90
        0
176
     1
 40
0.6
176
     1
 40
30.0
176
     1
 62
     7
420
 16777215
176
     1
 90
        2
176
     1
 90
        2
176
     1
 62
     7
176
     1
 62
     7
176
     1
 90
        1
176
     1
 90
        1
176
     1
 40
40.0
176
     1
 90
       11
176
     1
 62
     7
176
     1
 40
1.0
176
     1
 90
        1
176
     1
 90
        6
176
     1
 90
        2
176
     1
 62
     7
176
     1
 90
        6
176
     1
 90
        0
176
     1
 90
        0
176
     1
290
     0
176
     1
 90
        1
176
     1
 40
0.0
176
     1
 90
        0
176
     1
290
     0
176
     1
290
     1
176
     1
290
     1
176
     1
290
     0
176
     1
290
     0
176
     1
290
     0
176
     1
290
     0
176
     1
290
     0
176
     1
290
     0
176
     1
 90
       50
176
     1
 40
0.0
176
     1
 40
1.0
176
     1
 90
        0
176
     1
 62
    18
420
        0
176
     1
 90
       50
176
     1
 90
        3
176
     1
 62
     5
420
      255
176
     1
290
     0
176
     1
 90
       50
176
     1
 90
       50
176
     1
 90
       50
176
     1
290
     0
176
     1
 90
       50
176
     1
 62
   256
176
     0
 40
1.0
176
     0
 90
        2
176
     1
  1
strokes_ogs.tif
176
     1
290
     0
176
     1
 40
1.0
176
     1
 40
1.0
176
     1
  0
VISUALSTYLE
  5
37
102
{ACAD_REACTORS
330
2A
102
}
330
2A
100
AcDbVisualStyle
  2
Thicken
 70
    13
177
     3
291
     1
 70
    58
 90
        2
176
     1
 90
        2
176
     1
 90
        0
176
     1
 90
        0
176
     1
 40
0.6
176
     1
 40
30.0
176
     1
 62
     7
420
 16777215
176
     1
 90
        1
176
     1
 90
        4
176
     1
 62
     7
176
     1
 62
   257
176
     1
 90
        1
176
     1
 90
        1
176
     1
 40
1.0
176
     1
 90
       12
176
     1
 62
     7
176
     1
 40
1.0
176
     1
 90
        1
176
     1
 90
        6
176
     1
 90
        2
176
     1
 62
     7
176
     1
 90
        5
176
     1
 90
        0
176
     1
 90
        0
176
     1
290
     0
176
     1
 90
        1
176
     1
 40
0.0
176
     1
 90
        0
176
     1
290
     0
176
     1
290
     1
176
     1
290
     1
176
     1
290
     0
176
     1
290
     0
176
     1
290
     0
176
     1
290
     0
176
     1
290
     0
176
     1
290
     0
176
     1
 90
       50
176
     1
 40
0.0
176
     1
 40
1.0
176
     1
 90
        0
176
     1
 62
    18
420
        0
176
     1
 90
       50
176
     1
 90
        3
176
     1
 62
     5
420
      255
176
     1
290
     0
176
     1
 90
       50
176
     1
 90
       50
176
     1
 90
       50
176
     1
290
     0
176
     1
 90
       50
176
     1
 62
   256
176
     0
 40
1.0
176
     0
 90
        2
176
     1
  1
strokes_ogs.tif
176
     1
290
     0
176
     1
 40
1.0
176
     1
 40
1.0
176
     1
  0
VISUALSTYLE
  5
30
102
{ACAD_REACTORS
330
2A
102
}
330
2A
100
AcDbVisualStyle
  2
Wireframe
 70
     5
177
     3
291
     0
 70
    58
 90
        0
176
     1
 90
        2
176
     1
 90
        0
176
     1
 90
        0
176
     1
 40
0.6
176
     1
 40
30.0
176
     1
 62
     7
420
 16777215
176
     1
 90
        1
176
     1
 90
        4
176
     1
 62
     7
176
     1
 62
   257
176
     1
 90
        1
176
     1
 90
        1
176
     1
 40
1.0
176
     1
 90
        0
176
     1
 62
   257
176
     1
 40
1.0
176
     1
 90
        1
176
     1
 90
        6
176
     1
 90
        2
176
     1
 62
     7
176
     1
 90
        3
176
     1
 90
        0
176
     1
 90
        0
176
     1
290
     0
176
     1
 90
        1
176
     1
 40
0.0
176
     1
 90
        0
176
     1
290
     0
176
     1
290
     1
176
     1
290
     1
176
     1
290
     0
176
     1
290
     0
176
     1
290
     0
176
     1
290
     0
176
     1
290
     0
176
     1
290
     0
176
     1
 90
       50
176
     1
 40
0.0
176
     1
 40
1.0
176
     1
 90
        0
176
     1
 62
    18
420
        0
176
     1
 90
       50
176
     1
 90
        3
176
     1
 62
     5
420
      255
176
     1
290
     0
176
     1
 90
       50
176
     1
 90
       50
176
     1
 90
       50
176
     1
290
     0
176
     1
 90
       50
176
     1
 62
   256
176
     0
 40
1.0
176
     0
 90
        2
176
     1
  1
strokes_ogs.tif
176
     1
290
     0
176
     1
 40
1.0
176
     1
 40
1.0
176
     1
  0
VISUALSTYLE
  5
40
102
{ACAD_REACTORS
330
2A
102
}
330
2A
100
AcDbVisualStyle
  2
X-Ray
 70
    25
177
     3
291
     0
 70
    58
 90
        2
176
     1
 90
        2
176
     1
 90
        1
176
     1
 90
        1
176
     1
 40
0.5
176
     1
 40
30.0
176
     1
 62
     7
420
 16777215
176
     1
 90
        1
176
     1
 90
        0
176
     1
 62
     7
176
     1
 62
   257
176
     1
 90
        1
176
     1
 90
        1
176
     1
 40
1.0
176
     1
 90
        8
176
     1
 62
     7
176
     1
 40
1.0
176
     1
 90
        1
176
     1
 90
        6
176
     1
 90
        2
176
     1
 62
     7
176
     1
 90
        3
176
     1
 90
        0
176
     1
 90
        0
176
     1
290
     0
176
     1
 90
       13
176
     1
 40
0.0
176
     1
 90
        0
176
     1
290
     0
176
     1
290
     1
176
     1
290
     1
176
     1
290
     0
176
     1
290
     0
176
     1
290
     0
176
     1
290
     0
176
     1
290
     0
176
     1
290
     0
176
     1
 90
       50
176
     1
 40
0.0
176
     1
 40
1.0
176
     1
 90
        0
176
     1
 62
    18
420
        0
176
     1
 90
       50
176
     1
 90
        3
176
     1
 62
     5
420
      255
176
     1
290
     0
176
     1
 90
       50
176
     1
 90
       50
176
     1
 90
       50
176
     1
290
     0
176
     1
 90
       50
176
     1
 62
   256
176
     0
 40
1.0
176
     0
 90
        2
176
     1
  1
strokes_ogs.tif
176
     1
290
     0
176
     1
 40
1.0
176
     1
 40
1.0
176
     1
  0
DICTIONARYVAR
  5
1DA
102
{ACAD_REACTORS
330
1D9
102
}
330
1D9
100
DictionaryVariables
280
     0
  1
1:1
  0
DICTIONARYVAR
  5
1DF
102
{ACAD_REACTORS
330
1D9
102
}
330
1D9
100
DictionaryVariables
280
     0
  1
Standard
  0
DICTIONARYVAR
  5
1DE
102
{ACAD_REACTORS
330
1D9
102
}
330
1D9
100
DictionaryVariables
280
     0
  1
Standard
  0
DICTIONARY
  5
1DB
330
6A
100
AcDbDictionary
280
     1
281
     1
  3
ACAD_ROUNDTRIP_2008_TABLESTYLE_CELLSTYLEMAP
360
1DC
  0
CELLSTYLEMAP
  5
1DC
102
{ACAD_REACTORS
330
1DB
102
}
330
1DB
100
AcDbCellStyleMap
 90
        3
300
CELLSTYLE
  1
TABLEFORMAT_BEGIN
 90
        5
170
     1
 91
        0
 92
    32768
 62
   257
 93
        1
300
CONTENTFORMAT
  1
CONTENTFORMAT_BEGIN
 90
        0
 91
        0
 92
        4
 93
        0
300

 40
0.0
140
1.0
 94
        5
 62
     0
340
11
144
6.0
309
CONTENTFORMAT_END
171
     1
301
MARGIN
  1
CELLMARGIN_BEGIN
 40
1.5
 40
1.5
 40
1.5
 40
1.5
 40
1.5
 40
1.5
309
CELLMARGIN_END
 94
        6
 95
        1
302
GRIDFORMAT
  1
GRIDFORMAT_BEGIN
 90
        0
 91
        1
 62
     0
 92
       -2
340
14
 93
        0
 40
0.045
309
GRIDFORMAT_END
 95
        2
302
GRIDFORMAT
  1
GRIDFORMAT_BEGIN
 90
        0
 91
        1
 62
     0
 92
       -2
340
14
 93
        0
 40
0.045
309
GRIDFORMAT_END
 95
        4
302
GRIDFORMAT
  1
GRIDFORMAT_BEGIN
 90
        0
 91
        1
 62
     0
 92
       -2
340
14
 93
        0
 40
0.045
309
GRIDFORMAT_END
 95
        8
302
GRIDFORMAT
  1
GRIDFORMAT_BEGIN
 90
        0
 91
        1
 62
     0
 92
       -2
340
14
 93
        0
 40
0.045
309
GRIDFORMAT_END
 95
       16
302
GRIDFORMAT
  1
GRIDFORMAT_BEGIN
 90
        0
 91
        1
 62
     0
 92
       -2
340
14
 93
        0
 40
0.045
309
GRIDFORMAT_END
 95
       32
302
GRIDFORMAT
  1
GRIDFORMAT_BEGIN
 90
        0
 91
        1
 62
     0
 92
       -2
340
14
 93
        0
 40
0.045
309
GRIDFORMAT_END
309
TABLEFORMAT_END
  1
CELLSTYLE_BEGIN
 90
        1
 91
        1
300
_TITLE
309
CELLSTYLE_END
300
CELLSTYLE
  1
TABLEFORMAT_BEGIN
 90
        5
170
     1
 91
        0
 92
        0
 62
   257
 93
        1
300
CONTENTFORMAT
  1
CONTENTFORMAT_BEGIN
 90
        0
 91
        0
 92
        4
 93
        0
300

 40
0.0
140
1.0
 94
        5
 62
     0
340
11
144
4.5
309
CONTENTFORMAT_END
171
     1
301
MARGIN
  1
CELLMARGIN_BEGIN
 40
1.5
 40
1.5
 40
1.5
 40
1.5
 40
1.5
 40
1.5
309
CELLMARGIN_END
 94
        6
 95
        1
302
GRIDFORMAT
  1
GRIDFORMAT_BEGIN
 90
        0
 91
        1
 62
     0
 92
       -2
340
14
 93
        0
 40
0.045
309
GRIDFORMAT_END
 95
        2
302
GRIDFORMAT
  1
GRIDFORMAT_BEGIN
 90
        0
 91
        1
 62
     0
 92
       -2
340
14
 93
        0
 40
0.045
309
GRIDFORMAT_END
 95
        4
302
GRIDFORMAT
  1
GRIDFORMAT_BEGIN
 90
        0
 91
        1
 62
     0
 92
       -2
340
14
 93
        0
 40
0.045
309
GRIDFORMAT_END
 95
        8
302
GRIDFORMAT
  1
GRIDFORMAT_BEGIN
 90
        0
 91
        1
 62
     0
 92
       -2
340
14
 93
        0
 40
0.045
309
GRIDFORMAT_END
 95
       16
302
GRIDFORMAT
  1
GRIDFORMAT_BEGIN
 90
        0
 91
        1
 62
     0
 92
       -2
340
14
 93
        0
 40
0.045
309
GRIDFORMAT_END
 95
       32
302
GRIDFORMAT
  1
GRIDFORMAT_BEGIN
 90
        0
 91
        1
 62
     0
 92
       -2
340
14
 93
        0
 40
0.045
309
GRIDFORMAT_END
309
TABLEFORMAT_END
  1
CELLSTYLE_BEGIN
 90
        2
 91
        1
300
_HEADER
309
CELLSTYLE_END
300
CELLSTYLE
  1
TABLEFORMAT_BEGIN
 90
        5
170
     1
 91
        0
 92
        0
 62
   257
 93
        1
300
CONTENTFORMAT
  1
CONTENTFORMAT_BEGIN
 90
        0
 91
        0
 92
        4
 93
        0
300

 40
0.0
140
1.0
 94
        2
 62
     0
340
11
144
4.5
309
CONTENTFORMAT_END
171
     1
301
MARGIN
  1
CELLMARGIN_BEGIN
 40
1.5
 40
1.5
 40
1.5
 40
1.5
 40
1.5
 40
1.5
309
CELLMARGIN_END
 94
        6
 95
        1
302
GRIDFORMAT
  1
GRIDFORMAT_BEGIN
 90
        0
 91
        1
 62
     0
 92
       -2
340
14
 93
        0
 40
0.045
309
GRIDFORMAT_END
 95
        2
302
GRIDFORMAT
  1
GRIDFORMAT_BEGIN
 90
        0
 91
        1
 62
     0
 92
       -2
340
14
 93
        0
 40
0.045
309
GRIDFORMAT_END
 95
        4
302
GRIDFORMAT
  1
GRIDFORMAT_BEGIN
 90
        0
 91
        1
 62
     0
 92
       -2
340
14
 93
        0
 40
0.045
309
GRIDFORMAT_END
 95
        8
302
GRIDFORMAT
  1
GRIDFORMAT_BEGIN
 90
        0
 91
        1
 62
     0
 92
       -2
340
14
 93
        0
 40
0.045
309
GRIDFORMAT_END
 95
       16
302
GRIDFORMAT
  1
GRIDFORMAT_BEGIN
 90
        0
 91
        1
 62
     0
 92
       -2
340
14
 93
        0
 40
0.045
309
GRIDFORMAT_END
 95
       32
302
GRIDFORMAT
  1
GRIDFORMAT_BEGIN
 90
        0
 91
        1
 62
     0
 92
       -2
340
14
 93
        0
 40
0.045
309
GRIDFORMAT_END
309
TABLEFORMAT_END
  1
CELLSTYLE_BEGIN
 90
        3
 91
        2
300
_DATA
309
CELLSTYLE_END
  0
ENDSEC
  0
EOF