0
SECTION
  2
HEADER
  9
$ACADVER
  1
AC1027
  9
$ACADMAINTVER
 70
     8
  9
$DWGCODEPAGE
  3
ANSI_1252
  9
$REQUIREDVERSIONS
160
                 0
  9
$COMMENTS
  1
File was created by Cadenas
  9
$CUSTOMPROPERTYTAG
  1
NN
  9
$CUSTOMPROPERTY
  1
Grip Tight Two-Bolt Flange - Stainless Housing, Corrosion Resistant Insert Inch Bore
  9
$CUSTOMPROPERTYTAG
  1
NT
  9
$CUSTOMPROPERTY
  1
GTEZ Normal Duty Stainless Steel Housed 2 Bolt Flange Bearings
  9
$CUSTOMPROPERTYTAG
  1
NB
  9
$CUSTOMPROPERTY
  1
 129360
  9
$CUSTOMPROPERTYTAG
  1
NBSYN
  9
$CUSTOMPROPERTY
  1
 $PN.$LUBE.
  9
$CUSTOMPROPERTYTAG
  1
LINA
  9
$CUSTOMPROPERTY
  1
129360
  9
$CUSTOMPROPERTYTAG
  1
SERIES
  9
$CUSTOMPROPERTY
  1
206
  9
$CUSTOMPROPERTYTAG
  1
SS
  9
$CUSTOMPROPERTY
  1
1-1/4
  9
$CUSTOMPROPERTYTAG
  1
PN
  9
$CUSTOMPROPERTY
  1
129360
  9
$CUSTOMPROPERTYTAG
  1
DESCRIPTION
  9
$CUSTOMPROPERTY
  1
F2B-GTEZ-104S-SHCR
  9
$CUSTOMPROPERTYTAG
  1
A
  9
$CUSTOMPROPERTY
  1
1-39/64
  9
$CUSTOMPROPERTYTAG
  1
B
  9
$CUSTOMPROPERTY
  1
5-33/64
  9
$CUSTOMPROPERTYTAG
  1
C
  9
$CUSTOMPROPERTY
  1
1-47/64
  9
$CUSTOMPROPERTYTAG
  1
D
  9
$CUSTOMPROPERTY
  1
4-19/32
  9
$CUSTOMPROPERTYTAG
  1
F
  9
$CUSTOMPROPERTY
  1
3/8
  9
$CUSTOMPROPERTYTAG
  1
F1
  9
$CUSTOMPROPERTY
  1
0.375
  9
$CUSTOMPROPERTYTAG
  1
H
  9
$CUSTOMPROPERTY
  1
23/64
  9
$CUSTOMPROPERTYTAG
  1
J
  9
$CUSTOMPROPERTY
  1
35/64
  9
$CUSTOMPROPERTYTAG
  1
L
  9
$CUSTOMPROPERTY
  1
2
  9
$CUSTOMPROPERTYTAG
  1
M
  9
$CUSTOMPROPERTY
  1
3-1/8
  9
$CUSTOMPROPERTYTAG
  1
Z
  9
$CUSTOMPROPERTY
  1
1-11/16
  9
$CUSTOMPROPERTYTAG
  1
COMPANY
  9
$CUSTOMPROPERTY
  1
baldor
  9
$INSBASE
 10
0.0
 20
0.0
 30
0.0
  9
$EXTMIN
 10
1.000000000000000E+20
 20
1.000000000000000E+20
 30
1.000000000000000E+20
  9
$EXTMAX
 10
-1.000000000000000E+20
 20
-1.000000000000000E+20
 30
-1.000000000000000E+20
  9
$LIMMIN
 10
0.0
 20
0.0
  9
$LIMMAX
 10
12.0
 20
9.0
  9
$ORTHOMODE
 70
     0
  9
$REGENMODE
 70
     1
  9
$FILLMODE
 70
     1
  9
$QTEXTMODE
 70
     0
  9
$MIRRTEXT
 70
     1
  9
$LTSCALE
 40
1.0
  9
$ATTMODE
 70
     1
  9
$TEXTSIZE
 40
0.2
  9
$TRACEWID
 40
0.05
  9
$TEXTSTYLE
  7
Standard
  9
$CLAYER
  8
0
  9
$CELTYPE
  6
ByLayer
  9
$CECOLOR
 62
   256
  9
$CELTSCALE
 40
1.0
  9
$DISPSILH
 70
     0
  9
$DIMSCALE
 40
1.0
  9
$DIMASZ
 40
0.18
  9
$DIMEXO
 40
0.0625
  9
$DIMDLI
 40
0.38
  9
$DIMRND
 40
0.0
  9
$DIMDLE
 40
0.0
  9
$DIMEXE
 40
0.18
  9
$DIMTP
 40
0.0
  9
$DIMTM
 40
0.0
  9
$DIMTXT
 40
0.18
  9
$DIMCEN
 40
0.09
  9
$DIMTSZ
 40
0.0
  9
$DIMTOL
 70
     0
  9
$DIMLIM
 70
     0
  9
$DIMTIH
 70
     1
  9
$DIMTOH
 70
     1
  9
$DIMSE1
 70
     0
  9
$DIMSE2
 70
     0
  9
$DIMTAD
 70
     0
  9
$DIMZIN
 70
     0
  9
$DIMBLK
  1

  9
$DIMASO
 70
     1
  9
$DIMSHO
 70
     1
  9
$DIMPOST
  1

  9
$DIMAPOST
  1

  9
$DIMALT
 70
     0
  9
$DIMALTD
 70
     2
  9
$DIMALTF
 40
25.4
  9
$DIMLFAC
 40
1.0
  9
$DIMTOFL
 70
     0
  9
$DIMTVP
 40
0.0
  9
$DIMTIX
 70
     0
  9
$DIMSOXD
 70
     0
  9
$DIMSAH
 70
     0
  9
$DIMBLK1
  1

  9
$DIMBLK2
  1

  9
$DIMSTYLE
  2
Standard
  9
$DIMCLRD
 70
     0
  9
$DIMCLRE
 70
     0
  9
$DIMCLRT
 70
     0
  9
$DIMTFAC
 40
1.0
  9
$DIMGAP
 40
0.09
  9
$DIMJUST
 70
     0
  9
$DIMSD1
 70
     0
  9
$DIMSD2
 70
     0
  9
$DIMTOLJ
 70
     1
  9
$DIMTZIN
 70
     0
  9
$DIMALTZ
 70
     0
  9
$DIMALTTZ
 70
     0
  9
$DIMUPT
 70
     0
  9
$DIMDEC
 70
     4
  9
$DIMTDEC
 70
     4
  9
$DIMALTU
 70
     2
  9
$DIMALTTD
 70
     2
  9
$DIMTXSTY
  7
Standard
  9
$DIMAUNIT
 70
     0
  9
$DIMADEC
 70
     0
  9
$DIMALTRND
 40
0.0
  9
$DIMAZIN
 70
     0
  9
$DIMDSEP
 70
    46
  9
$DIMATFIT
 70
     3
  9
$DIMFRAC
 70
     0
  9
$DIMLDRBLK
  1

  9
$DIMLUNIT
 70
     2
  9
$DIMLWD
 70
    -2
  9
$DIMLWE
 70
    -2
  9
$DIMTMOVE
 70
     0
  9
$DIMFXL
 40
1.0
  9
$DIMFXLON
 70
     0
  9
$DIMJOGANG
 40
0.7853981633974483
  9
$DIMTFILL
 70
     0
  9
$DIMTFILLCLR
 70
     0
  9
$DIMARCSYM
 70
     0
  9
$DIMLTYPE
  6

  9
$DIMLTEX1
  6

  9
$DIMLTEX2
  6

  9
$DIMTXTDIRECTION
 70
     0
  9
$LUNITS
 70
     2
  9
$LUPREC
 70
     4
  9
$SKETCHINC
 40
0.1
  9
$FILLETRAD
 40
0.5
  9
$AUNITS
 70
     0
  9
$AUPREC
 70
     0
  9
$MENU
  1
.
  9
$ELEVATION
 40
0.0
  9
$PELEVATION
 40
0.0
  9
$THICKNESS
 40
0.0
  9
$LIMCHECK
 70
     0
  9
$CHAMFERA
 40
0.0
  9
$CHAMFERB
 40
0.0
  9
$CHAMFERC
 40
0.0
  9
$CHAMFERD
 40
0.0
  9
$SKPOLY
 70
     0
  9
$TDCREATE
 40
2458168.991876389
  9
$TDUCREATE
 40
2458168.950209722
  9
$TDUPDATE
 40
2458168.991876574
  9
$TDUUPDATE
 40
2458168.950209907
  9
$TDINDWG
 40
0.0000000116
  9
$TDUSRTIMER
 40
0.0000000116
  9
$USRTIMER
 70
     1
  9
$ANGBASE
 50
0.0
  9
$ANGDIR
 70
     0
  9
$PDMODE
 70
     0
  9
$PDSIZE
 40
0.0
  9
$PLINEWID
 40
0.0
  9
$SPLFRAME
 70
     0
  9
$SPLINETYPE
 70
     6
  9
$SPLINESEGS
 70
     8
  9
$HANDSEED
  5
1E1
  9
$SURFTAB1
 70
     6
  9
$SURFTAB2
 70
     6
  9
$SURFTYPE
 70
     6
  9
$SURFU
 70
     6
  9
$SURFV
 70
     6
  9
$UCSBASE
  2

  9
$UCSNAME
  2

  9
$UCSORG
 10
0.0
 20
0.0
 30
0.0
  9
$UCSXDIR
 10
1.0
 20
0.0
 30
0.0
  9
$UCSYDIR
 10
0.0
 20
1.0
 30
0.0
  9
$UCSORTHOREF
  2

  9
$UCSORTHOVIEW
 70
     0
  9
$UCSORGTOP
 10
0.0
 20
0.0
 30
0.0
  9
$UCSORGBOTTOM
 10
0.0
 20
0.0
 30
0.0
  9
$UCSORGLEFT
 10
0.0
 20
0.0
 30
0.0
  9
$UCSORGRIGHT
 10
0.0
 20
0.0
 30
0.0
  9
$UCSORGFRONT
 10
0.0
 20
0.0
 30
0.0
  9
$UCSORGBACK
 10
0.0
 20
0.0
 30
0.0
  9
$PUCSBASE
  2

  9
$PUCSNAME
  2

  9
$PUCSORG
 10
0.0
 20
0.0
 30
0.0
  9
$PUCSXDIR
 10
1.0
 20
0.0
 30
0.0
  9
$PUCSYDIR
 10
0.0
 20
1.0
 30
0.0
  9
$PUCSORTHOREF
  2

  9
$PUCSORTHOVIEW
 70
     0
  9
$PUCSORGTOP
 10
0.0
 20
0.0
 30
0.0
  9
$PUCSORGBOTTOM
 10
0.0
 20
0.0
 30
0.0
  9
$PUCSORGLEFT
 10
0.0
 20
0.0
 30
0.0
  9
$PUCSORGRIGHT
 10
0.0
 20
0.0
 30
0.0
  9
$PUCSORGFRONT
 10
0.0
 20
0.0
 30
0.0
  9
$PUCSORGBACK
 10
0.0
 20
0.0
 30
0.0
  9
$USERI1
 70
     0
  9
$USERI2
 70
     0
  9
$USERI3
 70
     0
  9
$USERI4
 70
     0
  9
$USERI5
 70
     0
  9
$USERR1
 40
0.0
  9
$USERR2
 40
0.0
  9
$USERR3
 40
0.0
  9
$USERR4
 40
0.0
  9
$USERR5
 40
0.0
  9
$WORLDVIEW
 70
     1
  9
$SHADEDGE
 70
     3
  9
$SHADEDIF
 70
    70
  9
$TILEMODE
 70
     1
  9
$MAXACTVP
 70
    64
  9
$PINSBASE
 10
0.0
 20
0.0
 30
0.0
  9
$PLIMCHECK
 70
     0
  9
$PEXTMIN
 10
1.000000000000000E+20
 20
1.000000000000000E+20
 30
1.000000000000000E+20
  9
$PEXTMAX
 10
-1.000000000000000E+20
 20
-1.000000000000000E+20
 30
-1.000000000000000E+20
  9
$PLIMMIN
 10
0.0
 20
0.0
  9
$PLIMMAX
 10
12.0
 20
9.0
  9
$UNITMODE
 70
     0
  9
$VISRETAIN
 70
     1
  9
$PLINEGEN
 70
     0
  9
$PSLTSCALE
 70
     1
  9
$TREEDEPTH
 70
  3020
  9
$CMLSTYLE
  2
Standard
  9
$CMLJUST
 70
     0
  9
$CMLSCALE
 40
1.0
  9
$PROXYGRAPHICS
 70
     1
  9
$MEASUREMENT
 70
     0
  9
$CELWEIGHT
370
    -1
  9
$ENDCAPS
280
     0
  9
$JOINSTYLE
280
     0
  9
$LWDISPLAY
290
     0
  9
$INSUNITS
 70
     1
  9
$HYPERLINKBASE
  1

  9
$STYLESHEET
  1

  9
$XEDIT
290
     1
  9
$CEPSNTYPE
380
     0
  9
$PSTYLEMODE
290
     1
  9
$FINGERPRINTGUID
  2
{FF34673C-284B-4C82-A6AE-5CF055A933E5}
  9
$VERSIONGUID
  2
{FAEB1C32-E019-11D5-929B-00C0DF256EC4}
  9
$EXTNAMES
290
     1
  9
$PSVPSCALE
 40
0.0
  9
$OLESTARTUP
290
     0
  9
$SORTENTS
280
   127
  9
$INDEXCTL
280
     0
  9
$HIDETEXT
280
     1
  9
$XCLIPFRAME
280
     2
  9
$HALOGAP
280
     0
  9
$OBSCOLOR
 70
   257
  9
$OBSLTYPE
280
     0
  9
$INTERSECTIONDISPLAY
280
     0
  9
$INTERSECTIONCOLOR
 70
   257
  9
$DIMASSOC
280
     2
  9
$PROJECTNAME
  1

  9
$CAMERADISPLAY
290
     0
  9
$LENSLENGTH
 40
50.0
  9
$CAMERAHEIGHT
 40
0.0
  9
$STEPSPERSEC
 40
2.0
  9
$STEPSIZE
 40
6.0
  9
$3DDWFPREC
 40
2.0
  9
$PSOLWIDTH
 40
0.25
  9
$PSOLHEIGHT
 40
4.0
  9
$LOFTANG1
 40
1.570796326794897
  9
$LOFTANG2
 40
1.570796326794897
  9
$LOFTMAG1
 40
0.0
  9
$LOFTMAG2
 40
0.0
  9
$LOFTPARAM
 70
     7
  9
$LOFTNORMALS
280
     1
  9
$LATITUDE
 40
37.795
  9
$LONGITUDE
 40
-122.394
  9
$NORTHDIRECTION
 40
0.0
  9
$TIMEZONE
 70
 -8000
  9
$LIGHTGLYPHDISPLAY
280
     1
  9
$TILEMODELIGHTSYNCH
280
     1
  9
$CMATERIAL
347
44
  9
$SOLIDHIST
280
     0
  9
$SHOWHIST
280
     1
  9
$DWFFRAME
280
     2
  9
$DGNFRAME
280
     2
  9
$REALWORLDSCALE
290
     1
  9
$INTERFERECOLOR
 62
   256
  9
$CSHADOW
280
     0
  9
$SHADOWPLANELOCATION
 40
0.0
  0
ENDSEC
  0
SECTION
  2
CLASSES
  0
CLASS
  1
ACDBDICTIONARYWDFLT
  2
AcDbDictionaryWithDefault
  3
ObjectDBX Classes
 90
        0
 91
        4
280
     0
281
     0
  0
CLASS
  1
VISUALSTYLE
  2
AcDbVisualStyle
  3
ObjectDBX Classes
 90
     4095
 91
        4
280
     0
281
     0
  0
CLASS
  1
MATERIAL
  2
AcDbMaterial
  3
ObjectDBX Classes
 90
     1153
 91
        4
280
     0
281
     0
  0
CLASS
  1
SCALE
  2
AcDbScale
  3
ObjectDBX Classes
 90
     1153
 91
        4
280
     0
281
     0
  0
CLASS
  1
TABLESTYLE
  2
AcDbTableStyle
  3
ObjectDBX Classes
 90
     4095
 91
        4
280
     0
281
     0
  0
CLASS
  1
MLEADERSTYLE
  2
AcDbMLeaderStyle
  3
ACDB_MLEADERSTYLE_CLASS
 90
     4095
 91
        4
280
     0
281
     0
  0
CLASS
  1
SUN
  2
AcDbSun
  3
SCENEOE
 90
     1153
 91
        4
280
     0
281
     0
  0
CLASS
  1
DICTIONARYVAR
  2
AcDbDictionaryVar
  3
ObjectDBX Classes
 90
        0
 91
        4
280
     0
281
     0
  0
CLASS
  1
CELLSTYLEMAP
  2
AcDbCellStyleMap
  3
ObjectDBX Classes
 90
     1152
 91
        4
280
     0
281
     0
  0
ENDSEC
  0
SECTION
  2
TABLES
  0
TABLE
  2
VPORT
  5
8
330
0
100
AcDbSymbolTable
 70
     1
  0
VPORT
  5
29
330
8
100
AcDbSymbolTableRecord
100
AcDbViewportTableRecord
  2
*Active
 70
     0
 10
0.0
 20
0.0
 11
1.0
 21
1.0
 12
0.0
 22
0.0
 13
0.0
 23
0.0
 14
0.5
 24
0.5
 15
0.5
 25
0.5
 16
0.0
 26
0.0
 36
1.0
 17
0.0
 27
0.0
 37
0.0
 40
5.673341999999999
 41
0.5899300623865088
 42
50.0
 43
0.0
 44
0.0
 50
0.0
 51
0.0
 71
     0
 72
   100
 73
     1
 74
     3
 75
     0
 76
     0
 77
     0
 78
     0
281
     0
 65
     1
110
0.0
120
0.0
130
0.0
111
1.0
121
0.0
131
0.0
112
0.0
122
1.0
132
0.0
 79
     0
146
0.0
348
2F
 60
     3
 61
     5
292
     1
282
     1
141
0.0
142
0.0
 63
   250
361
6D
  0
ENDTAB
  0
TABLE
  2
LTYPE
  5
5
330
0
100
AcDbSymbolTable
 70
     3
  0
LTYPE
  5
14
330
5
100
AcDbSymbolTableRecord
100
AcDbLinetypeTableRecord
  2
ByBlock
 70
     0
  3

 72
    65
 73
     0
 40
0.0
  0
LTYPE
  5
15
330
5
100
AcDbSymbolTableRecord
100
AcDbLinetypeTableRecord
  2
ByLayer
 70
     0
  3

 72
    65
 73
     0
 40
0.0
  0
LTYPE
  5
16
330
5
100
AcDbSymbolTableRecord
100
AcDbLinetypeTableRecord
  2
Continuous
 70
     0
  3
Solid line
 72
    65
 73
     0
 40
0.0
  0
LTYPE
  5
9E
330
5
100
AcDbSymbolTableRecord
100
AcDbLinetypeTableRecord
  2
Dashed
 70
     0
  3

 72
    65
 73
     2
 40
2.0
 49
1.0
 74
     0
 49
-1.0
 74
     0
  0
LTYPE
  5
10A
330
5
100
AcDbSymbolTableRecord
100
AcDbLinetypeTableRecord
  2
Center
 70
     0
  3

 72
    65
 73
     4
 40
1.5
 49
0.45
 74
     0
 49
-0.5
 74
     0
 49
0.05
 74
     0
 49
-0.5
 74
     0
  0
ENDTAB
  0
TABLE
  2
LAYER
  5
2
330
0
100
AcDbSymbolTable
 70
     7
  0
LAYER
  5
10
330
2
100
AcDbSymbolTableRecord
100
AcDbLayerTableRecord
  2
0
 70
     0
 62
     7
  6
Continuous
370
    -3
390
F
347
46
348
0
  0
LAYER
  5
72
330
2
100
AcDbSymbolTableRecord
100
AcDbLayerTableRecord
  2
AM_6
 70
     0
 62
    -2
  6
Continuous
370
    35
390
F
347
46
348
0
  0
LAYER
  5
9F
330
2
100
AcDbSymbolTableRecord
100
AcDbLayerTableRecord
  2
AM_9
 70
     0
 62
     6
  6
Dashed
370
    25
390
F
347
46
348
0
  0
LAYER
  5
A4
330
2
100
AcDbSymbolTableRecord
100
AcDbLayerTableRecord
  2
AM_4
 70
     0
 62
     3
  6
Continuous
370
    25
390
F
347
46
348
0
  0
LAYER
  5
D6
330
2
100
AcDbSymbolTableRecord
100
AcDbLayerTableRecord
  2
AM_5
 70
     0
 62
     3
  6
Continuous
370
    25
390
F
347
46
348
0
  0
LAYER
  5
10B
330
2
100
AcDbSymbolTableRecord
100
AcDbLayerTableRecord
  2
AM_7
 70
     0
 62
     7
  6
Center
370
    25
390
F
347
46
348
0
  0
LAYER
  5
1D4
330
2
100
AcDbSymbolTableRecord
100
AcDbLayerTableRecord
  2
ConnectionPoints
 70
     0
 62
     7
  6
Continuous
370
    50
390
F
347
46
348
0
  0
ENDTAB
  0
TABLE
  2
STYLE
  5
3
330
0
100
AcDbSymbolTable
 70
     1
  0
STYLE
  5
11
330
3
100
AcDbSymbolTableRecord
100
AcDbTextStyleTableRecord
  2
Standard
 70
     0
 40
0.0
 41
1.0
 50
0.0
 71
     0
 42
0.2
  3
txt
  4

  0
ENDTAB
  0
TABLE
  2
VIEW
  5
6
330
0
100
AcDbSymbolTable
 70
     0
  0
ENDTAB
  0
TABLE
  2
UCS
  5
7
330
0
100
AcDbSymbolTable
 70
     0
  0
ENDTAB
  0
TABLE
  2
APPID
  5
9
330
0
100
AcDbSymbolTable
 70
     1
  0
APPID
  5
12
330
9
100
AcDbSymbolTableRecord
100
AcDbRegAppTableRecord
  2
ACAD
 70
     0
  0
ENDTAB
  0
TABLE
  2
DIMSTYLE
  5
A
330
0
100
AcDbSymbolTable
 70
     1
100
AcDbDimStyleTable
  0
DIMSTYLE
105
27
330
A
100
AcDbSymbolTableRecord
100
AcDbDimStyleTableRecord
  2
Standard
 70
     0
178
     0
340
11
  0
ENDTAB
  0
TABLE
  2
BLOCK_RECORD
  5
1
330
0
100
AcDbSymbolTable
 70
     5
  0
BLOCK_RECORD
  5
1F
330
1
100
AcDbSymbolTableRecord
100
AcDbBlockTableRecord
  2
*Model_Space
340
22
 70
     0
280
     1
281
     0
  0
BLOCK_RECORD
  5
1B
330
1
100
AcDbSymbolTableRecord
100
AcDbBlockTableRecord
  2
*Paper_Space
340
1E
 70
     0
280
     1
281
     0
  0
BLOCK_RECORD
  5
23
330
1
100
AcDbSymbolTableRecord
100
AcDbBlockTableRecord
  2
*Paper_Space0
340
26
 70
     0
280
     1
281
     0
  0
BLOCK_RECORD
  5
6E
330
1
100
AcDbSymbolTableRecord
100
AcDbBlockTableRecord
  2
1__129360_0
340
0
102
{BLKREFS
331
6F
102
}
 70
     0
280
     1
281
     0
  0
BLOCK_RECORD
  5
88
330
1
100
AcDbSymbolTableRecord
100
AcDbBlockTableRecord
  2
2_INS_GT_06_CRI_0_in__129360_0
340
0
102
{BLKREFS
331
89
102
}
 70
     0
280
     1
281
     0
  0
BLOCK_RECORD
  5
AB
330
1
100
AcDbSymbolTableRecord
100
AcDbBlockTableRecord
  2
3_AN_GT_06_104S_CR_0_in__129360_0
340
0
102
{BLKREFS
331
AC
102
}
 70
     0
280
     1
281
     0
  0
BLOCK_RECORD
  5
EF
330
1
100
AcDbSymbolTableRecord
100
AcDbBlockTableRecord
  2
4__F2B_GTEZ_06_SHCR_II_0_in__129360_0
340
0
102
{BLKREFS
331
F0
102
}
 70
     0
280
     1
281
     0
  0
ENDTAB
  0
ENDSEC
  0
SECTION
  2
BLOCKS
  0
BLOCK
  5
20
330
1F
100
AcDbEntity
  8
0
100
AcDbBlockBegin
  2
*Model_Space
 70
     0
 10
0.0
 20
0.0
 30
0.0
  3
*Model_Space
  1

  0
ENDBLK
  5
21
330
1F
100
AcDbEntity
  8
0
100
AcDbBlockEnd
  0
BLOCK
  5
1C
330
1B
100
AcDbEntity
 67
     1
  8
0
100
AcDbBlockBegin
  2
*Paper_Space
 70
     0
 10
0.0
 20
0.0
 30
0.0
  3
*Paper_Space
  1

  0
ENDBLK
  5
1D
330
1B
100
AcDbEntity
 67
     1
  8
0
100
AcDbBlockEnd
  0
BLOCK
  5
24
330
23
100
AcDbEntity
  8
0
100
AcDbBlockBegin
  2
*Paper_Space0
 70
     0
 10
0.0
 20
0.0
 30
0.0
  3
*Paper_Space0
  1

  0
ENDBLK
  5
25
330
23
100
AcDbEntity
  8
0
100
AcDbBlockEnd
  0
BLOCK
  5
70
330
6E
100
AcDbEntity
  8
0
100
AcDbBlockBegin
  2
1__129360_0
 70
     2
 10
0.0
 20
0.0
 30
0.0
  3
1__129360_0
  1

  0
ATTDEF
  5
73
330
6E
100
AcDbEntity
  8
AM_6
100
AcDbText
 10
6.640625
 20
2.78105
 30
0.0
 40
0.5
  1
Grip Tight Two-Bolt Flange - Stainless Housing, Corrosion Resistant Insert Inch Bore
100
AcDbAttributeDefinition
  3

  2
NN
 70
     8
280
     0
  0
ATTDEF
  5
74
330
6E
100
AcDbEntity
  8
AM_6
100
AcDbText
 10
6.640625
 20
2.28105
 30
0.0
 40
0.5
  1
GTEZ Normal Duty Stainless Steel Housed 2 Bolt Flange Bearings
100
AcDbAttributeDefinition
  3

  2
NT
 70
     8
280
     0
  0
ATTDEF
  5
75
330
6E
100
AcDbEntity
  8
AM_6
100
AcDbText
 10
6.640625
 20
1.78105
 30
0.0
 40
0.5
  1
 129360
100
AcDbAttributeDefinition
  3

  2
NB
 70
     8
280
     0
  0
ATTDEF
  5
76
330
6E
100
AcDbEntity
  8
AM_6
100
AcDbText
 10
6.640625
 20
1.28105
 30
0.0
 40
0.5
  1
 $PN.$LUBE.
100
AcDbAttributeDefinition
  3

  2
NBSYN
 70
     8
280
     0
  0
ATTDEF
  5
77
330
6E
100
AcDbEntity
  8
AM_6
100
AcDbText
 10
6.640625
 20
0.78105
 30
0.0
 40
0.5
  1
129360
100
AcDbAttributeDefinition
  3

  2
LINA
 70
     8
280
     0
  0
ATTDEF
  5
78
330
6E
100
AcDbEntity
  8
AM_6
100
AcDbText
 10
6.640625
 20
0.28105
 30
0.0
 40
0.5
  1
206
100
AcDbAttributeDefinition
  3

  2
SERIES
 70
     8
280
     0
  0
ATTDEF
  5
79
330
6E
100
AcDbEntity
  8
AM_6
100
AcDbText
 10
6.640625
 20
-0.21895
 30
0.0
 40
0.5
  1
1-1/4
100
AcDbAttributeDefinition
  3

  2
SS
 70
     8
280
     0
  0
ATTDEF
  5
7A
330
6E
100
AcDbEntity
  8
AM_6
100
AcDbText
 10
6.640625
 20
-0.71895
 30
0.0
 40
0.5
  1
129360
100
AcDbAttributeDefinition
  3

  2
PN
 70
     8
280
     0
  0
ATTDEF
  5
7B
330
6E
100
AcDbEntity
  8
AM_6
100
AcDbText
 10
6.640625
 20
-1.21895
 30
0.0
 40
0.5
  1
F2B-GTEZ-104S-SHCR
100
AcDbAttributeDefinition
  3

  2
DESCRIPTION
 70
     8
280
     0
  0
ATTDEF
  5
7C
330
6E
100
AcDbEntity
  8
AM_6
100
AcDbText
 10
6.640625
 20
-1.71895
 30
0.0
 40
0.5
  1
1-39/64
100
AcDbAttributeDefinition
  3

  2
A
 70
     8
280
     0
  0
ATTDEF
  5
7D
330
6E
100
AcDbEntity
  8
AM_6
100
AcDbText
 10
6.640625
 20
-2.21895
 30
0.0
 40
0.5
  1
5-33/64
100
AcDbAttributeDefinition
  3

  2
B
 70
     8
280
     0
  0
ATTDEF
  5
7E
330
6E
100
AcDbEntity
  8
AM_6
100
AcDbText
 10
6.640625
 20
-2.71895
 30
0.0
 40
0.5
  1
1-47/64
100
AcDbAttributeDefinition
  3

  2
C
 70
     8
280
     0
  0
ATTDEF
  5
7F
330
6E
100
AcDbEntity
  8
AM_6
100
AcDbText
 10
6.640625
 20
-3.21895
 30
0.0
 40
0.5
  1
4-19/32
100
AcDbAttributeDefinition
  3

  2
D
 70
     8
280
     0
  0
ATTDEF
  5
80
330
6E
100
AcDbEntity
  8
AM_6
100
AcDbText
 10
6.640625
 20
-3.71895
 30
0.0
 40
0.5
  1
3/8
100
AcDbAttributeDefinition
  3

  2
F
 70
     8
280
     0
  0
ATTDEF
  5
81
330
6E
100
AcDbEntity
  8
AM_6
100
AcDbText
 10
6.640625
 20
-4.21895
 30
0.0
 40
0.5
  1
0.375
100
AcDbAttributeDefinition
  3

  2
F1
 70
     8
280
     0
  0
ATTDEF
  5
82
330
6E
100
AcDbEntity
  8
AM_6
100
AcDbText
 10
6.640625
 20
-4.71895
 30
0.0
 40
0.5
  1
23/64
100
AcDbAttributeDefinition
  3

  2
H
 70
     8
280
     0
  0
ATTDEF
  5
83
330
6E
100
AcDbEntity
  8
AM_6
100
AcDbText
 10
6.640625
 20
-5.21895
 30
0.0
 40
0.5
  1
35/64
100
AcDbAttributeDefinition
  3

  2
J
 70
     8
280
     0
  0
ATTDEF
  5
84
330
6E
100
AcDbEntity
  8
AM_6
100
AcDbText
 10
6.640625
 20
-5.71895
 30
0.0
 40
0.5
  1
2
100
AcDbAttributeDefinition
  3

  2
L
 70
     8
280
     0
  0
ATTDEF
  5
85
330
6E
100
AcDbEntity
  8
AM_6
100
AcDbText
 10
6.640625
 20
-6.21895
 30
0.0
 40
0.5
  1
3-1/8
100
AcDbAttributeDefinition
  3

  2
M
 70
     8
280
     0
  0
ATTDEF
  5
86
330
6E
100
AcDbEntity
  8
AM_6
100
AcDbText
 10
6.640625
 20
-6.71895
 30
0.0
 40
0.5
  1
1-11/16
100
AcDbAttributeDefinition
  3

  2
Z
 70
     8
280
     0
  0
ATTDEF
  5
87
330
6E
100
AcDbEntity
  8
AM_6
100
AcDbText
 10
6.640625
 20
-7.21895
 30
0.0
 40
0.5
  1
baldor
100
AcDbAttributeDefinition
  3

  2
COMPANY
 70
     8
280
     0
  0
INSERT
  5
89
330
6E
100
AcDbEntity
  8
0
100
AcDbBlockReference
  2
2_INS_GT_06_CRI_0_in__129360_0
 10
0.0
 20
0.0
 30
0.0
  0
INSERT
  5
AC
330
6E
100
AcDbEntity
  8
0
100
AcDbBlockReference
  2
3_AN_GT_06_104S_CR_0_in__129360_0
 10
0.0
 20
0.0
 30
0.0
  0
INSERT
  5
F0
330
6E
100
AcDbEntity
  8
0
100
AcDbBlockReference
  2
4__F2B_GTEZ_06_SHCR_II_0_in__129360_0
 10
0.0
 20
0.0
 30
0.0
  0
ENDBLK
  5
71
330
6E
100
AcDbEntity
  8
0
100
AcDbBlockEnd
  0
BLOCK
  5
8A
330
88
100
AcDbEntity
  8
0
100
AcDbBlockBegin
  2
2_INS_GT_06_CRI_0_in__129360_0
 70
     2
 10
0.0
 20
0.0
 30
0.0
  3
2_INS_GT_06_CRI_0_in__129360_0
  1

  0
ATTDEF
  5
8C
330
88
100
AcDbEntity
  8
AM_6
100
AcDbText
 10
6.208802299237562
 20
1.208802299237562
 30
0.0
 40
0.5
  1
INS-GT-CR-I
100
AcDbAttributeDefinition
  3

  2
NN
 70
     8
280
     0
  0
ATTDEF
  5
8D
330
88
100
AcDbEntity
  8
AM_6
100
AcDbText
 10
6.208802299237562
 20
0.708802299237562
 30
0.0
 40
0.5
  1
GT Normal Duty Corrosion Resistant Bearing Inserts
100
AcDbAttributeDefinition
  3

  2
NT
 70
     8
280
     0
  0
ATTDEF
  5
8E
330
88
100
AcDbEntity
  8
AM_6
100
AcDbText
 10
6.208802299237562
 20
0.208802299237562
 30
0.0
 40
0.5
  1
INS-GT-06-CRI
100
AcDbAttributeDefinition
  3

  2
NB
 70
     8
280
     0
  0
ATTDEF
  5
8F
330
88
100
AcDbEntity
  8
AM_6
100
AcDbText
 10
6.208802299237562
 20
-0.291197700762438
 30
0.0
 40
0.5
  1
$PN.I
100
AcDbAttributeDefinition
  3

  2
NBSYN
 70
     8
280
     0
  0
ATTDEF
  5
90
330
88
100
AcDbEntity
  8
AM_6
100
AcDbText
 10
6.208802299237562
 20
-0.791197700762438
 30
0.0
 40
0.5
  1
INS-GT-06-CR
100
AcDbAttributeDefinition
  3

  2
LINA
 70
     8
280
     0
  0
ATTDEF
  5
91
330
88
100
AcDbEntity
  8
AM_6
100
AcDbText
 10
6.208802299237562
 20
-1.291197700762438
 30
0.0
 40
0.5
  1
206
100
AcDbAttributeDefinition
  3

  2
SERIES
 70
     8
280
     0
  0
ATTDEF
  5
92
330
88
100
AcDbEntity
  8
AM_6
100
AcDbText
 10
6.208802299237562
 20
-1.791197700762438
 30
0.0
 40
0.5
  1
INS-GT-06-CR
100
AcDbAttributeDefinition
  3

  2
PN
 70
     8
280
     0
  0
ATTDEF
  5
93
330
88
100
AcDbEntity
  8
AM_6
100
AcDbText
 10
6.208802299237562
 20
-2.291197700762438
 30
0.0
 40
0.5
  1
INS-GT-06-CR
100
AcDbAttributeDefinition
  3

  2
DESCRIPTION
 70
     8
280
     0
  0
ATTDEF
  5
94
330
88
100
AcDbEntity
  8
AM_6
100
AcDbText
 10
6.208802299237562
 20
-2.791197700762438
 30
0.0
 40
0.5
  1
1-39/64
100
AcDbAttributeDefinition
  3

  2
A
 70
     8
280
     0
  0
ATTDEF
  5
95
330
88
100
AcDbEntity
  8
AM_6
100
AcDbText
 10
6.208802299237562
 20
-3.291197700762438
 30
0.0
 40
0.5
  1
0.7087
100
AcDbAttributeDefinition
  3

  2
C
 70
     8
280
     0
  0
ATTDEF
  5
96
330
88
100
AcDbEntity
  8
AM_6
100
AcDbText
 10
6.208802299237562
 20
-3.791197700762438
 30
0.0
 40
0.5
  1
2.4409
100
AcDbAttributeDefinition
  3

  2
D
 70
     8
280
     0
  0
ATTDEF
  5
97
330
88
100
AcDbEntity
  8
AM_6
100
AcDbText
 10
6.208802299237562
 20
-4.291197700762438
 30
0.0
 40
0.5
  1
0.190
100
AcDbAttributeDefinition
  3

  2
J
 70
     8
280
     0
  0
ATTDEF
  5
98
330
88
100
AcDbEntity
  8
AM_6
100
AcDbText
 10
6.208802299237562
 20
-4.791197700762438
 30
0.0
 40
0.5
  1
2
100
AcDbAttributeDefinition
  3

  2
L
 70
     8
280
     0
  0
ATTDEF
  5
99
330
88
100
AcDbEntity
  8
AM_6
100
AcDbText
 10
6.208802299237562
 20
-5.291197700762438
 30
0.0
 40
0.5
  1
10 - 32 x 1/4
100
AcDbAttributeDefinition
  3

  2
N
 70
     8
280
     0
  0
ATTDEF
  5
9A
330
88
100
AcDbEntity
  8
AM_6
100
AcDbText
 10
6.208802299237562
 20
-5.791197700762438
 30
0.0
 40
0.5
  1
17/32
100
AcDbAttributeDefinition
  3

  2
W
 70
     8
280
     0
  0
ATTDEF
  5
9B
330
88
100
AcDbEntity
  8
AM_6
100
AcDbText
 10
6.208802299237562
 20
-6.291197700762438
 30
0.0
 40
0.5
  1
1-1/32
100
AcDbAttributeDefinition
  3

  2
X
 70
     8
280
     0
  0
ATTDEF
  5
9C
330
88
100
AcDbEntity
  8
AM_6
100
AcDbText
 10
6.208802299237562
 20
-6.791197700762438
 30
0.0
 40
0.5
  1
1-5/64
100
AcDbAttributeDefinition
  3

  2
Y
 70
     8
280
     0
  0
ATTDEF
  5
9D
330
88
100
AcDbEntity
  8
AM_6
100
AcDbText
 10
6.208802299237562
 20
-7.291197700762438
 30
0.0
 40
0.5
  1
baldor
100
AcDbAttributeDefinition
  3

  2
COMPANY
 70
     8
280
     0
  0
CIRCLE
  5
A0
330
88
100
AcDbEntity
  8
AM_9
100
AcDbCircle
 10
0.0000000000000001
 20
0.0
 30
0.0
 40
0.7762326752613241
  0
CIRCLE
  5
A1
330
88
100
AcDbEntity
  8
AM_9
100
AcDbCircle
 10
0.0000000000000001
 20
0.0
 30
0.0
 40
1.14958
  0
CIRCLE
  5
A2
330
88
100
AcDbEntity
  8
AM_9
100
AcDbCircle
 10
0.0000000000000001
 20
0.0
 30
0.0
 40
1.18262050129021
  0
CIRCLE
  5
A3
330
88
100
AcDbEntity
  8
AM_9
100
AcDbCircle
 10
0.0000000000000001
 20
0.0
 30
0.0
 40
0.8605408888888888
  0
CIRCLE
  5
A5
330
88
100
AcDbEntity
  8
AM_4
100
AcDbCircle
 10
0.0000000000000001
 20
0.0
 30
0.0
 40
1.201804896935735
  0
CIRCLE
  5
A6
330
88
100
AcDbEntity
  8
AM_4
100
AcDbCircle
 10
0.0000000000000001
 20
0.0
 30
0.0
 40
1.208802299237562
  0
CIRCLE
  5
A7
330
88
100
AcDbEntity
  8
AM_4
100
AcDbCircle
 10
0.0000000000000001
 20
0.0
 30
0.0
 40
1.189469187752788
  0
CIRCLE
  5
A8
330
88
100
AcDbEntity
  8
AM_4
100
AcDbCircle
 10
0.0000000000000001
 20
0.0
 30
0.0
 40
1.130466548018286
  0
CIRCLE
  5
A9
330
88
100
AcDbEntity
  8
AM_4
100
AcDbCircle
 10
0.0000000000000001
 20
0.0
 30
0.0
 40
1.156857867002994
  0
ARC
  5
AA
330
88
100
AcDbEntity
  8
AM_4
100
AcDbCircle
 10
0.0000000000000001
 20
0.0000000000000592
 30
0.0
 40
0.7460316888888295
100
AcDbArc
 50
86.15708307481073
 51
93.84291692518927
  0
ENDBLK
  5
8B
330
88
100
AcDbEntity
  8
0
100
AcDbBlockEnd
  0
BLOCK
  5
AD
330
AB
100
AcDbEntity
  8
0
100
AcDbBlockBegin
  2
3_AN_GT_06_104S_CR_0_in__129360_0
 70
     2
 10
0.0
 20
0.0
 30
0.0
  3
3_AN_GT_06_104S_CR_0_in__129360_0
  1

  0
ATTDEF
  5
AF
330
AB
100
AcDbEntity
  8
AM_6
100
AcDbText
 10
5.995477272467835
 20
0.9999907698236257
 30
0.0
 40
0.5
  1
Grip Tight Adapter and Nut - Corrosion Resistant Inch Bore
100
AcDbAttributeDefinition
  3

  2
NN
 70
     8
280
     0
  0
ATTDEF
  5
B0
330
AB
100
AcDbEntity
  8
AM_6
100
AcDbText
 10
5.995477272467835
 20
0.4999907698236257
 30
0.0
 40
0.5
  1
GT and GTM Adapter & Lock Nut Assemblies
100
AcDbAttributeDefinition
  3

  2
NT
 70
     8
280
     0
  0
ATTDEF
  5
B1
330
AB
100
AcDbEntity
  8
AM_6
100
AcDbText
 10
5.995477272467835
 20
-0.0000092301763743
 30
0.0
 40
0.5
  1
AN-GT-06-104S-CR
100
AcDbAttributeDefinition
  3

  2
NB
 70
     8
280
     0
  0
ATTDEF
  5
B2
330
AB
100
AcDbEntity
  8
AM_6
100
AcDbText
 10
5.995477272467835
 20
-0.5000092301763743
 30
0.0
 40
0.5
  1
$PN.
100
AcDbAttributeDefinition
  3

  2
NBSYN
 70
     8
280
     0
  0
ATTDEF
  5
B3
330
AB
100
AcDbEntity
  8
AM_6
100
AcDbText
 10
5.995477272467835
 20
-1.000009230176374
 30
0.0
 40
0.5
  1
AN-GT-06-104S-CR
100
AcDbAttributeDefinition
  3

  2
LINA
 70
     8
280
     0
  0
ATTDEF
  5
B4
330
AB
100
AcDbEntity
  8
AM_6
100
AcDbText
 10
5.995477272467835
 20
-1.500009230176374
 30
0.0
 40
0.5
  1
206
100
AcDbAttributeDefinition
  3

  2
SERIES
 70
     8
280
     0
  0
ATTDEF
  5
B5
330
AB
100
AcDbEntity
  8
AM_6
100
AcDbText
 10
5.995477272467835
 20
-2.000009230176374
 30
0.0
 40
0.5
  1
1-1/4
100
AcDbAttributeDefinition
  3

  2
SS
 70
     8
280
     0
  0
ATTDEF
  5
B6
330
AB
100
AcDbEntity
  8
AM_6
100
AcDbText
 10
5.995477272467835
 20
-2.500009230176374
 30
0.0
 40
0.5
  1
AN-GT-06-104S-CR
100
AcDbAttributeDefinition
  3

  2
PN
 70
     8
280
     0
  0
ATTDEF
  5
B7
330
AB
100
AcDbEntity
  8
AM_6
100
AcDbText
 10
5.995477272467835
 20
-3.000009230176374
 30
0.0
 40
0.5
  1
AN-GT-06-104S-CR
100
AcDbAttributeDefinition
  3

  2
DESCRIPTION
 70
     8
280
     0
  0
ATTDEF
  5
B8
330
AB
100
AcDbEntity
  8
AM_6
100
AcDbText
 10
5.995477272467835
 20
-3.500009230176374
 30
0.0
 40
0.5
  1
1-39/64
100
AcDbAttributeDefinition
  3

  2
A
 70
     8
280
     0
  0
ATTDEF
  5
B9
330
AB
100
AcDbEntity
  8
AM_6
100
AcDbText
 10
5.995477272467835
 20
-4.000009230176374
 30
0.0
 40
0.5
  1
0.7087
100
AcDbAttributeDefinition
  3

  2
C
 70
     8
280
     0
  0
ATTDEF
  5
BA
330
AB
100
AcDbEntity
  8
AM_6
100
AcDbText
 10
5.995477272467835
 20
-4.500009230176374
 30
0.0
 40
0.5
  1
2.4409
100
AcDbAttributeDefinition
  3

  2
D
 70
     8
280
     0
  0
ATTDEF
  5
BB
330
AB
100
AcDbEntity
  8
AM_6
100
AcDbText
 10
5.995477272467835
 20
-5.000009230176374
 30
0.0
 40
0.5
  1
0.190
100
AcDbAttributeDefinition
  3

  2
J
 70
     8
280
     0
  0
ATTDEF
  5
BC
330
AB
100
AcDbEntity
  8
AM_6
100
AcDbText
 10
5.995477272467835
 20
-5.500009230176374
 30
0.0
 40
0.5
  1
2
100
AcDbAttributeDefinition
  3

  2
L
 70
     8
280
     0
  0
ATTDEF
  5
BD
330
AB
100
AcDbEntity
  8
AM_6
100
AcDbText
 10
5.995477272467835
 20
-6.000009230176374
 30
0.0
 40
0.5
  1
10 - 32 x 1/4
100
AcDbAttributeDefinition
  3

  2
N
 70
     8
280
     0
  0
ATTDEF
  5
BE
330
AB
100
AcDbEntity
  8
AM_6
100
AcDbText
 10
5.995477272467835
 20
-6.500009230176374
 30
0.0
 40
0.5
  1
17/32
100
AcDbAttributeDefinition
  3

  2
W
 70
     8
280
     0
  0
ATTDEF
  5
BF
330
AB
100
AcDbEntity
  8
AM_6
100
AcDbText
 10
5.995477272467835
 20
-7.000009230176374
 30
0.0
 40
0.5
  1
1-1/32
100
AcDbAttributeDefinition
  3

  2
X
 70
     8
280
     0
  0
ATTDEF
  5
C0
330
AB
100
AcDbEntity
  8
AM_6
100
AcDbText
 10
5.995477272467835
 20
-7.500009230176374
 30
0.0
 40
0.5
  1
1-5/64
100
AcDbAttributeDefinition
  3

  2
Y
 70
     8
280
     0
  0
ATTDEF
  5
C1
330
AB
100
AcDbEntity
  8
AM_6
100
AcDbText
 10
5.995477272467835
 20
-8.000009230176374
 30
0.0
 40
0.5
  1
baldor
100
AcDbAttributeDefinition
  3

  2
COMPANY
 70
     8
280
     0
  0
LINE
  5
C2
330
AB
100
AcDbEntity
  8
AM_9
100
AcDbLine
 10
0.0500000000000001
 20
0.7460409281219607
 30
0.0
 11
0.0500000000000001
 21
0.7764797570067602
 31
0.0
  0
LINE
  5
C3
330
AB
100
AcDbEntity
  8
AM_9
100
AcDbLine
 10
-0.0499999999999999
 20
0.7460409281219607
 30
0.0
 11
-0.0499999999999999
 21
0.7764797570067602
 31
0.0
  0
ARC
  5
C4
330
AB
100
AcDbEntity
  8
AM_9
100
AcDbCircle
 10
0.0000000000000001
 20
-0.0000000000000001
 30
0.0
 40
0.7780879211511238
100
AcDbArc
 50
93.68437061446721
 51
86.3156293855328
  0
CIRCLE
  5
C5
330
AB
100
AcDbEntity
  8
AM_9
100
AcDbCircle
 10
0.0000000000000001
 20
0.0
 30
0.0
 40
0.8174603174603172
  0
CIRCLE
  5
C6
330
AB
100
AcDbEntity
  8
AM_9
100
AcDbCircle
 10
0.0000000000000001
 20
0.0
 30
0.0
 40
0.8888888888888888
  0
LINE
  5
C7
330
AB
100
AcDbEntity
  8
AM_9
100
AcDbLine
 10
-0.983
 20
-0.078
 30
0.0
 11
-0.767
 21
-0.078
 31
0.0
  0
LINE
  5
C8
330
AB
100
AcDbEntity
  8
AM_9
100
AcDbLine
 10
-0.767
 20
0.078
 30
0.0
 11
-0.983
 21
0.078
 31
0.0
  0
LINE
  5
C9
330
AB
100
AcDbEntity
  8
AM_9
100
AcDbLine
 10
-0.767
 20
-0.078
 30
0.0
 11
-0.7499999999999999
 21
-0.0949999999999999
 31
0.0
  0
LINE
  5
CA
330
AB
100
AcDbEntity
  8
AM_9
100
AcDbLine
 10
-0.7499999999999999
 20
0.0949999999999999
 30
0.0
 11
-0.767
 21
0.078
 31
0.0
  0
LINE
  5
CB
330
AB
100
AcDbEntity
  8
AM_9
100
AcDbLine
 10
-0.7499999999999999
 20
0.0949999999999999
 30
0.0
 11
-0.7499999999999999
 21
-0.0949999999999999
 31
0.0
  0
LINE
  5
CC
330
AB
100
AcDbEntity
  8
AM_9
100
AcDbLine
 10
-0.767
 20
0.078
 30
0.0
 11
-0.767
 21
-0.078
 31
0.0
  0
LINE
  5
CD
330
AB
100
AcDbEntity
  8
AM_9
100
AcDbLine
 10
-0.983
 20
0.078
 30
0.0
 11
-0.9957299183302447
 21
0.0907299183302447
 31
0.0
  0
LINE
  5
CE
330
AB
100
AcDbEntity
  8
AM_9
100
AcDbLine
 10
-0.9957274875080059
 20
-0.0907274875080057
 30
0.0
 11
-0.983
 21
-0.078
 31
0.0
  0
LINE
  5
CF
330
AB
100
AcDbEntity
  8
AM_9
100
AcDbLine
 10
-0.983
 20
0.078
 30
0.0
 11
-0.983
 21
-0.078
 31
0.0
  0
LINE
  5
D0
330
AB
100
AcDbEntity
  8
AM_9
100
AcDbLine
 10
-0.9960841243054009
 20
0.0884105045045143
 30
0.0
 11
-0.9958633683061173
 21
0.0908633681193612
 31
0.0
  0
LWPOLYLINE
  5
D1
330
AB
100
AcDbEntity
  8
AM_9
100
AcDbPolyline
 90
        8
 70
     0
 43
0.0
 10
-0.9998691813992949
 20
0.0161746742750491
 10
-0.999830212438795
 20
0.0184267819923659
 10
-0.9994685472898437
 20
0.0325978983728889
 10
-0.9983417104400577
 20
0.0575658683216009
 10
-0.9976786283390863
 20
0.068098124463449
 10
-0.9970295411275498
 20
0.0770200890611481
 10
-0.9964716861551616
 20
0.0839296055697218
 10
-0.9960841243054009
 20
0.0884105045045143
  0
LINE
  5
D2
330
AB
100
AcDbEntity
  8
AM_9
100
AcDbLine
 10
-0.9998936970392267
 20
0.0145806248572178
 30
0.0
 11
-0.9998691813992949
 21
0.0161746742750491
 31
0.0
  0
LINE
  5
D3
330
AB
100
AcDbEntity
  8
AM_9
100
AcDbLine
 10
-0.9998482357761325
 20
-0.0174214068133226
 30
0.0
 11
-0.9998926012482021
 21
-0.0146555780883592
 31
0.0
  0
LWPOLYLINE
  5
D4
330
AB
100
AcDbEntity
  8
AM_9
100
AcDbPolyline
 90
        6
 70
     0
 43
0.0
 10
-0.9960971686686658
 20
-0.0882634158089716
 10
-0.9965156882220763
 20
-0.0834055341526079
 10
-0.997135870118619
 20
-0.0756310552801185
 10
-0.9978296891775725
 20
-0.065847637738867
 10
-0.9985619358876295
 20
-0.0536102620432863
 10
-0.9986371264446843
 20
-0.0521908965845927
  0
LINE
  5
D5
330
AB
100
AcDbEntity
  8
AM_9
100
AcDbLine
 10
-0.9958633683008626
 20
-0.0908633681769522
 30
0.0
 11
-0.9960971686686658
 21
-0.0882634158089716
 31
0.0
  0
LINE
  5
D7
330
AB
100
AcDbEntity
  8
AM_5
100
AcDbLine
 10
-0.9954772724678349
 20
-0.0949999999999999
 30
0.0
 11
-0.7499999999999999
 21
-0.0949999999999999
 31
0.0
  0
LINE
  5
D8
330
AB
100
AcDbEntity
  8
AM_5
100
AcDbLine
 10
-0.9954772724678349
 20
0.0950000000000001
 30
0.0
 11
-0.7499999999999999
 21
0.0950000000000001
 31
0.0
  0
LINE
  5
D9
330
AB
100
AcDbEntity
  8
AM_4
100
AcDbLine
 10
-0.5489389953593521
 20
-0.7607902302182145
 30
0.0
 11
-0.5800110495934389
 21
-0.8146086068471885
 31
0.0
  0
LINE
  5
DA
330
AB
100
AcDbEntity
  8
AM_4
100
AcDbLine
 10
-0.5800110495934395
 20
0.8146086068471882
 30
0.0
 11
-0.5489389953593525
 21
0.7607902302182141
 31
0.0
  0
ARC
  5
DB
330
AB
100
AcDbEntity
  8
AM_4
100
AcDbCircle
 10
0.0000000000000022
 20
-0.0000000000000011
 30
0.0
 40
1.000000000000002
100
AcDbArc
 50
125.4513198124179
 51
179.0906600083975
  0
LINE
  5
DC
330
AB
100
AcDbEntity
  8
AM_4
100
AcDbLine
 10
-0.9998740586901644
 20
0.0158703105973887
 30
0.0
 11
-0.9998740586901644
 21
-0.0158703105973891
 31
0.0
  0
ARC
  5
DD
330
AB
100
AcDbEntity
  8
AM_4
100
AcDbCircle
 10
0.0000000000000011
 20
0.0000000000000005
 30
0.0
 40
1.000000000000001
100
AcDbArc
 50
180.9093399916026
 51
234.5486801875822
  0
LINE
  5
DE
330
AB
100
AcDbEntity
  8
AM_4
100
AcDbLine
 10
-0.4154662228743955
 20
-0.9096086068471885
 30
0.0
 11
-0.3843941686403087
 21
-0.8557902302182143
 31
0.0
  0
LINE
  5
DF
330
AB
100
AcDbEntity
  8
AM_4
100
AcDbLine
 10
0.9333331639996614
 20
-0.095
 30
0.0
 11
0.9954772724678349
 21
-0.095
 31
0.0
  0
ARC
  5
E0
330
AB
100
AcDbEntity
  8
AM_4
100
AcDbCircle
 10
0.0
 20
0.0
 30
0.0
 40
1.0
100
AcDbArc
 50
245.4513198124178
 51
354.5486801875822
  0
LINE
  5
E1
330
AB
100
AcDbEntity
  8
AM_4
100
AcDbLine
 10
0.0500000000000001
 20
0.6229967897188556
 30
0.0
 11
0.0500000000000001
 21
0.7460317460317459
 31
0.0
  0
LINE
  5
E2
330
AB
100
AcDbEntity
  8
AM_4
100
AcDbLine
 10
-0.0499999999999999
 20
0.6229967897188556
 30
0.0
 11
-0.0499999999999999
 21
0.7460317460317459
 31
0.0
  0
LINE
  5
E3
330
AB
100
AcDbEntity
  8
AM_4
100
AcDbLine
 10
-0.5489389953593525
 20
0.7607902302182141
 30
0.0
 11
-0.3843941686403092
 21
0.8557902302182141
 31
0.0
  0
LINE
  5
E4
330
AB
100
AcDbEntity
  8
AM_4
100
AcDbLine
 10
-0.0499999999999999
 20
0.7460317460317459
 30
0.0
 11
0.0500000000000001
 21
0.7460317460317459
 31
0.0
  0
LINE
  5
E5
330
AB
100
AcDbEntity
  8
AM_4
100
AcDbLine
 10
-0.3843941686403087
 20
-0.8557902302182143
 30
0.0
 11
-0.5489389953593521
 21
-0.7607902302182145
 31
0.0
  0
LINE
  5
E6
330
AB
100
AcDbEntity
  8
AM_4
100
AcDbLine
 10
-0.3843941686403092
 20
0.8557902302182141
 30
0.0
 11
-0.4154662228743962
 21
0.9096086068471881
 31
0.0
  0
LINE
  5
E7
330
AB
100
AcDbEntity
  8
AM_4
100
AcDbLine
 10
0.9954772724678349
 20
0.095
 30
0.0
 11
0.9333331639996614
 21
0.095
 31
0.0
  0
LINE
  5
E8
330
AB
100
AcDbEntity
  8
AM_4
100
AcDbLine
 10
0.9333331639996614
 20
0.095
 30
0.0
 11
0.9333331639996614
 21
-0.095
 31
0.0
  0
ARC
  5
E9
330
AB
100
AcDbEntity
  8
AM_4
100
AcDbCircle
 10
0.0000000000000001
 20
-0.0000000000000001
 30
0.0
 40
0.971652
100
AcDbArc
 50
125.6108654129982
 51
234.3891345870018
  0
ARC
  5
EA
330
AB
100
AcDbEntity
  8
AM_4
100
AcDbCircle
 10
-0.0000000000000002
 20
0.0000000000000002
 30
0.0
 40
0.9716520000000001
100
AcDbArc
 50
245.6108654129982
 51
354.3891345870018
  0
ARC
  5
EB
330
AB
100
AcDbEntity
  8
AM_4
100
AcDbCircle
 10
0.0
 20
-0.0000000000000001
 30
0.0
 40
1.0
100
AcDbArc
 50
5.45131981241778
 51
114.5486801875822
  0
ARC
  5
EC
330
AB
100
AcDbEntity
  8
AM_4
100
AcDbCircle
 10
0.0
 20
0.0000000000000002
 30
0.0
 40
0.971652
100
AcDbArc
 50
5.610865412998182
 51
114.3891345870018
  0
ARC
  5
ED
330
AB
100
AcDbEntity
  8
AM_4
100
AcDbCircle
 10
0.0000000000000001
 20
0.0000000000000001
 30
0.0
 40
0.6249999999999999
100
AcDbArc
 50
94.58856573578582
 51
85.41143426421417
  0
ARC
  5
EE
330
AB
100
AcDbEntity
  8
AM_4
100
AcDbCircle
 10
0.0000000000000001
 20
0.0000000000000001
 30
0.0
 40
0.7460317460317459
100
AcDbArc
 50
93.84291692518897
 51
86.15708307481106
  0
ENDBLK
  5
AE
330
AB
100
AcDbEntity
  8
0
100
AcDbBlockEnd
  0
BLOCK
  5
F1
330
EF
100
AcDbEntity
  8
0
100
AcDbBlockBegin
  2
4__F2B_GTEZ_06_SHCR_II_0_in__129360_0
 70
     2
 10
0.0
 20
0.0
 30
0.0
  3
4__F2B_GTEZ_06_SHCR_II_0_in__129360_0
  1

  0
ATTDEF
  5
F3
330
EF
100
AcDbEntity
  8
AM_6
100
AcDbText
 10
6.640625
 20
2.78105
 30
0.0
 40
0.5
  1
F2B-GTEZ-SHCR -I
100
AcDbAttributeDefinition
  3

  2
NN
 70
     8
280
     0
  0
ATTDEF
  5
F4
330
EF
100
AcDbEntity
  8
AM_6
100
AcDbText
 10
6.640625
 20
2.28105
 30
0.0
 40
0.5
  1
GTEZ Normal Duty Stainless Steel Housed 2 Bolt Flange Bearings
100
AcDbAttributeDefinition
  3

  2
NT
 70
     8
280
     0
  0
ATTDEF
  5
F5
330
EF
100
AcDbEntity
  8
AM_6
100
AcDbText
 10
6.640625
 20
1.78105
 30
0.0
 40
0.5
  1
 F2B-GTEZ-06-SHCR-II
100
AcDbAttributeDefinition
  3

  2
NB
 70
     8
280
     0
  0
ATTDEF
  5
F6
330
EF
100
AcDbEntity
  8
AM_6
100
AcDbText
 10
6.640625
 20
1.28105
 30
0.0
 40
0.5
  1
 $PN.$LUBE.I
100
AcDbAttributeDefinition
  3

  2
NBSYN
 70
     8
280
     0
  0
ATTDEF
  5
F7
330
EF
100
AcDbEntity
  8
AM_6
100
AcDbText
 10
6.640625
 20
0.78105
 30
0.0
 40
0.5
  1
F2B-GTEZ-06-SHCR-I
100
AcDbAttributeDefinition
  3

  2
LINA
 70
     8
280
     0
  0
ATTDEF
  5
F8
330
EF
100
AcDbEntity
  8
AM_6
100
AcDbText
 10
6.640625
 20
0.28105
 30
0.0
 40
0.5
  1
206
100
AcDbAttributeDefinition
  3

  2
SERIES
 70
     8
280
     0
  0
ATTDEF
  5
F9
330
EF
100
AcDbEntity
  8
AM_6
100
AcDbText
 10
6.640625
 20
-0.21895
 30
0.0
 40
0.5
  1
1-3/16
100
AcDbAttributeDefinition
  3

  2
SS
 70
     8
280
     0
  0
ATTDEF
  5
FA
330
EF
100
AcDbEntity
  8
AM_6
100
AcDbText
 10
6.640625
 20
-0.71895
 30
0.0
 40
0.5
  1
F2B-GTEZ-06-SHCR-I
100
AcDbAttributeDefinition
  3

  2
PN
 70
     8
280
     0
  0
ATTDEF
  5
FB
330
EF
100
AcDbEntity
  8
AM_6
100
AcDbText
 10
6.640625
 20
-1.21895
 30
0.0
 40
0.5
  1
F2B-GTEZ-06-SHCR
100
AcDbAttributeDefinition
  3

  2
DESCRIPTION
 70
     8
280
     0
  0
ATTDEF
  5
FC
330
EF
100
AcDbEntity
  8
AM_6
100
AcDbText
 10
6.640625
 20
-1.71895
 30
0.0
 40
0.5
  1
2.17
100
AcDbAttributeDefinition
  3

  2
WEIGHT
 70
     8
280
     0
  0
ATTDEF
  5
FD
330
EF
100
AcDbEntity
  8
AM_6
100
AcDbText
 10
6.640625
 20
-2.21895
 30
0.0
 40
0.5
  1
1-39/64
100
AcDbAttributeDefinition
  3

  2
A
 70
     8
280
     0
  0
ATTDEF
  5
FE
330
EF
100
AcDbEntity
  8
AM_6
100
AcDbText
 10
6.640625
 20
-2.71895
 30
0.0
 40
0.5
  1
5-33/64
100
AcDbAttributeDefinition
  3

  2
B
 70
     8
280
     0
  0
ATTDEF
  5
FF
330
EF
100
AcDbEntity
  8
AM_6
100
AcDbText
 10
6.640625
 20
-3.21895
 30
0.0
 40
0.5
  1
1-47/64
100
AcDbAttributeDefinition
  3

  2
C
 70
     8
280
     0
  0
ATTDEF
  5
100
330
EF
100
AcDbEntity
  8
AM_6
100
AcDbText
 10
6.640625
 20
-3.71895
 30
0.0
 40
0.5
  1
4-19/32
100
AcDbAttributeDefinition
  3

  2
D
 70
     8
280
     0
  0
ATTDEF
  5
101
330
EF
100
AcDbEntity
  8
AM_6
100
AcDbText
 10
6.640625
 20
-4.21895
 30
0.0
 40
0.5
  1
3/8
100
AcDbAttributeDefinition
  3

  2
F
 70
     8
280
     0
  0
ATTDEF
  5
102
330
EF
100
AcDbEntity
  8
AM_6
100
AcDbText
 10
6.640625
 20
-4.71895
 30
0.0
 40
0.5
  1
23/64
100
AcDbAttributeDefinition
  3

  2
H
 70
     8
280
     0
  0
ATTDEF
  5
103
330
EF
100
AcDbEntity
  8
AM_6
100
AcDbText
 10
6.640625
 20
-5.21895
 30
0.0
 40
0.5
  1
35/64
100
AcDbAttributeDefinition
  3

  2
J
 70
     8
280
     0
  0
ATTDEF
  5
104
330
EF
100
AcDbEntity
  8
AM_6
100
AcDbText
 10
6.640625
 20
-5.71895
 30
0.0
 40
0.5
  1
2
100
AcDbAttributeDefinition
  3

  2
L
 70
     8
280
     0
  0
ATTDEF
  5
105
330
EF
100
AcDbEntity
  8
AM_6
100
AcDbText
 10
6.640625
 20
-6.21895
 30
0.0
 40
0.5
  1
3-1/8
100
AcDbAttributeDefinition
  3

  2
M
 70
     8
280
     0
  0
ATTDEF
  5
106
330
EF
100
AcDbEntity
  8
AM_6
100
AcDbText
 10
6.640625
 20
-6.71895
 30
0.0
 40
0.5
  1
1-11/16
100
AcDbAttributeDefinition
  3

  2
Z
 70
     8
280
     0
  0
ATTDEF
  5
107
330
EF
100
AcDbEntity
  8
AM_6
100
AcDbText
 10
6.640625
 20
-7.21895
 30
0.0
 40
0.5
  1
f2b_gtez_shcr_templ.prj
100
AcDbAttributeDefinition
  3

  2
PPATH
 70
     8
280
     0
  0
ATTDEF
  5
108
330
EF
100
AcDbEntity
  8
AM_6
100
AcDbText
 10
6.640625
 20
-7.71895
 30
0.0
 40
0.5
  1
Infotext
100
AcDbAttributeDefinition
  3

  2
INFO
 70
     8
280
     0
  0
ATTDEF
  5
109
330
EF
100
AcDbEntity
  8
AM_6
100
AcDbText
 10
6.640625
 20
-8.21895
 30
0.0
 40
0.5
  1
baldor
100
AcDbAttributeDefinition
  3

  2
COMPANY
 70
     8
280
     0
  0
LINE
  5
10C
330
EF
100
AcDbEntity
  8
AM_7
100
AcDbLine
 10
0.9756058161694827
 20
0.9756058161694827
 30
0.0
 11
1.375271520399006
 21
1.375271520399006
 31
0.0
  0
LINE
  5
10D
330
EF
100
AcDbEntity
  8
AM_7
100
AcDbLine
 10
-1.640625
 20
0.0
 30
0.0
 11
1.640625
 21
0.0
 31
0.0
  0
LINE
  5
10E
330
EF
100
AcDbEntity
  8
AM_7
100
AcDbLine
 10
0.0
 20
-1.640625
 30
0.0
 11
0.0
 21
1.640625
 31
0.0
  0
LINE
  5
10F
330
EF
100
AcDbEntity
  8
AM_7
100
AcDbLine
 10
-0.48405
 20
2.297
 30
0.0
 11
0.4840499999999998
 21
2.297
 31
0.0
  0
LINE
  5
110
330
EF
100
AcDbEntity
  8
AM_7
100
AcDbLine
 10
-0.0000000000000001
 20
1.81295
 30
0.0
 11
-0.0000000000000001
 21
2.78105
 31
0.0
  0
LINE
  5
111
330
EF
100
AcDbEntity
  8
AM_7
100
AcDbLine
 10
-0.4840499999999995
 20
-2.297
 30
0.0
 11
0.4840499999999993
 21
-2.297
 31
0.0
  0
LINE
  5
112
330
EF
100
AcDbEntity
  8
AM_7
100
AcDbLine
 10
-0.0000000000000001
 20
-2.78105
 30
0.0
 11
-0.0000000000000001
 21
-1.812950000000001
 31
0.0
  0
LINE
  5
113
330
EF
100
AcDbEntity
  8
AM_4
100
AcDbLine
 10
-0.4609999999999996
 20
2.297000006869435
 30
0.0
 11
-0.6125677107649664
 21
1.437416797497569
 31
0.0
  0
LINE
  5
114
330
EF
100
AcDbEntity
  8
AM_4
100
AcDbLine
 10
0.612567710764966
 20
1.43741679749757
 30
0.0
 11
0.4609999999999998
 21
2.296999999999999
 31
0.0
  0
CIRCLE
  5
115
330
EF
100
AcDbEntity
  8
AM_4
100
AcDbCircle
 10
0.0
 20
2.297
 30
0.0
 40
0.1875
  0
ARC
  5
116
330
EF
100
AcDbEntity
  8
AM_4
100
AcDbCircle
 10
-0.0000000000000002
 20
2.297
 30
0.0
 40
0.461
100
AcDbArc
 50
0.0
 51
179.9999987925817
  0
LINE
  5
117
330
EF
100
AcDbEntity
  8
AM_4
100
AcDbLine
 10
-0.6125677107649661
 20
-1.43741679749757
 30
0.0
 11
-0.4609999999999997
 21
-2.297
 31
0.0
  0
ARC
  5
118
330
EF
100
AcDbEntity
  8
AM_4
100
AcDbCircle
 10
-0.0000000000000001
 20
-2.297
 30
0.0
 40
0.4609999999999996
100
AcDbArc
 50
180.0
 51
0.0000008537736463
  0
LINE
  5
119
330
EF
100
AcDbEntity
  8
AM_4
100
AcDbLine
 10
0.4609999999999997
 20
-2.297
 30
0.0
 11
0.6125677107649662
 21
-1.43741679749757
 31
0.0
  0
CIRCLE
  5
11A
330
EF
100
AcDbEntity
  8
AM_4
100
AcDbCircle
 10
0.0
 20
-2.297
 30
0.0
 40
0.1875
  0
LINE
  5
11B
330
EF
100
AcDbEntity
  8
AM_4
100
AcDbLine
 10
1.284843414057546
 20
1.377350995917557
 30
0.0
 11
1.377349266843572
 21
1.284845143131531
 31
0.0
  0
ARC
  5
11C
330
EF
100
AcDbEntity
  8
AM_4
100
AcDbCircle
 10
1.36343157064563
 20
1.270923988785617
 30
0.0
 40
0.0196850399999994
100
AcDbArc
 50
336.8014069771904
 51
45.00000000000138
  0
ARC
  5
11D
330
EF
100
AcDbEntity
  8
AM_4
100
AcDbCircle
 10
1.270923988785617
 20
1.363431570645629
 30
0.0
 40
0.0196850399999996
100
AcDbArc
 50
44.99999999999908
 51
113.1985930228093
  0
LINE
  5
11E
330
EF
100
AcDbEntity
  8
AM_4
100
AcDbLine
 10
1.263169670843948
 20
1.38152497698775
 30
0.0
 11
1.38152497698775
 21
1.263169670843948
 31
0.0
  0
LINE
  5
11F
330
EF
100
AcDbEntity
  8
AM_4
100
AcDbLine
 10
1.263169670843948
 20
1.38152497698775
 30
0.0
 11
1.210732708192396
 21
1.359051990276066
 31
0.0
  0
LINE
  5
120
330
EF
100
AcDbEntity
  8
AM_4
100
AcDbLine
 10
1.359051990276066
 20
1.210732708192396
 30
0.0
 11
1.38152497698775
 21
1.263169670843948
 31
0.0
  0
LINE
  5
121
330
EF
100
AcDbEntity
  8
AM_4
100
AcDbLine
 10
1.210732708192396
 20
1.359051990276066
 30
0.0
 11
1.359051990276066
 21
1.210732708192396
 31
0.0
  0
ARC
  5
122
330
EF
100
AcDbEntity
  8
AM_4
100
AcDbCircle
 10
1.340958583933945
 20
1.218487026134066
 30
0.0
 40
0.0196850400000006
100
AcDbArc
 50
269.1570856808987
 51
336.8014069771914
  0
ARC
  5
123
330
EF
100
AcDbEntity
  8
AM_4
100
AcDbCircle
 10
1.218487026134066
 20
1.340958583933945
 30
0.0
 40
0.0196850400000007
100
AcDbArc
 50
113.1985930228086
 51
180.8429143191014
  0
LINE
  5
124
330
EF
100
AcDbEntity
  8
AM_4
100
AcDbLine
 10
1.198804116332549
 20
1.340668995351682
 30
0.0
 11
1.340668995351682
 21
1.198804116332549
 31
0.0
  0
ARC
  5
125
330
EF
100
AcDbEntity
  8
AM_4
100
AcDbCircle
 10
1.339622856524239
 20
1.127699599643865
 30
0.0
 40
0.0711122120312509
100
AcDbArc
 50
89.15708568089583
 51
191.144967828884
  0
ARC
  5
126
330
EF
100
AcDbEntity
  8
AM_4
100
AcDbCircle
 10
1.127699599643865
 20
1.339622856524239
 30
0.0
 40
0.0711122120312506
100
AcDbArc
 50
258.8550321711157
 51
0.8429143191044075
  0
LINE
  5
127
330
EF
100
AcDbEntity
  8
AM_4
100
AcDbLine
 10
1.113954173573895
 20
1.269851730962639
 30
0.0
 11
1.269851730962639
 21
1.113954173573895
 31
0.0
  0
LINE
  5
128
330
EF
100
AcDbEntity
  8
AM_4
100
AcDbLine
 10
1.255932305690711
 20
1.100034748301967
 30
0.0
 11
1.269851730962639
 21
1.113954173573895
 31
0.0
  0
LINE
  5
129
330
EF
100
AcDbEntity
  8
AM_4
100
AcDbLine
 10
1.113954173573895
 20
1.269851730962639
 30
0.0
 11
1.100034748301967
 21
1.255932305690711
 31
0.0
  0
LINE
  5
12A
330
EF
100
AcDbEntity
  8
AM_4
100
AcDbLine
 10
1.160706081580447
 20
1.004808524191702
 30
0.0
 11
1.17241575405914
 21
1.016518196670396
 31
0.0
  0
LINE
  5
12B
330
EF
100
AcDbEntity
  8
AM_4
100
AcDbLine
 10
1.016518196670396
 20
1.17241575405914
 30
0.0
 11
1.004808524191702
 21
1.160706081580447
 31
0.0
  0
LINE
  5
12C
330
EF
100
AcDbEntity
  8
AM_4
100
AcDbLine
 10
1.066628124820911
 20
1.289338929171766
 30
0.0
 11
0.9831115731893402
 21
1.205822377540196
 31
0.0
  0
LINE
  5
12D
330
EF
100
AcDbEntity
  8
AM_4
100
AcDbLine
 10
0.9831115731893402
 20
1.205822377540196
 30
0.0
 11
1.205822377540195
 21
0.9831115731893405
 31
0.0
  0
LINE
  5
12E
330
EF
100
AcDbEntity
  8
AM_4
100
AcDbLine
 10
1.066628124820911
 20
1.289338929171766
 30
0.0
 11
1.289338929171766
 21
1.066628124820911
 31
0.0
  0
LINE
  5
12F
330
EF
100
AcDbEntity
  8
AM_4
100
AcDbLine
 10
1.205822377540195
 20
0.9831115731893405
 30
0.0
 11
1.289338929171766
 21
1.066628124820911
 31
0.0
  0
LWPOLYLINE
  5
130
330
EF
100
AcDbEntity
  8
AM_4
100
AcDbPolyline
 90
        3
 70
     0
 43
0.0
 10
1.062012233570706
 20
1.284723037921562
 10
1.093112682582412
 20
1.260396127782128
 10
1.122305825908625
 20
1.233661228084052
  0
LWPOLYLINE
  5
131
330
EF
100
AcDbEntity
  8
AM_4
100
AcDbPolyline
 90
        3
 70
     0
 43
0.0
 10
1.038789274277054
 20
1.150144676452482
 10
1.012168782041204
 20
1.179201885304345
 10
0.9877274644395448
 20
1.2104382687904
  0
LWPOLYLINE
  5
132
330
EF
100
AcDbEntity
  8
AM_4
100
AcDbPolyline
 90
        3
 70
     0
 43
0.0
 10
1.099082866614973
 20
1.099082866614973
 10
1.067982417603267
 20
1.123409776754406
 10
1.038789274277054
 20
1.150144676452482
  0
LWPOLYLINE
  5
133
330
EF
100
AcDbEntity
  8
AM_4
100
AcDbPolyline
 90
        3
 70
     0
 43
0.0
 10
1.233661228084052
 20
1.122305825908625
 10
1.260281720319903
 20
1.093248617056761
 10
1.284723037921562
 20
1.062012233570707
  0
LINE
  5
134
330
EF
100
AcDbEntity
  8
AM_4
100
AcDbLine
 10
1.173367635746134
 20
1.173367635746134
 30
0.0
 11
1.099082866614973
 21
1.099082866614973
 31
0.0
  0
LWPOLYLINE
  5
135
330
EF
100
AcDbEntity
  8
AM_4
100
AcDbPolyline
 90
        3
 70
     0
 43
0.0
 10
1.150144676452482
 20
1.038789274277054
 10
1.123524184216631
 20
1.067846483128918
 10
1.099082866614973
 20
1.099082866614973
  0
LWPOLYLINE
  5
136
330
EF
100
AcDbEntity
  8
AM_4
100
AcDbPolyline
 90
        3
 70
     0
 43
0.0
 10
1.2104382687904
 20
0.9877274644395452
 10
1.179337819778695
 20
1.012054374578979
 10
1.150144676452482
 20
1.038789274277054
  0
LWPOLYLINE
  5
137
330
EF
100
AcDbEntity
  8
AM_4
100
AcDbPolyline
 90
        3
 70
     0
 43
0.0
 10
1.122305825908625
 20
1.233661228084052
 10
1.148926318144475
 20
1.204604019232189
 10
1.173367635746134
 20
1.173367635746134
  0
LWPOLYLINE
  5
138
330
EF
100
AcDbEntity
  8
AM_4
100
AcDbPolyline
 90
        3
 70
     0
 43
0.0
 10
1.173367635746134
 20
1.173367635746134
 10
1.204468084757839
 20
1.149040725606701
 10
1.233661228084052
 20
1.122305825908625
  0
LINE
  5
139
330
EF
100
AcDbEntity
  8
AM_4
100
AcDbLine
 10
1.302372696658947
 20
0.454480972743566
 30
0.0
 11
1.206551422584828
 21
0.4196048811711229
 31
0.0
  0
LINE
  5
13A
330
EF
100
AcDbEntity
  8
AM_4
100
AcDbLine
 10
1.321216552970582
 20
0.4027079030319008
 30
0.0
 11
1.302372696658947
 21
0.454480972743566
 31
0.0
  0
LINE
  5
13B
330
EF
100
AcDbEntity
  8
AM_4
100
AcDbLine
 10
1.322666087434825
 20
0.3902060170375649
 30
0.0
 11
1.321216552970582
 21
0.4027079030319008
 31
0.0
  0
LINE
  5
13C
330
EF
100
AcDbEntity
  8
AM_4
100
AcDbLine
 10
1.32033137277232
 20
0.3795842570889271
 30
0.0
 11
1.322666087434825
 21
0.3902060170375649
 31
0.0
  0
LINE
  5
13D
330
EF
100
AcDbEntity
  8
AM_4
100
AcDbLine
 10
1.314212039946423
 20
0.3708424675840775
 30
0.0
 11
1.32033137277232
 21
0.3795842570889271
 31
0.0
  0
LINE
  5
13E
330
EF
100
AcDbEntity
  8
AM_4
100
AcDbLine
 10
1.206551422584828
 20
0.4196048811711229
 30
0.0
 11
1.225395278896463
 21
0.3678318114594578
 31
0.0
  0
LINE
  5
13F
330
EF
100
AcDbEntity
  8
AM_4
100
AcDbLine
 10
1.225395278896463
 20
0.3678318114594578
 30
0.0
 11
1.232320590200549
 21
0.3573229452443091
 31
0.0
  0
LINE
  5
140
330
EF
100
AcDbEntity
  8
AM_4
100
AcDbLine
 10
1.304307715636608
 20
0.3639805339290128
 30
0.0
 11
1.314212039946423
 21
0.3708424675840775
 31
0.0
  0
LINE
  5
141
330
EF
100
AcDbEntity
  8
AM_4
100
AcDbLine
 10
1.26324167279085
 20
0.3490337166940561
 30
0.0
 11
1.304307715636608
 21
0.3639805339290128
 31
0.0
  0
LINE
  5
142
330
EF
100
AcDbEntity
  8
AM_4
100
AcDbLine
 10
1.251243716670796
 20
0.3479238722100975
 30
0.0
 11
1.26324167279085
 21
0.3490337166940561
 31
0.0
  0
LINE
  5
143
330
EF
100
AcDbEntity
  8
AM_4
100
AcDbLine
 10
1.240936771432897
 20
0.3506869854399456
 30
0.0
 11
1.251243716670796
 21
0.3479238722100975
 31
0.0
  0
LINE
  5
144
330
EF
100
AcDbEntity
  8
AM_4
100
AcDbLine
 10
1.232320590200549
 20
0.3573229452443091
 30
0.0
 11
1.240936771432897
 21
0.3506869854399456
 31
0.0
  0
LINE
  5
145
330
EF
100
AcDbEntity
  8
AM_4
100
AcDbLine
 10
1.366186619243191
 20
0.1445447665791884
 30
0.0
 11
1.370330381325383
 21
0.1545993551057016
 31
0.0
  0
LINE
  5
146
330
EF
100
AcDbEntity
  8
AM_4
100
AcDbLine
 10
1.347696907095584
 20
0.1319601938216011
 30
0.0
 11
1.35864232473871
 21
0.1369980114183426
 31
0.0
  0
LINE
  5
147
330
EF
100
AcDbEntity
  8
AM_4
100
AcDbLine
 10
1.304659262140778
 20
0.1243714958299173
 30
0.0
 11
1.347696907095584
 21
0.1319601938216011
 31
0.0
  0
LINE
  5
148
330
EF
100
AcDbEntity
  8
AM_4
100
AcDbLine
 10
1.292650859461316
 20
0.1253619355934522
 30
0.0
 11
1.304659262140778
 21
0.1243714958299173
 31
0.0
  0
LINE
  5
149
330
EF
100
AcDbEntity
  8
AM_4
100
AcDbLine
 10
1.370330381325383
 20
0.1545993551057016
 30
0.0
 11
1.371073798267054
 21
0.1671630183783795
 31
0.0
  0
LINE
  5
14A
330
EF
100
AcDbEntity
  8
AM_4
100
AcDbLine
 10
1.35864232473871
 20
0.1369980114183426
 30
0.0
 11
1.366186619243191
 21
0.1445447665791884
 31
0.0
  0
LINE
  5
14B
330
EF
100
AcDbEntity
  8
AM_4
100
AcDbLine
 10
1.282980241735422
 20
0.1298732372575547
 30
0.0
 11
1.292650859461316
 21
0.1253619355934522
 31
0.0
  0
LINE
  5
14C
330
EF
100
AcDbEntity
  8
AM_4
100
AcDbLine
 10
1.275647349706335
 20
0.1379041820159909
 30
0.0
 11
1.282980241735422
 21
0.1298732372575547
 31
0.0
  0
LINE
  5
14D
330
EF
100
AcDbEntity
  8
AM_4
100
AcDbLine
 10
1.270652094909654
 20
0.1494559626277679
 30
0.0
 11
1.275647349706335
 21
0.1379041820159909
 31
0.0
  0
LINE
  5
14E
330
EF
100
AcDbEntity
  8
AM_4
100
AcDbLine
 10
1.266399970246642
 20
0.1735709599238555
 30
0.0
 11
1.270652094909654
 21
0.1494559626277679
 31
0.0
  0
LINE
  5
14F
330
EF
100
AcDbEntity
  8
AM_4
100
AcDbLine
 10
1.267143065650676
 20
0.1861343735697164
 30
0.0
 11
1.266399970246642
 21
0.1735709599238555
 31
0.0
  0
LINE
  5
150
330
EF
100
AcDbEntity
  8
AM_4
100
AcDbLine
 10
1.271286929734691
 20
0.1961893050184191
 30
0.0
 11
1.267143065650676
 21
0.1861343735697164
 31
0.0
  0
LINE
  5
151
330
EF
100
AcDbEntity
  8
AM_4
100
AcDbLine
 10
1.278831430429903
 20
0.2037358122168025
 30
0.0
 11
1.271286929734691
 21
0.1961893050184191
 31
0.0
  0
LINE
  5
152
330
EF
100
AcDbEntity
  8
AM_4
100
AcDbLine
 10
1.289776840580331
 20
0.2087739026575644
 30
0.0
 11
1.278831430429903
 21
0.2037358122168025
 31
0.0
  0
LINE
  5
153
330
EF
100
AcDbEntity
  8
AM_4
100
AcDbLine
 10
1.332814485535137
 20
0.2163626006492482
 30
0.0
 11
1.289776840580331
 21
0.2087739026575644
 31
0.0
  0
LINE
  5
154
330
EF
100
AcDbEntity
  8
AM_4
100
AcDbLine
 10
1.371073798267054
 20
0.1671630183783795
 30
0.0
 11
1.366821673604042
 21
0.191278015674467
 31
0.0
  0
LINE
  5
155
330
EF
100
AcDbEntity
  8
AM_4
100
AcDbLine
 10
1.366821673604042
 20
0.191278015674467
 30
0.0
 11
1.361826097269723
 21
0.2028295466594272
 31
0.0
  0
LINE
  5
156
330
EF
100
AcDbEntity
  8
AM_4
100
AcDbLine
 10
1.344822895707297
 20
0.2153718880416929
 30
0.0
 11
1.332814485535137
 21
0.2163626006492482
 31
0.0
  0
LINE
  5
157
330
EF
100
AcDbEntity
  8
AM_4
100
AcDbLine
 10
1.361826097269723
 20
0.2028295466594272
 30
0.0
 11
1.35449330724246
 21
0.2108608343400527
 31
0.0
  0
LINE
  5
158
330
EF
100
AcDbEntity
  8
AM_4
100
AcDbLine
 10
1.35449330724246
 20
0.2108608343400527
 30
0.0
 11
1.344822895707297
 21
0.2153718880416929
 31
0.0
  0
LINE
  5
159
330
EF
100
AcDbEntity
  8
AM_4
100
AcDbLine
 10
1.37927166
 20
-0.01836528
 30
0.0
 11
1.27730079
 21
-0.01836528
 31
0.0
  0
LINE
  5
15A
330
EF
100
AcDbEntity
  8
AM_4
100
AcDbLine
 10
1.37927166
 20
-0.07346103
 30
0.0
 11
1.37927166
 21
-0.01836528
 31
0.0
  0
LINE
  5
15B
330
EF
100
AcDbEntity
  8
AM_4
100
AcDbLine
 10
1.37635788
 20
-0.08570473
 30
0.0
 11
1.37927166
 21
-0.07346103
 31
0.0
  0
LINE
  5
15C
330
EF
100
AcDbEntity
  8
AM_4
100
AcDbLine
 10
1.37053111
 20
-0.0948874
 30
0.0
 11
1.37635788
 21
-0.08570473
 31
0.0
  0
LINE
  5
15D
330
EF
100
AcDbEntity
  8
AM_4
100
AcDbLine
 10
1.36179095
 20
-0.10100906
 30
0.0
 11
1.37053111
 21
-0.0948874
 31
0.0
  0
LINE
  5
15E
330
EF
100
AcDbEntity
  8
AM_4
100
AcDbLine
 10
1.35013701
 20
-0.10406969
 30
0.0
 11
1.36179095
 21
-0.10100906
 31
0.0
  0
LINE
  5
15F
330
EF
100
AcDbEntity
  8
AM_4
100
AcDbLine
 10
1.30643544
 20
-0.10406969
 30
0.0
 11
1.35013701
 21
-0.10406969
 31
0.0
  0
LINE
  5
160
330
EF
100
AcDbEntity
  8
AM_4
100
AcDbLine
 10
1.29478146
 20
-0.10100906
 30
0.0
 11
1.30643544
 21
-0.10406969
 31
0.0
  0
LINE
  5
161
330
EF
100
AcDbEntity
  8
AM_4
100
AcDbLine
 10
1.28604114
 20
-0.0948874
 30
0.0
 11
1.29478146
 21
-0.10100906
 31
0.0
  0
LINE
  5
162
330
EF
100
AcDbEntity
  8
AM_4
100
AcDbLine
 10
1.27730079
 20
-0.0734610299999998
 30
0.0
 11
1.28021421
 21
-0.08570473
 31
0.0
  0
LINE
  5
163
330
EF
100
AcDbEntity
  8
AM_4
100
AcDbLine
 10
1.27730079
 20
-0.01836528
 30
0.0
 11
1.27730079
 21
-0.0734610299999998
 31
0.0
  0
LINE
  5
164
330
EF
100
AcDbEntity
  8
AM_4
100
AcDbLine
 10
1.28021421
 20
-0.08570473
 30
0.0
 11
1.28604114
 21
-0.0948874
 31
0.0
  0
LINE
  5
165
330
EF
100
AcDbEntity
  8
AM_4
100
AcDbLine
 10
1.244201892636974
 20
-0.3162402310030306
 30
0.0
 11
1.25514712438038
 21
-0.3212784118370144
 31
0.0
  0
LINE
  5
166
330
EF
100
AcDbEntity
  8
AM_4
100
AcDbLine
 10
1.25514712438038
 20
-0.3212784118370144
 30
0.0
 11
1.298184857967884
 21
-0.3288671254570342
 31
0.0
  0
LINE
  5
167
330
EF
100
AcDbEntity
  8
AM_4
100
AcDbLine
 10
1.254787307637846
 20
0.3296696365907777
 30
0.0
 11
1.269522992430075
 21
0.3317759328209056
 31
0.0
  0
LINE
  5
168
330
EF
100
AcDbEntity
  8
AM_4
100
AcDbLine
 10
1.269522992430075
 20
0.3317759328209056
 30
0.0
 11
1.310589035275834
 21
0.3467227500558622
 31
0.0
  0
LINE
  5
169
330
EF
100
AcDbEntity
  8
AM_4
100
AcDbLine
 10
1.310589035275834
 20
0.3467227500558622
 30
0.0
 11
1.323231050670121
 21
0.3545811217762906
 31
0.0
  0
LINE
  5
16A
330
EF
100
AcDbEntity
  8
AM_4
100
AcDbLine
 10
1.323231050670121
 20
0.3545811217762906
 30
0.0
 11
1.332087935215909
 21
0.3643197030094981
 31
0.0
  0
LINE
  5
16B
330
EF
100
AcDbEntity
  8
AM_4
100
AcDbLine
 10
1.338851597996009
 20
0.3798105332996012
 30
0.0
 11
1.34013937873919
 21
0.3933087205512434
 31
0.0
  0
LINE
  5
16C
330
EF
100
AcDbEntity
  8
AM_4
100
AcDbLine
 10
1.34013937873919
 20
0.3933087205512434
 30
0.0
 11
1.33764304716368
 21
0.4086866579715354
 31
0.0
  0
LINE
  5
16D
330
EF
100
AcDbEntity
  8
AM_4
100
AcDbLine
 10
1.332087935215909
 20
0.3643197030094981
 30
0.0
 11
1.338851597996009
 21
0.3798105332996012
 31
0.0
  0
LINE
  5
16E
330
EF
100
AcDbEntity
  8
AM_4
100
AcDbLine
 10
1.216940921309496
 20
0.348468149139323
 30
0.0
 11
1.22660400827039
 21
0.3389557517713509
 31
0.0
  0
LINE
  5
16F
330
EF
100
AcDbEntity
  8
AM_4
100
AcDbLine
 10
1.22660400827039
 20
0.3389557517713509
 30
0.0
 11
1.241742437981633
 21
0.3314366312162423
 31
0.0
  0
LINE
  5
170
330
EF
100
AcDbEntity
  8
AM_4
100
AcDbLine
 10
1.241742437981633
 20
0.3314366312162423
 30
0.0
 11
1.254787307637846
 21
0.3296696365907777
 31
0.0
  0
LINE
  5
171
330
EF
100
AcDbEntity
  8
AM_4
100
AcDbLine
 10
1.33764304716368
 20
0.4086866579715354
 30
0.0
 11
1.312517895154229
 21
0.4777174457778675
 31
0.0
  0
LINE
  5
172
330
EF
100
AcDbEntity
  8
AM_4
100
AcDbLine
 10
1.312517895154229
 20
-0.477717445777867
 30
0.0
 11
1.183843632693913
 21
-0.4308838443261555
 31
0.0
  0
LINE
  5
173
330
EF
100
AcDbEntity
  8
AM_4
100
AcDbLine
 10
1.348664131068518
 20
-0.2942545565451189
 30
0.0
 11
1.343668589463835
 21
-0.3058058905685284
 31
0.0
  0
LINE
  5
174
330
EF
100
AcDbEntity
  8
AM_4
100
AcDbLine
 10
1.253008756793937
 20
0.1991825781407527
 30
0.0
 11
1.249396443697657
 21
0.1861132440022226
 31
0.0
  0
LINE
  5
175
330
EF
100
AcDbEntity
  8
AM_4
100
AcDbLine
 10
1.26856043
 20
-0.10100906
 30
0.0
 11
1.28021421
 21
-0.11325237
 31
0.0
  0
LINE
  5
176
330
EF
100
AcDbEntity
  8
AM_4
100
AcDbLine
 10
1.28021421
 20
-0.11325237
 30
0.0
 11
1.29186803
 21
-0.11937441
 31
0.0
  0
LINE
  5
177
330
EF
100
AcDbEntity
  8
AM_4
100
AcDbLine
 10
1.235810954182774
 20
-0.2463824938344704
 30
0.0
 11
1.23102728897496
 21
-0.2735120073586834
 31
0.0
  0
LINE
  5
178
330
EF
100
AcDbEntity
  8
AM_4
100
AcDbLine
 10
1.23102728897496
 20
-0.2735120073586834
 30
0.0
 11
1.23123890810806
 21
-0.2890897454805644
 31
0.0
  0
LINE
  5
179
330
EF
100
AcDbEntity
  8
AM_4
100
AcDbLine
 10
1.23123890810806
 20
-0.2890897454805644
 30
0.0
 11
1.234851255933976
 21
-0.3021588826575438
 31
0.0
  0
LINE
  5
17A
330
EF
100
AcDbEntity
  8
AM_4
100
AcDbLine
 10
1.234851255933976
 20
-0.3021588826575438
 30
0.0
 11
1.244201892636974
 21
-0.3162402310030306
 31
0.0
  0
LINE
  5
17B
330
EF
100
AcDbEntity
  8
AM_4
100
AcDbLine
 10
1.38801182
 20
-0.10100906
 30
0.0
 11
1.39383859
 21
-0.08876536
 31
0.0
  0
LINE
  5
17C
330
EF
100
AcDbEntity
  8
AM_4
100
AcDbLine
 10
1.39383859
 20
-0.08876536
 30
0.0
 11
1.39675237
 21
-0.0734610299999998
 31
0.0
  0
LINE
  5
17D
330
EF
100
AcDbEntity
  8
AM_4
100
AcDbLine
 10
1.298184857967884
 20
-0.3288671254570342
 30
0.0
 11
1.306157632735413
 21
-0.2836512728660386
 31
0.0
  0
LINE
  5
17E
330
EF
100
AcDbEntity
  8
AM_4
100
AcDbLine
 10
1.306157632735413
 20
-0.2836512728660386
 30
0.0
 11
1.288942493999255
 21
-0.2806157794302145
 31
0.0
  0
LINE
  5
17F
330
EF
100
AcDbEntity
  8
AM_4
100
AcDbLine
 10
1.288942493999255
 20
-0.2806157794302145
 30
0.0
 11
1.284158828791441
 21
-0.3077452929544274
 31
0.0
  0
LINE
  5
180
330
EF
100
AcDbEntity
  8
AM_4
100
AcDbLine
 10
1.284158828791441
 20
-0.3077452929544274
 30
0.0
 11
1.261205402391954
 21
-0.3036979845804919
 31
0.0
  0
LINE
  5
181
330
EF
100
AcDbEntity
  8
AM_4
100
AcDbLine
 10
1.261205402391954
 20
-0.3036979845804919
 30
0.0
 11
1.25312940977343
 21
-0.2991657178640631
 31
0.0
  0
LINE
  5
182
330
EF
100
AcDbEntity
  8
AM_4
100
AcDbLine
 10
1.25312940977343
 20
-0.2991657178640631
 30
0.0
 11
1.248985557844788
 21
-0.2891107174788177
 31
0.0
  0
LINE
  5
183
330
EF
100
AcDbEntity
  8
AM_4
100
AcDbLine
 10
1.248985557844788
 20
-0.2891107174788177
 30
0.0
 11
1.248242427711118
 21
-0.2765475007945075
 31
0.0
  0
LINE
  5
184
330
EF
100
AcDbEntity
  8
AM_4
100
AcDbLine
 10
1.248242427711118
 20
-0.2765475007945075
 30
0.0
 11
1.253026092918932
 21
-0.2494179872702945
 31
0.0
  0
LINE
  5
185
330
EF
100
AcDbEntity
  8
AM_4
100
AcDbLine
 10
1.253026092918932
 20
-0.2494179872702945
 30
0.0
 11
1.25802131472246
 21
-0.2378663937719904
 31
0.0
  0
CIRCLE
  5
186
330
EF
100
AcDbEntity
  8
AM_4
100
AcDbCircle
 10
0.0
 20
0.0
 30
0.0
 40
1.22045
  0
LINE
  5
187
330
EF
100
AcDbEntity
  8
AM_4
100
AcDbLine
 10
1.265354262318964
 20
-0.2298351338750733
 30
0.0
 11
1.275024831423367
 21
-0.2253241079571416
 31
0.0
  0
LINE
  5
188
330
EF
100
AcDbEntity
  8
AM_4
100
AcDbLine
 10
1.146155837985808
 20
-0.5344302092757148
 30
0.0
 11
1.162582332178907
 21
-0.5404089642153493
 31
0.0
  0
LINE
  5
189
330
EF
100
AcDbEntity
  8
AM_4
100
AcDbLine
 10
1.183843632693913
 20
-0.4308838443261555
 30
0.0
 11
1.146155837985808
 21
-0.5344302092757148
 31
0.0
  0
LINE
  5
18A
330
EF
100
AcDbEntity
  8
AM_4
100
AcDbLine
 10
1.274830100446124
 20
-0.5812638107274269
 30
0.0
 11
1.312517895154229
 21
-0.477717445777867
 31
0.0
  0
LINE
  5
18B
330
EF
100
AcDbEntity
  8
AM_4
100
AcDbLine
 10
1.258403606253026
 20
-0.5752850557877924
 30
0.0
 11
1.274830100446124
 21
-0.5812638107274269
 31
0.0
  0
LINE
  5
18C
330
EF
100
AcDbEntity
  8
AM_4
100
AcDbLine
 10
1.289810105263315
 20
-0.4889964089329001
 30
0.0
 11
1.258403606253026
 21
-0.5752850557877924
 31
0.0
  0
LINE
  5
18D
330
EF
100
AcDbEntity
  8
AM_4
100
AcDbLine
 10
1.254219425792646
 20
-0.4760424609882676
 30
0.0
 11
1.289810105263315
 21
-0.4889964089329001
 31
0.0
  0
LINE
  5
18E
330
EF
100
AcDbEntity
  8
AM_4
100
AcDbLine
 10
1.227000522231395
 20
-0.5508257839051174
 30
0.0
 11
1.254219425792646
 21
-0.4760424609882676
 31
0.0
  0
LINE
  5
18F
330
EF
100
AcDbEntity
  8
AM_4
100
AcDbLine
 10
1.210574037435223
 20
-0.5448470323856843
 30
0.0
 11
1.227000522231395
 21
-0.5508257839051174
 31
0.0
  0
LINE
  5
190
330
EF
100
AcDbEntity
  8
AM_4
100
AcDbLine
 10
1.237792940996474
 20
-0.4700637094688345
 30
0.0
 11
1.210574037435223
 21
-0.5448470323856843
 31
0.0
  0
LINE
  5
191
330
EF
100
AcDbEntity
  8
AM_4
100
AcDbLine
 10
1.193988831189196
 20
-0.454120317360457
 30
0.0
 11
1.237792940996474
 21
-0.4700637094688345
 31
0.0
  0
LINE
  5
192
330
EF
100
AcDbEntity
  8
AM_4
100
AcDbLine
 10
1.162582332178907
 20
-0.5404089642153493
 30
0.0
 11
1.193988831189196
 21
-0.454120317360457
 31
0.0
  0
LINE
  5
193
330
EF
100
AcDbEntity
  8
AM_4
100
AcDbLine
 10
1.241337718291628
 20
-0.2318165468867269
 30
0.0
 11
1.235810954182774
 21
-0.2463824938344704
 31
0.0
  0
LINE
  5
194
330
EF
100
AcDbEntity
  8
AM_4
100
AcDbLine
 10
1.249202157787402
 20
-0.2207708738810917
 30
0.0
 11
1.241337718291628
 21
-0.2318165468867269
 31
0.0
  0
LINE
  5
195
330
EF
100
AcDbEntity
  8
AM_4
100
AcDbLine
 10
1.262804952146565
 20
-0.210737037817018
 30
0.0
 11
1.249202157787402
 21
-0.2207708738810917
 31
0.0
  0
LINE
  5
196
330
EF
100
AcDbEntity
  8
AM_4
100
AcDbLine
 10
1.27534475863937
 20
-0.2067319358647189
 30
0.0
 11
1.262804952146565
 21
-0.210737037817018
 31
0.0
  0
LINE
  5
197
330
EF
100
AcDbEntity
  8
AM_4
100
AcDbLine
 10
1.290222371446253
 20
-0.2062471715575835
 30
0.0
 11
1.27534475863937
 21
-0.2067319358647189
 31
0.0
  0
LINE
  5
198
330
EF
100
AcDbEntity
  8
AM_4
100
AcDbLine
 10
1.333260016401059
 20
-0.2138358695492672
 30
0.0
 11
1.290222371446253
 21
-0.2062471715575835
 31
0.0
  0
LINE
  5
199
330
EF
100
AcDbEntity
  8
AM_4
100
AcDbLine
 10
1.347074521428171
 20
-0.2193798283642025
 30
0.0
 11
1.333260016401059
 21
-0.2138358695492672
 31
0.0
  0
LINE
  5
19A
330
EF
100
AcDbEntity
  8
AM_4
100
AcDbLine
 10
1.357487983765612
 20
-0.2274322109067287
 30
0.0
 11
1.347074521428171
 21
-0.2193798283642025
 31
0.0
  0
LINE
  5
19B
330
EF
100
AcDbEntity
  8
AM_4
100
AcDbLine
 10
1.366838812767486
 20
-0.2415133900743734
 30
0.0
 11
1.357487983765612
 21
-0.2274322109067287
 31
0.0
  0
LINE
  5
19C
330
EF
100
AcDbEntity
  8
AM_4
100
AcDbLine
 10
1.370450997838759
 20
-0.2545827016386403
 30
0.0
 11
1.366838812767486
 21
-0.2415133900743734
 31
0.0
  0
LINE
  5
19D
330
EF
100
AcDbEntity
  8
AM_4
100
AcDbLine
 10
1.37066293501249
 20
-0.2701605364567301
 30
0.0
 11
1.370450997838759
 21
-0.2545827016386403
 31
0.0
  0
LINE
  5
19E
330
EF
100
AcDbEntity
  8
AM_4
100
AcDbLine
 10
1.365879269804676
 20
-0.297290049980943
 30
0.0
 11
1.37066293501249
 21
-0.2701605364567301
 31
0.0
  0
LINE
  5
19F
330
EF
100
AcDbEntity
  8
AM_4
100
AcDbLine
 10
1.360352187655191
 20
-0.3118559002324779
 30
0.0
 11
1.365879269804676
 21
-0.297290049980943
 31
0.0
  0
LINE
  5
1A0
330
EF
100
AcDbEntity
  8
AM_4
100
AcDbLine
 10
1.35248791091406
 20
-0.3229013988508255
 30
0.0
 11
1.360352187655191
 21
-0.3118559002324779
 31
0.0
  0
LINE
  5
1A1
330
EF
100
AcDbEntity
  8
AM_4
100
AcDbLine
 10
1.338884924256021
 20
-0.3329354040927413
 30
0.0
 11
1.35248791091406
 21
-0.3229013988508255
 31
0.0
  0
LINE
  5
1A2
330
EF
100
AcDbEntity
  8
AM_4
100
AcDbLine
 10
1.324007758109633
 20
-0.3334203994721651
 30
0.0
 11
1.338884924256021
 21
-0.3329354040927413
 31
0.0
  0
LINE
  5
1A3
330
EF
100
AcDbEntity
  8
AM_4
100
AcDbLine
 10
1.327196867669348
 20
-0.3153340604053823
 30
0.0
 11
1.324007758109633
 21
-0.3334203994721651
 31
0.0
  0
LINE
  5
1A4
330
EF
100
AcDbEntity
  8
AM_4
100
AcDbLine
 10
1.336335787281199
 20
-0.3138372471856967
 30
0.0
 11
1.327196867669348
 21
-0.3153340604053823
 31
0.0
  0
LINE
  5
1A5
330
EF
100
AcDbEntity
  8
AM_4
100
AcDbLine
 10
1.343668589463835
 20
-0.3058058905685284
 30
0.0
 11
1.336335787281199
 21
-0.3138372471856967
 31
0.0
  0
LINE
  5
1A6
330
EF
100
AcDbEntity
  8
AM_4
100
AcDbLine
 10
1.353447796276332
 20
-0.267125043020906
 30
0.0
 11
1.348664131068518
 21
-0.2942545565451189
 31
0.0
  0
LINE
  5
1A7
330
EF
100
AcDbEntity
  8
AM_4
100
AcDbLine
 10
1.352704346341507
 20
-0.2545615668617011
 30
0.0
 11
1.353447796276332
 21
-0.267125043020906
 31
0.0
  0
LINE
  5
1A8
330
EF
100
AcDbEntity
  8
AM_4
100
AcDbLine
 10
1.348560639826732
 20
-0.2445066631967069
 30
0.0
 11
1.352704346341507
 21
-0.2545615668617011
 31
0.0
  0
LINE
  5
1A9
330
EF
100
AcDbEntity
  8
AM_4
100
AcDbLine
 10
1.341016296700761
 20
-0.2369601837820319
 30
0.0
 11
1.348560639826732
 21
-0.2445066631967069
 31
0.0
  0
LINE
  5
1AA
330
EF
100
AcDbEntity
  8
AM_4
100
AcDbLine
 10
1.330070918996716
 20
-0.2319221396795073
 30
0.0
 11
1.341016296700761
 21
-0.2369601837820319
 31
0.0
  0
LINE
  5
1AB
330
EF
100
AcDbEntity
  8
AM_4
100
AcDbLine
 10
1.28703327404191
 20
-0.2243334416878235
 30
0.0
 11
1.330070918996716
 21
-0.2319221396795073
 31
0.0
  0
LINE
  5
1AC
330
EF
100
AcDbEntity
  8
AM_4
100
AcDbLine
 10
1.275024831423367
 20
-0.2253241079571416
 30
0.0
 11
1.28703327404191
 21
-0.2243334416878235
 31
0.0
  0
LINE
  5
1AD
330
EF
100
AcDbEntity
  8
AM_4
100
AcDbLine
 10
1.25802131472246
 20
-0.2378663937719904
 30
0.0
 11
1.265354262318964
 21
-0.2298351338750733
 31
0.0
  0
LINE
  5
1AE
330
EF
100
AcDbEntity
  8
AM_4
100
AcDbLine
 10
1.249184831510484
 20
0.1705354664880314
 30
0.0
 11
1.253436956173496
 21
0.146420469191944
 31
0.0
  0
LINE
  5
1AF
330
EF
100
AcDbEntity
  8
AM_4
100
AcDbLine
 10
1.249396443697657
 20
0.1861132440022226
 30
0.0
 11
1.249184831510484
 21
0.1705354664880314
 31
0.0
  0
LINE
  5
1B0
330
EF
100
AcDbEntity
  8
AM_4
100
AcDbLine
 10
1.257455159888193
 20
0.2058784048025367
 30
0.0
 11
1.253008756793937
 21
0.1991825781407527
 31
0.0
  0
ARC
  5
1B1
330
EF
100
AcDbEntity
  8
AM_4
100
AcDbCircle
 10
1.299313056295329
 20
0.1780824223936822
 30
0.0
 40
0.0502463941960405
100
AcDbArc
 50
99.99999999999892
 51
146.4136174031667
  0
LINE
  5
1B2
330
EF
100
AcDbEntity
  8
AM_4
100
AcDbLine
 10
1.329625395076721
 20
0.2344488313871781
 30
0.0
 11
1.290587861508853
 21
0.2275654609588506
 31
0.0
  0
LINE
  5
1B3
330
EF
100
AcDbEntity
  8
AM_4
100
AcDbLine
 10
1.344502929098984
 20
0.2339640531881884
 30
0.0
 11
1.329625395076721
 21
0.2344488313871781
 31
0.0
  0
LINE
  5
1B4
330
EF
100
AcDbEntity
  8
AM_4
100
AcDbLine
 10
1.357042459845618
 20
0.2299589026143996
 30
0.0
 11
1.344502929098984
 21
0.2339640531881884
 31
0.0
  0
LINE
  5
1B5
330
EF
100
AcDbEntity
  8
AM_4
100
AcDbLine
 10
1.370645411774022
 20
0.2199250943340343
 30
0.0
 11
1.357042459845618
 21
0.2299589026143996
 31
0.0
  0
LINE
  5
1B6
330
EF
100
AcDbEntity
  8
AM_4
100
AcDbLine
 10
1.378509723244788
 20
0.2088793987541362
 30
0.0
 11
1.370645411774022
 21
0.2199250943340343
 31
0.0
  0
LINE
  5
1B7
330
EF
100
AcDbEntity
  8
AM_4
100
AcDbLine
 10
1.3840368123402
 20
0.1943135091102911
 30
0.0
 11
1.378509723244788
 21
0.2088793987541362
 31
0.0
  0
LINE
  5
1B8
330
EF
100
AcDbEntity
  8
AM_4
100
AcDbLine
 10
1.388288937003212
 20
0.1701985118142036
 30
0.0
 11
1.3840368123402
 21
0.1943135091102911
 31
0.0
  0
LINE
  5
1B9
330
EF
100
AcDbEntity
  8
AM_4
100
AcDbLine
 10
1.388076992883553
 20
0.154620716388424
 30
0.0
 11
1.388288937003212
 21
0.1701985118142036
 31
0.0
  0
LINE
  5
1BA
330
EF
100
AcDbEntity
  8
AM_4
100
AcDbLine
 10
1.384464840805435
 20
0.141551217710684
 30
0.0
 11
1.388076992883553
 21
0.154620716388424
 31
0.0
  0
LINE
  5
1BB
330
EF
100
AcDbEntity
  8
AM_4
100
AcDbLine
 10
1.375113978810407
 20
0.1274702256565124
 30
0.0
 11
1.384464840805435
 21
0.141551217710684
 31
0.0
  0
LINE
  5
1BC
330
EF
100
AcDbEntity
  8
AM_4
100
AcDbLine
 10
1.364700563357973
 20
0.1194175772158928
 30
0.0
 11
1.375113978810407
 21
0.1274702256565124
 31
0.0
  0
LINE
  5
1BD
330
EF
100
AcDbEntity
  8
AM_4
100
AcDbLine
 10
1.350886016655299
 20
0.1138738547548183
 30
0.0
 11
1.364700563357973
 21
0.1194175772158928
 31
0.0
  0
LINE
  5
1BE
330
EF
100
AcDbEntity
  8
AM_4
100
AcDbLine
 10
1.307848371700493
 20
0.1062851567631345
 30
0.0
 11
1.350886016655299
 21
0.1138738547548183
 31
0.0
  0
LINE
  5
1BF
330
EF
100
AcDbEntity
  8
AM_4
100
AcDbLine
 10
1.292970800569173
 20
0.1067696847164092
 30
0.0
 11
1.307848371700493
 21
0.1062851567631345
 31
0.0
  0
LINE
  5
1C0
330
EF
100
AcDbEntity
  8
AM_4
100
AcDbLine
 10
1.28043094719136
 20
0.1107750525668017
 30
0.0
 11
1.292970800569173
 21
0.1067696847164092
 31
0.0
  0
LINE
  5
1C1
330
EF
100
AcDbEntity
  8
AM_4
100
AcDbLine
 10
1.26682818582535
 20
0.1208087015174023
 30
0.0
 11
1.28043094719136
 21
0.1107750525668017
 31
0.0
  0
LINE
  5
1C2
330
EF
100
AcDbEntity
  8
AM_4
100
AcDbLine
 10
1.258963713336423
 20
0.1318545616365104
 30
0.0
 11
1.26682818582535
 21
0.1208087015174023
 31
0.0
  0
LINE
  5
1C3
330
EF
100
AcDbEntity
  8
AM_4
100
AcDbLine
 10
1.253436956173496
 20
0.146420469191944
 30
0.0
 11
1.258963713336423
 21
0.1318545616365104
 31
0.0
  0
LINE
  5
1C4
330
EF
100
AcDbEntity
  8
AM_4
100
AcDbLine
 10
1.25982008
 20
0.0
 30
0.0
 11
1.25982008
 21
-0.07346103
 31
0.0
  0
LINE
  5
1C5
330
EF
100
AcDbEntity
  8
AM_4
100
AcDbLine
 10
1.39675237
 20
0.0
 30
0.0
 11
1.25982008
 21
0.0
 31
0.0
  0
LINE
  5
1C6
330
EF
100
AcDbEntity
  8
AM_4
100
AcDbLine
 10
1.39675237
 20
-0.0734610299999998
 30
0.0
 11
1.39675237
 21
0.0
 31
0.0
  0
LINE
  5
1C7
330
EF
100
AcDbEntity
  8
AM_4
100
AcDbLine
 10
1.37635788
 20
-0.11325237
 30
0.0
 11
1.38801182
 21
-0.10100906
 31
0.0
  0
LINE
  5
1C8
330
EF
100
AcDbEntity
  8
AM_4
100
AcDbLine
 10
1.36470434
 20
-0.11937441
 30
0.0
 11
1.37635788
 21
-0.11325237
 31
0.0
  0
LINE
  5
1C9
330
EF
100
AcDbEntity
  8
AM_4
100
AcDbLine
 10
1.35013701
 20
-0.12243504
 30
0.0
 11
1.36470434
 21
-0.11937441
 31
0.0
  0
LINE
  5
1CA
330
EF
100
AcDbEntity
  8
AM_4
100
AcDbLine
 10
1.30643544
 20
-0.12243504
 30
0.0
 11
1.35013701
 21
-0.12243504
 31
0.0
  0
LINE
  5
1CB
330
EF
100
AcDbEntity
  8
AM_4
100
AcDbLine
 10
1.29186803
 20
-0.11937441
 30
0.0
 11
1.30643544
 21
-0.12243504
 31
0.0
  0
LINE
  5
1CC
330
EF
100
AcDbEntity
  8
AM_4
100
AcDbLine
 10
1.26273353
 20
-0.08876536
 30
0.0
 11
1.26856043
 21
-0.10100906
 31
0.0
  0
LINE
  5
1CD
330
EF
100
AcDbEntity
  8
AM_4
100
AcDbLine
 10
1.25982008
 20
-0.07346103
 30
0.0
 11
1.26273353
 21
-0.08876536
 31
0.0
  0
LINE
  5
1CE
330
EF
100
AcDbEntity
  8
AM_4
100
AcDbLine
 10
1.183843632693913
 20
0.4308838443261555
 30
0.0
 11
1.208968784703364
 21
0.3618530565198232
 31
0.0
  0
LINE
  5
1CF
330
EF
100
AcDbEntity
  8
AM_4
100
AcDbLine
 10
1.312517895154229
 20
0.4777174457778675
 30
0.0
 11
1.183843632693913
 21
0.4308838443261555
 31
0.0
  0
LINE
  5
1D0
330
EF
100
AcDbEntity
  8
AM_4
100
AcDbLine
 10
1.208968784703364
 20
0.3618530565198232
 30
0.0
 11
1.216940921309496
 21
0.348468149139323
 31
0.0
  0
LINE
  5
1D1
330
EF
100
AcDbEntity
  8
AM_4
100
AcDbLine
 10
0.8628942817868612
 20
1.302620323985288
 30
0.0
 11
1.302620323985288
 21
0.8628942817868615
 31
0.0
  0
ARC
  5
1D2
330
EF
100
AcDbEntity
  8
AM_4
100
AcDbCircle
 10
0.0000000000000003
 20
-0.0000000000000002
 30
0.0
 40
1.5625
100
AcDbArc
 50
56.47832943764289
 51
33.52167056235714
  0
CIRCLE
  5
1D3
330
EF
100
AcDbEntity
  8
AM_4
100
AcDbCircle
 10
0.0
 20
0.0
 30
0.0
 40
1.512500000000001
  0
ENDBLK
  5
F2
330
EF
100
AcDbEntity
  8
0
100
AcDbBlockEnd
  0
ENDSEC
  0
SECTION
  2
ENTITIES
  0
INSERT
  5
6F
330
1F
100
AcDbEntity
  8
0
100
AcDbBlockReference
  2
1__129360_0
 10
0.0
 20
0.0
 30
0.0
  0
POINT
  5
1D5
330
1F
100
AcDbEntity
  8
ConnectionPoints
100
AcDbPoint
 10
0.0000000000000001
 20
0.0
 30
0.65625
  0
POINT
  5
1D6
330
1F
100
AcDbEntity
  8
ConnectionPoints
100
AcDbPoint
 10
0.0000000000000001
 20
0.0
 30
0.125
  0
POINT
  5
1D7
330
1F
100
AcDbEntity
  8
ConnectionPoints
100
AcDbPoint
 10
0.0
 20
0.0
 30
0.125
  0
ENDSEC
  0
SECTION
  2
OBJECTS
  0
DICTIONARY
  5
C
330
0
100
AcDbDictionary
281
     1
  3
ACAD_DETAILVIEWSTYLE
350
1DF
  3
ACAD_GROUP
350
D
  3
ACAD_LAYOUT
350
1A
  3
ACAD_MATERIAL
350
43
  3
ACAD_MLEADERSTYLE
350
6B
  3
ACAD_MLINESTYLE
350
17
  3
ACAD_PLOTSETTINGS
350
19
  3
ACAD_PLOTSTYLENAME
350
E
  3
ACAD_SCALELIST
350
47
  3
ACAD_SECTIONVIEWSTYLE
350
1E0
  3
ACAD_TABLESTYLE
350
69
  3
ACAD_VISUALSTYLE
350
2A
  3
ACDB_RECOMPOSE_DATA
350
1DC
  3
AcDbVariableDictionary
350
1D8
  0
SUN
  5
6D
330
29
100
AcDbSun
 90
        1
290
     0
 63
     7
421
 16777215
 40
1.0
291
     1
 91
  2455826
 92
 54000000
292
     0
 70
     2
 71
   256
280
     1
  0
DICTIONARY
  5
1DF
102
{ACAD_REACTORS
330
C
102
}
330
C
100
AcDbDictionary
281
     1
  0
DICTIONARY
  5
D
102
{ACAD_REACTORS
330
C
102
}
330
C
100
AcDbDictionary
281
     1
  0
DICTIONARY
  5
1A
102
{ACAD_REACTORS
330
C
102
}
330
C
100
AcDbDictionary
281
     1
  3
Layout1
350
1E
  3
Layout2
350
26
  3
Model
350
22
  0
DICTIONARY
  5
43
102
{ACAD_REACTORS
330
C
102
}
330
C
100
AcDbDictionary
281
     1
  3
ByBlock
350
45
  3
ByLayer
350
44
  3
Global
350
46
  0
DICTIONARY
  5
6B
102
{ACAD_REACTORS
330
C
102
}
330
C
100
AcDbDictionary
281
     1
  3
Standard
350
6C
  0
DICTIONARY
  5
17
102
{ACAD_REACTORS
330
C
102
}
330
C
100
AcDbDictionary
281
     1
  3
Standard
350
18
  0
DICTIONARY
  5
19
102
{ACAD_REACTORS
330
C
102
}
330
C
100
AcDbDictionary
281
     1
  0
ACDBDICTIONARYWDFLT
  5
E
102
{ACAD_REACTORS
330
C
102
}
330
C
100
AcDbDictionary
281
     1
  3
Normal
350
F
100
AcDbDictionaryWithDefault
340
F
  0
DICTIONARY
  5
47
102
{ACAD_REACTORS
330
C
102
}
330
C
100
AcDbDictionary
281
     1
  3
A0
350
48
  3
A1
350
49
  3
A2
350
4A
  3
A3
350
4B
  3
A4
350
4C
  3
A5
350
4D
  3
A6
350
4E
  3
A7
350
4F
  3
A8
350
50
  3
A9
350
51
  3
B0
350
52
  3
B1
350
53
  3
B2
350
54
  3
B3
350
55
  3
B4
350
56
  3
B5
350
57
  3
B6
350
58
  3
B7
350
59
  3
B8
350
5A
  3
B9
350
5B
  3
C0
350
5C
  3
C1
350
5D
  3
C2
350
5E
  3
C3
350
5F
  3
C4
350
60
  3
C5
350
61
  3
C6
350
62
  3
C7
350
63
  3
C8
350
64
  3
C9
350
65
  3
D0
350
66
  3
D1
350
67
  3
D2
350
68
  0
DICTIONARY
  5
1E0
102
{ACAD_REACTORS
330
C
102
}
330
C
100
AcDbDictionary
281
     1
  0
DICTIONARY
  5
69
102
{ACAD_REACTORS
330
C
102
}
330
C
100
AcDbDictionary
281
     1
  3
Standard
350
6A
  0
DICTIONARY
  5
2A
102
{ACAD_REACTORS
330
C
102
}
330
C
100
AcDbDictionary
281
     1
  3
2dWireframe
350
2F
  3
Basic
350
32
  3
Brighten
350
36
  3
ColorChange
350
3A
  3
Conceptual
350
34
  3
Dim
350
35
  3
EdgeColorOff
350
3D
  3
Facepattern
350
39
  3
Flat
350
2B
  3
FlatWithEdges
350
2C
  3
Gouraud
350
2D
  3
GouraudWithEdges
350
2E
  3
Hidden
350
31
  3
JitterOff
350
3B
  3
Linepattern
350
38
  3
OverhangOff
350
3C
  3
Realistic
350
33
  3
Shaded
350
42
  3
Shaded with edges
350
41
  3
Shades of Gray
350
3E
  3
Sketchy
350
3F
  3
Thicken
350
37
  3
Wireframe
350
30
  3
X-Ray
350
40
  0
XRECORD
  5
1DC
102
{ACAD_REACTORS
330
C
102
}
330
C
100
AcDbXrecord
280
     1
 90
        1
330
6A
  0
DICTIONARY
  5
1D8
102
{ACAD_REACTORS
330
C
102
}
330
C
100
AcDbDictionary
281
     1
  3
CANNOSCALE
350
1D9
  3
CMLEADERSTYLE
350
1DE
  3
CTABLESTYLE
350
1DD
  0
LAYOUT
  5
1E
102
{ACAD_REACTORS
330
1A
102
}
330
1A
100
AcDbPlotSettings
  1

  2
none_device
  4

  6

 40
0.0
 41
0.0
 42
0.0
 43
0.0
 44
0.0
 45
0.0
 46
0.0
 47
0.0
 48
0.0
 49
0.0
140
0.0
141
0.0
142
1.0
143
1.0
 70
   688
 72
     0
 73
     0
 74
     5
  7

 75
    16
 76
     0
 77
     2
 78
   300
147
1.0
148
0.0
149
0.0
100
AcDbLayout
  1
Layout1
 70
     1
 71
     1
 10
0.0
 20
0.0
 11
12.0
 21
9.0
 12
0.0
 22
0.0
 32
0.0
 14
1.000000000000000E+20
 24
1.000000000000000E+20
 34
1.000000000000000E+20
 15
-1.000000000000000E+20
 25
-1.000000000000000E+20
 35
-1.000000000000000E+20
146
0.0
 13
0.0
 23
0.0
 33
0.0
 16
1.0
 26
0.0
 36
0.0
 17
0.0
 27
1.0
 37
0.0
 76
     0
330
1B
  0
LAYOUT
  5
26
102
{ACAD_REACTORS
330
1A
102
}
330
1A
100
AcDbPlotSettings
  1

  2
none_device
  4

  6

 40
0.0
 41
0.0
 42
0.0
 43
0.0
 44
0.0
 45
0.0
 46
0.0
 47
0.0
 48
0.0
 49
0.0
140
0.0
141
0.0
142
1.0
143
1.0
 70
   688
 72
     0
 73
     0
 74
     5
  7

 75
    16
 76
     0
 77
     2
 78
   300
147
1.0
148
0.0
149
0.0
100
AcDbLayout
  1
Layout2
 70
     1
 71
     2
 10
0.0
 20
0.0
 11
0.0
 21
0.0
 12
0.0
 22
0.0
 32
0.0
 14
0.0
 24
0.0
 34
0.0
 15
0.0
 25
0.0
 35
0.0
146
0.0
 13
0.0
 23
0.0
 33
0.0
 16
1.0
 26
0.0
 36
0.0
 17
0.0
 27
1.0
 37
0.0
 76
     0
330
23
  0
LAYOUT
  5
22
102
{ACAD_REACTORS
330
1A
102
}
330
1A
100
AcDbPlotSettings
  1

  2
none_device
  4
Letter_(8.50_x_11.00_Inches)
  6

 40
6.35
 41
6.35
 42
6.35000508
 43
6.35000508
 44
215.9
 45
279.4
 46
0.0
 47
0.0
 48
0.0
 49
0.0
140
0.0
141
0.0
142
1.0
143
1.0
 70
  1712
 72
     0
 73
     0
 74
     0
  7

 75
     0
 76
     0
 77
     2
 78
   300
147
1.0
148
0.0
149
0.0
100
AcDbLayout
  1
Model
 70
     1
 71
     0
 10
0.0
 20
0.0
 11
12.0
 21
9.0
 12
0.0
 22
0.0
 32
0.0
 14
1.000000000000000E+20
 24
1.000000000000000E+20
 34
1.000000000000000E+20
 15
-1.000000000000000E+20
 25
-1.000000000000000E+20
 35
-1.000000000000000E+20
146
0.0
 13
0.0
 23
0.0
 33
0.0
 16
1.0
 26
0.0
 36
0.0
 17
0.0
 27
1.0
 37
0.0
 76
     0
330
1F
331
29
  0
MATERIAL
  5
45
102
{ACAD_REACTORS
330
43
102
}
330
43
100
AcDbMaterial
  1
ByBlock
 72
     1
 94
      127
  0
MATERIAL
  5
44
102
{ACAD_REACTORS
330
43
102
}
330
43
100
AcDbMaterial
  1
ByLayer
 72
     1
 94
      127
  0
MATERIAL
  5
46
102
{ACAD_REACTORS
330
43
102
}
330
43
100
AcDbMaterial
  1
Global
 72
     1
 94
      127
  0
MLEADERSTYLE
  5
6C
102
{ACAD_REACTORS
330
6B
102
}
330
6B
100
AcDbMLeaderStyle
179
     2
170
     2
171
     1
172
     0
 90
        2
 40
0.0
 41
0.0
173
     1
 91
-1056964608
340
14
 92
       -2
290
     1
 42
0.09
291
     1
 43
0.36
  3
Standard
341
0
 44
0.18
300

342
11
174
     1
178
     6
175
     1
176
     0
 93
-1056964608
 45
0.18
292
     0
297
     0
 46
0.18
343
0
 94
-1056964608
 47
1.0
 49
1.0
140
1.0
293
     1
141
0.0
294
     1
177
     0
142
1.0
295
     0
296
     0
143
0.125
271
     0
272
     9
273
     9
298
     0
  0
MLINESTYLE
  5
18
102
{ACAD_REACTORS
330
17
102
}
330
17
100
AcDbMlineStyle
  2
Standard
 70
     0
  3

 62
   256
 51
90.0
 52
90.0
 71
     2
 49
0.5
 62
   256
  6
BYLAYER
 49
-0.5
 62
   256
  6
BYLAYER
  0
ACDBPLACEHOLDER
  5
F
102
{ACAD_REACTORS
330
E
102
}
330
E
  0
SCALE
  5
48
102
{ACAD_REACTORS
330
47
102
}
330
47
100
AcDbScale
 70
     0
300
1:1
140
1.0
141
1.0
290
     1
  0
SCALE
  5
49
102
{ACAD_REACTORS
330
47
102
}
330
47
100
AcDbScale
 70
     0
300
1:2
140
1.0
141
2.0
290
     0
  0
SCALE
  5
4A
102
{ACAD_REACTORS
330
47
102
}
330
47
100
AcDbScale
 70
     0
300
1:4
140
1.0
141
4.0
290
     0
  0
SCALE
  5
4B
102
{ACAD_REACTORS
330
47
102
}
330
47
100
AcDbScale
 70
     0
300
1:5
140
1.0
141
5.0
290
     0
  0
SCALE
  5
4C
102
{ACAD_REACTORS
330
47
102
}
330
47
100
AcDbScale
 70
     0
300
1:8
140
1.0
141
8.0
290
     0
  0
SCALE
  5
4D
102
{ACAD_REACTORS
330
47
102
}
330
47
100
AcDbScale
 70
     0
300
1:10
140
1.0
141
10.0
290
     0
  0
SCALE
  5
4E
102
{ACAD_REACTORS
330
47
102
}
330
47
100
AcDbScale
 70
     0
300
1:16
140
1.0
141
16.0
290
     0
  0
SCALE
  5
4F
102
{ACAD_REACTORS
330
47
102
}
330
47
100
AcDbScale
 70
     0
300
1:20
140
1.0
141
20.0
290
     0
  0
SCALE
  5
50
102
{ACAD_REACTORS
330
47
102
}
330
47
100
AcDbScale
 70
     0
300
1:30
140
1.0
141
30.0
290
     0
  0
SCALE
  5
51
102
{ACAD_REACTORS
330
47
102
}
330
47
100
AcDbScale
 70
     0
300
1:40
140
1.0
141
40.0
290
     0
  0
SCALE
  5
52
102
{ACAD_REACTORS
330
47
102
}
330
47
100
AcDbScale
 70
     0
300
1:50
140
1.0
141
50.0
290
     0
  0
SCALE
  5
53
102
{ACAD_REACTORS
330
47
102
}
330
47
100
AcDbScale
 70
     0
300
1:100
140
1.0
141
100.0
290
     0
  0
SCALE
  5
54
102
{ACAD_REACTORS
330
47
102
}
330
47
100
AcDbScale
 70
     0
300
2:1
140
2.0
141
1.0
290
     0
  0
SCALE
  5
55
102
{ACAD_REACTORS
330
47
102
}
330
47
100
AcDbScale
 70
     0
300
4:1
140
4.0
141
1.0
290
     0
  0
SCALE
  5
56
102
{ACAD_REACTORS
330
47
102
}
330
47
100
AcDbScale
 70
     0
300
8:1
140
8.0
141
1.0
290
     0
  0
SCALE
  5
57
102
{ACAD_REACTORS
330
47
102
}
330
47
100
AcDbScale
 70
     0
300
10:1
140
10.0
141
1.0
290
     0
  0
SCALE
  5
58
102
{ACAD_REACTORS
330
47
102
}
330
47
100
AcDbScale
 70
     0
300
100:1
140
100.0
141
1.0
290
     0
  0
SCALE
  5
59
102
{ACAD_REACTORS
330
47
102
}
330
47
100
AcDbScale
 70
     0
300
1/128" = 1'-0"
140
0.0078125
141
12.0
290
     0
  0
SCALE
  5
5A
102
{ACAD_REACTORS
330
47
102
}
330
47
100
AcDbScale
 70
     0
300
1/64" = 1'-0"
140
0.015625
141
12.0
290
     0
  0
SCALE
  5
5B
102
{ACAD_REACTORS
330
47
102
}
330
47
100
AcDbScale
 70
     0
300
1/32" = 1'-0"
140
0.03125
141
12.0
290
     0
  0
SCALE
  5
5C
102
{ACAD_REACTORS
330
47
102
}
330
47
100
AcDbScale
 70
     0
300
1/16" = 1'-0"
140
0.0625
141
12.0
290
     0
  0
SCALE
  5
5D
102
{ACAD_REACTORS
330
47
102
}
330
47
100
AcDbScale
 70
     0
300
3/32" = 1'-0"
140
0.09375
141
12.0
290
     0
  0
SCALE
  5
5E
102
{ACAD_REACTORS
330
47
102
}
330
47
100
AcDbScale
 70
     0
300
1/8" = 1'-0"
140
0.125
141
12.0
290
     0
  0
SCALE
  5
5F
102
{ACAD_REACTORS
330
47
102
}
330
47
100
AcDbScale
 70
     0
300
3/16" = 1'-0"
140
0.1875
141
12.0
290
     0
  0
SCALE
  5
60
102
{ACAD_REACTORS
330
47
102
}
330
47
100
AcDbScale
 70
     0
300
1/4" = 1'-0"
140
0.25
141
12.0
290
     0
  0
SCALE
  5
61
102
{ACAD_REACTORS
330
47
102
}
330
47
100
AcDbScale
 70
     0
300
3/8" = 1'-0"
140
0.375
141
12.0
290
     0
  0
SCALE
  5
62
102
{ACAD_REACTORS
330
47
102
}
330
47
100
AcDbScale
 70
     0
300
1/2" = 1'-0"
140
0.5
141
12.0
290
     0
  0
SCALE
  5
63
102
{ACAD_REACTORS
330
47
102
}
330
47
100
AcDbScale
 70
     0
300
3/4" = 1'-0"
140
0.75
141
12.0
290
     0
  0
SCALE
  5
64
102
{ACAD_REACTORS
330
47
102
}
330
47
100
AcDbScale
 70
     0
300
1" = 1'-0"
140
1.0
141
12.0
290
     0
  0
SCALE
  5
65
102
{ACAD_REACTORS
330
47
102
}
330
47
100
AcDbScale
 70
     0
300
1-1/2" = 1'-0"
140
1.5
141
12.0
290
     0
  0
SCALE
  5
66
102
{ACAD_REACTORS
330
47
102
}
330
47
100
AcDbScale
 70
     0
300
3" = 1'-0"
140
3.0
141
12.0
290
     0
  0
SCALE
  5
67
102
{ACAD_REACTORS
330
47
102
}
330
47
100
AcDbScale
 70
     0
300
6" = 1'-0"
140
6.0
141
12.0
290
     0
  0
SCALE
  5
68
102
{ACAD_REACTORS
330
47
102
}
330
47
100
AcDbScale
 70
     0
300
1'-0" = 1'-0"
140
12.0
141
12.0
290
     0
  0
TABLESTYLE
  5
6A
102
{ACAD_REACTORS
330
69
102
}
102
{ACAD_XDICTIONARY
360
1DA
102
}
330
69
100
AcDbTableStyle
  3
Standard
 70
     0
 71
     0
 40
0.06
 41
0.06
280
     0
281
     0
  7
Standard
140
0.18
170
     2
 62
     0
 63
   257
283
     0
 90
        4
 91
        0
  1

274
    -2
284
     1
 64
     0
275
    -2
285
     1
 65
     0
276
    -2
286
     1
 66
     0
277
    -2
287
     1
 67
     0
278
    -2
288
     1
 68
     0
279
    -2
289
     1
 69
     0
  7
Standard
140
0.25
170
     5
 62
     0
 63
   257
283
     0
 90
        4
 91
        0
  1

274
    -2
284
     1
 64
     0
275
    -2
285
     1
 65
     0
276
    -2
286
     1
 66
     0
277
    -2
287
     1
 67
     0
278
    -2
288
     1
 68
     0
279
    -2
289
     1
 69
     0
  7
Standard
140
0.18
170
     5
 62
     0
 63
   257
283
     0
 90
        4
 91
        0
  1

274
    -2
284
     1
 64
     0
275
    -2
285
     1
 65
     0
276
    -2
286
     1
 66
     0
277
    -2
287
     1
 67
     0
278
    -2
288
     1
 68
     0
279
    -2
289
     1
 69
     0
  0
VISUALSTYLE
  5
2F
102
{ACAD_REACTORS
330
2A
102
}
330
2A
100
AcDbVisualStyle
  2
2dWireframe
 70
     4
177
     3
291
     0
 70
    58
 90
        0
176
     1
 90
        2
176
     1
 90
        0
176
     1
 90
        0
176
     1
 40
0.6
176
     1
 40
30.0
176
     1
 62
     7
420
 16777215
176
     1
 90
        1
176
     1
 90
        4
176
     1
 62
     7
176
     1
 62
   257
176
     1
 90
        1
176
     1
 90
        1
176
     1
 40
1.0
176
     1
 90
        0
176
     1
 62
   257
176
     1
 40
1.0
176
     1
 90
        1
176
     1
 90
        6
176
     1
 90
        2
176
     1
 62
     7
176
     1
 90
        5
176
     1
 90
        0
176
     1
 90
        0
176
     1
290
     0
176
     1
 90
        1
176
     1
 40
0.0
176
     1
 90
        0
176
     1
290
     1
176
     1
290
     1
176
     1
290
     0
176
     1
290
     0
176
     1
290
     0
176
     1
290
     0
176
     1
290
     0
176
     1
290
     0
176
     1
290
     0
176
     1
 90
       50
176
     1
 40
0.0
176
     1
 40
1.0
176
     1
 90
        0
176
     1
 62
    18
420
        0
176
     1
 90
       50
176
     1
 90
        3
176
     1
 62
     5
420
      255
176
     1
290
     0
176
     1
 90
       50
176
     1
 90
       50
176
     1
 90
       50
176
     1
290
     0
176
     1
 90
       50
176
     1
 62
   256
176
     0
 40
1.0
176
     0
 90
        2
176
     1
  1
strokes_ogs.tif
176
     1
290
     0
176
     1
 40
1.0
176
     1
 40
1.0
176
     1
  0
VISUALSTYLE
  5
32
102
{ACAD_REACTORS
330
2A
102
}
330
2A
100
AcDbVisualStyle
  2
Basic
 70
     7
177
     3
291
     1
 70
    58
 90
        1
176
     1
 90
        0
176
     1
 90
        1
176
     1
 90
        0
176
     1
 40
0.6
176
     1
 40
30.0
176
     1
 62
     7
420
 16777215
176
     1
 90
        0
176
     1
 90
        4
176
     1
 62
     7
176
     1
 62
   257
176
     1
 90
        1
176
     1
 90
        1
176
     1
 40
1.0
176
     1
 90
        8
176
     1
 62
     7
176
     1
 40
1.0
176
     1
 90
        1
176
     1
 90
        6
176
     1
 90
        2
176
     1
 62
     7
176
     1
 90
        5
176
     1
 90
        0
176
     1
 90
        0
176
     1
290
     0
176
     1
 90
        1
176
     1
 40
0.0
176
     1
 90
        0
176
     1
290
     0
176
     1
290
     1
176
     1
290
     1
176
     1
290
     0
176
     1
290
     0
176
     1
290
     0
176
     1
290
     0
176
     1
290
     0
176
     1
290
     0
176
     1
 90
       50
176
     1
 40
0.0
176
     1
 40
1.0
176
     1
 90
        0
176
     1
 62
    18
420
        0
176
     1
 90
       50
176
     1
 90
        3
176
     1
 62
     5
420
      255
176
     1
290
     0
176
     1
 90
       50
176
     1
 90
       50
176
     1
 90
       50
176
     1
290
     0
176
     1
 90
       50
176
     1
 62
   256
176
     0
 40
1.0
176
     0
 90
        2
176
     1
  1
strokes_ogs.tif
176
     1
290
     0
176
     1
 40
1.0
176
     1
 40
1.0
176
     1
  0
VISUALSTYLE
  5
36
102
{ACAD_REACTORS
330
2A
102
}
330
2A
100
AcDbVisualStyle
  2
Brighten
 70
    12
177
     3
291
     1
 70
    58
 90
        2
176
     1
 90
        2
176
     1
 90
        0
176
     1
 90
        0
176
     1
 40
0.6
176
     1
 40
30.0
176
     1
 62
     7
420
 16777215
176
     1
 90
        1
176
     1
 90
        4
176
     1
 62
     7
176
     1
 62
   257
176
     1
 90
        1
176
     1
 90
        1
176
     1
 40
1.0
176
     1
 90
        8
176
     1
 62
     7
176
     1
 40
1.0
176
     1
 90
        1
176
     1
 90
        6
176
     1
 90
        2
176
     1
 62
     7
176
     1
 90
        5
176
     1
 90
        0
176
     1
 90
        0
176
     1
290
     0
176
     1
 90
        1
176
     1
 40
50.0
176
     1
 90
        0
176
     1
290
     0
176
     1
290
     1
176
     1
290
     1
176
     1
290
     0
176
     1
290
     0
176
     1
290
     0
176
     1
290
     0
176
     1
290
     0
176
     1
290
     0
176
     1
 90
       50
176
     1
 40
0.0
176
     1
 40
1.0
176
     1
 90
        0
176
     1
 62
    18
420
        0
176
     1
 90
       50
176
     1
 90
        3
176
     1
 62
     5
420
      255
176
     1
290
     0
176
     1
 90
       50
176
     1
 90
       50
176
     1
 90
       50
176
     1
290
     0
176
     1
 90
       50
176
     1
 62
   256
176
     0
 40
1.0
176
     0
 90
        2
176
     1
  1
strokes_ogs.tif
176
     1
290
     0
176
     1
 40
1.0
176
     1
 40
1.0
176
     1
  0
VISUALSTYLE
  5
3A
102
{ACAD_REACTORS
330
2A
102
}
330
2A
100
AcDbVisualStyle
  2
ColorChange
 70
    16
177
     3
291
     1
 70
    58
 90
        2
176
     1
 90
        2
176
     1
 90
        3
176
     1
 90
        0
176
     1
 40
0.6
176
     1
 40
30.0
176
     1
 62
     8
420
  8421504
176
     1
 90
        1
176
     1
 90
        4
176
     1
 62
     7
176
     1
 62
   257
176
     1
 90
        1
176
     1
 90
        1
176
     1
 40
1.0
176
     1
 90
        8
176
     1
 62
     8
420
  8421504
176
     1
 40
1.0
176
     1
 90
        1
176
     1
 90
        6
176
     1
 90
        2
176
     1
 62
     7
176
     1
 90
        5
176
     1
 90
        0
176
     1
 90
        0
176
     1
290
     0
176
     1
 90
        1
176
     1
 40
0.0
176
     1
 90
        0
176
     1
290
     0
176
     1
290
     1
176
     1
290
     1
176
     1
290
     0
176
     1
290
     0
176
     1
290
     0
176
     1
290
     0
176
     1
290
     0
176
     1
290
     0
176
     1
 90
       50
176
     1
 40
0.0
176
     1
 40
1.0
176
     1
 90
        0
176
     1
 62
    18
420
        0
176
     1
 90
       50
176
     1
 90
        3
176
     1
 62
     5
420
      255
176
     1
290
     0
176
     1
 90
       50
176
     1
 90
       50
176
     1
 90
       50
176
     1
290
     0
176
     1
 90
       50
176
     1
 62
   256
176
     0
 40
1.0
176
     0
 90
        2
176
     1
  1
strokes_ogs.tif
176
     1
290
     0
176
     1
 40
1.0
176
     1
 40
1.0
176
     1
  0
VISUALSTYLE
  5
34
102
{ACAD_REACTORS
330
2A
102
}
330
2A
100
AcDbVisualStyle
  2
Conceptual
 70
     9
177
     3
291
     0
 70
    58
 90
        3
176
     1
 90
        2
176
     1
 90
        0
176
     1
 90
        0
176
     1
 40
0.6
176
     1
 40
30.0
176
     1
 62
     7
420
 16777215
176
     1
 90
        2
176
     1
 90
        2
176
     1
 62
     7
176
     1
 62
   257
176
     1
 90
        1
176
     1
 90
        1
176
     1
 40
179.0
176
     1
 90
        8
176
     1
 62
     7
176
     1
 40
1.0
176
     1
 90
        1
176
     1
 90
        6
176
     1
 90
        2
176
     1
 62
     7
176
     1
 90
        3
176
     1
 90
        0
176
     1
 90
        0
176
     1
290
     0
176
     1
 90
        1
176
     1
 40
0.0
176
     1
 90
        0
176
     1
290
     0
176
     1
290
     1
176
     1
290
     1
176
     1
290
     0
176
     1
290
     0
176
     1
290
     0
176
     1
290
     0
176
     1
290
     0
176
     1
290
     0
176
     1
 90
       50
176
     1
 40
0.0
176
     1
 40
1.0
176
     1
 90
        0
176
     1
 62
    18
420
        0
176
     1
 90
       50
176
     1
 90
        3
176
     1
 62
     5
420
      255
176
     1
290
     0
176
     1
 90
       50
176
     1
 90
       50
176
     1
 90
       50
176
     1
290
     0
176
     1
 90
       50
176
     1
 62
   256
176
     0
 40
1.0
176
     0
 90
        2
176
     1
  1
strokes_ogs.tif
176
     1
290
     0
176
     1
 40
1.0
176
     1
 40
1.0
176
     1
  0
VISUALSTYLE
  5
35
102
{ACAD_REACTORS
330
2A
102
}
330
2A
100
AcDbVisualStyle
  2
Dim
 70
    11
177
     3
291
     1
 70
    58
 90
        2
176
     1
 90
        2
176
     1
 90
        0
176
     1
 90
        0
176
     1
 40
0.6
176
     1
 40
30.0
176
     1
 62
     7
420
 16777215
176
     1
 90
        1
176
     1
 90
        4
176
     1
 62
     7
176
     1
 62
   257
176
     1
 90
        1
176
     1
 90
        1
176
     1
 40
1.0
176
     1
 90
        8
176
     1
 62
     7
176
     1
 40
1.0
176
     1
 90
        1
176
     1
 90
        6
176
     1
 90
        2
176
     1
 62
     7
176
     1
 90
        5
176
     1
 90
        0
176
     1
 90
        0
176
     1
290
     0
176
     1
 90
        1
176
     1
 40
-50.0
176
     1
 90
        0
176
     1
290
     0
176
     1
290
     1
176
     1
290
     1
176
     1
290
     0
176
     1
290
     0
176
     1
290
     0
176
     1
290
     0
176
     1
290
     0
176
     1
290
     0
176
     1
 90
       50
176
     1
 40
0.0
176
     1
 40
1.0
176
     1
 90
        0
176
     1
 62
    18
420
        0
176
     1
 90
       50
176
     1
 90
        3
176
     1
 62
     5
420
      255
176
     1
290
     0
176
     1
 90
       50
176
     1
 90
       50
176
     1
 90
       50
176
     1
290
     0
176
     1
 90
       50
176
     1
 62
   256
176
     0
 40
1.0
176
     0
 90
        2
176
     1
  1
strokes_ogs.tif
176
     1
290
     0
176
     1
 40
1.0
176
     1
 40
1.0
176
     1
  0
VISUALSTYLE
  5
3D
102
{ACAD_REACTORS
330
2A
102
}
330
2A
100
AcDbVisualStyle
  2
EdgeColorOff
 70
    22
177
     3
291
     1
 70
    58
 90
        2
176
     0
 90
        2
176
     0
 90
        0
176
     0
 90
        0
176
     0
 40
0.6
176
     0
 40
30.0
176
     0
 62
     7
420
 16777215
176
     0
 90
        1
176
     0
 90
        4
176
     0
 62
     7
176
     0
 62
   257
176
     0
 90
        1
176
     0
 90
        1
176
     0
 40
1.0
176
     0
 90
        8
176
     2
 62
     7
176
     0
 40
1.0
176
     0
 90
        1
176
     0
 90
        6
176
     0
 90
        2
176
     0
 62
     7
176
     0
 90
        5
176
     0
 90
        0
176
     0
 90
        0
176
     0
290
     0
176
     0
 90
        1
176
     0
 40
0.0
176
     0
 90
        0
176
     0
290
     0
176
     0
290
     1
176
     0
290
     1
176
     0
290
     0
176
     0
290
     0
176
     0
290
     0
176
     0
290
     0
176
     0
290
     0
176
     0
290
     0
176
     0
 90
       50
176
     0
 40
0.0
176
     0
 40
1.0
176
     0
 90
        0
176
     0
 62
    18
420
        0
176
     0
 90
       50
176
     0
 90
        3
176
     0
 62
     5
420
      255
176
     0
290
     0
176
     0
 90
       50
176
     0
 90
       50
176
     0
 90
       50
176
     0
290
     0
176
     0
 90
       50
176
     0
 62
   256
176
     0
 40
1.0
176
     0
 90
        2
176
     0
  1
strokes_ogs.tif
176
     0
290
     0
176
     0
 40
1.0
176
     0
 40
1.0
176
     0
  0
VISUALSTYLE
  5
39
102
{ACAD_REACTORS
330
2A
102
}
330
2A
100
AcDbVisualStyle
  2
Facepattern
 70
    15
177
     3
291
     1
 70
    58
 90
        2
176
     1
 90
        2
176
     1
 90
        0
176
     1
 90
        0
176
     1
 40
0.6
176
     1
 40
30.0
176
     1
 62
     7
420
 16777215
176
     1
 90
        1
176
     1
 90
        4
176
     1
 62
     7
176
     1
 62
   257
176
     1
 90
        1
176
     1
 90
        1
176
     1
 40
1.0
176
     1
 90
        8
176
     1
 62
     7
176
     1
 40
1.0
176
     1
 90
        1
176
     1
 90
        6
176
     1
 90
        2
176
     1
 62
     7
176
     1
 90
        5
176
     1
 90
        0
176
     1
 90
        0
176
     1
290
     0
176
     1
 90
        1
176
     1
 40
0.0
176
     1
 90
        0
176
     1
290
     0
176
     1
290
     1
176
     1
290
     1
176
     1
290
     0
176
     1
290
     0
176
     1
290
     0
176
     1
290
     0
176
     1
290
     0
176
     1
290
     0
176
     1
 90
       50
176
     1
 40
0.0
176
     1
 40
1.0
176
     1
 90
        0
176
     1
 62
    18
420
        0
176
     1
 90
       50
176
     1
 90
        3
176
     1
 62
     5
420
      255
176
     1
290
     0
176
     1
 90
       50
176
     1
 90
       50
176
     1
 90
       50
176
     1
290
     0
176
     1
 90
       50
176
     1
 62
   256
176
     0
 40
1.0
176
     0
 90
        2
176
     1
  1
strokes_ogs.tif
176
     1
290
     0
176
     1
 40
1.0
176
     1
 40
1.0
176
     1
  0
VISUALSTYLE
  5
2B
102
{ACAD_REACTORS
330
2A
102
}
330
2A
100
AcDbVisualStyle
  2
Flat
 70
     0
177
     3
291
     1
 70
    58
 90
        2
176
     1
 90
        1
176
     1
 90
        1
176
     1
 90
        2
176
     1
 40
0.6
176
     1
 40
30.0
176
     1
 62
     7
420
 16777215
176
     1
 90
        0
176
     1
 90
        0
176
     1
 62
     7
176
     1
 62
   257
176
     1
 90
        1
176
     1
 90
        1
176
     1
 40
1.0
176
     1
 90
        8
176
     1
 62
     7
176
     1
 40
1.0
176
     1
 90
        1
176
     1
 90
        6
176
     1
 90
        2
176
     1
 62
     7
176
     1
 90
        5
176
     1
 90
        0
176
     1
 90
        0
176
     1
290
     0
176
     1
 90
       13
176
     1
 40
0.0
176
     1
 90
        0
176
     1
290
     0
176
     1
290
     1
176
     1
290
     1
176
     1
290
     0
176
     1
290
     0
176
     1
290
     0
176
     1
290
     0
176
     1
290
     0
176
     1
290
     0
176
     1
 90
       50
176
     1
 40
0.0
176
     1
 40
1.0
176
     1
 90
        0
176
     1
 62
    18
420
        0
176
     1
 90
       50
176
     1
 90
        3
176
     1
 62
     5
420
      255
176
     1
290
     0
176
     1
 90
       50
176
     1
 90
       50
176
     1
 90
       50
176
     1
290
     0
176
     1
 90
       50
176
     1
 62
   256
176
     0
 40
1.0
176
     0
 90
        2
176
     1
  1
strokes_ogs.tif
176
     1
290
     0
176
     1
 40
1.0
176
     1
 40
1.0
176
     1
  0
VISUALSTYLE
  5
2C
102
{ACAD_REACTORS
330
2A
102
}
330
2A
100
AcDbVisualStyle
  2
FlatWithEdges
 70
     1
177
     3
291
     1
 70
    58
 90
        2
176
     1
 90
        1
176
     1
 90
        1
176
     1
 90
        2
176
     1
 40
0.6
176
     1
 40
30.0
176
     1
 62
     7
420
 16777215
176
     1
 90
        1
176
     1
 90
        0
176
     1
 62
     7
176
     1
 62
   257
176
     1
 90
        1
176
     1
 90
        1
176
     1
 40
1.0
176
     1
 90
        0
176
     1
 62
   257
176
     1
 40
1.0
176
     1
 90
        1
176
     1
 90
        6
176
     1
 90
        2
176
     1
 62
     7
176
     1
 90
        5
176
     1
 90
        0
176
     1
 90
        0
176
     1
290
     0
176
     1
 90
       13
176
     1
 40
0.0
176
     1
 90
        0
176
     1
290
     0
176
     1
290
     1
176
     1
290
     1
176
     1
290
     0
176
     1
290
     0
176
     1
290
     0
176
     1
290
     0
176
     1
290
     0
176
     1
290
     0
176
     1
 90
       50
176
     1
 40
0.0
176
     1
 40
1.0
176
     1
 90
        0
176
     1
 62
    18
420
        0
176
     1
 90
       50
176
     1
 90
        3
176
     1
 62
     5
420
      255
176
     1
290
     0
176
     1
 90
       50
176
     1
 90
       50
176
     1
 90
       50
176
     1
290
     0
176
     1
 90
       50
176
     1
 62
   256
176
     0
 40
1.0
176
     0
 90
        2
176
     1
  1
strokes_ogs.tif
176
     1
290
     0
176
     1
 40
1.0
176
     1
 40
1.0
176
     1
  0
VISUALSTYLE
  5
2D
102
{ACAD_REACTORS
330
2A
102
}
330
2A
100
AcDbVisualStyle
  2
Gouraud
 70
     2
177
     3
291
     1
 70
    58
 90
        2
176
     1
 90
        2
176
     1
 90
        1
176
     1
 90
        2
176
     1
 40
0.6
176
     1
 40
30.0
176
     1
 62
     7
420
 16777215
176
     1
 90
        0
176
     1
 90
        0
176
     1
 62
     7
176
     1
 62
   257
176
     1
 90
        1
176
     1
 90
        1
176
     1
 40
1.0
176
     1
 90
        0
176
     1
 62
     7
176
     1
 40
1.0
176
     1
 90
        1
176
     1
 90
        6
176
     1
 90
        2
176
     1
 62
     7
176
     1
 90
        5
176
     1
 90
        0
176
     1
 90
        0
176
     1
290
     0
176
     1
 90
       13
176
     1
 40
0.0
176
     1
 90
        0
176
     1
290
     0
176
     1
290
     1
176
     1
290
     1
176
     1
290
     0
176
     1
290
     0
176
     1
290
     0
176
     1
290
     0
176
     1
290
     0
176
     1
290
     0
176
     1
 90
       50
176
     1
 40
0.0
176
     1
 40
1.0
176
     1
 90
        0
176
     1
 62
    18
420
        0
176
     1
 90
       50
176
     1
 90
        3
176
     1
 62
     5
420
      255
176
     1
290
     0
176
     1
 90
       50
176
     1
 90
       50
176
     1
 90
       50
176
     1
290
     0
176
     1
 90
       50
176
     1
 62
   256
176
     0
 40
1.0
176
     0
 90
        2
176
     1
  1
strokes_ogs.tif
176
     1
290
     0
176
     1
 40
1.0
176
     1
 40
1.0
176
     1
  0
VISUALSTYLE
  5
2E
102
{ACAD_REACTORS
330
2A
102
}
330
2A
100
AcDbVisualStyle
  2
GouraudWithEdges
 70
     3
177
     3
291
     1
 70
    58
 90
        2
176
     1
 90
        2
176
     1
 90
        1
176
     1
 90
        2
176
     1
 40
0.6
176
     1
 40
30.0
176
     1
 62
     7
420
 16777215
176
     1
 90
        1
176
     1
 90
        0
176
     1
 62
     7
176
     1
 62
   257
176
     1
 90
        1
176
     1
 90
        1
176
     1
 40
1.0
176
     1
 90
        0
176
     1
 62
   257
176
     1
 40
1.0
176
     1
 90
        1
176
     1
 90
        6
176
     1
 90
        2
176
     1
 62
     7
176
     1
 90
        5
176
     1
 90
        0
176
     1
 90
        0
176
     1
290
     0
176
     1
 90
       13
176
     1
 40
0.0
176
     1
 90
        0
176
     1
290
     0
176
     1
290
     1
176
     1
290
     1
176
     1
290
     0
176
     1
290
     0
176
     1
290
     0
176
     1
290
     0
176
     1
290
     0
176
     1
290
     0
176
     1
 90
       50
176
     1
 40
0.0
176
     1
 40
1.0
176
     1
 90
        0
176
     1
 62
    18
420
        0
176
     1
 90
       50
176
     1
 90
        3
176
     1
 62
     5
420
      255
176
     1
290
     0
176
     1
 90
       50
176
     1
 90
       50
176
     1
 90
       50
176
     1
290
     0
176
     1
 90
       50
176
     1
 62
   256
176
     0
 40
1.0
176
     0
 90
        2
176
     1
  1
strokes_ogs.tif
176
     1
290
     0
176
     1
 40
1.0
176
     1
 40
1.0
176
     1
  0
VISUALSTYLE
  5
31
102
{ACAD_REACTORS
330
2A
102
}
330
2A
100
AcDbVisualStyle
  2
Hidden
 70
     6
177
     3
291
     0
 70
    58
 90
        1
176
     1
 90
        2
176
     1
 90
        2
176
     1
 90
        0
176
     1
 40
0.6
176
     1
 40
30.0
176
     1
 62
     7
420
 16777215
176
     1
 90
        2
176
     1
 90
        2
176
     1
 62
     7
176
     1
 62
   257
176
     1
 90
        2
176
     1
 90
        1
176
     1
 40
40.0
176
     1
 90
        0
176
     1
 62
   257
176
     1
 40
1.0
176
     1
 90
        1
176
     1
 90
        6
176
     1
 90
        2
176
     1
 62
     7
176
     1
 90
        3
176
     1
 90
        0
176
     1
 90
        0
176
     1
290
     0
176
     1
 90
        1
176
     1
 40
0.0
176
     1
 90
        0
176
     1
290
     0
176
     1
290
     1
176
     1
290
     1
176
     1
290
     0
176
     1
290
     0
176
     1
290
     0
176
     1
290
     0
176
     1
290
     0
176
     1
290
     0
176
     1
 90
       50
176
     1
 40
0.0
176
     1
 40
1.0
176
     1
 90
        0
176
     1
 62
    18
420
        0
176
     1
 90
       50
176
     1
 90
        3
176
     1
 62
     5
420
      255
176
     1
290
     0
176
     1
 90
       50
176
     1
 90
       50
176
     1
 90
       50
176
     1
290
     0
176
     1
 90
       50
176
     1
 62
   256
176
     0
 40
1.0
176
     0
 90
        2
176
     1
  1
strokes_ogs.tif
176
     1
290
     0
176
     1
 40
1.0
176
     1
 40
1.0
176
     1
  0
VISUALSTYLE
  5
3B
102
{ACAD_REACTORS
330
2A
102
}
330
2A
100
AcDbVisualStyle
  2
JitterOff
 70
    20
177
     3
291
     1
 70
    58
 90
        2
176
     0
 90
        2
176
     0
 90
        0
176
     0
 90
        0
176
     0
 40
0.6
176
     0
 40
30.0
176
     0
 62
     7
420
 16777215
176
     0
 90
        1
176
     0
 90
        4
176
     0
 62
     7
176
     0
 62
   257
176
     0
 90
        1
176
     0
 90
        1
176
     0
 40
1.0
176
     0
 90
       10
176
     2
 62
     7
176
     0
 40
1.0
176
     0
 90
        1
176
     0
 90
        6
176
     0
 90
        2
176
     0
 62
     7
176
     0
 90
        5
176
     0
 90
        0
176
     0
 90
        0
176
     0
290
     0
176
     0
 90
        1
176
     0
 40
0.0
176
     0
 90
        0
176
     0
290
     0
176
     0
290
     1
176
     0
290
     1
176
     0
290
     0
176
     0
290
     0
176
     0
290
     0
176
     0
290
     0
176
     0
290
     0
176
     0
290
     0
176
     0
 90
       50
176
     0
 40
0.0
176
     0
 40
1.0
176
     0
 90
        0
176
     0
 62
    18
420
        0
176
     0
 90
       50
176
     0
 90
        3
176
     0
 62
     5
420
      255
176
     0
290
     0
176
     0
 90
       50
176
     0
 90
       50
176
     0
 90
       50
176
     0
290
     0
176
     0
 90
       50
176
     0
 62
   256
176
     0
 40
1.0
176
     0
 90
        2
176
     0
  1
strokes_ogs.tif
176
     0
290
     0
176
     0
 40
1.0
176
     0
 40
1.0
176
     0
  0
VISUALSTYLE
  5
38
102
{ACAD_REACTORS
330
2A
102
}
330
2A
100
AcDbVisualStyle
  2
Linepattern
 70
    14
177
     3
291
     1
 70
    58
 90
        2
176
     1
 90
        2
176
     1
 90
        0
176
     1
 90
        0
176
     1
 40
0.6
176
     1
 40
30.0
176
     1
 62
     7
420
 16777215
176
     1
 90
        1
176
     1
 90
        4
176
     1
 62
     7
176
     1
 62
   257
176
     1
 90
        7
176
     1
 90
        7
176
     1
 40
1.0
176
     1
 90
        8
176
     1
 62
     7
176
     1
 40
1.0
176
     1
 90
        1
176
     1
 90
        6
176
     1
 90
        2
176
     1
 62
     7
176
     1
 90
        5
176
     1
 90
        0
176
     1
 90
        0
176
     1
290
     0
176
     1
 90
        1
176
     1
 40
0.0
176
     1
 90
        0
176
     1
290
     0
176
     1
290
     1
176
     1
290
     1
176
     1
290
     0
176
     1
290
     0
176
     1
290
     0
176
     1
290
     0
176
     1
290
     0
176
     1
290
     0
176
     1
 90
       50
176
     1
 40
0.0
176
     1
 40
1.0
176
     1
 90
        0
176
     1
 62
    18
420
        0
176
     1
 90
       50
176
     1
 90
        3
176
     1
 62
     5
420
      255
176
     1
290
     0
176
     1
 90
       50
176
     1
 90
       50
176
     1
 90
       50
176
     1
290
     0
176
     1
 90
       50
176
     1
 62
   256
176
     0
 40
1.0
176
     0
 90
        2
176
     1
  1
strokes_ogs.tif
176
     1
290
     0
176
     1
 40
1.0
176
     1
 40
1.0
176
     1
  0
VISUALSTYLE
  5
3C
102
{ACAD_REACTORS
330
2A
102
}
330
2A
100
AcDbVisualStyle
  2
OverhangOff
 70
    21
177
     3
291
     1
 70
    58
 90
        2
176
     0
 90
        2
176
     0
 90
        0
176
     0
 90
        0
176
     0
 40
0.6
176
     0
 40
30.0
176
     0
 62
     7
420
 16777215
176
     0
 90
        1
176
     0
 90
        4
176
     0
 62
     7
176
     0
 62
   257
176
     0
 90
        1
176
     0
 90
        1
176
     0
 40
1.0
176
     0
 90
        9
176
     2
 62
     7
176
     0
 40
1.0
176
     0
 90
        1
176
     0
 90
        6
176
     0
 90
        2
176
     0
 62
     7
176
     0
 90
        5
176
     0
 90
        0
176
     0
 90
        0
176
     0
290
     0
176
     0
 90
        1
176
     0
 40
0.0
176
     0
 90
        0
176
     0
290
     0
176
     0
290
     1
176
     0
290
     1
176
     0
290
     0
176
     0
290
     0
176
     0
290
     0
176
     0
290
     0
176
     0
290
     0
176
     0
290
     0
176
     0
 90
       50
176
     0
 40
0.0
176
     0
 40
1.0
176
     0
 90
        0
176
     0
 62
    18
420
        0
176
     0
 90
       50
176
     0
 90
        3
176
     0
 62
     5
420
      255
176
     0
290
     0
176
     0
 90
       50
176
     0
 90
       50
176
     0
 90
       50
176
     0
290
     0
176
     0
 90
       50
176
     0
 62
   256
176
     0
 40
1.0
176
     0
 90
        2
176
     0
  1
strokes_ogs.tif
176
     0
290
     0
176
     0
 40
1.0
176
     0
 40
1.0
176
     0
  0
VISUALSTYLE
  5
33
102
{ACAD_REACTORS
330
2A
102
}
330
2A
100
AcDbVisualStyle
  2
Realistic
 70
     8
177
     3
291
     0
 70
    58
 90
        2
176
     1
 90
        3
176
     1
 90
        0
176
     1
 90
        2
176
     1
 40
0.6
176
     1
 40
30.0
176
     1
 62
     7
420
 16777215
176
     1
 90
        0
176
     1
 90
        0
176
     1
 62
     7
176
     1
 62
   257
176
     1
 90
        1
176
     1
 90
        1
176
     1
 40
1.0
176
     1
 90
        8
176
     1
 62
   257
176
     1
 40
1.0
176
     1
 90
        1
176
     1
 90
        6
176
     1
 90
        2
176
     1
 62
     7
176
     1
 90
        3
176
     1
 90
        0
176
     1
 90
        0
176
     1
290
     0
176
     1
 90
       13
176
     1
 40
0.0
176
     1
 90
        0
176
     1
290
     0
176
     1
290
     1
176
     1
290
     1
176
     1
290
     0
176
     1
290
     0
176
     1
290
     0
176
     1
290
     0
176
     1
290
     0
176
     1
290
     0
176
     1
 90
       50
176
     1
 40
0.0
176
     1
 40
1.0
176
     1
 90
        0
176
     1
 62
    18
420
        0
176
     1
 90
       50
176
     1
 90
        3
176
     1
 62
     5
420
      255
176
     1
290
     0
176
     1
 90
       50
176
     1
 90
       50
176
     1
 90
       50
176
     1
290
     0
176
     1
 90
       50
176
     1
 62
   256
176
     0
 40
1.0
176
     0
 90
        2
176
     1
  1
strokes_ogs.tif
176
     1
290
     0
176
     1
 40
1.0
176
     1
 40
1.0
176
     1
  0
VISUALSTYLE
  5
42
102
{ACAD_REACTORS
330
2A
102
}
330
2A
100
AcDbVisualStyle
  2
Shaded
 70
    27
177
     3
291
     0
 70
    58
 90
        2
176
     1
 90
        2
176
     1
 90
        1
176
     1
 90
        2
176
     1
 40
0.6
176
     1
 40
30.0
176
     1
 62
     7
420
 16777215
176
     1
 90
        0
176
     1
 90
        4
176
     1
 62
     7
176
     1
 62
   257
176
     1
 90
        1
176
     1
 90
        1
176
     1
 40
1.0
176
     1
 90
        8
176
     1
 62
   257
176
     1
 40
1.0
176
     1
 90
        1
176
     1
 90
        6
176
     1
 90
        2
176
     1
 62
     8
420
  7895160
176
     1
 90
        3
176
     1
 90
        0
176
     1
 90
        0
176
     1
290
     0
176
     1
 90
        5
176
     1
 40
0.0
176
     1
 90
        0
176
     1
290
     0
176
     1
290
     1
176
     1
290
     1
176
     1
290
     0
176
     1
290
     0
176
     1
290
     0
176
     1
290
     0
176
     1
290
     0
176
     1
290
     0
176
     1
 90
       50
176
     1
 40
0.0
176
     1
 40
1.0
176
     1
 90
        0
176
     1
 62
    18
420
        0
176
     1
 90
       50
176
     1
 90
        3
176
     1
 62
     5
420
      255
176
     1
290
     0
176
     1
 90
       50
176
     1
 90
       50
176
     1
 90
       50
176
     1
290
     0
176
     1
 90
       50
176
     1
 62
   256
176
     0
 40
1.0
176
     0
 90
        2
176
     1
  1
strokes_ogs.tif
176
     1
290
     0
176
     1
 40
1.0
176
     1
 40
1.0
176
     1
  0
VISUALSTYLE
  5
41
102
{ACAD_REACTORS
330
2A
102
}
330
2A
100
AcDbVisualStyle
  2
Shaded with edges
 70
    26
177
     3
291
     0
 70
    58
 90
        2
176
     1
 90
        2
176
     1
 90
        1
176
     1
 90
        2
176
     1
 40
0.6
176
     1
 40
30.0
176
     1
 62
     7
420
 16777215
176
     1
 90
        1
176
     1
 90
       10
176
     1
 62
     7
176
     1
 62
   257
176
     1
 90
        2
176
     1
 90
        1
176
     1
 40
1.0
176
     1
 90
        8
176
     1
 62
   257
176
     1
 40
1.0
176
     1
 90
        1
176
     1
 90
        6
176
     1
 90
        2
176
     1
 62
     7
176
     1
 90
        3
176
     1
 90
        0
176
     1
 90
        0
176
     1
290
     0
176
     1
 90
        5
176
     1
 40
0.0
176
     1
 90
        0
176
     1
290
     0
176
     1
290
     1
176
     1
290
     1
176
     1
290
     0
176
     1
290
     0
176
     1
290
     0
176
     1
290
     0
176
     1
290
     0
176
     1
290
     0
176
     1
 90
       50
176
     1
 40
0.0
176
     1
 40
1.0
176
     1
 90
        0
176
     1
 62
    18
420
        0
176
     1
 90
       50
176
     1
 90
        3
176
     1
 62
     5
420
      255
176
     1
290
     0
176
     1
 90
       50
176
     1
 90
       50
176
     1
 90
       50
176
     1
290
     0
176
     1
 90
       50
176
     1
 62
   256
176
     0
 40
1.0
176
     0
 90
        2
176
     1
  1
strokes_ogs.tif
176
     1
290
     0
176
     1
 40
1.0
176
     1
 40
1.0
176
     1
  0
VISUALSTYLE
  5
3E
102
{ACAD_REACTORS
330
2A
102
}
330
2A
100
AcDbVisualStyle
  2
Shades of Gray
 70
    23
177
     3
291
     0
 70
    58
 90
        2
176
     1
 90
        2
176
     1
 90
        3
176
     1
 90
        0
176
     1
 40
0.6
176
     1
 40
30.0
176
     1
 62
     7
420
 16777215
176
     1
 90
        2
176
     1
 90
        2
176
     1
 62
     7
176
     1
 62
     7
176
     1
 90
        1
176
     1
 90
        1
176
     1
 40
40.0
176
     1
 90
        8
176
     1
 62
     7
176
     1
 40
1.0
176
     1
 90
        1
176
     1
 90
        6
176
     1
 90
        2
176
     1
 62
     7
176
     1
 90
        3
176
     1
 90
        0
176
     1
 90
        0
176
     1
290
     0
176
     1
 90
        1
176
     1
 40
0.0
176
     1
 90
        0
176
     1
290
     0
176
     1
290
     1
176
     1
290
     1
176
     1
290
     0
176
     1
290
     0
176
     1
290
     0
176
     1
290
     0
176
     1
290
     0
176
     1
290
     0
176
     1
 90
       50
176
     1
 40
0.0
176
     1
 40
1.0
176
     1
 90
        0
176
     1
 62
    18
420
        0
176
     1
 90
       50
176
     1
 90
        3
176
     1
 62
     5
420
      255
176
     1
290
     0
176
     1
 90
       50
176
     1
 90
       50
176
     1
 90
       50
176
     1
290
     0
176
     1
 90
       50
176
     1
 62
   256
176
     0
 40
1.0
176
     0
 90
        2
176
     1
  1
strokes_ogs.tif
176
     1
290
     0
176
     1
 40
1.0
176
     1
 40
1.0
176
     1
  0
VISUALSTYLE
  5
3F
102
{ACAD_REACTORS
330
2A
102
}
330
2A
100
AcDbVisualStyle
  2
Sketchy
 70
    24
177
     3
291
     0
 70
    58
 90
        1
176
     1
 90
        2
176
     1
 90
        2
176
     1
 90
        0
176
     1
 40
0.6
176
     1
 40
30.0
176
     1
 62
     7
420
 16777215
176
     1
 90
        2
176
     1
 90
        2
176
     1
 62
     7
176
     1
 62
     7
176
     1
 90
        1
176
     1
 90
        1
176
     1
 40
40.0
176
     1
 90
       11
176
     1
 62
     7
176
     1
 40
1.0
176
     1
 90
        1
176
     1
 90
        6
176
     1
 90
        2
176
     1
 62
     7
176
     1
 90
        6
176
     1
 90
        0
176
     1
 90
        0
176
     1
290
     0
176
     1
 90
        1
176
     1
 40
0.0
176
     1
 90
        0
176
     1
290
     0
176
     1
290
     1
176
     1
290
     1
176
     1
290
     0
176
     1
290
     0
176
     1
290
     0
176
     1
290
     0
176
     1
290
     0
176
     1
290
     0
176
     1
 90
       50
176
     1
 40
0.0
176
     1
 40
1.0
176
     1
 90
        0
176
     1
 62
    18
420
        0
176
     1
 90
       50
176
     1
 90
        3
176
     1
 62
     5
420
      255
176
     1
290
     0
176
     1
 90
       50
176
     1
 90
       50
176
     1
 90
       50
176
     1
290
     0
176
     1
 90
       50
176
     1
 62
   256
176
     0
 40
1.0
176
     0
 90
        2
176
     1
  1
strokes_ogs.tif
176
     1
290
     0
176
     1
 40
1.0
176
     1
 40
1.0
176
     1
  0
VISUALSTYLE
  5
37
102
{ACAD_REACTORS
330
2A
102
}
330
2A
100
AcDbVisualStyle
  2
Thicken
 70
    13
177
     3
291
     1
 70
    58
 90
        2
176
     1
 90
        2
176
     1
 90
        0
176
     1
 90
        0
176
     1
 40
0.6
176
     1
 40
30.0
176
     1
 62
     7
420
 16777215
176
     1
 90
        1
176
     1
 90
        4
176
     1
 62
     7
176
     1
 62
   257
176
     1
 90
        1
176
     1
 90
        1
176
     1
 40
1.0
176
     1
 90
       12
176
     1
 62
     7
176
     1
 40
1.0
176
     1
 90
        1
176
     1
 90
        6
176
     1
 90
        2
176
     1
 62
     7
176
     1
 90
        5
176
     1
 90
        0
176
     1
 90
        0
176
     1
290
     0
176
     1
 90
        1
176
     1
 40
0.0
176
     1
 90
        0
176
     1
290
     0
176
     1
290
     1
176
     1
290
     1
176
     1
290
     0
176
     1
290
     0
176
     1
290
     0
176
     1
290
     0
176
     1
290
     0
176
     1
290
     0
176
     1
 90
       50
176
     1
 40
0.0
176
     1
 40
1.0
176
     1
 90
        0
176
     1
 62
    18
420
        0
176
     1
 90
       50
176
     1
 90
        3
176
     1
 62
     5
420
      255
176
     1
290
     0
176
     1
 90
       50
176
     1
 90
       50
176
     1
 90
       50
176
     1
290
     0
176
     1
 90
       50
176
     1
 62
   256
176
     0
 40
1.0
176
     0
 90
        2
176
     1
  1
strokes_ogs.tif
176
     1
290
     0
176
     1
 40
1.0
176
     1
 40
1.0
176
     1
  0
VISUALSTYLE
  5
30
102
{ACAD_REACTORS
330
2A
102
}
330
2A
100
AcDbVisualStyle
  2
Wireframe
 70
     5
177
     3
291
     0
 70
    58
 90
        0
176
     1
 90
        2
176
     1
 90
        0
176
     1
 90
        0
176
     1
 40
0.6
176
     1
 40
30.0
176
     1
 62
     7
420
 16777215
176
     1
 90
        1
176
     1
 90
        4
176
     1
 62
     7
176
     1
 62
   257
176
     1
 90
        1
176
     1
 90
        1
176
     1
 40
1.0
176
     1
 90
        0
176
     1
 62
   257
176
     1
 40
1.0
176
     1
 90
        1
176
     1
 90
        6
176
     1
 90
        2
176
     1
 62
     7
176
     1
 90
        3
176
     1
 90
        0
176
     1
 90
        0
176
     1
290
     0
176
     1
 90
        1
176
     1
 40
0.0
176
     1
 90
        0
176
     1
290
     0
176
     1
290
     1
176
     1
290
     1
176
     1
290
     0
176
     1
290
     0
176
     1
290
     0
176
     1
290
     0
176
     1
290
     0
176
     1
290
     0
176
     1
 90
       50
176
     1
 40
0.0
176
     1
 40
1.0
176
     1
 90
        0
176
     1
 62
    18
420
        0
176
     1
 90
       50
176
     1
 90
        3
176
     1
 62
     5
420
      255
176
     1
290
     0
176
     1
 90
       50
176
     1
 90
       50
176
     1
 90
       50
176
     1
290
     0
176
     1
 90
       50
176
     1
 62
   256
176
     0
 40
1.0
176
     0
 90
        2
176
     1
  1
strokes_ogs.tif
176
     1
290
     0
176
     1
 40
1.0
176
     1
 40
1.0
176
     1
  0
VISUALSTYLE
  5
40
102
{ACAD_REACTORS
330
2A
102
}
330
2A
100
AcDbVisualStyle
  2
X-Ray
 70
    25
177
     3
291
     0
 70
    58
 90
        2
176
     1
 90
        2
176
     1
 90
        1
176
     1
 90
        1
176
     1
 40
0.5
176
     1
 40
30.0
176
     1
 62
     7
420
 16777215
176
     1
 90
        1
176
     1
 90
        0
176
     1
 62
     7
176
     1
 62
   257
176
     1
 90
        1
176
     1
 90
        1
176
     1
 40
1.0
176
     1
 90
        8
176
     1
 62
     7
176
     1
 40
1.0
176
     1
 90
        1
176
     1
 90
        6
176
     1
 90
        2
176
     1
 62
     7
176
     1
 90
        3
176
     1
 90
        0
176
     1
 90
        0
176
     1
290
     0
176
     1
 90
       13
176
     1
 40
0.0
176
     1
 90
        0
176
     1
290
     0
176
     1
290
     1
176
     1
290
     1
176
     1
290
     0
176
     1
290
     0
176
     1
290
     0
176
     1
290
     0
176
     1
290
     0
176
     1
290
     0
176
     1
 90
       50
176
     1
 40
0.0
176
     1
 40
1.0
176
     1
 90
        0
176
     1
 62
    18
420
        0
176
     1
 90
       50
176
     1
 90
        3
176
     1
 62
     5
420
      255
176
     1
290
     0
176
     1
 90
       50
176
     1
 90
       50
176
     1
 90
       50
176
     1
290
     0
176
     1
 90
       50
176
     1
 62
   256
176
     0
 40
1.0
176
     0
 90
        2
176
     1
  1
strokes_ogs.tif
176
     1
290
     0
176
     1
 40
1.0
176
     1
 40
1.0
176
     1
  0
DICTIONARYVAR
  5
1D9
102
{ACAD_REACTORS
330
1D8
102
}
330
1D8
100
DictionaryVariables
280
     0
  1
1:1
  0
DICTIONARYVAR
  5
1DE
102
{ACAD_REACTORS
330
1D8
102
}
330
1D8
100
DictionaryVariables
280
     0
  1
Standard
  0
DICTIONARYVAR
  5
1DD
102
{ACAD_REACTORS
330
1D8
102
}
330
1D8
100
DictionaryVariables
280
     0
  1
Standard
  0
DICTIONARY
  5
1DA
330
6A
100
AcDbDictionary
280
     1
281
     1
  3
ACAD_ROUNDTRIP_2008_TABLESTYLE_CELLSTYLEMAP
360
1DB
  0
CELLSTYLEMAP
  5
1DB
102
{ACAD_REACTORS
330
1DA
102
}
330
1DA
100
AcDbCellStyleMap
 90
        3
300
CELLSTYLE
  1
TABLEFORMAT_BEGIN
 90
        5
170
     1
 91
        0
 92
    32768
 62
   257
 93
        1
300
CONTENTFORMAT
  1
CONTENTFORMAT_BEGIN
 90
        0
 91
        0
 92
        4
 93
        0
300

 40
0.0
140
1.0
 94
        5
 62
     0
340
11
144
0.25
309
CONTENTFORMAT_END
171
     1
301
MARGIN
  1
CELLMARGIN_BEGIN
 40
0.06
 40
0.06
 40
0.06
 40
0.06
 40
0.06
 40
0.06
309
CELLMARGIN_END
 94
        6
 95
        1
302
GRIDFORMAT
  1
GRIDFORMAT_BEGIN
 90
        0
 91
        1
 62
     0
 92
       -2
340
14
 93
        0
 40
0.045
309
GRIDFORMAT_END
 95
        2
302
GRIDFORMAT
  1
GRIDFORMAT_BEGIN
 90
        0
 91
        1
 62
     0
 92
       -2
340
14
 93
        0
 40
0.045
309
GRIDFORMAT_END
 95
        4
302
GRIDFORMAT
  1
GRIDFORMAT_BEGIN
 90
        0
 91
        1
 62
     0
 92
       -2
340
14
 93
        0
 40
0.045
309
GRIDFORMAT_END
 95
        8
302
GRIDFORMAT
  1
GRIDFORMAT_BEGIN
 90
        0
 91
        1
 62
     0
 92
       -2
340
14
 93
        0
 40
0.045
309
GRIDFORMAT_END
 95
       16
302
GRIDFORMAT
  1
GRIDFORMAT_BEGIN
 90
        0
 91
        1
 62
     0
 92
       -2
340
14
 93
        0
 40
0.045
309
GRIDFORMAT_END
 95
       32
302
GRIDFORMAT
  1
GRIDFORMAT_BEGIN
 90
        0
 91
        1
 62
     0
 92
       -2
340
14
 93
        0
 40
0.045
309
GRIDFORMAT_END
309
TABLEFORMAT_END
  1
CELLSTYLE_BEGIN
 90
        1
 91
        1
300
_TITLE
309
CELLSTYLE_END
300
CELLSTYLE
  1
TABLEFORMAT_BEGIN
 90
        5
170
     1
 91
        0
 92
        0
 62
   257
 93
        1
300
CONTENTFORMAT
  1
CONTENTFORMAT_BEGIN
 90
        0
 91
        0
 92
        4
 93
        0
300

 40
0.0
140
1.0
 94
        5
 62
     0
340
11
144
0.18
309
CONTENTFORMAT_END
171
     1
301
MARGIN
  1
CELLMARGIN_BEGIN
 40
0.06
 40
0.06
 40
0.06
 40
0.06
 40
0.06
 40
0.06
309
CELLMARGIN_END
 94
        6
 95
        1
302
GRIDFORMAT
  1
GRIDFORMAT_BEGIN
 90
        0
 91
        1
 62
     0
 92
       -2
340
14
 93
        0
 40
0.045
309
GRIDFORMAT_END
 95
        2
302
GRIDFORMAT
  1
GRIDFORMAT_BEGIN
 90
        0
 91
        1
 62
     0
 92
       -2
340
14
 93
        0
 40
0.045
309
GRIDFORMAT_END
 95
        4
302
GRIDFORMAT
  1
GRIDFORMAT_BEGIN
 90
        0
 91
        1
 62
     0
 92
       -2
340
14
 93
        0
 40
0.045
309
GRIDFORMAT_END
 95
        8
302
GRIDFORMAT
  1
GRIDFORMAT_BEGIN
 90
        0
 91
        1
 62
     0
 92
       -2
340
14
 93
        0
 40
0.045
309
GRIDFORMAT_END
 95
       16
302
GRIDFORMAT
  1
GRIDFORMAT_BEGIN
 90
        0
 91
        1
 62
     0
 92
       -2
340
14
 93
        0
 40
0.045
309
GRIDFORMAT_END
 95
       32
302
GRIDFORMAT
  1
GRIDFORMAT_BEGIN
 90
        0
 91
        1
 62
     0
 92
       -2
340
14
 93
        0
 40
0.045
309
GRIDFORMAT_END
309
TABLEFORMAT_END
  1
CELLSTYLE_BEGIN
 90
        2
 91
        1
300
_HEADER
309
CELLSTYLE_END
300
CELLSTYLE
  1
TABLEFORMAT_BEGIN
 90
        5
170
     1
 91
        0
 92
        0
 62
   257
 93
        1
300
CONTENTFORMAT
  1
CONTENTFORMAT_BEGIN
 90
        0
 91
        0
 92
        4
 93
        0
300

 40
0.0
140
1.0
 94
        2
 62
     0
340
11
144
0.18
309
CONTENTFORMAT_END
171
     1
301
MARGIN
  1
CELLMARGIN_BEGIN
 40
0.06
 40
0.06
 40
0.06
 40
0.06
 40
0.06
 40
0.06
309
CELLMARGIN_END
 94
        6
 95
        1
302
GRIDFORMAT
  1
GRIDFORMAT_BEGIN
 90
        0
 91
        1
 62
     0
 92
       -2
340
14
 93
        0
 40
0.045
309
GRIDFORMAT_END
 95
        2
302
GRIDFORMAT
  1
GRIDFORMAT_BEGIN
 90
        0
 91
        1
 62
     0
 92
       -2
340
14
 93
        0
 40
0.045
309
GRIDFORMAT_END
 95
        4
302
GRIDFORMAT
  1
GRIDFORMAT_BEGIN
 90
        0
 91
        1
 62
     0
 92
       -2
340
14
 93
        0
 40
0.045
309
GRIDFORMAT_END
 95
        8
302
GRIDFORMAT
  1
GRIDFORMAT_BEGIN
 90
        0
 91
        1
 62
     0
 92
       -2
340
14
 93
        0
 40
0.045
309
GRIDFORMAT_END
 95
       16
302
GRIDFORMAT
  1
GRIDFORMAT_BEGIN
 90
        0
 91
        1
 62
     0
 92
       -2
340
14
 93
        0
 40
0.045
309
GRIDFORMAT_END
 95
       32
302
GRIDFORMAT
  1
GRIDFORMAT_BEGIN
 90
        0
 91
        1
 62
     0
 92
       -2
340
14
 93
        0
 40
0.045
309
GRIDFORMAT_END
309
TABLEFORMAT_END
  1
CELLSTYLE_BEGIN
 90
        3
 91
        2
300
_DATA
309
CELLSTYLE_END
  0
ENDSEC
  0
EOF