0
SECTION
  2
HEADER
  9
$ACADVER
  1
AC1027
  9
$ACADMAINTVER
 70
     8
  9
$DWGCODEPAGE
  3
ANSI_1252
  9
$REQUIREDVERSIONS
160
                 0
  9
$COMMENTS
  1
File was created by Cadenas
  9
$CUSTOMPROPERTYTAG
  1
NN
  9
$CUSTOMPROPERTY
  1
Grip Tight Two-Bolt Flange - Stainless Housing, Corrosion Resistant Insert Metric Bore
  9
$CUSTOMPROPERTYTAG
  1
NT
  9
$CUSTOMPROPERTY
  1
GTEZ Normal Duty Stainless Steel Housed 2 Bolt Flange Bearings^M^J
  9
$CUSTOMPROPERTYTAG
  1
NB
  9
$CUSTOMPROPERTY
  1
 129358
  9
$CUSTOMPROPERTYTAG
  1
NBSYN
  9
$CUSTOMPROPERTY
  1
 $PN.$LUBE.
  9
$CUSTOMPROPERTYTAG
  1
LINA
  9
$CUSTOMPROPERTY
  1
129358
  9
$CUSTOMPROPERTYTAG
  1
SERIES
  9
$CUSTOMPROPERTY
  1
205
  9
$CUSTOMPROPERTYTAG
  1
SS
  9
$CUSTOMPROPERTY
  1
25
  9
$CUSTOMPROPERTYTAG
  1
PN
  9
$CUSTOMPROPERTY
  1
129358
  9
$CUSTOMPROPERTYTAG
  1
DESCRIPTION
  9
$CUSTOMPROPERTY
  1
F2B-GTEZ-25M-SHCR
  9
$CUSTOMPROPERTYTAG
  1
A
  9
$CUSTOMPROPERTY
  1
36.9
  9
$CUSTOMPROPERTYTAG
  1
B
  9
$CUSTOMPROPERTY
  1
124.2
  9
$CUSTOMPROPERTYTAG
  1
C
  9
$CUSTOMPROPERTY
  1
39.3
  9
$CUSTOMPROPERTYTAG
  1
D
  9
$CUSTOMPROPERTY
  1
98.8
  9
$CUSTOMPROPERTYTAG
  1
H
  9
$CUSTOMPROPERTY
  1
9.1
  9
$CUSTOMPROPERTYTAG
  1
J
  9
$CUSTOMPROPERTY
  1
14.3
  9
$CUSTOMPROPERTYTAG
  1
F
  9
$CUSTOMPROPERTY
  1
M10
  9
$CUSTOMPROPERTYTAG
  1
L
  9
$CUSTOMPROPERTY
  1
45.6
  9
$CUSTOMPROPERTYTAG
  1
M
  9
$CUSTOMPROPERTY
  1
66.7
  9
$CUSTOMPROPERTYTAG
  1
Z
  9
$CUSTOMPROPERTY
  1
38.9
  9
$CUSTOMPROPERTYTAG
  1
COMPANY
  9
$CUSTOMPROPERTY
  1
baldor
  9
$INSBASE
 10
0.0
 20
0.0
 30
0.0
  9
$EXTMIN
 10
1.000000000000000E+20
 20
1.000000000000000E+20
 30
1.000000000000000E+20
  9
$EXTMAX
 10
-1.000000000000000E+20
 20
-1.000000000000000E+20
 30
-1.000000000000000E+20
  9
$LIMMIN
 10
0.0
 20
0.0
  9
$LIMMAX
 10
420.0
 20
297.0
  9
$ORTHOMODE
 70
     0
  9
$REGENMODE
 70
     1
  9
$FILLMODE
 70
     1
  9
$QTEXTMODE
 70
     0
  9
$MIRRTEXT
 70
     1
  9
$LTSCALE
 40
1.0
  9
$ATTMODE
 70
     1
  9
$TEXTSIZE
 40
2.5
  9
$TRACEWID
 40
1.0
  9
$TEXTSTYLE
  7
Standard
  9
$CLAYER
  8
0
  9
$CELTYPE
  6
ByLayer
  9
$CECOLOR
 62
   256
  9
$CELTSCALE
 40
1.0
  9
$DISPSILH
 70
     0
  9
$DIMSCALE
 40
1.0
  9
$DIMASZ
 40
2.5
  9
$DIMEXO
 40
0.625
  9
$DIMDLI
 40
3.75
  9
$DIMRND
 40
0.0
  9
$DIMDLE
 40
0.0
  9
$DIMEXE
 40
1.25
  9
$DIMTP
 40
0.0
  9
$DIMTM
 40
0.0
  9
$DIMTXT
 40
2.5
  9
$DIMCEN
 40
2.5
  9
$DIMTSZ
 40
0.0
  9
$DIMTOL
 70
     0
  9
$DIMLIM
 70
     0
  9
$DIMTIH
 70
     0
  9
$DIMTOH
 70
     0
  9
$DIMSE1
 70
     0
  9
$DIMSE2
 70
     0
  9
$DIMTAD
 70
     1
  9
$DIMZIN
 70
     8
  9
$DIMBLK
  1

  9
$DIMASO
 70
     1
  9
$DIMSHO
 70
     1
  9
$DIMPOST
  1

  9
$DIMAPOST
  1

  9
$DIMALT
 70
     0
  9
$DIMALTD
 70
     3
  9
$DIMALTF
 40
0.03937007874016
  9
$DIMLFAC
 40
1.0
  9
$DIMTOFL
 70
     1
  9
$DIMTVP
 40
0.0
  9
$DIMTIX
 70
     0
  9
$DIMSOXD
 70
     0
  9
$DIMSAH
 70
     0
  9
$DIMBLK1
  1

  9
$DIMBLK2
  1

  9
$DIMSTYLE
  2
ISO-25
  9
$DIMCLRD
 70
     0
  9
$DIMCLRE
 70
     0
  9
$DIMCLRT
 70
     0
  9
$DIMTFAC
 40
1.0
  9
$DIMGAP
 40
0.625
  9
$DIMJUST
 70
     0
  9
$DIMSD1
 70
     0
  9
$DIMSD2
 70
     0
  9
$DIMTOLJ
 70
     0
  9
$DIMTZIN
 70
     8
  9
$DIMALTZ
 70
     0
  9
$DIMALTTZ
 70
     0
  9
$DIMUPT
 70
     0
  9
$DIMDEC
 70
     2
  9
$DIMTDEC
 70
     2
  9
$DIMALTU
 70
     2
  9
$DIMALTTD
 70
     3
  9
$DIMTXSTY
  7
Standard
  9
$DIMAUNIT
 70
     0
  9
$DIMADEC
 70
     0
  9
$DIMALTRND
 40
0.0
  9
$DIMAZIN
 70
     0
  9
$DIMDSEP
 70
    44
  9
$DIMATFIT
 70
     3
  9
$DIMFRAC
 70
     0
  9
$DIMLDRBLK
  1

  9
$DIMLUNIT
 70
     2
  9
$DIMLWD
 70
    -2
  9
$DIMLWE
 70
    -2
  9
$DIMTMOVE
 70
     0
  9
$DIMFXL
 40
1.0
  9
$DIMFXLON
 70
     0
  9
$DIMJOGANG
 40
0.7853981633974483
  9
$DIMTFILL
 70
     0
  9
$DIMTFILLCLR
 70
     0
  9
$DIMARCSYM
 70
     0
  9
$DIMLTYPE
  6

  9
$DIMLTEX1
  6

  9
$DIMLTEX2
  6

  9
$DIMTXTDIRECTION
 70
     0
  9
$LUNITS
 70
     2
  9
$LUPREC
 70
     4
  9
$SKETCHINC
 40
1.0
  9
$FILLETRAD
 40
10.0
  9
$AUNITS
 70
     0
  9
$AUPREC
 70
     0
  9
$MENU
  1
.
  9
$ELEVATION
 40
0.0
  9
$PELEVATION
 40
0.0
  9
$THICKNESS
 40
0.0
  9
$LIMCHECK
 70
     0
  9
$CHAMFERA
 40
0.0
  9
$CHAMFERB
 40
0.0
  9
$CHAMFERC
 40
0.0
  9
$CHAMFERD
 40
0.0
  9
$SKPOLY
 70
     0
  9
$TDCREATE
 40
2458168.99182919
  9
$TDUCREATE
 40
2458168.950162523
  9
$TDUPDATE
 40
2458168.991829375
  9
$TDUUPDATE
 40
2458168.950162708
  9
$TDINDWG
 40
0.0000000116
  9
$TDUSRTIMER
 40
0.0000000116
  9
$USRTIMER
 70
     1
  9
$ANGBASE
 50
0.0
  9
$ANGDIR
 70
     0
  9
$PDMODE
 70
     0
  9
$PDSIZE
 40
0.0
  9
$PLINEWID
 40
0.0
  9
$SPLFRAME
 70
     0
  9
$SPLINETYPE
 70
     6
  9
$SPLINESEGS
 70
     8
  9
$HANDSEED
  5
1DF
  9
$SURFTAB1
 70
     6
  9
$SURFTAB2
 70
     6
  9
$SURFTYPE
 70
     6
  9
$SURFU
 70
     6
  9
$SURFV
 70
     6
  9
$UCSBASE
  2

  9
$UCSNAME
  2

  9
$UCSORG
 10
0.0
 20
0.0
 30
0.0
  9
$UCSXDIR
 10
1.0
 20
0.0
 30
0.0
  9
$UCSYDIR
 10
0.0
 20
1.0
 30
0.0
  9
$UCSORTHOREF
  2

  9
$UCSORTHOVIEW
 70
     0
  9
$UCSORGTOP
 10
0.0
 20
0.0
 30
0.0
  9
$UCSORGBOTTOM
 10
0.0
 20
0.0
 30
0.0
  9
$UCSORGLEFT
 10
0.0
 20
0.0
 30
0.0
  9
$UCSORGRIGHT
 10
0.0
 20
0.0
 30
0.0
  9
$UCSORGFRONT
 10
0.0
 20
0.0
 30
0.0
  9
$UCSORGBACK
 10
0.0
 20
0.0
 30
0.0
  9
$PUCSBASE
  2

  9
$PUCSNAME
  2

  9
$PUCSORG
 10
0.0
 20
0.0
 30
0.0
  9
$PUCSXDIR
 10
1.0
 20
0.0
 30
0.0
  9
$PUCSYDIR
 10
0.0
 20
1.0
 30
0.0
  9
$PUCSORTHOREF
  2

  9
$PUCSORTHOVIEW
 70
     0
  9
$PUCSORGTOP
 10
0.0
 20
0.0
 30
0.0
  9
$PUCSORGBOTTOM
 10
0.0
 20
0.0
 30
0.0
  9
$PUCSORGLEFT
 10
0.0
 20
0.0
 30
0.0
  9
$PUCSORGRIGHT
 10
0.0
 20
0.0
 30
0.0
  9
$PUCSORGFRONT
 10
0.0
 20
0.0
 30
0.0
  9
$PUCSORGBACK
 10
0.0
 20
0.0
 30
0.0
  9
$USERI1
 70
     0
  9
$USERI2
 70
     0
  9
$USERI3
 70
     0
  9
$USERI4
 70
     0
  9
$USERI5
 70
     0
  9
$USERR1
 40
0.0
  9
$USERR2
 40
0.0
  9
$USERR3
 40
0.0
  9
$USERR4
 40
0.0
  9
$USERR5
 40
0.0
  9
$WORLDVIEW
 70
     1
  9
$SHADEDGE
 70
     3
  9
$SHADEDIF
 70
    70
  9
$TILEMODE
 70
     1
  9
$MAXACTVP
 70
    64
  9
$PINSBASE
 10
0.0
 20
0.0
 30
0.0
  9
$PLIMCHECK
 70
     0
  9
$PEXTMIN
 10
1.000000000000000E+20
 20
1.000000000000000E+20
 30
1.000000000000000E+20
  9
$PEXTMAX
 10
-1.000000000000000E+20
 20
-1.000000000000000E+20
 30
-1.000000000000000E+20
  9
$PLIMMIN
 10
0.0
 20
0.0
  9
$PLIMMAX
 10
420.0
 20
297.0
  9
$UNITMODE
 70
     0
  9
$VISRETAIN
 70
     1
  9
$PLINEGEN
 70
     0
  9
$PSLTSCALE
 70
     1
  9
$TREEDEPTH
 70
  3020
  9
$CMLSTYLE
  2
Standard
  9
$CMLJUST
 70
     0
  9
$CMLSCALE
 40
20.0
  9
$PROXYGRAPHICS
 70
     1
  9
$MEASUREMENT
 70
     1
  9
$CELWEIGHT
370
    -1
  9
$ENDCAPS
280
     0
  9
$JOINSTYLE
280
     0
  9
$LWDISPLAY
290
     0
  9
$INSUNITS
 70
     4
  9
$HYPERLINKBASE
  1

  9
$STYLESHEET
  1

  9
$XEDIT
290
     1
  9
$CEPSNTYPE
380
     0
  9
$PSTYLEMODE
290
     1
  9
$FINGERPRINTGUID
  2
{717CE1C9-4C29-4849-8182-96916EE73575}
  9
$VERSIONGUID
  2
{FAEB1C32-E019-11D5-929B-00C0DF256EC4}
  9
$EXTNAMES
290
     1
  9
$PSVPSCALE
 40
0.0
  9
$OLESTARTUP
290
     0
  9
$SORTENTS
280
   127
  9
$INDEXCTL
280
     0
  9
$HIDETEXT
280
     1
  9
$XCLIPFRAME
280
     2
  9
$HALOGAP
280
     0
  9
$OBSCOLOR
 70
   257
  9
$OBSLTYPE
280
     0
  9
$INTERSECTIONDISPLAY
280
     0
  9
$INTERSECTIONCOLOR
 70
   257
  9
$DIMASSOC
280
     2
  9
$PROJECTNAME
  1

  9
$CAMERADISPLAY
290
     0
  9
$LENSLENGTH
 40
50.0
  9
$CAMERAHEIGHT
 40
0.0
  9
$STEPSPERSEC
 40
2.0
  9
$STEPSIZE
 40
6.0
  9
$3DDWFPREC
 40
2.0
  9
$PSOLWIDTH
 40
5.0
  9
$PSOLHEIGHT
 40
80.0
  9
$LOFTANG1
 40
1.570796326794897
  9
$LOFTANG2
 40
1.570796326794897
  9
$LOFTMAG1
 40
0.0
  9
$LOFTMAG2
 40
0.0
  9
$LOFTPARAM
 70
     7
  9
$LOFTNORMALS
280
     1
  9
$LATITUDE
 40
37.795
  9
$LONGITUDE
 40
-122.394
  9
$NORTHDIRECTION
 40
0.0
  9
$TIMEZONE
 70
 -8000
  9
$LIGHTGLYPHDISPLAY
280
     1
  9
$TILEMODELIGHTSYNCH
280
     1
  9
$CMATERIAL
347
44
  9
$SOLIDHIST
280
     0
  9
$SHOWHIST
280
     1
  9
$DWFFRAME
280
     2
  9
$DGNFRAME
280
     2
  9
$REALWORLDSCALE
290
     1
  9
$INTERFERECOLOR
 62
   256
  9
$CSHADOW
280
     0
  9
$SHADOWPLANELOCATION
 40
0.0
  0
ENDSEC
  0
SECTION
  2
CLASSES
  0
CLASS
  1
ACDBDICTIONARYWDFLT
  2
AcDbDictionaryWithDefault
  3
ObjectDBX Classes
 90
        0
 91
        4
280
     0
281
     0
  0
CLASS
  1
VISUALSTYLE
  2
AcDbVisualStyle
  3
ObjectDBX Classes
 90
     4095
 91
        4
280
     0
281
     0
  0
CLASS
  1
MATERIAL
  2
AcDbMaterial
  3
ObjectDBX Classes
 90
     1153
 91
        4
280
     0
281
     0
  0
CLASS
  1
SCALE
  2
AcDbScale
  3
ObjectDBX Classes
 90
     1153
 91
        4
280
     0
281
     0
  0
CLASS
  1
TABLESTYLE
  2
AcDbTableStyle
  3
ObjectDBX Classes
 90
     4095
 91
        4
280
     0
281
     0
  0
CLASS
  1
MLEADERSTYLE
  2
AcDbMLeaderStyle
  3
ACDB_MLEADERSTYLE_CLASS
 90
     4095
 91
        4
280
     0
281
     0
  0
CLASS
  1
SUN
  2
AcDbSun
  3
SCENEOE
 90
     1153
 91
        4
280
     0
281
     0
  0
CLASS
  1
DICTIONARYVAR
  2
AcDbDictionaryVar
  3
ObjectDBX Classes
 90
        0
 91
        4
280
     0
281
     0
  0
CLASS
  1
CELLSTYLEMAP
  2
AcDbCellStyleMap
  3
ObjectDBX Classes
 90
     1152
 91
        4
280
     0
281
     0
  0
ENDSEC
  0
SECTION
  2
TABLES
  0
TABLE
  2
VPORT
  5
8
330
0
100
AcDbSymbolTable
 70
     1
  0
VPORT
  5
29
330
8
100
AcDbSymbolTableRecord
100
AcDbViewportTableRecord
  2
*Active
 70
     0
 10
0.0
 20
0.0
 11
1.0
 21
1.0
 12
0.0
 22
0.0000001192092896
 13
0.0
 23
0.0
 14
10.0
 24
10.0
 15
10.0
 25
10.0
 16
0.0
 26
0.0
 36
1.0
 17
0.0
 27
0.0
 37
0.0
 40
127.9793997568131
 41
0.5581812396037358
 42
50.0
 43
0.0
 44
0.0
 50
0.0
 51
0.0
 71
     0
 72
   100
 73
     1
 74
     3
 75
     0
 76
     0
 77
     0
 78
     0
281
     0
 65
     1
110
0.0
120
0.0
130
0.0
111
1.0
121
0.0
131
0.0
112
0.0
122
1.0
132
0.0
 79
     0
146
0.0
348
2F
 60
     3
 61
     5
292
     1
282
     1
141
0.0
142
0.0
 63
   250
361
6D
  0
ENDTAB
  0
TABLE
  2
LTYPE
  5
5
330
0
100
AcDbSymbolTable
 70
     3
  0
LTYPE
  5
14
330
5
100
AcDbSymbolTableRecord
100
AcDbLinetypeTableRecord
  2
ByBlock
 70
     0
  3

 72
    65
 73
     0
 40
0.0
  0
LTYPE
  5
15
330
5
100
AcDbSymbolTableRecord
100
AcDbLinetypeTableRecord
  2
ByLayer
 70
     0
  3

 72
    65
 73
     0
 40
0.0
  0
LTYPE
  5
16
330
5
100
AcDbSymbolTableRecord
100
AcDbLinetypeTableRecord
  2
Continuous
 70
     0
  3
Solid line
 72
    65
 73
     0
 40
0.0
  0
LTYPE
  5
9D
330
5
100
AcDbSymbolTableRecord
100
AcDbLinetypeTableRecord
  2
Dashed
 70
     0
  3

 72
    65
 73
     2
 40
2.0
 49
1.0
 74
     0
 49
-1.0
 74
     0
  0
LTYPE
  5
107
330
5
100
AcDbSymbolTableRecord
100
AcDbLinetypeTableRecord
  2
Center
 70
     0
  3

 72
    65
 73
     4
 40
1.5
 49
0.45
 74
     0
 49
-0.5
 74
     0
 49
0.05
 74
     0
 49
-0.5
 74
     0
  0
ENDTAB
  0
TABLE
  2
LAYER
  5
2
330
0
100
AcDbSymbolTable
 70
     7
  0
LAYER
  5
10
330
2
100
AcDbSymbolTableRecord
100
AcDbLayerTableRecord
  2
0
 70
     0
 62
     7
  6
Continuous
370
    -3
390
F
347
46
348
0
  0
LAYER
  5
72
330
2
100
AcDbSymbolTableRecord
100
AcDbLayerTableRecord
  2
AM_6
 70
     0
 62
    -2
  6
Continuous
370
    35
390
F
347
46
348
0
  0
LAYER
  5
9E
330
2
100
AcDbSymbolTableRecord
100
AcDbLayerTableRecord
  2
AM_9
 70
     0
 62
     6
  6
Dashed
370
    25
390
F
347
46
348
0
  0
LAYER
  5
A6
330
2
100
AcDbSymbolTableRecord
100
AcDbLayerTableRecord
  2
AM_4
 70
     0
 62
     3
  6
Continuous
370
    25
390
F
347
46
348
0
  0
LAYER
  5
D6
330
2
100
AcDbSymbolTableRecord
100
AcDbLayerTableRecord
  2
AM_5
 70
     0
 62
     3
  6
Continuous
370
    25
390
F
347
46
348
0
  0
LAYER
  5
108
330
2
100
AcDbSymbolTableRecord
100
AcDbLayerTableRecord
  2
AM_7
 70
     0
 62
     7
  6
Center
370
    25
390
F
347
46
348
0
  0
LAYER
  5
1D2
330
2
100
AcDbSymbolTableRecord
100
AcDbLayerTableRecord
  2
ConnectionPoints
 70
     0
 62
     7
  6
Continuous
370
    50
390
F
347
46
348
0
  0
ENDTAB
  0
TABLE
  2
STYLE
  5
3
330
0
100
AcDbSymbolTable
 70
     1
  0
STYLE
  5
11
330
3
100
AcDbSymbolTableRecord
100
AcDbTextStyleTableRecord
  2
Standard
 70
     0
 40
0.0
 41
1.0
 50
0.0
 71
     0
 42
2.5
  3
txt
  4

  0
ENDTAB
  0
TABLE
  2
VIEW
  5
6
330
0
100
AcDbSymbolTable
 70
     0
  0
ENDTAB
  0
TABLE
  2
UCS
  5
7
330
0
100
AcDbSymbolTable
 70
     0
  0
ENDTAB
  0
TABLE
  2
APPID
  5
9
330
0
100
AcDbSymbolTable
 70
     1
  0
APPID
  5
12
330
9
100
AcDbSymbolTableRecord
100
AcDbRegAppTableRecord
  2
ACAD
 70
     0
  0
ENDTAB
  0
TABLE
  2
DIMSTYLE
  5
A
330
0
100
AcDbSymbolTable
 70
     1
100
AcDbDimStyleTable
  0
DIMSTYLE
105
27
330
A
100
AcDbSymbolTableRecord
100
AcDbDimStyleTableRecord
  2
ISO-25
 70
     0
 41
2.5
 42
0.625
 43
3.75
 44
1.25
 73
     0
 74
     0
 77
     1
 78
     8
140
2.5
141
2.5
143
0.03937007874016
147
0.625
171
     3
172
     1
178
     0
271
     2
272
     2
274
     3
278
    44
283
     0
284
     8
340
11
  0
ENDTAB
  0
TABLE
  2
BLOCK_RECORD
  5
1
330
0
100
AcDbSymbolTable
 70
     5
  0
BLOCK_RECORD
  5
1F
330
1
100
AcDbSymbolTableRecord
100
AcDbBlockTableRecord
  2
*Model_Space
340
22
 70
     0
280
     1
281
     0
  0
BLOCK_RECORD
  5
1B
330
1
100
AcDbSymbolTableRecord
100
AcDbBlockTableRecord
  2
*Paper_Space
340
1E
 70
     0
280
     1
281
     0
  0
BLOCK_RECORD
  5
23
330
1
100
AcDbSymbolTableRecord
100
AcDbBlockTableRecord
  2
*Paper_Space0
340
26
 70
     0
280
     1
281
     0
  0
BLOCK_RECORD
  5
6E
330
1
100
AcDbSymbolTableRecord
100
AcDbBlockTableRecord
  2
1__129358_0
340
0
102
{BLKREFS
331
6F
102
}
 70
     0
280
     1
281
     0
  0
BLOCK_RECORD
  5
87
330
1
100
AcDbSymbolTableRecord
100
AcDbBlockTableRecord
  2
2_INS_GT_05_CR_0_in__129358_0
340
0
102
{BLKREFS
331
88
102
}
 70
     0
280
     1
281
     0
  0
BLOCK_RECORD
  5
AE
330
1
100
AcDbSymbolTableRecord
100
AcDbBlockTableRecord
  2
3_129981_0_in__129358_0
340
0
102
{BLKREFS
331
AF
102
}
 70
     0
280
     1
281
     0
  0
BLOCK_RECORD
  5
EE
330
1
100
AcDbSymbolTableRecord
100
AcDbBlockTableRecord
  2
4_F2B_GTEZ_05_SHCR_M_0_in__129358_0
340
0
102
{BLKREFS
331
EF
102
}
 70
     0
280
     1
281
     0
  0
ENDTAB
  0
ENDSEC
  0
SECTION
  2
BLOCKS
  0
BLOCK
  5
20
330
1F
100
AcDbEntity
  8
0
100
AcDbBlockBegin
  2
*Model_Space
 70
     0
 10
0.0
 20
0.0
 30
0.0
  3
*Model_Space
  1

  0
ENDBLK
  5
21
330
1F
100
AcDbEntity
  8
0
100
AcDbBlockEnd
  0
BLOCK
  5
1C
330
1B
100
AcDbEntity
 67
     1
  8
0
100
AcDbBlockBegin
  2
*Paper_Space
 70
     0
 10
0.0
 20
0.0
 30
0.0
  3
*Paper_Space
  1

  0
ENDBLK
  5
1D
330
1B
100
AcDbEntity
 67
     1
  8
0
100
AcDbBlockEnd
  0
BLOCK
  5
24
330
23
100
AcDbEntity
  8
0
100
AcDbBlockBegin
  2
*Paper_Space0
 70
     0
 10
0.0
 20
0.0
 30
0.0
  3
*Paper_Space0
  1

  0
ENDBLK
  5
25
330
23
100
AcDbEntity
  8
0
100
AcDbBlockEnd
  0
BLOCK
  5
70
330
6E
100
AcDbEntity
  8
0
100
AcDbBlockBegin
  2
1__129358_0
 70
     2
 10
0.0
 20
0.0
 30
0.0
  3
1__129358_0
  1

  0
ATTDEF
  5
73
330
6E
100
AcDbEntity
  8
AM_6
100
AcDbText
 10
40.01750000000001
 20
62.735
 30
0.0
 40
0.5
  1
Grip Tight Two-Bolt Flange - Stainless Housing, Corrosion Resistant Insert Metric Bore
100
AcDbAttributeDefinition
  3

  2
NN
 70
     8
280
     0
  0
ATTDEF
  5
74
330
6E
100
AcDbEntity
  8
AM_6
100
AcDbText
 10
40.01750000000001
 20
62.235
 30
0.0
 40
0.5
  1
GTEZ Normal Duty Stainless Steel Housed 2 Bolt Flange Bearings^M^J
100
AcDbAttributeDefinition
  3

  2
NT
 70
     8
280
     0
  0
ATTDEF
  5
75
330
6E
100
AcDbEntity
  8
AM_6
100
AcDbText
 10
40.01750000000001
 20
61.735
 30
0.0
 40
0.5
  1
 129358
100
AcDbAttributeDefinition
  3

  2
NB
 70
     8
280
     0
  0
ATTDEF
  5
76
330
6E
100
AcDbEntity
  8
AM_6
100
AcDbText
 10
40.01750000000001
 20
61.235
 30
0.0
 40
0.5
  1
 $PN.$LUBE.
100
AcDbAttributeDefinition
  3

  2
NBSYN
 70
     8
280
     0
  0
ATTDEF
  5
77
330
6E
100
AcDbEntity
  8
AM_6
100
AcDbText
 10
40.01750000000001
 20
60.735
 30
0.0
 40
0.5
  1
129358
100
AcDbAttributeDefinition
  3

  2
LINA
 70
     8
280
     0
  0
ATTDEF
  5
78
330
6E
100
AcDbEntity
  8
AM_6
100
AcDbText
 10
40.01750000000001
 20
60.235
 30
0.0
 40
0.5
  1
205
100
AcDbAttributeDefinition
  3

  2
SERIES
 70
     8
280
     0
  0
ATTDEF
  5
79
330
6E
100
AcDbEntity
  8
AM_6
100
AcDbText
 10
40.01750000000001
 20
59.735
 30
0.0
 40
0.5
  1
25
100
AcDbAttributeDefinition
  3

  2
SS
 70
     8
280
     0
  0
ATTDEF
  5
7A
330
6E
100
AcDbEntity
  8
AM_6
100
AcDbText
 10
40.01750000000001
 20
59.235
 30
0.0
 40
0.5
  1
129358
100
AcDbAttributeDefinition
  3

  2
PN
 70
     8
280
     0
  0
ATTDEF
  5
7B
330
6E
100
AcDbEntity
  8
AM_6
100
AcDbText
 10
40.01750000000001
 20
58.735
 30
0.0
 40
0.5
  1
F2B-GTEZ-25M-SHCR
100
AcDbAttributeDefinition
  3

  2
DESCRIPTION
 70
     8
280
     0
  0
ATTDEF
  5
7C
330
6E
100
AcDbEntity
  8
AM_6
100
AcDbText
 10
40.01750000000001
 20
58.235
 30
0.0
 40
0.5
  1
36.9
100
AcDbAttributeDefinition
  3

  2
A
 70
     8
280
     0
  0
ATTDEF
  5
7D
330
6E
100
AcDbEntity
  8
AM_6
100
AcDbText
 10
40.01750000000001
 20
57.735
 30
0.0
 40
0.5
  1
124.2
100
AcDbAttributeDefinition
  3

  2
B
 70
     8
280
     0
  0
ATTDEF
  5
7E
330
6E
100
AcDbEntity
  8
AM_6
100
AcDbText
 10
40.01750000000001
 20
57.235
 30
0.0
 40
0.5
  1
39.3
100
AcDbAttributeDefinition
  3

  2
C
 70
     8
280
     0
  0
ATTDEF
  5
7F
330
6E
100
AcDbEntity
  8
AM_6
100
AcDbText
 10
40.01750000000001
 20
56.735
 30
0.0
 40
0.5
  1
98.8
100
AcDbAttributeDefinition
  3

  2
D
 70
     8
280
     0
  0
ATTDEF
  5
80
330
6E
100
AcDbEntity
  8
AM_6
100
AcDbText
 10
40.01750000000001
 20
56.235
 30
0.0
 40
0.5
  1
9.1
100
AcDbAttributeDefinition
  3

  2
H
 70
     8
280
     0
  0
ATTDEF
  5
81
330
6E
100
AcDbEntity
  8
AM_6
100
AcDbText
 10
40.01750000000001
 20
55.735
 30
0.0
 40
0.5
  1
14.3
100
AcDbAttributeDefinition
  3

  2
J
 70
     8
280
     0
  0
ATTDEF
  5
82
330
6E
100
AcDbEntity
  8
AM_6
100
AcDbText
 10
40.01750000000001
 20
55.235
 30
0.0
 40
0.5
  1
M10
100
AcDbAttributeDefinition
  3

  2
F
 70
     8
280
     0
  0
ATTDEF
  5
83
330
6E
100
AcDbEntity
  8
AM_6
100
AcDbText
 10
40.01750000000001
 20
54.735
 30
0.0
 40
0.5
  1
45.6
100
AcDbAttributeDefinition
  3

  2
L
 70
     8
280
     0
  0
ATTDEF
  5
84
330
6E
100
AcDbEntity
  8
AM_6
100
AcDbText
 10
40.01750000000001
 20
54.235
 30
0.0
 40
0.5
  1
66.7
100
AcDbAttributeDefinition
  3

  2
M
 70
     8
280
     0
  0
ATTDEF
  5
85
330
6E
100
AcDbEntity
  8
AM_6
100
AcDbText
 10
40.01750000000001
 20
53.735
 30
0.0
 40
0.5
  1
38.9
100
AcDbAttributeDefinition
  3

  2
Z
 70
     8
280
     0
  0
ATTDEF
  5
86
330
6E
100
AcDbEntity
  8
AM_6
100
AcDbText
 10
40.01750000000001
 20
53.235
 30
0.0
 40
0.5
  1
baldor
100
AcDbAttributeDefinition
  3

  2
COMPANY
 70
     8
280
     0
  0
INSERT
  5
88
330
6E
100
AcDbEntity
  8
0
100
AcDbBlockReference
  2
2_INS_GT_05_CR_0_in__129358_0
 10
0.0
 20
0.0
 30
0.0
  0
INSERT
  5
AF
330
6E
100
AcDbEntity
  8
0
100
AcDbBlockReference
  2
3_129981_0_in__129358_0
 10
0.0
 20
0.0
 30
0.0
  0
INSERT
  5
EF
330
6E
100
AcDbEntity
  8
0
100
AcDbBlockReference
  2
4_F2B_GTEZ_05_SHCR_M_0_in__129358_0
 10
0.0
 20
0.0
 30
0.0
  0
ENDBLK
  5
71
330
6E
100
AcDbEntity
  8
0
100
AcDbBlockEnd
  0
BLOCK
  5
89
330
87
100
AcDbEntity
  8
0
100
AcDbBlockBegin
  2
2_INS_GT_05_CR_0_in__129358_0
 70
     2
 10
0.0
 20
0.0
 30
0.0
  3
2_INS_GT_05_CR_0_in__129358_0
  1

  0
ATTDEF
  5
8B
330
87
100
AcDbEntity
  8
AM_6
100
AcDbText
 10
30.76893385193268
 20
25.76893385193268
 30
0.0
 40
0.5
  1
INS-GT-CR-M
100
AcDbAttributeDefinition
  3

  2
NN
 70
     8
280
     0
  0
ATTDEF
  5
8C
330
87
100
AcDbEntity
  8
AM_6
100
AcDbText
 10
30.76893385193268
 20
25.26893385193268
 30
0.0
 40
0.5
  1
GT Normal Duty Corrosion Resistant Bearing Inserts
100
AcDbAttributeDefinition
  3

  2
NT
 70
     8
280
     0
  0
ATTDEF
  5
8D
330
87
100
AcDbEntity
  8
AM_6
100
AcDbText
 10
30.76893385193268
 20
24.76893385193268
 30
0.0
 40
0.5
  1
INS-GT-05-CR
100
AcDbAttributeDefinition
  3

  2
NB
 70
     8
280
     0
  0
ATTDEF
  5
8E
330
87
100
AcDbEntity
  8
AM_6
100
AcDbText
 10
30.76893385193268
 20
24.26893385193268
 30
0.0
 40
0.5
  1
$PN.
100
AcDbAttributeDefinition
  3

  2
NBSYN
 70
     8
280
     0
  0
ATTDEF
  5
8F
330
87
100
AcDbEntity
  8
AM_6
100
AcDbText
 10
30.76893385193268
 20
23.76893385193268
 30
0.0
 40
0.5
  1
INS-GT-05-CR
100
AcDbAttributeDefinition
  3

  2
LINA
 70
     8
280
     0
  0
ATTDEF
  5
90
330
87
100
AcDbEntity
  8
AM_6
100
AcDbText
 10
30.76893385193268
 20
23.26893385193268
 30
0.0
 40
0.5
  1
205
100
AcDbAttributeDefinition
  3

  2
SERIES
 70
     8
280
     0
  0
ATTDEF
  5
91
330
87
100
AcDbEntity
  8
AM_6
100
AcDbText
 10
30.76893385193268
 20
22.76893385193268
 30
0.0
 40
0.5
  1
INS-GT-05-CR
100
AcDbAttributeDefinition
  3

  2
PN
 70
     8
280
     0
  0
ATTDEF
  5
92
330
87
100
AcDbEntity
  8
AM_6
100
AcDbText
 10
30.76893385193268
 20
22.26893385193268
 30
0.0
 40
0.5
  1
INS-GT-05-CR
100
AcDbAttributeDefinition
  3

  2
DESCRIPTION
 70
     8
280
     0
  0
ATTDEF
  5
93
330
87
100
AcDbEntity
  8
AM_6
100
AcDbText
 10
30.76893385193268
 20
21.76893385193268
 30
0.0
 40
0.5
  1
36.9
100
AcDbAttributeDefinition
  3

  2
A
 70
     8
280
     0
  0
ATTDEF
  5
94
330
87
100
AcDbEntity
  8
AM_6
100
AcDbText
 10
30.76893385193268
 20
21.26893385193268
 30
0.0
 40
0.5
  1
15.0
100
AcDbAttributeDefinition
  3

  2
C
 70
     8
280
     0
  0
ATTDEF
  5
95
330
87
100
AcDbEntity
  8
AM_6
100
AcDbText
 10
30.76893385193268
 20
20.76893385193268
 30
0.0
 40
0.5
  1
52.0
100
AcDbAttributeDefinition
  3

  2
D
 70
     8
280
     0
  0
ATTDEF
  5
96
330
87
100
AcDbEntity
  8
AM_6
100
AcDbText
 10
30.76893385193268
 20
20.26893385193268
 30
0.0
 40
0.5
  1
3.9
100
AcDbAttributeDefinition
  3

  2
J
 70
     8
280
     0
  0
ATTDEF
  5
97
330
87
100
AcDbEntity
  8
AM_6
100
AcDbText
 10
30.76893385193268
 20
19.76893385193268
 30
0.0
 40
0.5
  1
45.6
100
AcDbAttributeDefinition
  3

  2
L
 70
     8
280
     0
  0
ATTDEF
  5
98
330
87
100
AcDbEntity
  8
AM_6
100
AcDbText
 10
30.76893385193268
 20
19.26893385193268
 30
0.0
 40
0.5
  1
10 - 32 x 1/4
100
AcDbAttributeDefinition
  3

  2
N
 70
     8
280
     0
  0
ATTDEF
  5
99
330
87
100
AcDbEntity
  8
AM_6
100
AcDbText
 10
30.76893385193268
 20
18.76893385193268
 30
0.0
 40
0.5
  1
12.7
100
AcDbAttributeDefinition
  3

  2
W
 70
     8
280
     0
  0
ATTDEF
  5
9A
330
87
100
AcDbEntity
  8
AM_6
100
AcDbText
 10
30.76893385193268
 20
18.26893385193268
 30
0.0
 40
0.5
  1
24.2
100
AcDbAttributeDefinition
  3

  2
X
 70
     8
280
     0
  0
ATTDEF
  5
9B
330
87
100
AcDbEntity
  8
AM_6
100
AcDbText
 10
30.76893385193268
 20
17.76893385193268
 30
0.0
 40
0.5
  1
24.2
100
AcDbAttributeDefinition
  3

  2
Y
 70
     8
280
     0
  0
ATTDEF
  5
9C
330
87
100
AcDbEntity
  8
AM_6
100
AcDbText
 10
30.76893385193268
 20
17.26893385193268
 30
0.0
 40
0.5
  1
baldor
100
AcDbAttributeDefinition
  3

  2
COMPANY
 70
     8
280
     0
  0
CIRCLE
  5
9F
330
87
100
AcDbEntity
  8
AM_9
100
AcDbCircle
 10
0.0000000000000016
 20
0.0
 30
0.0
 40
17.7255741879521
  0
CIRCLE
  5
A0
330
87
100
AcDbEntity
  8
AM_9
100
AcDbCircle
 10
0.0000000000000016
 20
0.0
 30
0.0
 40
24.5
  0
CIRCLE
  5
A1
330
87
100
AcDbEntity
  8
AM_9
100
AcDbCircle
 10
0.0000000000000016
 20
0.0
 30
0.0
 40
25.23749182788348
  0
CIRCLE
  5
A2
330
87
100
AcDbEntity
  8
AM_9
100
AcDbCircle
 10
0.0000000000000016
 20
0.0
 30
0.0
 40
18.63809523809524
  0
ARC
  5
A3
330
87
100
AcDbEntity
  8
AM_9
100
AcDbCircle
 10
-0.0000000000000037
 20
0.0000000000000001
 30
0.0
 40
17.00952380952382
100
AcDbArc
 50
94.17618421442518
 51
85.82129862903055
  0
CIRCLE
  5
A4
330
87
100
AcDbEntity
  8
AM_9
100
AcDbCircle
 10
0.0000000000000016
 20
0.0
 30
0.0
 40
19.66666666666666
  0
CIRCLE
  5
A5
330
87
100
AcDbEntity
  8
AM_9
100
AcDbCircle
 10
0.0000000000000016
 20
0.0
 30
0.0
 40
20.26666666666667
  0
CIRCLE
  5
A7
330
87
100
AcDbEntity
  8
AM_4
100
AcDbCircle
 10
0.0000000000000016
 20
0.0
 30
0.0
 40
25.76893385193268
  0
CIRCLE
  5
A8
330
87
100
AcDbEntity
  8
AM_4
100
AcDbCircle
 10
0.0000000000000016
 20
0.0
 30
0.0
 40
25.62071128384087
  0
CIRCLE
  5
A9
330
87
100
AcDbEntity
  8
AM_4
100
AcDbCircle
 10
0.0000000000000016
 20
0.0
 30
0.0
 40
25.38749182788348
  0
CIRCLE
  5
AA
330
87
100
AcDbEntity
  8
AM_4
100
AcDbCircle
 10
0.0000000000000016
 20
0.0
 30
0.0
 40
25.38274369757587
  0
CIRCLE
  5
AB
330
87
100
AcDbEntity
  8
AM_4
100
AcDbCircle
 10
0.0000000000000016
 20
0.0
 30
0.0
 40
24.09545395833822
  0
CIRCLE
  5
AC
330
87
100
AcDbEntity
  8
AM_4
100
AcDbCircle
 10
0.0000000000000016
 20
0.0
 30
0.0
 40
24.65403979828546
  0
ARC
  5
AD
330
87
100
AcDbEntity
  8
AM_4
100
AcDbCircle
 10
-0.0000000000000036
 20
-0.0000000000000959
 30
0.0
 40
17.00952380952391
100
AcDbArc
 50
85.82129862903058
 51
94.17618421442515
  0
ENDBLK
  5
8A
330
87
100
AcDbEntity
  8
0
100
AcDbBlockEnd
  0
BLOCK
  5
B0
330
AE
100
AcDbEntity
  8
0
100
AcDbBlockBegin
  2
3_129981_0_in__129358_0
 70
     2
 10
0.0
 20
0.0
 30
0.0
  3
3_129981_0_in__129358_0
  1

  0
ATTDEF
  5
B2
330
AE
100
AcDbEntity
  8
AM_6
100
AcDbText
 10
27.71645879092954
 20
22.7954877204193
 30
0.0
 40
0.5
  1
Grip Tight Adapter and Nut - Corrosion Resistant Metric Bore
100
AcDbAttributeDefinition
  3

  2
NN
 70
     8
280
     0
  0
ATTDEF
  5
B3
330
AE
100
AcDbEntity
  8
AM_6
100
AcDbText
 10
27.71645879092954
 20
22.2954877204193
 30
0.0
 40
0.5
  1
GT and GTM Adapter & Lock Nut Assemblies
100
AcDbAttributeDefinition
  3

  2
NT
 70
     8
280
     0
  0
ATTDEF
  5
B4
330
AE
100
AcDbEntity
  8
AM_6
100
AcDbText
 10
27.71645879092954
 20
21.7954877204193
 30
0.0
 40
0.5
  1
129981
100
AcDbAttributeDefinition
  3

  2
NB
 70
     8
280
     0
  0
ATTDEF
  5
B5
330
AE
100
AcDbEntity
  8
AM_6
100
AcDbText
 10
27.71645879092954
 20
21.2954877204193
 30
0.0
 40
0.5
  1
$PN.
100
AcDbAttributeDefinition
  3

  2
NBSYN
 70
     8
280
     0
  0
ATTDEF
  5
B6
330
AE
100
AcDbEntity
  8
AM_6
100
AcDbText
 10
27.71645879092954
 20
20.7954877204193
 30
0.0
 40
0.5
  1
129981
100
AcDbAttributeDefinition
  3

  2
LINA
 70
     8
280
     0
  0
ATTDEF
  5
B7
330
AE
100
AcDbEntity
  8
AM_6
100
AcDbText
 10
27.71645879092954
 20
20.2954877204193
 30
0.0
 40
0.5
  1
205
100
AcDbAttributeDefinition
  3

  2
SERIES
 70
     8
280
     0
  0
ATTDEF
  5
B8
330
AE
100
AcDbEntity
  8
AM_6
100
AcDbText
 10
27.71645879092954
 20
19.7954877204193
 30
0.0
 40
0.5
  1
25
100
AcDbAttributeDefinition
  3

  2
SS
 70
     8
280
     0
  0
ATTDEF
  5
B9
330
AE
100
AcDbEntity
  8
AM_6
100
AcDbText
 10
27.71645879092954
 20
19.2954877204193
 30
0.0
 40
0.5
  1
129981
100
AcDbAttributeDefinition
  3

  2
PN
 70
     8
280
     0
  0
ATTDEF
  5
BA
330
AE
100
AcDbEntity
  8
AM_6
100
AcDbText
 10
27.71645879092954
 20
18.7954877204193
 30
0.0
 40
0.5
  1
AN-GT-05-25M-CR
100
AcDbAttributeDefinition
  3

  2
DESCRIPTION
 70
     8
280
     0
  0
ATTDEF
  5
BB
330
AE
100
AcDbEntity
  8
AM_6
100
AcDbText
 10
27.71645879092954
 20
18.2954877204193
 30
0.0
 40
0.5
  1
36.9
100
AcDbAttributeDefinition
  3

  2
A
 70
     8
280
     0
  0
ATTDEF
  5
BC
330
AE
100
AcDbEntity
  8
AM_6
100
AcDbText
 10
27.71645879092954
 20
17.7954877204193
 30
0.0
 40
0.5
  1
15.0
100
AcDbAttributeDefinition
  3

  2
C
 70
     8
280
     0
  0
ATTDEF
  5
BD
330
AE
100
AcDbEntity
  8
AM_6
100
AcDbText
 10
27.71645879092954
 20
17.2954877204193
 30
0.0
 40
0.5
  1
52.0
100
AcDbAttributeDefinition
  3

  2
D
 70
     8
280
     0
  0
ATTDEF
  5
BE
330
AE
100
AcDbEntity
  8
AM_6
100
AcDbText
 10
27.71645879092954
 20
16.7954877204193
 30
0.0
 40
0.5
  1
3.9
100
AcDbAttributeDefinition
  3

  2
J
 70
     8
280
     0
  0
ATTDEF
  5
BF
330
AE
100
AcDbEntity
  8
AM_6
100
AcDbText
 10
27.71645879092954
 20
16.2954877204193
 30
0.0
 40
0.5
  1
45.6
100
AcDbAttributeDefinition
  3

  2
L
 70
     8
280
     0
  0
ATTDEF
  5
C0
330
AE
100
AcDbEntity
  8
AM_6
100
AcDbText
 10
27.71645879092954
 20
15.7954877204193
 30
0.0
 40
0.5
  1
10 - 32 x 1/4
100
AcDbAttributeDefinition
  3

  2
N
 70
     8
280
     0
  0
ATTDEF
  5
C1
330
AE
100
AcDbEntity
  8
AM_6
100
AcDbText
 10
27.71645879092954
 20
15.2954877204193
 30
0.0
 40
0.5
  1
12.7
100
AcDbAttributeDefinition
  3

  2
W
 70
     8
280
     0
  0
ATTDEF
  5
C2
330
AE
100
AcDbEntity
  8
AM_6
100
AcDbText
 10
27.71645879092954
 20
14.7954877204193
 30
0.0
 40
0.5
  1
24.2
100
AcDbAttributeDefinition
  3

  2
X
 70
     8
280
     0
  0
ATTDEF
  5
C3
330
AE
100
AcDbEntity
  8
AM_6
100
AcDbText
 10
27.71645879092954
 20
14.2954877204193
 30
0.0
 40
0.5
  1
24.2
100
AcDbAttributeDefinition
  3

  2
Y
 70
     8
280
     0
  0
ATTDEF
  5
C4
330
AE
100
AcDbEntity
  8
AM_6
100
AcDbText
 10
27.71645879092954
 20
13.7954877204193
 30
0.0
 40
0.5
  1
baldor
100
AcDbAttributeDefinition
  3

  2
COMPANY
 70
     8
280
     0
  0
LINE
  5
C5
330
AE
100
AcDbEntity
  8
AM_9
100
AcDbLine
 10
-1.249999999999998
 20
17.00977505789123
 30
0.0
 11
-1.249999999999998
 21
17.72590430734876
 31
0.0
  0
LINE
  5
C6
330
AE
100
AcDbEntity
  8
AM_9
100
AcDbLine
 10
1.250000000000002
 20
17.00977505789123
 30
0.0
 11
1.250000000000002
 21
17.72590430734876
 31
0.0
  0
ARC
  5
C7
330
AE
100
AcDbEntity
  8
AM_9
100
AcDbCircle
 10
0.0000000000000017
 20
-0.0000000000000006
 30
0.0
 40
17.76992356520662
100
AcDbArc
 50
94.03372141977252
 51
85.96627858022747
  0
CIRCLE
  5
C8
330
AE
100
AcDbEntity
  8
AM_9
100
AcDbCircle
 10
0.0000000000000016
 20
0.0
 30
0.0
 40
18.63809523809523
  0
ARC
  5
C9
330
AE
100
AcDbEntity
  8
AM_9
100
AcDbCircle
 10
0.0000000000000016
 20
-0.0000000000000013
 30
0.0
 40
17.0095238095238
100
AcDbArc
 50
94.21436521923737
 51
85.78563478076265
  0
CIRCLE
  5
CA
330
AE
100
AcDbEntity
  8
AM_9
100
AcDbCircle
 10
0.0000000000000016
 20
0.0
 30
0.0
 40
20.49466666666667
  0
LINE
  5
CB
330
AE
100
AcDbEntity
  8
AM_9
100
AcDbLine
 10
-22.3682
 20
-1.981200000000003
 30
0.0
 11
-17.5318
 21
-1.981200000000003
 31
0.0
  0
LINE
  5
CC
330
AE
100
AcDbEntity
  8
AM_9
100
AcDbLine
 10
-17.5318
 20
1.981200000000003
 30
0.0
 11
-22.3682
 21
1.981200000000003
 31
0.0
  0
LINE
  5
CD
330
AE
100
AcDbEntity
  8
AM_9
100
AcDbLine
 10
-17.5318
 20
-1.981200000000003
 30
0.0
 11
-17.1
 21
-2.413000000000002
 31
0.0
  0
LINE
  5
CE
330
AE
100
AcDbEntity
  8
AM_9
100
AcDbLine
 10
-17.1
 20
2.413000000000002
 30
0.0
 11
-17.5318
 21
1.981200000000003
 31
0.0
  0
LINE
  5
CF
330
AE
100
AcDbEntity
  8
AM_9
100
AcDbLine
 10
-17.1
 20
2.413000000000002
 30
0.0
 11
-17.1
 21
-2.413000000000002
 31
0.0
  0
LINE
  5
D0
330
AE
100
AcDbEntity
  8
AM_9
100
AcDbLine
 10
-17.5318
 20
1.981200000000003
 30
0.0
 11
-17.5318
 21
-1.981200000000003
 31
0.0
  0
LINE
  5
D1
330
AE
100
AcDbEntity
  8
AM_9
100
AcDbLine
 10
-22.3682
 20
1.981200000000003
 30
0.0
 11
-22.68012820284025
 21
2.293128202840258
 31
0.0
  0
LINE
  5
D2
330
AE
100
AcDbEntity
  8
AM_9
100
AcDbLine
 10
-22.6814006730283
 20
-2.294400673028298
 30
0.0
 11
-22.3682
 21
-1.981200000000003
 31
0.0
  0
LINE
  5
D3
330
AE
100
AcDbEntity
  8
AM_9
100
AcDbLine
 10
-22.3682
 20
1.981200000000003
 30
0.0
 11
-22.3682
 21
-1.981200000000003
 31
0.0
  0
LWPOLYLINE
  5
D4
330
AE
100
AcDbEntity
  8
AM_9
100
AcDbPolyline
 90
       10
 70
     0
 43
0.0
 10
-22.79127282536824
 20
0.63077967598135
 10
-22.78638550387028
 20
0.7878043342166127
 10
-22.77269998078226
 20
1.115408259463513
 10
-22.75566320576637
 20
1.421193887451867
 10
-22.73720277170957
 20
1.691038177618365
 10
-22.7189042142356
 20
1.921299379167071
 10
-22.70283335700977
 20
2.102702443011056
 10
-22.69083308501306
 20
2.228473447918336
 10
-22.68463746362819
 20
2.290681807618941
 10
-22.68399869910178
 20
2.296998698116497
  0
LINE
  5
D5
330
AE
100
AcDbEntity
  8
AM_9
100
AcDbLine
 10
-22.68399869953785
 20
-2.296998693810143
 30
0.0
 11
-22.70532533083766
 21
-2.075620779627473
 31
0.0
  0
LINE
  5
D7
330
AE
100
AcDbEntity
  8
AM_5
100
AcDbLine
 10
-22.67195251847533
 20
-2.413000000000002
 30
0.0
 11
-17.1
 21
-2.413000000000002
 31
0.0
  0
LINE
  5
D8
330
AE
100
AcDbEntity
  8
AM_5
100
AcDbLine
 10
-22.67195251847533
 20
2.412999999999998
 30
0.0
 11
-17.1
 21
2.412999999999998
 31
0.0
  0
LINE
  5
D9
330
AE
100
AcDbEntity
  8
AM_4
100
AcDbLine
 10
21.27999493331645
 20
1.95
 30
0.0
 11
21.27999493331644
 21
-1.95
 31
0.0
  0
LINE
  5
DA
330
AE
100
AcDbEntity
  8
AM_4
100
AcDbLine
 10
-12.32874700403787
 20
-17.45401620465618
 30
0.0
 11
-13.04697893284442
 21
-18.69803039696732
 31
0.0
  0
LINE
  5
DB
330
AE
100
AcDbEntity
  8
AM_4
100
AcDbLine
 10
-8.951247929278562
 20
-19.40401620465618
 30
0.0
 11
-12.32874700403787
 21
-17.45401620465618
 31
0.0
  0
LINE
  5
DC
330
AE
100
AcDbEntity
  8
AM_4
100
AcDbLine
 10
-9.66947985808511
 20
-20.64803039696732
 30
0.0
 11
-8.951247929278562
 21
-19.40401620465618
 31
0.0
  0
LINE
  5
DD
330
AE
100
AcDbEntity
  8
AM_4
100
AcDbLine
 10
-13.04697893284443
 20
18.69803039696732
 30
0.0
 11
-12.32874700403788
 21
17.45401620465617
 31
0.0
  0
LINE
  5
DE
330
AE
100
AcDbEntity
  8
AM_4
100
AcDbLine
 10
-12.32874700403788
 20
17.45401620465617
 30
0.0
 11
-8.951247929278574
 21
19.40401620465618
 31
0.0
  0
LINE
  5
DF
330
AE
100
AcDbEntity
  8
AM_4
100
AcDbLine
 10
21.27999493331644
 20
-1.95
 30
0.0
 11
22.71645879092954
 21
-1.95
 31
0.0
  0
LINE
  5
E0
330
AE
100
AcDbEntity
  8
AM_4
100
AcDbLine
 10
1.250000000000002
 20
17.00952380952381
 30
0.0
 11
-1.249999999999998
 21
17.00952380952381
 31
0.0
  0
LINE
  5
E1
330
AE
100
AcDbEntity
  8
AM_4
100
AcDbLine
 10
-1.249999999999998
 20
17.00952380952381
 30
0.0
 11
-1.249999999999998
 21
12.43734296383275
 31
0.0
  0
LINE
  5
E2
330
AE
100
AcDbEntity
  8
AM_4
100
AcDbLine
 10
1.250000000000002
 20
17.00952380952381
 30
0.0
 11
1.250000000000002
 21
12.43734296383275
 31
0.0
  0
ARC
  5
E3
330
AE
100
AcDbEntity
  8
AM_4
100
AcDbCircle
 10
0.0000000000000016
 20
0.000000000000001
 30
0.0
 40
12.5
100
AcDbArc
 50
95.7391704772668
 51
84.26082952273322
  0
LINE
  5
E4
330
AE
100
AcDbEntity
  8
AM_4
100
AcDbLine
 10
22.71645879092954
 20
1.95
 30
0.0
 11
21.27999493331645
 21
1.95
 31
0.0
  0
LINE
  5
E5
330
AE
100
AcDbEntity
  8
AM_4
100
AcDbLine
 10
-8.951247929278574
 20
19.40401620465618
 30
0.0
 11
-9.669479858085126
 21
20.64803039696731
 31
0.0
  0
ARC
  5
E6
330
AE
100
AcDbEntity
  8
AM_4
100
AcDbCircle
 10
-0.0000000000000036
 20
-0.0000000000000071
 30
0.0
 40
22.8
100
AcDbArc
 50
4.906290757642225
 51
115.0937092423578
  0
ARC
  5
E7
330
AE
100
AcDbEntity
  8
AM_4
100
AcDbCircle
 10
0.0
 20
-0.0000000000000018
 30
0.0
 40
22.2
100
AcDbArc
 50
5.039231631771522
 51
114.9607683682285
  0
ARC
  5
E8
330
AE
100
AcDbEntity
  8
AM_4
100
AcDbCircle
 10
0.0000000000000142
 20
-0.0000000000000053
 30
0.0
 40
22.80000000000001
100
AcDbArc
 50
124.9062907576423
 51
178.4566437385238
  0
LWPOLYLINE
  5
E9
330
AE
100
AcDbEntity
  8
AM_4
100
AcDbPolyline
 90
        3
 70
     0
 43
0.0
 10
-22.79172885369209
 20
0.6140813136545675
 10
-22.75601037937264
 20
0.0104777792177353
 10
-22.7917288536921
 20
-0.6140813136542685
  0
ARC
  5
EA
330
AE
100
AcDbEntity
  8
AM_4
100
AcDbCircle
 10
0.0000000000000746
 20
0.0000000000000515
 30
0.0
 40
22.80000000000009
100
AcDbArc
 50
181.5433562614753
 51
235.0937092423576
  0
ARC
  5
EB
330
AE
100
AcDbEntity
  8
AM_4
100
AcDbCircle
 10
0.0
 20
-0.0000000000000018
 30
0.0
 40
22.2
100
AcDbArc
 50
125.0392316317715
 51
234.9607683682285
  0
ARC
  5
EC
330
AE
100
AcDbEntity
  8
AM_4
100
AcDbCircle
 10
0.0000000000000017
 20
-0.0000000000000071
 30
0.0
 40
22.8
100
AcDbArc
 50
244.9062907576422
 51
355.0937092423576
  0
ARC
  5
ED
330
AE
100
AcDbEntity
  8
AM_4
100
AcDbCircle
 10
0.0000000000000017
 20
-0.0000000000000071
 30
0.0
 40
22.2
100
AcDbArc
 50
245.0392316317715
 51
354.9607683682285
  0
ENDBLK
  5
B1
330
AE
100
AcDbEntity
  8
0
100
AcDbBlockEnd
  0
BLOCK
  5
F0
330
EE
100
AcDbEntity
  8
0
100
AcDbBlockBegin
  2
4_F2B_GTEZ_05_SHCR_M_0_in__129358_0
 70
     2
 10
0.0
 20
0.0
 30
0.0
  3
4_F2B_GTEZ_05_SHCR_M_0_in__129358_0
  1

  0
ATTDEF
  5
F2
330
EE
100
AcDbEntity
  8
AM_6
100
AcDbText
 10
40.01750000000001
 20
62.735
 30
0.0
 40
0.5
  1
F2B-GTEZ- SHCR-M
100
AcDbAttributeDefinition
  3

  2
NN
 70
     8
280
     0
  0
ATTDEF
  5
F3
330
EE
100
AcDbEntity
  8
AM_6
100
AcDbText
 10
40.01750000000001
 20
62.235
 30
0.0
 40
0.5
  1
GTEZ  Normal Duty Stainless Steel Housed 2 Bolt Flange Bearings
100
AcDbAttributeDefinition
  3

  2
NT
 70
     8
280
     0
  0
ATTDEF
  5
F4
330
EE
100
AcDbEntity
  8
AM_6
100
AcDbText
 10
40.01750000000001
 20
61.735
 30
0.0
 40
0.5
  1
F2B-GTEZ-05-SHCR-M
100
AcDbAttributeDefinition
  3

  2
NB
 70
     8
280
     0
  0
ATTDEF
  5
F5
330
EE
100
AcDbEntity
  8
AM_6
100
AcDbText
 10
40.01750000000001
 20
61.235
 30
0.0
 40
0.5
  1
$PN.$LUBE.
100
AcDbAttributeDefinition
  3

  2
NBSYN
 70
     8
280
     0
  0
ATTDEF
  5
F6
330
EE
100
AcDbEntity
  8
AM_6
100
AcDbText
 10
40.01750000000001
 20
60.735
 30
0.0
 40
0.5
  1
F2B-GTEZ-05-SHCR-M
100
AcDbAttributeDefinition
  3

  2
LINA
 70
     8
280
     0
  0
ATTDEF
  5
F7
330
EE
100
AcDbEntity
  8
AM_6
100
AcDbText
 10
40.01750000000001
 20
60.235
 30
0.0
 40
0.5
  1
205
100
AcDbAttributeDefinition
  3

  2
SERIES
 70
     8
280
     0
  0
ATTDEF
  5
F8
330
EE
100
AcDbEntity
  8
AM_6
100
AcDbText
 10
40.01750000000001
 20
59.735
 30
0.0
 40
0.5
  1
25
100
AcDbAttributeDefinition
  3

  2
SS
 70
     8
280
     0
  0
ATTDEF
  5
F9
330
EE
100
AcDbEntity
  8
AM_6
100
AcDbText
 10
40.01750000000001
 20
59.235
 30
0.0
 40
0.5
  1
F2B-GTEZ-05-SHCR-M
100
AcDbAttributeDefinition
  3

  2
PN
 70
     8
280
     0
  0
ATTDEF
  5
FA
330
EE
100
AcDbEntity
  8
AM_6
100
AcDbText
 10
40.01750000000001
 20
58.735
 30
0.0
 40
0.5
  1
F2B-GTEZ-05-SHCR
100
AcDbAttributeDefinition
  3

  2
DESCRIPTION
 70
     8
280
     0
  0
ATTDEF
  5
FB
330
EE
100
AcDbEntity
  8
AM_6
100
AcDbText
 10
40.01750000000001
 20
58.235
 30
0.0
 40
0.5
  1
0.65
100
AcDbAttributeDefinition
  3

  2
WEIGHT
 70
     8
280
     0
  0
ATTDEF
  5
FC
330
EE
100
AcDbEntity
  8
AM_6
100
AcDbText
 10
40.01750000000001
 20
57.735
 30
0.0
 40
0.5
  1
36.9
100
AcDbAttributeDefinition
  3

  2
A
 70
     8
280
     0
  0
ATTDEF
  5
FD
330
EE
100
AcDbEntity
  8
AM_6
100
AcDbText
 10
40.01750000000001
 20
57.235
 30
0.0
 40
0.5
  1
124.2
100
AcDbAttributeDefinition
  3

  2
B
 70
     8
280
     0
  0
ATTDEF
  5
FE
330
EE
100
AcDbEntity
  8
AM_6
100
AcDbText
 10
40.01750000000001
 20
56.735
 30
0.0
 40
0.5
  1
39.3
100
AcDbAttributeDefinition
  3

  2
C
 70
     8
280
     0
  0
ATTDEF
  5
FF
330
EE
100
AcDbEntity
  8
AM_6
100
AcDbText
 10
40.01750000000001
 20
56.235
 30
0.0
 40
0.5
  1
98.8
100
AcDbAttributeDefinition
  3

  2
D
 70
     8
280
     0
  0
ATTDEF
  5
100
330
EE
100
AcDbEntity
  8
AM_6
100
AcDbText
 10
40.01750000000001
 20
55.735
 30
0.0
 40
0.5
  1
M10
100
AcDbAttributeDefinition
  3

  2
F
 70
     8
280
     0
  0
ATTDEF
  5
101
330
EE
100
AcDbEntity
  8
AM_6
100
AcDbText
 10
40.01750000000001
 20
55.235
 30
0.0
 40
0.5
  1
9.1
100
AcDbAttributeDefinition
  3

  2
H
 70
     8
280
     0
  0
ATTDEF
  5
102
330
EE
100
AcDbEntity
  8
AM_6
100
AcDbText
 10
40.01750000000001
 20
54.735
 30
0.0
 40
0.5
  1
14.3
100
AcDbAttributeDefinition
  3

  2
J
 70
     8
280
     0
  0
ATTDEF
  5
103
330
EE
100
AcDbEntity
  8
AM_6
100
AcDbText
 10
40.01750000000001
 20
54.235
 30
0.0
 40
0.5
  1
45.6
100
AcDbAttributeDefinition
  3

  2
L
 70
     8
280
     0
  0
ATTDEF
  5
104
330
EE
100
AcDbEntity
  8
AM_6
100
AcDbText
 10
40.01750000000001
 20
53.735
 30
0.0
 40
0.5
  1
66.7
100
AcDbAttributeDefinition
  3

  2
M
 70
     8
280
     0
  0
ATTDEF
  5
105
330
EE
100
AcDbEntity
  8
AM_6
100
AcDbText
 10
40.01750000000001
 20
53.235
 30
0.0
 40
0.5
  1
38.9
100
AcDbAttributeDefinition
  3

  2
Z
 70
     8
280
     0
  0
ATTDEF
  5
106
330
EE
100
AcDbEntity
  8
AM_6
100
AcDbText
 10
40.01750000000001
 20
52.735
 30
0.0
 40
0.5
  1
baldor
100
AcDbAttributeDefinition
  3

  2
COMPANY
 70
     8
280
     0
  0
LINE
  5
109
330
EE
100
AcDbEntity
  8
AM_7
100
AcDbLine
 10
20.4979193217294
 20
20.4979193217294
 30
0.0
 11
30.54442254916314
 21
30.54442254916314
 31
0.0
  0
LINE
  5
10A
330
EE
100
AcDbEntity
  8
AM_7
100
AcDbLine
 10
-35.01750000000001
 20
-0.0000000000000062
 30
0.0
 11
35.01750000000001
 21
-0.0000000000000062
 31
0.0
  0
LINE
  5
10B
330
EE
100
AcDbEntity
  8
AM_7
100
AcDbLine
 10
0.0000000000000009
 20
-35.01750000000001
 30
0.0
 11
0.0000000000000009
 21
35.0175
 31
0.0
  0
LINE
  5
10C
330
EE
100
AcDbEntity
  8
AM_7
100
AcDbLine
 10
-13.33499999999999
 20
49.40000000000002
 30
0.0
 11
13.33499999999998
 21
49.40000000000002
 31
0.0
  0
LINE
  5
10D
330
EE
100
AcDbEntity
  8
AM_7
100
AcDbLine
 10
-0.0000000000000062
 20
36.06500000000004
 30
0.0
 11
-0.0000000000000062
 21
62.735
 31
0.0
  0
LINE
  5
10E
330
EE
100
AcDbEntity
  8
AM_7
100
AcDbLine
 10
-13.33500000000003
 20
-49.39999976158143
 30
0.0
 11
13.33499999999998
 21
-49.39999976158143
 31
0.0
  0
LINE
  5
10F
330
EE
100
AcDbEntity
  8
AM_7
100
AcDbLine
 10
-0.0000000000000249
 20
-62.73499976158143
 30
0.0
 11
-0.0000000000000249
 21
-36.06499976158142
 31
0.0
  0
CIRCLE
  5
110
330
EE
100
AcDbEntity
  8
AM_4
100
AcDbCircle
 10
0.0
 20
49.4
 30
0.0
 40
5.4
  0
LINE
  5
111
330
EE
100
AcDbEntity
  8
AM_4
100
AcDbLine
 10
-12.7
 20
49.4
 30
0.0
 11
-16.27811892722386
 21
29.10747917960532
 31
0.0
  0
LINE
  5
112
330
EE
100
AcDbEntity
  8
AM_4
100
AcDbLine
 10
16.27811892722387
 20
29.10747917960531
 30
0.0
 11
12.7
 21
49.40000000000003
 31
0.0
  0
ARC
  5
113
330
EE
100
AcDbEntity
  8
AM_4
100
AcDbCircle
 10
0.0000000000000044
 20
49.40000000000001
 30
0.0
 40
12.7
100
AcDbArc
 50
0.0000008537736463
 51
179.9999991462263
  0
LINE
  5
114
330
EE
100
AcDbEntity
  8
AM_4
100
AcDbLine
 10
-16.27811892722388
 20
-29.1074791796053
 30
0.0
 11
-12.7
 21
-49.40000000000001
 31
0.0
  0
ARC
  5
115
330
EE
100
AcDbEntity
  8
AM_4
100
AcDbCircle
 10
0.0000000000000018
 20
-49.39999976158143
 30
0.0
 40
12.7
100
AcDbArc
 50
180.0000008537737
 51
0.0000987945605216
  0
LINE
  5
116
330
EE
100
AcDbEntity
  8
AM_4
100
AcDbLine
 10
12.69999999998113
 20
-49.39997786353241
 30
0.0
 11
16.27811892722386
 21
-29.1074791796053
 31
0.0
  0
CIRCLE
  5
117
330
EE
100
AcDbEntity
  8
AM_4
100
AcDbCircle
 10
0.0
 20
-49.4
 30
0.0
 40
5.4
  0
LINE
  5
118
330
EE
100
AcDbEntity
  8
AM_4
100
AcDbLine
 10
28.2523216745765
 20
30.60201420121093
 30
0.0
 11
30.60201412339821
 21
28.25232175238921
 31
0.0
  0
ARC
  5
119
330
EE
100
AcDbEntity
  8
AM_4
100
AcDbCircle
 10
30.24846081061765
 20
27.89876828398323
 30
0.0
 40
0.4999999999999982
100
AcDbArc
 50
336.8014094863533
 51
45.00000000000086
  0
ARC
  5
11A
330
EE
100
AcDbEntity
  8
AM_4
100
AcDbCircle
 10
27.89876828398323
 20
30.24846081061767
 30
0.0
 40
0.4999999999999865
100
AcDbArc
 50
44.99999999999856
 51
113.1985905136483
  0
LINE
  5
11B
330
EE
100
AcDbEntity
  8
AM_4
100
AcDbLine
 10
27.70180863469365
 20
30.70803332562669
 30
0.0
 11
30.70803332562668
 21
27.70180863469366
 31
0.0
  0
LINE
  5
11C
330
EE
100
AcDbEntity
  8
AM_4
100
AcDbLine
 10
27.70180863469365
 20
30.70803332562669
 30
0.0
 11
26.3699097974796
 21
30.13721953824924
 31
0.0
  0
LINE
  5
11D
330
EE
100
AcDbEntity
  8
AM_4
100
AcDbLine
 10
30.13721953824923
 20
26.3699097974796
 30
0.0
 11
30.70803332562668
 21
27.70180863469366
 31
0.0
  0
LINE
  5
11E
330
EE
100
AcDbEntity
  8
AM_4
100
AcDbLine
 10
26.3699097974796
 20
30.13721953824924
 30
0.0
 11
30.13721953824923
 21
26.3699097974796
 31
0.0
  0
ARC
  5
11F
330
EE
100
AcDbEntity
  8
AM_4
100
AcDbCircle
 10
29.67764702324021
 20
26.56686944676918
 30
0.0
 40
0.4999999999999855
100
AcDbArc
 50
269.1570851114425
 51
336.8014094863523
  0
ARC
  5
120
330
EE
100
AcDbEntity
  8
AM_4
100
AcDbCircle
 10
26.56686944676918
 20
29.67764702324022
 30
0.0
 40
0.4999999999999879
100
AcDbArc
 50
113.1985905136481
 51
180.8429148885573
  0
LINE
  5
121
330
EE
100
AcDbEntity
  8
AM_4
100
AcDbLine
 10
27.51797962869004
 20
23.55818165404538
 30
0.0
 11
27.87153301928332
 21
23.91173504463865
 31
0.0
  0
LINE
  5
122
330
EE
100
AcDbEntity
  8
AM_4
100
AcDbLine
 10
23.91173504463865
 20
27.87153301928332
 30
0.0
 11
23.55818165404537
 21
27.51797962869004
 31
0.0
  0
LINE
  5
123
330
EE
100
AcDbEntity
  8
AM_4
100
AcDbLine
 10
26.06692355388205
 20
29.67029146851722
 30
0.0
 11
29.67029146851721
 21
26.06692355388206
 31
0.0
  0
LINE
  5
124
330
EE
100
AcDbEntity
  8
AM_4
100
AcDbLine
 10
23.91173504463865
 20
27.87153301928332
 30
0.0
 11
27.87153301928332
 21
23.91173504463865
 31
0.0
  0
ARC
  5
125
330
EE
100
AcDbEntity
  8
AM_4
100
AcDbCircle
 10
29.6437193896321
 20
24.26086901784951
 30
0.0
 40
1.806250000000005
100
AcDbArc
 50
89.15708075099502
 51
191.1449738717058
  0
ARC
  5
126
330
EE
100
AcDbEntity
  8
AM_4
100
AcDbCircle
 10
24.2608690178495
 20
29.6437193896321
 30
0.0
 40
1.806250000000002
100
AcDbArc
 50
258.8550261282942
 51
0.8429192490050441
  0
LINE
  5
127
330
EE
100
AcDbEntity
  8
AM_4
100
AcDbLine
 10
25.09026991684226
 20
21.1304719421976
 30
0.0
 11
25.3966592851304
 21
21.43686131048573
 31
0.0
  0
LINE
  5
128
330
EE
100
AcDbEntity
  8
AM_4
100
AcDbLine
 10
21.43686131048573
 20
25.3966592851304
 30
0.0
 11
21.1304719421976
 21
25.09026991684227
 31
0.0
  0
LINE
  5
129
330
EE
100
AcDbEntity
  8
AM_4
100
AcDbLine
 10
20.58833317306187
 20
26.24518742255426
 30
0.0
 11
26.24518742255425
 21
20.58833317306187
 31
0.0
  0
LINE
  5
12A
330
EE
100
AcDbEntity
  8
AM_4
100
AcDbLine
 10
22.70965351662151
 20
28.3665077661139
 30
0.0
 11
20.58833317306187
 21
26.24518742255426
 31
0.0
  0
LINE
  5
12B
330
EE
100
AcDbEntity
  8
AM_4
100
AcDbLine
 10
22.70965351662151
 20
28.3665077661139
 30
0.0
 11
28.36650776611389
 21
22.70965351662152
 31
0.0
  0
LINE
  5
12C
330
EE
100
AcDbEntity
  8
AM_4
100
AcDbLine
 10
26.24518742255425
 20
20.58833317306187
 30
0.0
 11
28.36650776611389
 21
22.70965351662152
 31
0.0
  0
LWPOLYLINE
  5
12D
330
EE
100
AcDbEntity
  8
AM_4
100
AcDbPolyline
 90
        3
 70
     0
 43
0.0
 10
26.9522942037408
 20
24.12386707899461
 10
27.62845468489426
 20
23.38581399777497
 10
28.24926413211049
 20
22.59240988261811
  0
LWPOLYLINE
  5
12E
330
EE
100
AcDbEntity
  8
AM_4
100
AcDbPolyline
 90
        3
 70
     0
 43
0.0
 10
25.4208370073643
 20
25.4208370073643
 10
26.21078838698317
 20
24.8029335095956
 10
26.9522942037408
 20
24.12386707899461
  0
LWPOLYLINE
  5
12F
330
EE
100
AcDbEntity
  8
AM_4
100
AcDbPolyline
 90
        3
 70
     0
 43
0.0
 10
24.83097386018116
 20
22.00254673543497
 10
24.1548133790277
 20
22.74059981665461
 10
23.53400393181147
 20
23.53400393181147
  0
LWPOLYLINE
  5
130
330
EE
100
AcDbEntity
  8
AM_4
100
AcDbPolyline
 90
        3
 70
     0
 43
0.0
 10
26.36243105655766
 20
20.70557680706528
 10
25.57247967693878
 20
21.32348030483397
 10
24.83097386018116
 20
22.00254673543497
  0
LINE
  5
131
330
EE
100
AcDbEntity
  8
AM_4
100
AcDbLine
 10
25.4208370073643
 20
25.4208370073643
 30
0.0
 11
23.53400393181147
 21
23.53400393181147
 31
0.0
  0
LWPOLYLINE
  5
132
330
EE
100
AcDbEntity
  8
AM_4
100
AcDbPolyline
 90
        3
 70
     0
 43
0.0
 10
24.12386707899461
 20
26.9522942037408
 10
24.80002756014807
 20
26.21424112252117
 10
25.4208370073643
 20
25.4208370073643
  0
LWPOLYLINE
  5
133
330
EE
100
AcDbEntity
  8
AM_4
100
AcDbPolyline
 90
        3
 70
     0
 43
0.0
 10
22.59240988261811
 20
28.24926413211049
 10
23.38236126223698
 20
27.6313606343418
 10
24.12386707899461
 20
26.9522942037408
  0
LWPOLYLINE
  5
134
330
EE
100
AcDbEntity
  8
AM_4
100
AcDbPolyline
 90
        3
 70
     0
 43
0.0
 10
22.00254673543497
 20
24.83097386018116
 10
21.32638625428151
 20
25.5690269414008
 10
20.70557680706527
 20
26.36243105655766
  0
LWPOLYLINE
  5
135
330
EE
100
AcDbEntity
  8
AM_4
100
AcDbPolyline
 90
        3
 70
     0
 43
0.0
 10
23.53400393181147
 20
23.53400393181147
 10
22.7440525521926
 20
24.15190742958016
 10
22.00254673543497
 20
24.83097386018116
  0
LINE
  5
136
330
EE
100
AcDbEntity
  8
AM_4
100
AcDbLine
 10
30.03407
 20
-0.4664779999999998
 30
0.0
 11
27.44401
 21
-0.466478
 31
0.0
  0
LINE
  5
137
330
EE
100
AcDbEntity
  8
AM_4
100
AcDbLine
 10
30.03407
 20
-1.86591
 30
0.0
 11
30.03407
 21
-0.4664779999999998
 31
0.0
  0
LINE
  5
138
330
EE
100
AcDbEntity
  8
AM_4
100
AcDbLine
 10
29.96006
 20
-2.1769
 30
0.0
 11
30.03407
 21
-1.86591
 31
0.0
  0
LINE
  5
139
330
EE
100
AcDbEntity
  8
AM_4
100
AcDbLine
 10
29.81206
 20
-2.41014
 30
0.0
 11
29.96006
 21
-2.1769
 31
0.0
  0
LINE
  5
13A
330
EE
100
AcDbEntity
  8
AM_4
100
AcDbLine
 10
29.59006
 20
-2.56563
 30
0.0
 11
29.81206
 21
-2.41014
 31
0.0
  0
LINE
  5
13B
330
EE
100
AcDbEntity
  8
AM_4
100
AcDbLine
 10
29.29405
 20
-2.64337
 30
0.0
 11
29.59006
 21
-2.56563
 31
0.0
  0
LINE
  5
13C
330
EE
100
AcDbEntity
  8
AM_4
100
AcDbLine
 10
28.18403
 20
-2.64337
 30
0.0
 11
29.29405
 21
-2.64337
 31
0.0
  0
LINE
  5
13D
330
EE
100
AcDbEntity
  8
AM_4
100
AcDbLine
 10
27.888019
 20
-2.56563
 30
0.0
 11
28.18403
 21
-2.64337
 31
0.0
  0
LINE
  5
13E
330
EE
100
AcDbEntity
  8
AM_4
100
AcDbLine
 10
27.666015
 20
-2.41014
 30
0.0
 11
27.888019
 21
-2.56563
 31
0.0
  0
LINE
  5
13F
330
EE
100
AcDbEntity
  8
AM_4
100
AcDbLine
 10
27.44401
 20
-1.865909999999998
 30
0.0
 11
27.518011
 21
-2.1769
 31
0.0
  0
LINE
  5
140
330
EE
100
AcDbEntity
  8
AM_4
100
AcDbLine
 10
27.44401
 20
-0.466478
 30
0.0
 11
27.44401
 21
-1.865909999999998
 31
0.0
  0
LINE
  5
141
330
EE
100
AcDbEntity
  8
AM_4
100
AcDbLine
 10
27.518011
 20
-2.1769
 30
0.0
 11
27.666015
 21
-2.41014
 31
0.0
  0
LINE
  5
142
330
EE
100
AcDbEntity
  8
AM_4
100
AcDbLine
 10
29.90179686170187
 20
3.377798888998014
 30
0.0
 11
29.79379290463837
 21
3.990319767139016
 31
0.0
  0
LINE
  5
143
330
EE
100
AcDbEntity
  8
AM_4
100
AcDbLine
 10
28.2148676385281
 20
2.290894178730214
 30
0.0
 11
29.30802394052671
 21
2.48364712890406
 31
0.0
  0
LINE
  5
144
330
EE
100
AcDbEntity
  8
AM_4
100
AcDbLine
 10
29.77766250370552
 20
2.803295181729874
 30
0.0
 11
29.88291408667407
 21
3.058681824259617
 31
0.0
  0
LINE
  5
145
330
EE
100
AcDbEntity
  8
AM_4
100
AcDbLine
 10
29.58603747416402
 20
2.611607680694418
 30
0.0
 11
29.77766250370552
 21
2.803295181729874
 31
0.0
  0
LINE
  5
146
330
EE
100
AcDbEntity
  8
AM_4
100
AcDbLine
 10
29.30802394052671
 20
2.48364712890406
 30
0.0
 11
29.58603747416402
 21
2.611607680694418
 31
0.0
  0
LINE
  5
147
330
EE
100
AcDbEntity
  8
AM_4
100
AcDbLine
 10
27.90985430141937
 20
2.316051362730017
 30
0.0
 11
28.2148676385281
 21
2.290894178730214
 31
0.0
  0
LINE
  5
148
330
EE
100
AcDbEntity
  8
AM_4
100
AcDbLine
 10
29.88291408667407
 20
3.058681824259617
 30
0.0
 11
29.90179686170187
 21
3.377798888998014
 31
0.0
  0
LINE
  5
149
330
EE
100
AcDbEntity
  8
AM_4
100
AcDbLine
 10
27.66422074939245
 20
2.430638378288647
 30
0.0
 11
27.90985430141937
 21
2.316051362730017
 31
0.0
  0
LINE
  5
14A
330
EE
100
AcDbEntity
  8
AM_4
100
AcDbLine
 10
27.47796529823836
 20
2.634624465636268
 30
0.0
 11
27.66422074939245
 21
2.430638378288647
 31
0.0
  0
LINE
  5
14B
330
EE
100
AcDbEntity
  8
AM_4
100
AcDbLine
 10
27.35108569293506
 20
2.928039689950004
 30
0.0
 11
27.47796529823836
 21
2.634624465636268
 31
0.0
  0
LINE
  5
14C
330
EE
100
AcDbEntity
  8
AM_4
100
AcDbLine
 10
27.24308173587157
 20
3.540560568091006
 30
0.0
 11
27.35108569293506
 21
2.928039689950004
 31
0.0
  0
LINE
  5
14D
330
EE
100
AcDbEntity
  8
AM_4
100
AcDbLine
 10
27.26195651587048
 20
3.859671145957039
 30
0.0
 11
27.24308173587157
 21
3.540560568091006
 31
0.0
  0
LINE
  5
14E
330
EE
100
AcDbEntity
  8
AM_4
100
AcDbLine
 10
29.79379290463837
 20
3.990319767139016
 30
0.0
 11
29.66690530430618
 21
4.283728504580388
 31
0.0
  0
LINE
  5
14F
330
EE
100
AcDbEntity
  8
AM_4
100
AcDbLine
 10
29.66690530430618
 20
4.283728504580388
 30
0.0
 11
29.4806524031977
 21
4.487723164982744
 31
0.0
  0
LINE
  5
150
330
EE
100
AcDbEntity
  8
AM_4
100
AcDbLine
 10
29.4806524031977
 20
4.487723164982744
 30
0.0
 11
29.23502400593902
 21
4.602303981479814
 31
0.0
  0
LINE
  5
151
330
EE
100
AcDbEntity
  8
AM_4
100
AcDbLine
 10
29.23502400593902
 20
4.602303981479814
 30
0.0
 11
28.93001043810081
 21
4.627468232782065
 31
0.0
  0
LINE
  5
152
330
EE
100
AcDbEntity
  8
AM_4
100
AcDbLine
 10
28.93001043810081
 20
4.627468232782065
 30
0.0
 11
27.8368541361022
 21
4.434715282608219
 31
0.0
  0
LINE
  5
153
330
EE
100
AcDbEntity
  8
AM_4
100
AcDbLine
 10
27.8368541361022
 20
4.434715282608219
 30
0.0
 11
27.55884083319437
 21
4.306747663515413
 31
0.0
  0
LINE
  5
154
330
EE
100
AcDbEntity
  8
AM_4
100
AcDbLine
 10
27.55884083319437
 20
4.306747663515413
 30
0.0
 11
27.36721064888462
 21
4.115066361541518
 31
0.0
  0
LINE
  5
155
330
EE
100
AcDbEntity
  8
AM_4
100
AcDbLine
 10
27.36721064888462
 20
4.115066361541518
 30
0.0
 11
27.26195651587048
 21
3.859671145957039
 31
0.0
  0
LINE
  5
156
330
EE
100
AcDbEntity
  8
AM_4
100
AcDbLine
 10
28.3823388235857
 20
9.833910991694198
 30
0.0
 11
25.94847855419295
 21
8.948058299272116
 31
0.0
  0
LINE
  5
157
330
EE
100
AcDbEntity
  8
AM_4
100
AcDbLine
 10
28.86097275680023
 20
8.518875068002533
 30
0.0
 11
28.3823388235857
 21
9.833910991694198
 31
0.0
  0
LINE
  5
158
330
EE
100
AcDbEntity
  8
AM_4
100
AcDbLine
 10
28.89779095030871
 20
8.20132714905679
 30
0.0
 11
28.86097275680023
 21
8.518875068002533
 31
0.0
  0
LINE
  5
159
330
EE
100
AcDbEntity
  8
AM_4
100
AcDbLine
 10
28.83848922066167
 20
7.931534260972485
 30
0.0
 11
28.89779095030871
 21
8.20132714905679
 31
0.0
  0
LINE
  5
15A
330
EE
100
AcDbEntity
  8
AM_4
100
AcDbLine
 10
28.68305817093291
 20
7.709492983548189
 30
0.0
 11
28.83848922066167
 21
7.931534260972485
 31
0.0
  0
LINE
  5
15B
330
EE
100
AcDbEntity
  8
AM_4
100
AcDbLine
 10
26.60301552541111
 20
7.366097200068484
 30
0.0
 11
26.82186657028718
 21
7.197543642489151
 31
0.0
  0
LINE
  5
15C
330
EE
100
AcDbEntity
  8
AM_4
100
AcDbLine
 10
25.94847855419295
 20
8.948058299272116
 30
0.0
 11
26.42711248740748
 21
7.633022375580452
 31
0.0
  0
LINE
  5
15D
330
EE
100
AcDbEntity
  8
AM_4
100
AcDbLine
 10
26.42711248740748
 20
7.633022375580452
 30
0.0
 11
26.60301552541111
 21
7.366097200068484
 31
0.0
  0
LINE
  5
15E
330
EE
100
AcDbEntity
  8
AM_4
100
AcDbLine
 10
26.82186657028718
 20
7.197543642489151
 30
0.0
 11
27.08366280295784
 21
7.127360676782022
 31
0.0
  0
LINE
  5
15F
330
EE
100
AcDbEntity
  8
AM_4
100
AcDbLine
 10
27.08366280295784
 20
7.127360676782022
 30
0.0
 11
27.38841080127144
 21
7.155550697088101
 31
0.0
  0
LINE
  5
160
330
EE
100
AcDbEntity
  8
AM_4
100
AcDbLine
 10
27.38841080127144
 20
7.155550697088101
 30
0.0
 11
28.43148840419621
 21
7.535199896582458
 31
0.0
  0
LINE
  5
161
330
EE
100
AcDbEntity
  8
AM_4
100
AcDbLine
 10
28.43148840419621
 20
7.535199896582458
 30
0.0
 11
28.68305817093291
 21
7.709492983548189
 31
0.0
  0
CIRCLE
  5
162
330
EE
100
AcDbEntity
  8
AM_4
100
AcDbCircle
 10
0.0
 20
0.0
 30
0.0
 40
26.0
  0
LINE
  5
163
330
EE
100
AcDbEntity
  8
AM_4
100
AcDbLine
 10
24.41443084266962
 20
-11.86462135533211
 30
0.0
 11
24.83166376322476
 21
-12.01648171917014
 31
0.0
  0
LINE
  5
164
330
EE
100
AcDbEntity
  8
AM_4
100
AcDbLine
 10
25.37170076121953
 20
-9.234543869793056
 30
0.0
 11
24.41443084266962
 21
-11.86462135533211
 31
0.0
  0
LINE
  5
165
330
EE
100
AcDbEntity
  8
AM_4
100
AcDbLine
 10
28.64002687172258
 20
-10.4241172898912
 30
0.0
 11
25.37170076121953
 21
-9.234543869793056
 31
0.0
  0
LINE
  5
166
330
EE
100
AcDbEntity
  8
AM_4
100
AcDbLine
 10
27.68275695317266
 20
-13.05419477543025
 30
0.0
 11
28.64002687172258
 21
-10.4241172898912
 31
0.0
  0
LINE
  5
167
330
EE
100
AcDbEntity
  8
AM_4
100
AcDbLine
 10
27.26552403261751
 20
-12.90233441159222
 30
0.0
 11
27.68275695317266
 21
-13.05419477543025
 31
0.0
  0
LINE
  5
168
330
EE
100
AcDbEntity
  8
AM_4
100
AcDbLine
 10
28.06324907874916
 20
-10.71060286041214
 30
0.0
 11
27.26552403261751
 21
-12.90233441159222
 31
0.0
  0
LINE
  5
169
330
EE
100
AcDbEntity
  8
AM_4
100
AcDbLine
 10
27.1592459837007
 20
-10.38157264212998
 30
0.0
 11
28.06324907874916
 21
-10.71060286041214
 31
0.0
  0
LINE
  5
16A
330
EE
100
AcDbEntity
  8
AM_4
100
AcDbLine
 10
26.46788578194191
 20
-12.28106918517185
 30
0.0
 11
27.1592459837007
 21
-10.38157264212998
 31
0.0
  0
LINE
  5
16B
330
EE
100
AcDbEntity
  8
AM_4
100
AcDbLine
 10
26.05065286138675
 20
-12.12920882133382
 30
0.0
 11
26.46788578194191
 21
-12.28106918517185
 31
0.0
  0
LINE
  5
16C
330
EE
100
AcDbEntity
  8
AM_4
100
AcDbLine
 10
26.74201306314555
 20
-10.22971227829195
 30
0.0
 11
26.05065286138675
 21
-12.12920882133382
 31
0.0
  0
LINE
  5
16D
330
EE
100
AcDbEntity
  8
AM_4
100
AcDbLine
 10
25.62938880935641
 20
-9.824750167990054
 30
0.0
 11
26.74201306314555
 21
-10.22971227829195
 31
0.0
  0
LINE
  5
16E
330
EE
100
AcDbEntity
  8
AM_4
100
AcDbLine
 10
24.83166376322476
 20
-12.01648171917014
 30
0.0
 11
25.62938880935641
 21
-9.824750167990054
 31
0.0
  0
LINE
  5
16F
330
EE
100
AcDbEntity
  8
AM_4
100
AcDbLine
 10
26.34461567338942
 20
-6.079063131568899
 30
0.0
 11
26.34999076670026
 21
-6.474737692381772
 31
0.0
  0
LINE
  5
170
330
EE
100
AcDbEntity
  8
AM_4
100
AcDbLine
 10
26.46612077626652
 20
-5.389973450631198
 30
0.0
 11
26.34461567338942
 21
-6.079063131568899
 31
0.0
  0
LINE
  5
171
330
EE
100
AcDbEntity
  8
AM_4
100
AcDbLine
 10
26.60650055543448
 20
-5.019998390979448
 30
0.0
 11
26.46612077626652
 21
-5.389973450631198
 31
0.0
  0
LINE
  5
172
330
EE
100
AcDbEntity
  8
AM_4
100
AcDbLine
 10
26.8062574297584
 20
-4.739438472607453
 30
0.0
 11
26.60650055543448
 21
-5.019998390979448
 31
0.0
  0
LINE
  5
173
330
EE
100
AcDbEntity
  8
AM_4
100
AcDbLine
 10
27.15176841202828
 20
-4.48457893601543
 30
0.0
 11
26.8062574297584
 21
-4.739438472607453
 31
0.0
  0
LINE
  5
174
330
EE
100
AcDbEntity
  8
AM_4
100
AcDbLine
 10
27.4702794419345
 20
-4.382849497164508
 30
0.0
 11
27.15176841202828
 21
-4.48457893601543
 31
0.0
  0
LINE
  5
175
330
EE
100
AcDbEntity
  8
AM_4
100
AcDbLine
 10
27.84817061419258
 20
-4.370536346152166
 30
0.0
 11
27.4702794419345
 21
-4.382849497164508
 31
0.0
  0
LINE
  5
176
330
EE
100
AcDbEntity
  8
AM_4
100
AcDbLine
 10
28.94132691619119
 20
-4.563289296326012
 30
0.0
 11
27.84817061419258
 21
-4.370536346152166
 31
0.0
  0
LINE
  5
177
330
EE
100
AcDbEntity
  8
AM_4
100
AcDbLine
 10
29.2922151469327
 20
-4.70410591907179
 30
0.0
 11
28.94132691619119
 21
-4.563289296326012
 31
0.0
  0
LINE
  5
178
330
EE
100
AcDbEntity
  8
AM_4
100
AcDbLine
 10
29.55671720046399
 20
-4.908636294638779
 30
0.0
 11
29.2922151469327
 21
-4.70410591907179
 31
0.0
  0
LINE
  5
179
330
EE
100
AcDbEntity
  8
AM_4
100
AcDbLine
 10
29.79422816490138
 20
-5.266298330780468
 30
0.0
 11
29.55671720046399
 21
-4.908636294638779
 31
0.0
  0
LINE
  5
17A
330
EE
100
AcDbEntity
  8
AM_4
100
AcDbLine
 10
29.88597773381544
 20
-5.598258700145675
 30
0.0
 11
29.79422816490138
 21
-5.266298330780468
 31
0.0
  0
LINE
  5
17B
330
EE
100
AcDbEntity
  8
AM_4
100
AcDbLine
 10
29.89136092586322
 20
-5.993935704410994
 30
0.0
 11
29.88597773381544
 21
-5.598258700145675
 31
0.0
  0
LINE
  5
17C
330
EE
100
AcDbEntity
  8
AM_4
100
AcDbLine
 10
29.76985582298612
 20
-6.683025385348695
 30
0.0
 11
29.89136092586322
 21
-5.993935704410994
 31
0.0
  0
LINE
  5
17D
330
EE
100
AcDbEntity
  8
AM_4
100
AcDbLine
 10
29.62946794508122
 20
-7.052998001548002
 30
0.0
 11
29.76985582298612
 21
-6.683025385348695
 31
0.0
  0
LINE
  5
17E
330
EE
100
AcDbEntity
  8
AM_4
100
AcDbLine
 10
29.42971528734456
 20
-7.333553586285033
 30
0.0
 11
29.62946794508122
 21
-7.052998001548002
 31
0.0
  0
LINE
  5
17F
330
EE
100
AcDbEntity
  8
AM_4
100
AcDbLine
 10
29.08419949760277
 20
-7.588417352323111
 30
0.0
 11
29.42971528734456
 21
-7.333553586285033
 31
0.0
  0
LINE
  5
180
330
EE
100
AcDbEntity
  8
AM_4
100
AcDbLine
 10
28.70631948317466
 20
-7.600736329383047
 30
0.0
 11
29.08419949760277
 21
-7.588417352323111
 31
0.0
  0
LINE
  5
181
330
EE
100
AcDbEntity
  8
AM_4
100
AcDbLine
 10
28.78732288509272
 20
-7.141343208757911
 30
0.0
 11
28.70631948317466
 21
-7.600736329383047
 31
0.0
  0
LINE
  5
182
330
EE
100
AcDbEntity
  8
AM_4
100
AcDbLine
 10
29.01945135207503
 20
-7.103324301403272
 30
0.0
 11
28.78732288509272
 21
-7.141343208757911
 31
0.0
  0
LINE
  5
183
330
EE
100
AcDbEntity
  8
AM_4
100
AcDbLine
 10
29.20570460047988
 20
-6.899327671385409
 30
0.0
 11
29.01945135207503
 21
-7.103324301403272
 31
0.0
  0
LINE
  5
184
330
EE
100
AcDbEntity
  8
AM_4
100
AcDbLine
 10
29.33259133257117
 20
-6.605923857982802
 30
0.0
 11
29.20570460047988
 21
-6.899327671385409
 31
0.0
  0
LINE
  5
185
330
EE
100
AcDbEntity
  8
AM_4
100
AcDbLine
 10
29.45409643544827
 20
-5.9168341770451
 30
0.0
 11
29.33259133257117
 21
-6.605923857982802
 31
0.0
  0
LINE
  5
186
330
EE
100
AcDbEntity
  8
AM_4
100
AcDbLine
 10
29.43521279217959
 20
-5.597722036345469
 30
0.0
 11
29.45409643544827
 21
-5.9168341770451
 31
0.0
  0
LINE
  5
187
330
EE
100
AcDbEntity
  8
AM_4
100
AcDbLine
 10
29.32996259839647
 20
-5.342327515353702
 30
0.0
 11
29.43521279217959
 21
-5.597722036345469
 31
0.0
  0
LINE
  5
188
330
EE
100
AcDbEntity
  8
AM_4
100
AcDbLine
 10
29.13833635331772
 20
-5.150646907972516
 30
0.0
 11
29.32996259839647
 21
-5.342327515353702
 31
0.0
  0
LINE
  5
189
330
EE
100
AcDbEntity
  8
AM_4
100
AcDbLine
 10
28.86032386156947
 20
-5.022680447335641
 30
0.0
 11
29.13833635331772
 21
-5.150646907972516
 31
0.0
  0
LINE
  5
18A
330
EE
100
AcDbEntity
  8
AM_4
100
AcDbLine
 10
27.76716755957086
 20
-4.829927497161795
 30
0.0
 11
28.86032386156947
 21
-5.022680447335641
 31
0.0
  0
LINE
  5
18B
330
EE
100
AcDbEntity
  8
AM_4
100
AcDbLine
 10
27.46215318057307
 20
-4.855090590008117
 30
0.0
 11
27.76716755957086
 21
-4.829927497161795
 31
0.0
  0
LINE
  5
18C
330
EE
100
AcDbEntity
  8
AM_4
100
AcDbLine
 10
27.21652084408338
 20
-4.969670711912475
 30
0.0
 11
27.46215318057307
 21
-4.855090590008117
 31
0.0
  0
LINE
  5
18D
330
EE
100
AcDbEntity
  8
AM_4
100
AcDbLine
 10
27.03026400374388
 20
-5.173664677722121
 30
0.0
 11
27.21652084408338
 21
-4.969670711912475
 31
0.0
  0
LINE
  5
18E
330
EE
100
AcDbEntity
  8
AM_4
100
AcDbLine
 10
26.90338526668148
 20
-5.46707497799709
 30
0.0
 11
27.03026400374388
 21
-5.173664677722121
 31
0.0
  0
LINE
  5
18F
330
EE
100
AcDbEntity
  8
AM_4
100
AcDbLine
 10
26.78188016380437
 20
-6.156164658934792
 30
0.0
 11
26.90338526668148
 21
-5.46707497799709
 31
0.0
  0
LINE
  5
190
330
EE
100
AcDbEntity
  8
AM_4
100
AcDbLine
 10
26.80075581204417
 20
-6.47527031276206
 30
0.0
 11
26.78188016380437
 21
-6.156164658934792
 31
0.0
  0
LINE
  5
191
330
EE
100
AcDbEntity
  8
AM_4
100
AcDbLine
 10
26.90600959776195
 20
-6.730667497962045
 30
0.0
 11
26.80075581204417
 21
-6.47527031276206
 31
0.0
  0
LINE
  5
192
330
EE
100
AcDbEntity
  8
AM_4
100
AcDbLine
 10
27.11113971234807
 20
-6.845786890793512
 30
0.0
 11
26.90600959776195
 21
-6.730667497962045
 31
0.0
  0
LINE
  5
193
330
EE
100
AcDbEntity
  8
AM_4
100
AcDbLine
 10
27.69415673501658
 20
-6.948588522102289
 30
0.0
 11
27.11113971234807
 21
-6.845786890793512
 31
0.0
  0
LINE
  5
194
330
EE
100
AcDbEntity
  8
AM_4
100
AcDbLine
 10
27.81566183789369
 20
-6.259498841164587
 30
0.0
 11
27.69415673501658
 21
-6.948588522102289
 31
0.0
  0
LINE
  5
195
330
EE
100
AcDbEntity
  8
AM_4
100
AcDbLine
 10
28.25292632830864
 20
-6.33660036853048
 30
0.0
 11
27.81566183789369
 21
-6.259498841164587
 31
0.0
  0
LINE
  5
196
330
EE
100
AcDbEntity
  8
AM_4
100
AcDbLine
 10
28.05041782351347
 20
-7.485083170093318
 30
0.0
 11
28.25292632830864
 21
-6.33660036853048
 31
0.0
  0
LINE
  5
197
330
EE
100
AcDbEntity
  8
AM_4
100
AcDbLine
 10
26.95725955189935
 20
-7.292329872623116
 30
0.0
 11
28.05041782351347
 21
-7.485083170093318
 31
0.0
  0
LINE
  5
198
330
EE
100
AcDbEntity
  8
AM_4
100
AcDbLine
 10
26.67925070916706
 20
-7.164359993699762
 30
0.0
 11
26.95725955189935
 21
-7.292329872623116
 31
0.0
  0
LINE
  5
199
330
EE
100
AcDbEntity
  8
AM_4
100
AcDbLine
 10
26.44174455220157
 20
-6.806693728112018
 30
0.0
 11
26.67925070916706
 21
-7.164359993699762
 31
0.0
  0
LINE
  5
19A
330
EE
100
AcDbEntity
  8
AM_4
100
AcDbLine
 10
26.34999076670026
 20
-6.474737692381772
 30
0.0
 11
26.44174455220157
 21
-6.806693728112018
 31
0.0
  0
LINE
  5
19B
330
EE
100
AcDbEntity
  8
AM_4
100
AcDbLine
 10
26.80581724545662
 20
3.463459040725113
 30
0.0
 11
26.91382120252012
 21
2.85093816258411
 31
0.0
  0
LINE
  5
19C
330
EE
100
AcDbEntity
  8
AM_4
100
AcDbLine
 10
26.81119216511928
 20
3.859134586345738
 30
0.0
 11
26.80581724545662
 21
3.463459040725113
 31
0.0
  0
LINE
  5
19D
330
EE
100
AcDbEntity
  8
AM_4
100
AcDbLine
 10
26.9029450823797
 20
4.191095546114757
 30
0.0
 11
26.81119216511928
 21
3.859134586345738
 31
0.0
  0
LINE
  5
19E
330
EE
100
AcDbEntity
  8
AM_4
100
AcDbLine
 10
27.14045210758608
 20
4.548756887663729
 30
0.0
 11
26.9029450823797
 21
4.191095546114757
 31
0.0
  0
LINE
  5
19F
330
EE
100
AcDbEntity
  8
AM_4
100
AcDbLine
 10
27.40496105477164
 20
4.753288478767961
 30
0.0
 11
27.14045210758608
 21
4.548756887663729
 31
0.0
  0
LINE
  5
1A0
330
EE
100
AcDbEntity
  8
AM_4
100
AcDbLine
 10
27.75585125512866
 20
4.894105448810095
 30
0.0
 11
27.40496105477164
 21
4.753288478767961
 31
0.0
  0
LINE
  5
1A1
330
EE
100
AcDbEntity
  8
AM_4
100
AcDbLine
 10
28.84900755712727
 20
5.08685839898394
 30
0.0
 11
27.75585125512866
 21
4.894105448810095
 31
0.0
  0
LINE
  5
1A2
330
EE
100
AcDbEntity
  8
AM_4
100
AcDbLine
 10
29.22689675976985
 20
5.074544900675243
 30
0.0
 11
28.84900755712727
 21
5.08685839898394
 31
0.0
  0
LINE
  5
1A3
330
EE
100
AcDbEntity
  8
AM_4
100
AcDbLine
 10
29.54540089602179
 20
4.972814246287078
 30
0.0
 11
29.22689675976985
 21
5.074544900675243
 31
0.0
  0
LINE
  5
1A4
330
EE
100
AcDbEntity
  8
AM_4
100
AcDbLine
 10
29.89091581752269
 20
4.717955404287765
 30
0.0
 11
29.54540089602179
 21
4.972814246287078
 31
0.0
  0
LINE
  5
1A5
330
EE
100
AcDbEntity
  8
AM_4
100
AcDbLine
 10
30.09066934350024
 20
4.437394895511969
 30
0.0
 11
29.89091581752269
 21
4.717955404287765
 31
0.0
  0
LINE
  5
1A6
330
EE
100
AcDbEntity
  8
AM_4
100
AcDbLine
 10
30.23105739505332
 20
4.06742129450491
 30
0.0
 11
30.09066934350024
 21
4.437394895511969
 31
0.0
  0
LINE
  5
1A7
330
EE
100
AcDbEntity
  8
AM_4
100
AcDbLine
 10
30.33906135211682
 20
3.454900416363907
 30
0.0
 11
30.23105739505332
 21
4.06742129450491
 31
0.0
  0
LINE
  5
1A8
330
EE
100
AcDbEntity
  8
AM_4
100
AcDbLine
 10
30.33367798642086
 20
3.059224396906342
 30
0.0
 11
30.33906135211682
 21
3.454900416363907
 31
0.0
  0
LINE
  5
1A9
330
EE
100
AcDbEntity
  8
AM_4
100
AcDbLine
 10
30.24192928574768
 20
2.727259103502369
 30
0.0
 11
30.33367798642086
 21
3.059224396906342
 31
0.0
  0
LINE
  5
1AA
330
EE
100
AcDbEntity
  8
AM_4
100
AcDbLine
 10
30.0044174530694
 20
2.369601991399445
 30
0.0
 11
30.24192928574768
 21
2.727259103502369
 31
0.0
  0
LINE
  5
1AB
330
EE
100
AcDbEntity
  8
AM_4
100
AcDbLine
 10
29.73991664980499
 20
2.165064525216635
 30
0.0
 11
30.0044174530694
 21
2.369601991399445
 31
0.0
  0
LINE
  5
1AC
330
EE
100
AcDbEntity
  8
AM_4
100
AcDbLine
 10
29.38902734244478
 20
2.024254008278926
 30
0.0
 11
29.73991664980499
 21
2.165064525216635
 31
0.0
  0
LINE
  5
1AD
330
EE
100
AcDbEntity
  8
AM_4
100
AcDbLine
 10
28.29587104044617
 20
1.83150105810508
 30
0.0
 11
29.38902734244478
 21
2.024254008278926
 31
0.0
  0
LINE
  5
1AE
330
EE
100
AcDbEntity
  8
AM_4
100
AcDbLine
 10
27.91798094480679
 20
1.843808103309353
 30
0.0
 11
28.29587104044617
 21
1.83150105810508
 31
0.0
  0
LINE
  5
1AF
330
EE
100
AcDbEntity
  8
AM_4
100
AcDbLine
 10
27.59946866463369
 20
1.945544632776095
 30
0.0
 11
27.91798094480679
 21
1.843808103309353
 31
0.0
  0
LINE
  5
1B0
330
EE
100
AcDbEntity
  8
AM_4
100
AcDbLine
 10
27.2539585506047
 20
2.200399245329354
 30
0.0
 11
27.59946866463369
 21
1.945544632776095
 31
0.0
  0
LINE
  5
1B1
330
EE
100
AcDbEntity
  8
AM_4
100
AcDbLine
 10
27.05420080803989
 20
2.480964087740111
 30
0.0
 11
27.2539585506047
 21
2.200399245329354
 31
0.0
  0
LINE
  5
1B2
330
EE
100
AcDbEntity
  8
AM_4
100
AcDbLine
 10
26.91382120252012
 20
2.85093816258411
 30
0.0
 11
27.05420080803989
 21
2.480964087740111
 31
0.0
  0
LINE
  5
1B3
330
EE
100
AcDbEntity
  8
AM_4
100
AcDbLine
 10
27.0
 20
0.0
 30
0.0
 11
27.0
 21
-1.86591
 31
0.0
  0
LINE
  5
1B4
330
EE
100
AcDbEntity
  8
AM_4
100
AcDbLine
 10
30.47808
 20
0.0000000000000002
 30
0.0
 11
27.0
 21
0.0
 31
0.0
  0
LINE
  5
1B5
330
EE
100
AcDbEntity
  8
AM_4
100
AcDbLine
 10
30.47808
 20
-1.865909999999998
 30
0.0
 11
30.47808
 21
0.0000000000000002
 31
0.0
  0
LINE
  5
1B6
330
EE
100
AcDbEntity
  8
AM_4
100
AcDbLine
 10
30.40407
 20
-2.254640000000001
 30
0.0
 11
30.47808
 21
-1.865909999999998
 31
0.0
  0
LINE
  5
1B7
330
EE
100
AcDbEntity
  8
AM_4
100
AcDbLine
 10
30.25607
 20
-2.56563
 30
0.0
 11
30.40407
 21
-2.254640000000001
 31
0.0
  0
LINE
  5
1B8
330
EE
100
AcDbEntity
  8
AM_4
100
AcDbLine
 10
29.96006
 20
-2.87661
 30
0.0
 11
30.25607
 21
-2.56563
 31
0.0
  0
LINE
  5
1B9
330
EE
100
AcDbEntity
  8
AM_4
100
AcDbLine
 10
29.66406
 20
-3.03211
 30
0.0
 11
29.96006
 21
-2.87661
 31
0.0
  0
LINE
  5
1BA
330
EE
100
AcDbEntity
  8
AM_4
100
AcDbLine
 10
29.29405
 20
-3.10985
 30
0.0
 11
29.66406
 21
-3.03211
 31
0.0
  0
LINE
  5
1BB
330
EE
100
AcDbEntity
  8
AM_4
100
AcDbLine
 10
28.18403
 20
-3.10985
 30
0.0
 11
29.29405
 21
-3.10985
 31
0.0
  0
LINE
  5
1BC
330
EE
100
AcDbEntity
  8
AM_4
100
AcDbLine
 10
27.814018
 20
-3.03211
 30
0.0
 11
28.18403
 21
-3.10985
 31
0.0
  0
LINE
  5
1BD
330
EE
100
AcDbEntity
  8
AM_4
100
AcDbLine
 10
27.518011
 20
-2.87661
 30
0.0
 11
27.814018
 21
-3.03211
 31
0.0
  0
LINE
  5
1BE
330
EE
100
AcDbEntity
  8
AM_4
100
AcDbLine
 10
27.222005
 20
-2.56563
 30
0.0
 11
27.518011
 21
-2.87661
 31
0.0
  0
LINE
  5
1BF
330
EE
100
AcDbEntity
  8
AM_4
100
AcDbLine
 10
27.0740016
 20
-2.254640000000001
 30
0.0
 11
27.222005
 21
-2.56563
 31
0.0
  0
LINE
  5
1C0
330
EE
100
AcDbEntity
  8
AM_4
100
AcDbLine
 10
27.0
 20
-1.86591
 30
0.0
 11
27.0740016
 21
-2.254640000000001
 31
0.0
  0
LINE
  5
1C1
330
EE
100
AcDbEntity
  8
AM_4
100
AcDbLine
 10
25.37170076121953
 20
9.234543869793056
 30
0.0
 11
26.00987956685233
 21
7.481162011742422
 31
0.0
  0
LINE
  5
1C2
330
EE
100
AcDbEntity
  8
AM_4
100
AcDbLine
 10
28.64002687172258
 20
10.4241172898912
 30
0.0
 11
25.37170076121953
 21
9.234543869793056
 31
0.0
  0
LINE
  5
1C3
330
EE
100
AcDbEntity
  8
AM_4
100
AcDbLine
 10
29.27820567735537
 20
8.670735431840562
 30
0.0
 11
28.64002687172258
 21
10.4241172898912
 31
0.0
  0
LINE
  5
1C4
330
EE
100
AcDbEntity
  8
AM_4
100
AcDbLine
 10
29.341612516806
 20
8.280135808554924
 30
0.0
 11
29.27820567735537
 21
8.670735431840562
 31
0.0
  0
LINE
  5
1C5
330
EE
100
AcDbEntity
  8
AM_4
100
AcDbLine
 10
29.30890285330254
 20
7.937281819204516
 30
0.0
 11
29.341612516806
 21
8.280135808554924
 31
0.0
  0
LINE
  5
1C6
330
EE
100
AcDbEntity
  8
AM_4
100
AcDbLine
 10
29.13710586479511
 20
7.543814825366682
 30
0.0
 11
29.30890285330254
 21
7.937281819204516
 31
0.0
  0
LINE
  5
1C7
330
EE
100
AcDbEntity
  8
AM_4
100
AcDbLine
 10
28.91214098132962
 20
7.296454660410076
 30
0.0
 11
29.13710586479511
 21
7.543814825366682
 31
0.0
  0
LINE
  5
1C8
330
EE
100
AcDbEntity
  8
AM_4
100
AcDbLine
 10
28.59103396065477
 20
7.096852082838248
 30
0.0
 11
28.91214098132962
 21
7.296454660410076
 31
0.0
  0
LINE
  5
1C9
330
EE
100
AcDbEntity
  8
AM_4
100
AcDbLine
 10
27.54795635773
 20
6.717202883343891
 30
0.0
 11
28.59103396065477
 21
7.096852082838248
 31
0.0
  0
LINE
  5
1CA
330
EE
100
AcDbEntity
  8
AM_4
100
AcDbLine
 10
27.17367016578563
 20
6.66370303041157
 30
0.0
 11
27.54795635773
 21
6.717202883343891
 31
0.0
  0
LINE
  5
1CB
330
EE
100
AcDbEntity
  8
AM_4
100
AcDbLine
 10
26.84233043989751
 20
6.708584876378376
 30
0.0
 11
27.17367016578563
 21
6.66370303041157
 31
0.0
  0
LINE
  5
1CC
330
EE
100
AcDbEntity
  8
AM_4
100
AcDbLine
 10
26.45781436181774
 20
6.89957047304512
 30
0.0
 11
26.84233043989751
 21
6.708584876378376
 31
0.0
  0
LINE
  5
1CD
330
EE
100
AcDbEntity
  8
AM_4
100
AcDbLine
 10
26.21237181461367
 20
7.141185337102643
 30
0.0
 11
26.45781436181774
 21
6.89957047304512
 31
0.0
  0
LINE
  5
1CE
330
EE
100
AcDbEntity
  8
AM_4
100
AcDbLine
 10
26.00987956685233
 20
7.481162011742422
 30
0.0
 11
26.21237181461367
 21
7.141185337102643
 31
0.0
  0
LINE
  5
1CF
330
EE
100
AcDbEntity
  8
AM_4
100
AcDbLine
 10
18.41760996181657
 20
27.80313189722329
 30
0.0
 11
27.80313189722327
 21
18.41760996181659
 31
0.0
  0
ARC
  5
1D0
330
EE
100
AcDbEntity
  8
AM_4
100
AcDbCircle
 10
-0.0000000000000204
 20
0.0000000000000133
 30
0.0
 40
33.35
100
AcDbArc
 50
56.47834095453356
 51
33.52165904546639
  0
CIRCLE
  5
1D1
330
EE
100
AcDbEntity
  8
AM_4
100
AcDbCircle
 10
0.0
 20
0.0
 30
0.0
 40
31.35000000000001
  0
ENDBLK
  5
F1
330
EE
100
AcDbEntity
  8
0
100
AcDbBlockEnd
  0
ENDSEC
  0
SECTION
  2
ENTITIES
  0
INSERT
  5
6F
330
1F
100
AcDbEntity
  8
0
100
AcDbBlockReference
  2
1__129358_0
 10
0.0
 20
0.0
 30
0.0
  0
POINT
  5
1D3
330
1F
100
AcDbEntity
  8
ConnectionPoints
100
AcDbPoint
 10
0.0000000000000016
 20
0.0
 30
15.1
  0
POINT
  5
1D4
330
1F
100
AcDbEntity
  8
ConnectionPoints
100
AcDbPoint
 10
0.0000000000000016
 20
0.0
 30
2.399999999999999
  0
POINT
  5
1D5
330
1F
100
AcDbEntity
  8
ConnectionPoints
100
AcDbPoint
 10
0.0
 20
0.0
 30
2.399999999999999
  0
ENDSEC
  0
SECTION
  2
OBJECTS
  0
DICTIONARY
  5
C
330
0
100
AcDbDictionary
281
     1
  3
ACAD_DETAILVIEWSTYLE
350
1DD
  3
ACAD_GROUP
350
D
  3
ACAD_LAYOUT
350
1A
  3
ACAD_MATERIAL
350
43
  3
ACAD_MLEADERSTYLE
350
6B
  3
ACAD_MLINESTYLE
350
17
  3
ACAD_PLOTSETTINGS
350
19
  3
ACAD_PLOTSTYLENAME
350
E
  3
ACAD_SCALELIST
350
47
  3
ACAD_SECTIONVIEWSTYLE
350
1DE
  3
ACAD_TABLESTYLE
350
69
  3
ACAD_VISUALSTYLE
350
2A
  3
ACDB_RECOMPOSE_DATA
350
1DA
  3
AcDbVariableDictionary
350
1D6
  0
SUN
  5
6D
330
29
100
AcDbSun
 90
        1
290
     0
 63
     7
421
 16777215
 40
1.0
291
     1
 91
  2455826
 92
 54000000
292
     0
 70
     2
 71
   256
280
     1
  0
DICTIONARY
  5
1DD
102
{ACAD_REACTORS
330
C
102
}
330
C
100
AcDbDictionary
281
     1
  0
DICTIONARY
  5
D
102
{ACAD_REACTORS
330
C
102
}
330
C
100
AcDbDictionary
281
     1
  0
DICTIONARY
  5
1A
102
{ACAD_REACTORS
330
C
102
}
330
C
100
AcDbDictionary
281
     1
  3
Layout1
350
1E
  3
Layout2
350
26
  3
Model
350
22
  0
DICTIONARY
  5
43
102
{ACAD_REACTORS
330
C
102
}
330
C
100
AcDbDictionary
281
     1
  3
ByBlock
350
45
  3
ByLayer
350
44
  3
Global
350
46
  0
DICTIONARY
  5
6B
102
{ACAD_REACTORS
330
C
102
}
330
C
100
AcDbDictionary
281
     1
  3
Standard
350
6C
  0
DICTIONARY
  5
17
102
{ACAD_REACTORS
330
C
102
}
330
C
100
AcDbDictionary
281
     1
  3
Standard
350
18
  0
DICTIONARY
  5
19
102
{ACAD_REACTORS
330
C
102
}
330
C
100
AcDbDictionary
281
     1
  0
ACDBDICTIONARYWDFLT
  5
E
102
{ACAD_REACTORS
330
C
102
}
330
C
100
AcDbDictionary
281
     1
  3
Normal
350
F
100
AcDbDictionaryWithDefault
340
F
  0
DICTIONARY
  5
47
102
{ACAD_REACTORS
330
C
102
}
330
C
100
AcDbDictionary
281
     1
  3
A0
350
48
  3
A1
350
49
  3
A2
350
4A
  3
A3
350
4B
  3
A4
350
4C
  3
A5
350
4D
  3
A6
350
4E
  3
A7
350
4F
  3
A8
350
50
  3
A9
350
51
  3
B0
350
52
  3
B1
350
53
  3
B2
350
54
  3
B3
350
55
  3
B4
350
56
  3
B5
350
57
  3
B6
350
58
  3
B7
350
59
  3
B8
350
5A
  3
B9
350
5B
  3
C0
350
5C
  3
C1
350
5D
  3
C2
350
5E
  3
C3
350
5F
  3
C4
350
60
  3
C5
350
61
  3
C6
350
62
  3
C7
350
63
  3
C8
350
64
  3
C9
350
65
  3
D0
350
66
  3
D1
350
67
  3
D2
350
68
  0
DICTIONARY
  5
1DE
102
{ACAD_REACTORS
330
C
102
}
330
C
100
AcDbDictionary
281
     1
  0
DICTIONARY
  5
69
102
{ACAD_REACTORS
330
C
102
}
330
C
100
AcDbDictionary
281
     1
  3
Standard
350
6A
  0
DICTIONARY
  5
2A
102
{ACAD_REACTORS
330
C
102
}
330
C
100
AcDbDictionary
281
     1
  3
2dWireframe
350
2F
  3
Basic
350
32
  3
Brighten
350
36
  3
ColorChange
350
3A
  3
Conceptual
350
34
  3
Dim
350
35
  3
EdgeColorOff
350
3D
  3
Facepattern
350
39
  3
Flat
350
2B
  3
FlatWithEdges
350
2C
  3
Gouraud
350
2D
  3
GouraudWithEdges
350
2E
  3
Hidden
350
31
  3
JitterOff
350
3B
  3
Linepattern
350
38
  3
OverhangOff
350
3C
  3
Realistic
350
33
  3
Shaded
350
42
  3
Shaded with edges
350
41
  3
Shades of Gray
350
3E
  3
Sketchy
350
3F
  3
Thicken
350
37
  3
Wireframe
350
30
  3
X-Ray
350
40
  0
XRECORD
  5
1DA
102
{ACAD_REACTORS
330
C
102
}
330
C
100
AcDbXrecord
280
     1
 90
        1
330
6A
  0
DICTIONARY
  5
1D6
102
{ACAD_REACTORS
330
C
102
}
330
C
100
AcDbDictionary
281
     1
  3
CANNOSCALE
350
1D7
  3
CMLEADERSTYLE
350
1DC
  3
CTABLESTYLE
350
1DB
  0
LAYOUT
  5
1E
102
{ACAD_REACTORS
330
1A
102
}
330
1A
100
AcDbPlotSettings
  1

  2
none_device
  4

  6

 40
0.0
 41
0.0
 42
0.0
 43
0.0
 44
0.0
 45
0.0
 46
0.0
 47
0.0
 48
0.0
 49
0.0
140
0.0
141
0.0
142
1.0
143
1.0
 70
   688
 72
     1
 73
     0
 74
     5
  7

 75
    16
 76
     0
 77
     2
 78
   300
147
1.0
148
0.0
149
0.0
100
AcDbLayout
  1
Layout1
 70
     1
 71
     1
 10
0.0
 20
0.0
 11
420.0
 21
297.0
 12
0.0
 22
0.0
 32
0.0
 14
1.000000000000000E+20
 24
1.000000000000000E+20
 34
1.000000000000000E+20
 15
-1.000000000000000E+20
 25
-1.000000000000000E+20
 35
-1.000000000000000E+20
146
0.0
 13
0.0
 23
0.0
 33
0.0
 16
1.0
 26
0.0
 36
0.0
 17
0.0
 27
1.0
 37
0.0
 76
     0
330
1B
  0
LAYOUT
  5
26
102
{ACAD_REACTORS
330
1A
102
}
330
1A
100
AcDbPlotSettings
  1

  2
none_device
  4

  6

 40
0.0
 41
0.0
 42
0.0
 43
0.0
 44
0.0
 45
0.0
 46
0.0
 47
0.0
 48
0.0
 49
0.0
140
0.0
141
0.0
142
1.0
143
1.0
 70
   688
 72
     1
 73
     0
 74
     5
  7

 75
    16
 76
     0
 77
     2
 78
   300
147
1.0
148
0.0
149
0.0
100
AcDbLayout
  1
Layout2
 70
     1
 71
     2
 10
0.0
 20
0.0
 11
0.0
 21
0.0
 12
0.0
 22
0.0
 32
0.0
 14
0.0
 24
0.0
 34
0.0
 15
0.0
 25
0.0
 35
0.0
146
0.0
 13
0.0
 23
0.0
 33
0.0
 16
1.0
 26
0.0
 36
0.0
 17
0.0
 27
1.0
 37
0.0
 76
     0
330
23
  0
LAYOUT
  5
22
102
{ACAD_REACTORS
330
1A
102
}
330
1A
100
AcDbPlotSettings
  1

  2
none_device
  4
Letter_(8.50_x_11.00_Inches)
  6

 40
6.35
 41
6.35
 42
6.35000508
 43
6.35000508
 44
215.9
 45
279.4
 46
0.0
 47
0.0
 48
0.0
 49
0.0
140
0.0
141
0.0
142
1.0
143
1.0
 70
  1712
 72
     1
 73
     0
 74
     0
  7

 75
     0
 76
     0
 77
     2
 78
   300
147
1.0
148
0.0
149
0.0
100
AcDbLayout
  1
Model
 70
     1
 71
     0
 10
0.0
 20
0.0
 11
420.0
 21
297.0
 12
0.0
 22
0.0
 32
0.0
 14
1.000000000000000E+20
 24
1.000000000000000E+20
 34
1.000000000000000E+20
 15
-1.000000000000000E+20
 25
-1.000000000000000E+20
 35
-1.000000000000000E+20
146
0.0
 13
0.0
 23
0.0
 33
0.0
 16
1.0
 26
0.0
 36
0.0
 17
0.0
 27
1.0
 37
0.0
 76
     0
330
1F
331
29
  0
MATERIAL
  5
45
102
{ACAD_REACTORS
330
43
102
}
330
43
100
AcDbMaterial
  1
ByBlock
 72
     1
 94
      127
  0
MATERIAL
  5
44
102
{ACAD_REACTORS
330
43
102
}
330
43
100
AcDbMaterial
  1
ByLayer
 72
     1
 94
      127
  0
MATERIAL
  5
46
102
{ACAD_REACTORS
330
43
102
}
330
43
100
AcDbMaterial
  1
Global
 72
     1
 94
      127
  0
MLEADERSTYLE
  5
6C
102
{ACAD_REACTORS
330
6B
102
}
330
6B
100
AcDbMLeaderStyle
179
     2
170
     2
171
     1
172
     0
 90
        2
 40
0.0
 41
0.0
173
     1
 91
-1056964608
340
14
 92
       -2
290
     1
 42
2.0
291
     1
 43
8.0
  3
Standard
341
0
 44
4.0
300

342
11
174
     1
178
     6
175
     1
176
     0
 93
-1056964608
 45
4.0
292
     0
297
     0
 46
4.0
343
0
 94
-1056964608
 47
1.0
 49
1.0
140
1.0
293
     1
141
0.0
294
     1
177
     0
142
1.0
295
     0
296
     0
143
3.75
271
     0
272
     9
273
     9
298
     0
  0
MLINESTYLE
  5
18
102
{ACAD_REACTORS
330
17
102
}
330
17
100
AcDbMlineStyle
  2
Standard
 70
     0
  3

 62
   256
 51
90.0
 52
90.0
 71
     2
 49
0.5
 62
   256
  6
BYLAYER
 49
-0.5
 62
   256
  6
BYLAYER
  0
ACDBPLACEHOLDER
  5
F
102
{ACAD_REACTORS
330
E
102
}
330
E
  0
SCALE
  5
48
102
{ACAD_REACTORS
330
47
102
}
330
47
100
AcDbScale
 70
     0
300
1:1
140
1.0
141
1.0
290
     1
  0
SCALE
  5
49
102
{ACAD_REACTORS
330
47
102
}
330
47
100
AcDbScale
 70
     0
300
1:2
140
1.0
141
2.0
290
     0
  0
SCALE
  5
4A
102
{ACAD_REACTORS
330
47
102
}
330
47
100
AcDbScale
 70
     0
300
1:4
140
1.0
141
4.0
290
     0
  0
SCALE
  5
4B
102
{ACAD_REACTORS
330
47
102
}
330
47
100
AcDbScale
 70
     0
300
1:5
140
1.0
141
5.0
290
     0
  0
SCALE
  5
4C
102
{ACAD_REACTORS
330
47
102
}
330
47
100
AcDbScale
 70
     0
300
1:8
140
1.0
141
8.0
290
     0
  0
SCALE
  5
4D
102
{ACAD_REACTORS
330
47
102
}
330
47
100
AcDbScale
 70
     0
300
1:10
140
1.0
141
10.0
290
     0
  0
SCALE
  5
4E
102
{ACAD_REACTORS
330
47
102
}
330
47
100
AcDbScale
 70
     0
300
1:16
140
1.0
141
16.0
290
     0
  0
SCALE
  5
4F
102
{ACAD_REACTORS
330
47
102
}
330
47
100
AcDbScale
 70
     0
300
1:20
140
1.0
141
20.0
290
     0
  0
SCALE
  5
50
102
{ACAD_REACTORS
330
47
102
}
330
47
100
AcDbScale
 70
     0
300
1:30
140
1.0
141
30.0
290
     0
  0
SCALE
  5
51
102
{ACAD_REACTORS
330
47
102
}
330
47
100
AcDbScale
 70
     0
300
1:40
140
1.0
141
40.0
290
     0
  0
SCALE
  5
52
102
{ACAD_REACTORS
330
47
102
}
330
47
100
AcDbScale
 70
     0
300
1:50
140
1.0
141
50.0
290
     0
  0
SCALE
  5
53
102
{ACAD_REACTORS
330
47
102
}
330
47
100
AcDbScale
 70
     0
300
1:100
140
1.0
141
100.0
290
     0
  0
SCALE
  5
54
102
{ACAD_REACTORS
330
47
102
}
330
47
100
AcDbScale
 70
     0
300
2:1
140
2.0
141
1.0
290
     0
  0
SCALE
  5
55
102
{ACAD_REACTORS
330
47
102
}
330
47
100
AcDbScale
 70
     0
300
4:1
140
4.0
141
1.0
290
     0
  0
SCALE
  5
56
102
{ACAD_REACTORS
330
47
102
}
330
47
100
AcDbScale
 70
     0
300
8:1
140
8.0
141
1.0
290
     0
  0
SCALE
  5
57
102
{ACAD_REACTORS
330
47
102
}
330
47
100
AcDbScale
 70
     0
300
10:1
140
10.0
141
1.0
290
     0
  0
SCALE
  5
58
102
{ACAD_REACTORS
330
47
102
}
330
47
100
AcDbScale
 70
     0
300
100:1
140
100.0
141
1.0
290
     0
  0
SCALE
  5
59
102
{ACAD_REACTORS
330
47
102
}
330
47
100
AcDbScale
 70
     0
300
1/128" = 1'-0"
140
0.0078125
141
12.0
290
     0
  0
SCALE
  5
5A
102
{ACAD_REACTORS
330
47
102
}
330
47
100
AcDbScale
 70
     0
300
1/64" = 1'-0"
140
0.015625
141
12.0
290
     0
  0
SCALE
  5
5B
102
{ACAD_REACTORS
330
47
102
}
330
47
100
AcDbScale
 70
     0
300
1/32" = 1'-0"
140
0.03125
141
12.0
290
     0
  0
SCALE
  5
5C
102
{ACAD_REACTORS
330
47
102
}
330
47
100
AcDbScale
 70
     0
300
1/16" = 1'-0"
140
0.0625
141
12.0
290
     0
  0
SCALE
  5
5D
102
{ACAD_REACTORS
330
47
102
}
330
47
100
AcDbScale
 70
     0
300
3/32" = 1'-0"
140
0.09375
141
12.0
290
     0
  0
SCALE
  5
5E
102
{ACAD_REACTORS
330
47
102
}
330
47
100
AcDbScale
 70
     0
300
1/8" = 1'-0"
140
0.125
141
12.0
290
     0
  0
SCALE
  5
5F
102
{ACAD_REACTORS
330
47
102
}
330
47
100
AcDbScale
 70
     0
300
3/16" = 1'-0"
140
0.1875
141
12.0
290
     0
  0
SCALE
  5
60
102
{ACAD_REACTORS
330
47
102
}
330
47
100
AcDbScale
 70
     0
300
1/4" = 1'-0"
140
0.25
141
12.0
290
     0
  0
SCALE
  5
61
102
{ACAD_REACTORS
330
47
102
}
330
47
100
AcDbScale
 70
     0
300
3/8" = 1'-0"
140
0.375
141
12.0
290
     0
  0
SCALE
  5
62
102
{ACAD_REACTORS
330
47
102
}
330
47
100
AcDbScale
 70
     0
300
1/2" = 1'-0"
140
0.5
141
12.0
290
     0
  0
SCALE
  5
63
102
{ACAD_REACTORS
330
47
102
}
330
47
100
AcDbScale
 70
     0
300
3/4" = 1'-0"
140
0.75
141
12.0
290
     0
  0
SCALE
  5
64
102
{ACAD_REACTORS
330
47
102
}
330
47
100
AcDbScale
 70
     0
300
1" = 1'-0"
140
1.0
141
12.0
290
     0
  0
SCALE
  5
65
102
{ACAD_REACTORS
330
47
102
}
330
47
100
AcDbScale
 70
     0
300
1-1/2" = 1'-0"
140
1.5
141
12.0
290
     0
  0
SCALE
  5
66
102
{ACAD_REACTORS
330
47
102
}
330
47
100
AcDbScale
 70
     0
300
3" = 1'-0"
140
3.0
141
12.0
290
     0
  0
SCALE
  5
67
102
{ACAD_REACTORS
330
47
102
}
330
47
100
AcDbScale
 70
     0
300
6" = 1'-0"
140
6.0
141
12.0
290
     0
  0
SCALE
  5
68
102
{ACAD_REACTORS
330
47
102
}
330
47
100
AcDbScale
 70
     0
300
1'-0" = 1'-0"
140
12.0
141
12.0
290
     0
  0
TABLESTYLE
  5
6A
102
{ACAD_REACTORS
330
69
102
}
102
{ACAD_XDICTIONARY
360
1D8
102
}
330
69
100
AcDbTableStyle
  3
Standard
 70
     0
 71
     0
 40
0.06
 41
0.06
280
     0
281
     0
  7
Standard
140
4.5
170
     2
 62
     0
 63
   257
283
     0
 90
        4
 91
        0
  1

274
    -2
284
     1
 64
     0
275
    -2
285
     1
 65
     0
276
    -2
286
     1
 66
     0
277
    -2
287
     1
 67
     0
278
    -2
288
     1
 68
     0
279
    -2
289
     1
 69
     0
  7
Standard
140
6.0
170
     5
 62
     0
 63
   257
283
     0
 90
        4
 91
        0
  1

274
    -2
284
     1
 64
     0
275
    -2
285
     1
 65
     0
276
    -2
286
     1
 66
     0
277
    -2
287
     1
 67
     0
278
    -2
288
     1
 68
     0
279
    -2
289
     1
 69
     0
  7
Standard
140
4.5
170
     5
 62
     0
 63
   257
283
     0
 90
        4
 91
        0
  1

274
    -2
284
     1
 64
     0
275
    -2
285
     1
 65
     0
276
    -2
286
     1
 66
     0
277
    -2
287
     1
 67
     0
278
    -2
288
     1
 68
     0
279
    -2
289
     1
 69
     0
  0
VISUALSTYLE
  5
2F
102
{ACAD_REACTORS
330
2A
102
}
330
2A
100
AcDbVisualStyle
  2
2dWireframe
 70
     4
177
     3
291
     0
 70
    58
 90
        0
176
     1
 90
        2
176
     1
 90
        0
176
     1
 90
        0
176
     1
 40
0.6
176
     1
 40
30.0
176
     1
 62
     7
420
 16777215
176
     1
 90
        1
176
     1
 90
        4
176
     1
 62
     7
176
     1
 62
   257
176
     1
 90
        1
176
     1
 90
        1
176
     1
 40
1.0
176
     1
 90
        0
176
     1
 62
   257
176
     1
 40
1.0
176
     1
 90
        1
176
     1
 90
        6
176
     1
 90
        2
176
     1
 62
     7
176
     1
 90
        5
176
     1
 90
        0
176
     1
 90
        0
176
     1
290
     0
176
     1
 90
        1
176
     1
 40
0.0
176
     1
 90
        0
176
     1
290
     1
176
     1
290
     1
176
     1
290
     0
176
     1
290
     0
176
     1
290
     0
176
     1
290
     0
176
     1
290
     0
176
     1
290
     0
176
     1
290
     0
176
     1
 90
       50
176
     1
 40
0.0
176
     1
 40
1.0
176
     1
 90
        0
176
     1
 62
    18
420
        0
176
     1
 90
       50
176
     1
 90
        3
176
     1
 62
     5
420
      255
176
     1
290
     0
176
     1
 90
       50
176
     1
 90
       50
176
     1
 90
       50
176
     1
290
     0
176
     1
 90
       50
176
     1
 62
   256
176
     0
 40
1.0
176
     0
 90
        2
176
     1
  1
strokes_ogs.tif
176
     1
290
     0
176
     1
 40
1.0
176
     1
 40
1.0
176
     1
  0
VISUALSTYLE
  5
32
102
{ACAD_REACTORS
330
2A
102
}
330
2A
100
AcDbVisualStyle
  2
Basic
 70
     7
177
     3
291
     1
 70
    58
 90
        1
176
     1
 90
        0
176
     1
 90
        1
176
     1
 90
        0
176
     1
 40
0.6
176
     1
 40
30.0
176
     1
 62
     7
420
 16777215
176
     1
 90
        0
176
     1
 90
        4
176
     1
 62
     7
176
     1
 62
   257
176
     1
 90
        1
176
     1
 90
        1
176
     1
 40
1.0
176
     1
 90
        8
176
     1
 62
     7
176
     1
 40
1.0
176
     1
 90
        1
176
     1
 90
        6
176
     1
 90
        2
176
     1
 62
     7
176
     1
 90
        5
176
     1
 90
        0
176
     1
 90
        0
176
     1
290
     0
176
     1
 90
        1
176
     1
 40
0.0
176
     1
 90
        0
176
     1
290
     0
176
     1
290
     1
176
     1
290
     1
176
     1
290
     0
176
     1
290
     0
176
     1
290
     0
176
     1
290
     0
176
     1
290
     0
176
     1
290
     0
176
     1
 90
       50
176
     1
 40
0.0
176
     1
 40
1.0
176
     1
 90
        0
176
     1
 62
    18
420
        0
176
     1
 90
       50
176
     1
 90
        3
176
     1
 62
     5
420
      255
176
     1
290
     0
176
     1
 90
       50
176
     1
 90
       50
176
     1
 90
       50
176
     1
290
     0
176
     1
 90
       50
176
     1
 62
   256
176
     0
 40
1.0
176
     0
 90
        2
176
     1
  1
strokes_ogs.tif
176
     1
290
     0
176
     1
 40
1.0
176
     1
 40
1.0
176
     1
  0
VISUALSTYLE
  5
36
102
{ACAD_REACTORS
330
2A
102
}
330
2A
100
AcDbVisualStyle
  2
Brighten
 70
    12
177
     3
291
     1
 70
    58
 90
        2
176
     1
 90
        2
176
     1
 90
        0
176
     1
 90
        0
176
     1
 40
0.6
176
     1
 40
30.0
176
     1
 62
     7
420
 16777215
176
     1
 90
        1
176
     1
 90
        4
176
     1
 62
     7
176
     1
 62
   257
176
     1
 90
        1
176
     1
 90
        1
176
     1
 40
1.0
176
     1
 90
        8
176
     1
 62
     7
176
     1
 40
1.0
176
     1
 90
        1
176
     1
 90
        6
176
     1
 90
        2
176
     1
 62
     7
176
     1
 90
        5
176
     1
 90
        0
176
     1
 90
        0
176
     1
290
     0
176
     1
 90
        1
176
     1
 40
50.0
176
     1
 90
        0
176
     1
290
     0
176
     1
290
     1
176
     1
290
     1
176
     1
290
     0
176
     1
290
     0
176
     1
290
     0
176
     1
290
     0
176
     1
290
     0
176
     1
290
     0
176
     1
 90
       50
176
     1
 40
0.0
176
     1
 40
1.0
176
     1
 90
        0
176
     1
 62
    18
420
        0
176
     1
 90
       50
176
     1
 90
        3
176
     1
 62
     5
420
      255
176
     1
290
     0
176
     1
 90
       50
176
     1
 90
       50
176
     1
 90
       50
176
     1
290
     0
176
     1
 90
       50
176
     1
 62
   256
176
     0
 40
1.0
176
     0
 90
        2
176
     1
  1
strokes_ogs.tif
176
     1
290
     0
176
     1
 40
1.0
176
     1
 40
1.0
176
     1
  0
VISUALSTYLE
  5
3A
102
{ACAD_REACTORS
330
2A
102
}
330
2A
100
AcDbVisualStyle
  2
ColorChange
 70
    16
177
     3
291
     1
 70
    58
 90
        2
176
     1
 90
        2
176
     1
 90
        3
176
     1
 90
        0
176
     1
 40
0.6
176
     1
 40
30.0
176
     1
 62
     8
420
  8421504
176
     1
 90
        1
176
     1
 90
        4
176
     1
 62
     7
176
     1
 62
   257
176
     1
 90
        1
176
     1
 90
        1
176
     1
 40
1.0
176
     1
 90
        8
176
     1
 62
     8
420
  8421504
176
     1
 40
1.0
176
     1
 90
        1
176
     1
 90
        6
176
     1
 90
        2
176
     1
 62
     7
176
     1
 90
        5
176
     1
 90
        0
176
     1
 90
        0
176
     1
290
     0
176
     1
 90
        1
176
     1
 40
0.0
176
     1
 90
        0
176
     1
290
     0
176
     1
290
     1
176
     1
290
     1
176
     1
290
     0
176
     1
290
     0
176
     1
290
     0
176
     1
290
     0
176
     1
290
     0
176
     1
290
     0
176
     1
 90
       50
176
     1
 40
0.0
176
     1
 40
1.0
176
     1
 90
        0
176
     1
 62
    18
420
        0
176
     1
 90
       50
176
     1
 90
        3
176
     1
 62
     5
420
      255
176
     1
290
     0
176
     1
 90
       50
176
     1
 90
       50
176
     1
 90
       50
176
     1
290
     0
176
     1
 90
       50
176
     1
 62
   256
176
     0
 40
1.0
176
     0
 90
        2
176
     1
  1
strokes_ogs.tif
176
     1
290
     0
176
     1
 40
1.0
176
     1
 40
1.0
176
     1
  0
VISUALSTYLE
  5
34
102
{ACAD_REACTORS
330
2A
102
}
330
2A
100
AcDbVisualStyle
  2
Conceptual
 70
     9
177
     3
291
     0
 70
    58
 90
        3
176
     1
 90
        2
176
     1
 90
        0
176
     1
 90
        0
176
     1
 40
0.6
176
     1
 40
30.0
176
     1
 62
     7
420
 16777215
176
     1
 90
        2
176
     1
 90
        2
176
     1
 62
     7
176
     1
 62
   257
176
     1
 90
        1
176
     1
 90
        1
176
     1
 40
179.0
176
     1
 90
        8
176
     1
 62
     7
176
     1
 40
1.0
176
     1
 90
        1
176
     1
 90
        6
176
     1
 90
        2
176
     1
 62
     7
176
     1
 90
        3
176
     1
 90
        0
176
     1
 90
        0
176
     1
290
     0
176
     1
 90
        1
176
     1
 40
0.0
176
     1
 90
        0
176
     1
290
     0
176
     1
290
     1
176
     1
290
     1
176
     1
290
     0
176
     1
290
     0
176
     1
290
     0
176
     1
290
     0
176
     1
290
     0
176
     1
290
     0
176
     1
 90
       50
176
     1
 40
0.0
176
     1
 40
1.0
176
     1
 90
        0
176
     1
 62
    18
420
        0
176
     1
 90
       50
176
     1
 90
        3
176
     1
 62
     5
420
      255
176
     1
290
     0
176
     1
 90
       50
176
     1
 90
       50
176
     1
 90
       50
176
     1
290
     0
176
     1
 90
       50
176
     1
 62
   256
176
     0
 40
1.0
176
     0
 90
        2
176
     1
  1
strokes_ogs.tif
176
     1
290
     0
176
     1
 40
1.0
176
     1
 40
1.0
176
     1
  0
VISUALSTYLE
  5
35
102
{ACAD_REACTORS
330
2A
102
}
330
2A
100
AcDbVisualStyle
  2
Dim
 70
    11
177
     3
291
     1
 70
    58
 90
        2
176
     1
 90
        2
176
     1
 90
        0
176
     1
 90
        0
176
     1
 40
0.6
176
     1
 40
30.0
176
     1
 62
     7
420
 16777215
176
     1
 90
        1
176
     1
 90
        4
176
     1
 62
     7
176
     1
 62
   257
176
     1
 90
        1
176
     1
 90
        1
176
     1
 40
1.0
176
     1
 90
        8
176
     1
 62
     7
176
     1
 40
1.0
176
     1
 90
        1
176
     1
 90
        6
176
     1
 90
        2
176
     1
 62
     7
176
     1
 90
        5
176
     1
 90
        0
176
     1
 90
        0
176
     1
290
     0
176
     1
 90
        1
176
     1
 40
-50.0
176
     1
 90
        0
176
     1
290
     0
176
     1
290
     1
176
     1
290
     1
176
     1
290
     0
176
     1
290
     0
176
     1
290
     0
176
     1
290
     0
176
     1
290
     0
176
     1
290
     0
176
     1
 90
       50
176
     1
 40
0.0
176
     1
 40
1.0
176
     1
 90
        0
176
     1
 62
    18
420
        0
176
     1
 90
       50
176
     1
 90
        3
176
     1
 62
     5
420
      255
176
     1
290
     0
176
     1
 90
       50
176
     1
 90
       50
176
     1
 90
       50
176
     1
290
     0
176
     1
 90
       50
176
     1
 62
   256
176
     0
 40
1.0
176
     0
 90
        2
176
     1
  1
strokes_ogs.tif
176
     1
290
     0
176
     1
 40
1.0
176
     1
 40
1.0
176
     1
  0
VISUALSTYLE
  5
3D
102
{ACAD_REACTORS
330
2A
102
}
330
2A
100
AcDbVisualStyle
  2
EdgeColorOff
 70
    22
177
     3
291
     1
 70
    58
 90
        2
176
     0
 90
        2
176
     0
 90
        0
176
     0
 90
        0
176
     0
 40
0.6
176
     0
 40
30.0
176
     0
 62
     7
420
 16777215
176
     0
 90
        1
176
     0
 90
        4
176
     0
 62
     7
176
     0
 62
   257
176
     0
 90
        1
176
     0
 90
        1
176
     0
 40
1.0
176
     0
 90
        8
176
     2
 62
     7
176
     0
 40
1.0
176
     0
 90
        1
176
     0
 90
        6
176
     0
 90
        2
176
     0
 62
     7
176
     0
 90
        5
176
     0
 90
        0
176
     0
 90
        0
176
     0
290
     0
176
     0
 90
        1
176
     0
 40
0.0
176
     0
 90
        0
176
     0
290
     0
176
     0
290
     1
176
     0
290
     1
176
     0
290
     0
176
     0
290
     0
176
     0
290
     0
176
     0
290
     0
176
     0
290
     0
176
     0
290
     0
176
     0
 90
       50
176
     0
 40
0.0
176
     0
 40
1.0
176
     0
 90
        0
176
     0
 62
    18
420
        0
176
     0
 90
       50
176
     0
 90
        3
176
     0
 62
     5
420
      255
176
     0
290
     0
176
     0
 90
       50
176
     0
 90
       50
176
     0
 90
       50
176
     0
290
     0
176
     0
 90
       50
176
     0
 62
   256
176
     0
 40
1.0
176
     0
 90
        2
176
     0
  1
strokes_ogs.tif
176
     0
290
     0
176
     0
 40
1.0
176
     0
 40
1.0
176
     0
  0
VISUALSTYLE
  5
39
102
{ACAD_REACTORS
330
2A
102
}
330
2A
100
AcDbVisualStyle
  2
Facepattern
 70
    15
177
     3
291
     1
 70
    58
 90
        2
176
     1
 90
        2
176
     1
 90
        0
176
     1
 90
        0
176
     1
 40
0.6
176
     1
 40
30.0
176
     1
 62
     7
420
 16777215
176
     1
 90
        1
176
     1
 90
        4
176
     1
 62
     7
176
     1
 62
   257
176
     1
 90
        1
176
     1
 90
        1
176
     1
 40
1.0
176
     1
 90
        8
176
     1
 62
     7
176
     1
 40
1.0
176
     1
 90
        1
176
     1
 90
        6
176
     1
 90
        2
176
     1
 62
     7
176
     1
 90
        5
176
     1
 90
        0
176
     1
 90
        0
176
     1
290
     0
176
     1
 90
        1
176
     1
 40
0.0
176
     1
 90
        0
176
     1
290
     0
176
     1
290
     1
176
     1
290
     1
176
     1
290
     0
176
     1
290
     0
176
     1
290
     0
176
     1
290
     0
176
     1
290
     0
176
     1
290
     0
176
     1
 90
       50
176
     1
 40
0.0
176
     1
 40
1.0
176
     1
 90
        0
176
     1
 62
    18
420
        0
176
     1
 90
       50
176
     1
 90
        3
176
     1
 62
     5
420
      255
176
     1
290
     0
176
     1
 90
       50
176
     1
 90
       50
176
     1
 90
       50
176
     1
290
     0
176
     1
 90
       50
176
     1
 62
   256
176
     0
 40
1.0
176
     0
 90
        2
176
     1
  1
strokes_ogs.tif
176
     1
290
     0
176
     1
 40
1.0
176
     1
 40
1.0
176
     1
  0
VISUALSTYLE
  5
2B
102
{ACAD_REACTORS
330
2A
102
}
330
2A
100
AcDbVisualStyle
  2
Flat
 70
     0
177
     3
291
     1
 70
    58
 90
        2
176
     1
 90
        1
176
     1
 90
        1
176
     1
 90
        2
176
     1
 40
0.6
176
     1
 40
30.0
176
     1
 62
     7
420
 16777215
176
     1
 90
        0
176
     1
 90
        0
176
     1
 62
     7
176
     1
 62
   257
176
     1
 90
        1
176
     1
 90
        1
176
     1
 40
1.0
176
     1
 90
        8
176
     1
 62
     7
176
     1
 40
1.0
176
     1
 90
        1
176
     1
 90
        6
176
     1
 90
        2
176
     1
 62
     7
176
     1
 90
        5
176
     1
 90
        0
176
     1
 90
        0
176
     1
290
     0
176
     1
 90
       13
176
     1
 40
0.0
176
     1
 90
        0
176
     1
290
     0
176
     1
290
     1
176
     1
290
     1
176
     1
290
     0
176
     1
290
     0
176
     1
290
     0
176
     1
290
     0
176
     1
290
     0
176
     1
290
     0
176
     1
 90
       50
176
     1
 40
0.0
176
     1
 40
1.0
176
     1
 90
        0
176
     1
 62
    18
420
        0
176
     1
 90
       50
176
     1
 90
        3
176
     1
 62
     5
420
      255
176
     1
290
     0
176
     1
 90
       50
176
     1
 90
       50
176
     1
 90
       50
176
     1
290
     0
176
     1
 90
       50
176
     1
 62
   256
176
     0
 40
1.0
176
     0
 90
        2
176
     1
  1
strokes_ogs.tif
176
     1
290
     0
176
     1
 40
1.0
176
     1
 40
1.0
176
     1
  0
VISUALSTYLE
  5
2C
102
{ACAD_REACTORS
330
2A
102
}
330
2A
100
AcDbVisualStyle
  2
FlatWithEdges
 70
     1
177
     3
291
     1
 70
    58
 90
        2
176
     1
 90
        1
176
     1
 90
        1
176
     1
 90
        2
176
     1
 40
0.6
176
     1
 40
30.0
176
     1
 62
     7
420
 16777215
176
     1
 90
        1
176
     1
 90
        0
176
     1
 62
     7
176
     1
 62
   257
176
     1
 90
        1
176
     1
 90
        1
176
     1
 40
1.0
176
     1
 90
        0
176
     1
 62
   257
176
     1
 40
1.0
176
     1
 90
        1
176
     1
 90
        6
176
     1
 90
        2
176
     1
 62
     7
176
     1
 90
        5
176
     1
 90
        0
176
     1
 90
        0
176
     1
290
     0
176
     1
 90
       13
176
     1
 40
0.0
176
     1
 90
        0
176
     1
290
     0
176
     1
290
     1
176
     1
290
     1
176
     1
290
     0
176
     1
290
     0
176
     1
290
     0
176
     1
290
     0
176
     1
290
     0
176
     1
290
     0
176
     1
 90
       50
176
     1
 40
0.0
176
     1
 40
1.0
176
     1
 90
        0
176
     1
 62
    18
420
        0
176
     1
 90
       50
176
     1
 90
        3
176
     1
 62
     5
420
      255
176
     1
290
     0
176
     1
 90
       50
176
     1
 90
       50
176
     1
 90
       50
176
     1
290
     0
176
     1
 90
       50
176
     1
 62
   256
176
     0
 40
1.0
176
     0
 90
        2
176
     1
  1
strokes_ogs.tif
176
     1
290
     0
176
     1
 40
1.0
176
     1
 40
1.0
176
     1
  0
VISUALSTYLE
  5
2D
102
{ACAD_REACTORS
330
2A
102
}
330
2A
100
AcDbVisualStyle
  2
Gouraud
 70
     2
177
     3
291
     1
 70
    58
 90
        2
176
     1
 90
        2
176
     1
 90
        1
176
     1
 90
        2
176
     1
 40
0.6
176
     1
 40
30.0
176
     1
 62
     7
420
 16777215
176
     1
 90
        0
176
     1
 90
        0
176
     1
 62
     7
176
     1
 62
   257
176
     1
 90
        1
176
     1
 90
        1
176
     1
 40
1.0
176
     1
 90
        0
176
     1
 62
     7
176
     1
 40
1.0
176
     1
 90
        1
176
     1
 90
        6
176
     1
 90
        2
176
     1
 62
     7
176
     1
 90
        5
176
     1
 90
        0
176
     1
 90
        0
176
     1
290
     0
176
     1
 90
       13
176
     1
 40
0.0
176
     1
 90
        0
176
     1
290
     0
176
     1
290
     1
176
     1
290
     1
176
     1
290
     0
176
     1
290
     0
176
     1
290
     0
176
     1
290
     0
176
     1
290
     0
176
     1
290
     0
176
     1
 90
       50
176
     1
 40
0.0
176
     1
 40
1.0
176
     1
 90
        0
176
     1
 62
    18
420
        0
176
     1
 90
       50
176
     1
 90
        3
176
     1
 62
     5
420
      255
176
     1
290
     0
176
     1
 90
       50
176
     1
 90
       50
176
     1
 90
       50
176
     1
290
     0
176
     1
 90
       50
176
     1
 62
   256
176
     0
 40
1.0
176
     0
 90
        2
176
     1
  1
strokes_ogs.tif
176
     1
290
     0
176
     1
 40
1.0
176
     1
 40
1.0
176
     1
  0
VISUALSTYLE
  5
2E
102
{ACAD_REACTORS
330
2A
102
}
330
2A
100
AcDbVisualStyle
  2
GouraudWithEdges
 70
     3
177
     3
291
     1
 70
    58
 90
        2
176
     1
 90
        2
176
     1
 90
        1
176
     1
 90
        2
176
     1
 40
0.6
176
     1
 40
30.0
176
     1
 62
     7
420
 16777215
176
     1
 90
        1
176
     1
 90
        0
176
     1
 62
     7
176
     1
 62
   257
176
     1
 90
        1
176
     1
 90
        1
176
     1
 40
1.0
176
     1
 90
        0
176
     1
 62
   257
176
     1
 40
1.0
176
     1
 90
        1
176
     1
 90
        6
176
     1
 90
        2
176
     1
 62
     7
176
     1
 90
        5
176
     1
 90
        0
176
     1
 90
        0
176
     1
290
     0
176
     1
 90
       13
176
     1
 40
0.0
176
     1
 90
        0
176
     1
290
     0
176
     1
290
     1
176
     1
290
     1
176
     1
290
     0
176
     1
290
     0
176
     1
290
     0
176
     1
290
     0
176
     1
290
     0
176
     1
290
     0
176
     1
 90
       50
176
     1
 40
0.0
176
     1
 40
1.0
176
     1
 90
        0
176
     1
 62
    18
420
        0
176
     1
 90
       50
176
     1
 90
        3
176
     1
 62
     5
420
      255
176
     1
290
     0
176
     1
 90
       50
176
     1
 90
       50
176
     1
 90
       50
176
     1
290
     0
176
     1
 90
       50
176
     1
 62
   256
176
     0
 40
1.0
176
     0
 90
        2
176
     1
  1
strokes_ogs.tif
176
     1
290
     0
176
     1
 40
1.0
176
     1
 40
1.0
176
     1
  0
VISUALSTYLE
  5
31
102
{ACAD_REACTORS
330
2A
102
}
330
2A
100
AcDbVisualStyle
  2
Hidden
 70
     6
177
     3
291
     0
 70
    58
 90
        1
176
     1
 90
        2
176
     1
 90
        2
176
     1
 90
        0
176
     1
 40
0.6
176
     1
 40
30.0
176
     1
 62
     7
420
 16777215
176
     1
 90
        2
176
     1
 90
        2
176
     1
 62
     7
176
     1
 62
   257
176
     1
 90
        2
176
     1
 90
        1
176
     1
 40
40.0
176
     1
 90
        0
176
     1
 62
   257
176
     1
 40
1.0
176
     1
 90
        1
176
     1
 90
        6
176
     1
 90
        2
176
     1
 62
     7
176
     1
 90
        3
176
     1
 90
        0
176
     1
 90
        0
176
     1
290
     0
176
     1
 90
        1
176
     1
 40
0.0
176
     1
 90
        0
176
     1
290
     0
176
     1
290
     1
176
     1
290
     1
176
     1
290
     0
176
     1
290
     0
176
     1
290
     0
176
     1
290
     0
176
     1
290
     0
176
     1
290
     0
176
     1
 90
       50
176
     1
 40
0.0
176
     1
 40
1.0
176
     1
 90
        0
176
     1
 62
    18
420
        0
176
     1
 90
       50
176
     1
 90
        3
176
     1
 62
     5
420
      255
176
     1
290
     0
176
     1
 90
       50
176
     1
 90
       50
176
     1
 90
       50
176
     1
290
     0
176
     1
 90
       50
176
     1
 62
   256
176
     0
 40
1.0
176
     0
 90
        2
176
     1
  1
strokes_ogs.tif
176
     1
290
     0
176
     1
 40
1.0
176
     1
 40
1.0
176
     1
  0
VISUALSTYLE
  5
3B
102
{ACAD_REACTORS
330
2A
102
}
330
2A
100
AcDbVisualStyle
  2
JitterOff
 70
    20
177
     3
291
     1
 70
    58
 90
        2
176
     0
 90
        2
176
     0
 90
        0
176
     0
 90
        0
176
     0
 40
0.6
176
     0
 40
30.0
176
     0
 62
     7
420
 16777215
176
     0
 90
        1
176
     0
 90
        4
176
     0
 62
     7
176
     0
 62
   257
176
     0
 90
        1
176
     0
 90
        1
176
     0
 40
1.0
176
     0
 90
       10
176
     2
 62
     7
176
     0
 40
1.0
176
     0
 90
        1
176
     0
 90
        6
176
     0
 90
        2
176
     0
 62
     7
176
     0
 90
        5
176
     0
 90
        0
176
     0
 90
        0
176
     0
290
     0
176
     0
 90
        1
176
     0
 40
0.0
176
     0
 90
        0
176
     0
290
     0
176
     0
290
     1
176
     0
290
     1
176
     0
290
     0
176
     0
290
     0
176
     0
290
     0
176
     0
290
     0
176
     0
290
     0
176
     0
290
     0
176
     0
 90
       50
176
     0
 40
0.0
176
     0
 40
1.0
176
     0
 90
        0
176
     0
 62
    18
420
        0
176
     0
 90
       50
176
     0
 90
        3
176
     0
 62
     5
420
      255
176
     0
290
     0
176
     0
 90
       50
176
     0
 90
       50
176
     0
 90
       50
176
     0
290
     0
176
     0
 90
       50
176
     0
 62
   256
176
     0
 40
1.0
176
     0
 90
        2
176
     0
  1
strokes_ogs.tif
176
     0
290
     0
176
     0
 40
1.0
176
     0
 40
1.0
176
     0
  0
VISUALSTYLE
  5
38
102
{ACAD_REACTORS
330
2A
102
}
330
2A
100
AcDbVisualStyle
  2
Linepattern
 70
    14
177
     3
291
     1
 70
    58
 90
        2
176
     1
 90
        2
176
     1
 90
        0
176
     1
 90
        0
176
     1
 40
0.6
176
     1
 40
30.0
176
     1
 62
     7
420
 16777215
176
     1
 90
        1
176
     1
 90
        4
176
     1
 62
     7
176
     1
 62
   257
176
     1
 90
        7
176
     1
 90
        7
176
     1
 40
1.0
176
     1
 90
        8
176
     1
 62
     7
176
     1
 40
1.0
176
     1
 90
        1
176
     1
 90
        6
176
     1
 90
        2
176
     1
 62
     7
176
     1
 90
        5
176
     1
 90
        0
176
     1
 90
        0
176
     1
290
     0
176
     1
 90
        1
176
     1
 40
0.0
176
     1
 90
        0
176
     1
290
     0
176
     1
290
     1
176
     1
290
     1
176
     1
290
     0
176
     1
290
     0
176
     1
290
     0
176
     1
290
     0
176
     1
290
     0
176
     1
290
     0
176
     1
 90
       50
176
     1
 40
0.0
176
     1
 40
1.0
176
     1
 90
        0
176
     1
 62
    18
420
        0
176
     1
 90
       50
176
     1
 90
        3
176
     1
 62
     5
420
      255
176
     1
290
     0
176
     1
 90
       50
176
     1
 90
       50
176
     1
 90
       50
176
     1
290
     0
176
     1
 90
       50
176
     1
 62
   256
176
     0
 40
1.0
176
     0
 90
        2
176
     1
  1
strokes_ogs.tif
176
     1
290
     0
176
     1
 40
1.0
176
     1
 40
1.0
176
     1
  0
VISUALSTYLE
  5
3C
102
{ACAD_REACTORS
330
2A
102
}
330
2A
100
AcDbVisualStyle
  2
OverhangOff
 70
    21
177
     3
291
     1
 70
    58
 90
        2
176
     0
 90
        2
176
     0
 90
        0
176
     0
 90
        0
176
     0
 40
0.6
176
     0
 40
30.0
176
     0
 62
     7
420
 16777215
176
     0
 90
        1
176
     0
 90
        4
176
     0
 62
     7
176
     0
 62
   257
176
     0
 90
        1
176
     0
 90
        1
176
     0
 40
1.0
176
     0
 90
        9
176
     2
 62
     7
176
     0
 40
1.0
176
     0
 90
        1
176
     0
 90
        6
176
     0
 90
        2
176
     0
 62
     7
176
     0
 90
        5
176
     0
 90
        0
176
     0
 90
        0
176
     0
290
     0
176
     0
 90
        1
176
     0
 40
0.0
176
     0
 90
        0
176
     0
290
     0
176
     0
290
     1
176
     0
290
     1
176
     0
290
     0
176
     0
290
     0
176
     0
290
     0
176
     0
290
     0
176
     0
290
     0
176
     0
290
     0
176
     0
 90
       50
176
     0
 40
0.0
176
     0
 40
1.0
176
     0
 90
        0
176
     0
 62
    18
420
        0
176
     0
 90
       50
176
     0
 90
        3
176
     0
 62
     5
420
      255
176
     0
290
     0
176
     0
 90
       50
176
     0
 90
       50
176
     0
 90
       50
176
     0
290
     0
176
     0
 90
       50
176
     0
 62
   256
176
     0
 40
1.0
176
     0
 90
        2
176
     0
  1
strokes_ogs.tif
176
     0
290
     0
176
     0
 40
1.0
176
     0
 40
1.0
176
     0
  0
VISUALSTYLE
  5
33
102
{ACAD_REACTORS
330
2A
102
}
330
2A
100
AcDbVisualStyle
  2
Realistic
 70
     8
177
     3
291
     0
 70
    58
 90
        2
176
     1
 90
        3
176
     1
 90
        0
176
     1
 90
        2
176
     1
 40
0.6
176
     1
 40
30.0
176
     1
 62
     7
420
 16777215
176
     1
 90
        0
176
     1
 90
        0
176
     1
 62
     7
176
     1
 62
   257
176
     1
 90
        1
176
     1
 90
        1
176
     1
 40
1.0
176
     1
 90
        8
176
     1
 62
   257
176
     1
 40
1.0
176
     1
 90
        1
176
     1
 90
        6
176
     1
 90
        2
176
     1
 62
     7
176
     1
 90
        3
176
     1
 90
        0
176
     1
 90
        0
176
     1
290
     0
176
     1
 90
       13
176
     1
 40
0.0
176
     1
 90
        0
176
     1
290
     0
176
     1
290
     1
176
     1
290
     1
176
     1
290
     0
176
     1
290
     0
176
     1
290
     0
176
     1
290
     0
176
     1
290
     0
176
     1
290
     0
176
     1
 90
       50
176
     1
 40
0.0
176
     1
 40
1.0
176
     1
 90
        0
176
     1
 62
    18
420
        0
176
     1
 90
       50
176
     1
 90
        3
176
     1
 62
     5
420
      255
176
     1
290
     0
176
     1
 90
       50
176
     1
 90
       50
176
     1
 90
       50
176
     1
290
     0
176
     1
 90
       50
176
     1
 62
   256
176
     0
 40
1.0
176
     0
 90
        2
176
     1
  1
strokes_ogs.tif
176
     1
290
     0
176
     1
 40
1.0
176
     1
 40
1.0
176
     1
  0
VISUALSTYLE
  5
42
102
{ACAD_REACTORS
330
2A
102
}
330
2A
100
AcDbVisualStyle
  2
Shaded
 70
    27
177
     3
291
     0
 70
    58
 90
        2
176
     1
 90
        2
176
     1
 90
        1
176
     1
 90
        2
176
     1
 40
0.6
176
     1
 40
30.0
176
     1
 62
     7
420
 16777215
176
     1
 90
        0
176
     1
 90
        4
176
     1
 62
     7
176
     1
 62
   257
176
     1
 90
        1
176
     1
 90
        1
176
     1
 40
1.0
176
     1
 90
        8
176
     1
 62
   257
176
     1
 40
1.0
176
     1
 90
        1
176
     1
 90
        6
176
     1
 90
        2
176
     1
 62
     8
420
  7895160
176
     1
 90
        3
176
     1
 90
        0
176
     1
 90
        0
176
     1
290
     0
176
     1
 90
        5
176
     1
 40
0.0
176
     1
 90
        0
176
     1
290
     0
176
     1
290
     1
176
     1
290
     1
176
     1
290
     0
176
     1
290
     0
176
     1
290
     0
176
     1
290
     0
176
     1
290
     0
176
     1
290
     0
176
     1
 90
       50
176
     1
 40
0.0
176
     1
 40
1.0
176
     1
 90
        0
176
     1
 62
    18
420
        0
176
     1
 90
       50
176
     1
 90
        3
176
     1
 62
     5
420
      255
176
     1
290
     0
176
     1
 90
       50
176
     1
 90
       50
176
     1
 90
       50
176
     1
290
     0
176
     1
 90
       50
176
     1
 62
   256
176
     0
 40
1.0
176
     0
 90
        2
176
     1
  1
strokes_ogs.tif
176
     1
290
     0
176
     1
 40
1.0
176
     1
 40
1.0
176
     1
  0
VISUALSTYLE
  5
41
102
{ACAD_REACTORS
330
2A
102
}
330
2A
100
AcDbVisualStyle
  2
Shaded with edges
 70
    26
177
     3
291
     0
 70
    58
 90
        2
176
     1
 90
        2
176
     1
 90
        1
176
     1
 90
        2
176
     1
 40
0.6
176
     1
 40
30.0
176
     1
 62
     7
420
 16777215
176
     1
 90
        1
176
     1
 90
       10
176
     1
 62
     7
176
     1
 62
   257
176
     1
 90
        2
176
     1
 90
        1
176
     1
 40
1.0
176
     1
 90
        8
176
     1
 62
   257
176
     1
 40
1.0
176
     1
 90
        1
176
     1
 90
        6
176
     1
 90
        2
176
     1
 62
     7
176
     1
 90
        3
176
     1
 90
        0
176
     1
 90
        0
176
     1
290
     0
176
     1
 90
        5
176
     1
 40
0.0
176
     1
 90
        0
176
     1
290
     0
176
     1
290
     1
176
     1
290
     1
176
     1
290
     0
176
     1
290
     0
176
     1
290
     0
176
     1
290
     0
176
     1
290
     0
176
     1
290
     0
176
     1
 90
       50
176
     1
 40
0.0
176
     1
 40
1.0
176
     1
 90
        0
176
     1
 62
    18
420
        0
176
     1
 90
       50
176
     1
 90
        3
176
     1
 62
     5
420
      255
176
     1
290
     0
176
     1
 90
       50
176
     1
 90
       50
176
     1
 90
       50
176
     1
290
     0
176
     1
 90
       50
176
     1
 62
   256
176
     0
 40
1.0
176
     0
 90
        2
176
     1
  1
strokes_ogs.tif
176
     1
290
     0
176
     1
 40
1.0
176
     1
 40
1.0
176
     1
  0
VISUALSTYLE
  5
3E
102
{ACAD_REACTORS
330
2A
102
}
330
2A
100
AcDbVisualStyle
  2
Shades of Gray
 70
    23
177
     3
291
     0
 70
    58
 90
        2
176
     1
 90
        2
176
     1
 90
        3
176
     1
 90
        0
176
     1
 40
0.6
176
     1
 40
30.0
176
     1
 62
     7
420
 16777215
176
     1
 90
        2
176
     1
 90
        2
176
     1
 62
     7
176
     1
 62
     7
176
     1
 90
        1
176
     1
 90
        1
176
     1
 40
40.0
176
     1
 90
        8
176
     1
 62
     7
176
     1
 40
1.0
176
     1
 90
        1
176
     1
 90
        6
176
     1
 90
        2
176
     1
 62
     7
176
     1
 90
        3
176
     1
 90
        0
176
     1
 90
        0
176
     1
290
     0
176
     1
 90
        1
176
     1
 40
0.0
176
     1
 90
        0
176
     1
290
     0
176
     1
290
     1
176
     1
290
     1
176
     1
290
     0
176
     1
290
     0
176
     1
290
     0
176
     1
290
     0
176
     1
290
     0
176
     1
290
     0
176
     1
 90
       50
176
     1
 40
0.0
176
     1
 40
1.0
176
     1
 90
        0
176
     1
 62
    18
420
        0
176
     1
 90
       50
176
     1
 90
        3
176
     1
 62
     5
420
      255
176
     1
290
     0
176
     1
 90
       50
176
     1
 90
       50
176
     1
 90
       50
176
     1
290
     0
176
     1
 90
       50
176
     1
 62
   256
176
     0
 40
1.0
176
     0
 90
        2
176
     1
  1
strokes_ogs.tif
176
     1
290
     0
176
     1
 40
1.0
176
     1
 40
1.0
176
     1
  0
VISUALSTYLE
  5
3F
102
{ACAD_REACTORS
330
2A
102
}
330
2A
100
AcDbVisualStyle
  2
Sketchy
 70
    24
177
     3
291
     0
 70
    58
 90
        1
176
     1
 90
        2
176
     1
 90
        2
176
     1
 90
        0
176
     1
 40
0.6
176
     1
 40
30.0
176
     1
 62
     7
420
 16777215
176
     1
 90
        2
176
     1
 90
        2
176
     1
 62
     7
176
     1
 62
     7
176
     1
 90
        1
176
     1
 90
        1
176
     1
 40
40.0
176
     1
 90
       11
176
     1
 62
     7
176
     1
 40
1.0
176
     1
 90
        1
176
     1
 90
        6
176
     1
 90
        2
176
     1
 62
     7
176
     1
 90
        6
176
     1
 90
        0
176
     1
 90
        0
176
     1
290
     0
176
     1
 90
        1
176
     1
 40
0.0
176
     1
 90
        0
176
     1
290
     0
176
     1
290
     1
176
     1
290
     1
176
     1
290
     0
176
     1
290
     0
176
     1
290
     0
176
     1
290
     0
176
     1
290
     0
176
     1
290
     0
176
     1
 90
       50
176
     1
 40
0.0
176
     1
 40
1.0
176
     1
 90
        0
176
     1
 62
    18
420
        0
176
     1
 90
       50
176
     1
 90
        3
176
     1
 62
     5
420
      255
176
     1
290
     0
176
     1
 90
       50
176
     1
 90
       50
176
     1
 90
       50
176
     1
290
     0
176
     1
 90
       50
176
     1
 62
   256
176
     0
 40
1.0
176
     0
 90
        2
176
     1
  1
strokes_ogs.tif
176
     1
290
     0
176
     1
 40
1.0
176
     1
 40
1.0
176
     1
  0
VISUALSTYLE
  5
37
102
{ACAD_REACTORS
330
2A
102
}
330
2A
100
AcDbVisualStyle
  2
Thicken
 70
    13
177
     3
291
     1
 70
    58
 90
        2
176
     1
 90
        2
176
     1
 90
        0
176
     1
 90
        0
176
     1
 40
0.6
176
     1
 40
30.0
176
     1
 62
     7
420
 16777215
176
     1
 90
        1
176
     1
 90
        4
176
     1
 62
     7
176
     1
 62
   257
176
     1
 90
        1
176
     1
 90
        1
176
     1
 40
1.0
176
     1
 90
       12
176
     1
 62
     7
176
     1
 40
1.0
176
     1
 90
        1
176
     1
 90
        6
176
     1
 90
        2
176
     1
 62
     7
176
     1
 90
        5
176
     1
 90
        0
176
     1
 90
        0
176
     1
290
     0
176
     1
 90
        1
176
     1
 40
0.0
176
     1
 90
        0
176
     1
290
     0
176
     1
290
     1
176
     1
290
     1
176
     1
290
     0
176
     1
290
     0
176
     1
290
     0
176
     1
290
     0
176
     1
290
     0
176
     1
290
     0
176
     1
 90
       50
176
     1
 40
0.0
176
     1
 40
1.0
176
     1
 90
        0
176
     1
 62
    18
420
        0
176
     1
 90
       50
176
     1
 90
        3
176
     1
 62
     5
420
      255
176
     1
290
     0
176
     1
 90
       50
176
     1
 90
       50
176
     1
 90
       50
176
     1
290
     0
176
     1
 90
       50
176
     1
 62
   256
176
     0
 40
1.0
176
     0
 90
        2
176
     1
  1
strokes_ogs.tif
176
     1
290
     0
176
     1
 40
1.0
176
     1
 40
1.0
176
     1
  0
VISUALSTYLE
  5
30
102
{ACAD_REACTORS
330
2A
102
}
330
2A
100
AcDbVisualStyle
  2
Wireframe
 70
     5
177
     3
291
     0
 70
    58
 90
        0
176
     1
 90
        2
176
     1
 90
        0
176
     1
 90
        0
176
     1
 40
0.6
176
     1
 40
30.0
176
     1
 62
     7
420
 16777215
176
     1
 90
        1
176
     1
 90
        4
176
     1
 62
     7
176
     1
 62
   257
176
     1
 90
        1
176
     1
 90
        1
176
     1
 40
1.0
176
     1
 90
        0
176
     1
 62
   257
176
     1
 40
1.0
176
     1
 90
        1
176
     1
 90
        6
176
     1
 90
        2
176
     1
 62
     7
176
     1
 90
        3
176
     1
 90
        0
176
     1
 90
        0
176
     1
290
     0
176
     1
 90
        1
176
     1
 40
0.0
176
     1
 90
        0
176
     1
290
     0
176
     1
290
     1
176
     1
290
     1
176
     1
290
     0
176
     1
290
     0
176
     1
290
     0
176
     1
290
     0
176
     1
290
     0
176
     1
290
     0
176
     1
 90
       50
176
     1
 40
0.0
176
     1
 40
1.0
176
     1
 90
        0
176
     1
 62
    18
420
        0
176
     1
 90
       50
176
     1
 90
        3
176
     1
 62
     5
420
      255
176
     1
290
     0
176
     1
 90
       50
176
     1
 90
       50
176
     1
 90
       50
176
     1
290
     0
176
     1
 90
       50
176
     1
 62
   256
176
     0
 40
1.0
176
     0
 90
        2
176
     1
  1
strokes_ogs.tif
176
     1
290
     0
176
     1
 40
1.0
176
     1
 40
1.0
176
     1
  0
VISUALSTYLE
  5
40
102
{ACAD_REACTORS
330
2A
102
}
330
2A
100
AcDbVisualStyle
  2
X-Ray
 70
    25
177
     3
291
     0
 70
    58
 90
        2
176
     1
 90
        2
176
     1
 90
        1
176
     1
 90
        1
176
     1
 40
0.5
176
     1
 40
30.0
176
     1
 62
     7
420
 16777215
176
     1
 90
        1
176
     1
 90
        0
176
     1
 62
     7
176
     1
 62
   257
176
     1
 90
        1
176
     1
 90
        1
176
     1
 40
1.0
176
     1
 90
        8
176
     1
 62
     7
176
     1
 40
1.0
176
     1
 90
        1
176
     1
 90
        6
176
     1
 90
        2
176
     1
 62
     7
176
     1
 90
        3
176
     1
 90
        0
176
     1
 90
        0
176
     1
290
     0
176
     1
 90
       13
176
     1
 40
0.0
176
     1
 90
        0
176
     1
290
     0
176
     1
290
     1
176
     1
290
     1
176
     1
290
     0
176
     1
290
     0
176
     1
290
     0
176
     1
290
     0
176
     1
290
     0
176
     1
290
     0
176
     1
 90
       50
176
     1
 40
0.0
176
     1
 40
1.0
176
     1
 90
        0
176
     1
 62
    18
420
        0
176
     1
 90
       50
176
     1
 90
        3
176
     1
 62
     5
420
      255
176
     1
290
     0
176
     1
 90
       50
176
     1
 90
       50
176
     1
 90
       50
176
     1
290
     0
176
     1
 90
       50
176
     1
 62
   256
176
     0
 40
1.0
176
     0
 90
        2
176
     1
  1
strokes_ogs.tif
176
     1
290
     0
176
     1
 40
1.0
176
     1
 40
1.0
176
     1
  0
DICTIONARYVAR
  5
1D7
102
{ACAD_REACTORS
330
1D6
102
}
330
1D6
100
DictionaryVariables
280
     0
  1
1:1
  0
DICTIONARYVAR
  5
1DC
102
{ACAD_REACTORS
330
1D6
102
}
330
1D6
100
DictionaryVariables
280
     0
  1
Standard
  0
DICTIONARYVAR
  5
1DB
102
{ACAD_REACTORS
330
1D6
102
}
330
1D6
100
DictionaryVariables
280
     0
  1
Standard
  0
DICTIONARY
  5
1D8
330
6A
100
AcDbDictionary
280
     1
281
     1
  3
ACAD_ROUNDTRIP_2008_TABLESTYLE_CELLSTYLEMAP
360
1D9
  0
CELLSTYLEMAP
  5
1D9
102
{ACAD_REACTORS
330
1D8
102
}
330
1D8
100
AcDbCellStyleMap
 90
        3
300
CELLSTYLE
  1
TABLEFORMAT_BEGIN
 90
        5
170
     1
 91
        0
 92
    32768
 62
   257
 93
        1
300
CONTENTFORMAT
  1
CONTENTFORMAT_BEGIN
 90
        0
 91
        0
 92
        4
 93
        0
300

 40
0.0
140
1.0
 94
        5
 62
     0
340
11
144
6.0
309
CONTENTFORMAT_END
171
     1
301
MARGIN
  1
CELLMARGIN_BEGIN
 40
1.5
 40
1.5
 40
1.5
 40
1.5
 40
1.5
 40
1.5
309
CELLMARGIN_END
 94
        6
 95
        1
302
GRIDFORMAT
  1
GRIDFORMAT_BEGIN
 90
        0
 91
        1
 62
     0
 92
       -2
340
14
 93
        0
 40
0.045
309
GRIDFORMAT_END
 95
        2
302
GRIDFORMAT
  1
GRIDFORMAT_BEGIN
 90
        0
 91
        1
 62
     0
 92
       -2
340
14
 93
        0
 40
0.045
309
GRIDFORMAT_END
 95
        4
302
GRIDFORMAT
  1
GRIDFORMAT_BEGIN
 90
        0
 91
        1
 62
     0
 92
       -2
340
14
 93
        0
 40
0.045
309
GRIDFORMAT_END
 95
        8
302
GRIDFORMAT
  1
GRIDFORMAT_BEGIN
 90
        0
 91
        1
 62
     0
 92
       -2
340
14
 93
        0
 40
0.045
309
GRIDFORMAT_END
 95
       16
302
GRIDFORMAT
  1
GRIDFORMAT_BEGIN
 90
        0
 91
        1
 62
     0
 92
       -2
340
14
 93
        0
 40
0.045
309
GRIDFORMAT_END
 95
       32
302
GRIDFORMAT
  1
GRIDFORMAT_BEGIN
 90
        0
 91
        1
 62
     0
 92
       -2
340
14
 93
        0
 40
0.045
309
GRIDFORMAT_END
309
TABLEFORMAT_END
  1
CELLSTYLE_BEGIN
 90
        1
 91
        1
300
_TITLE
309
CELLSTYLE_END
300
CELLSTYLE
  1
TABLEFORMAT_BEGIN
 90
        5
170
     1
 91
        0
 92
        0
 62
   257
 93
        1
300
CONTENTFORMAT
  1
CONTENTFORMAT_BEGIN
 90
        0
 91
        0
 92
        4
 93
        0
300

 40
0.0
140
1.0
 94
        5
 62
     0
340
11
144
4.5
309
CONTENTFORMAT_END
171
     1
301
MARGIN
  1
CELLMARGIN_BEGIN
 40
1.5
 40
1.5
 40
1.5
 40
1.5
 40
1.5
 40
1.5
309
CELLMARGIN_END
 94
        6
 95
        1
302
GRIDFORMAT
  1
GRIDFORMAT_BEGIN
 90
        0
 91
        1
 62
     0
 92
       -2
340
14
 93
        0
 40
0.045
309
GRIDFORMAT_END
 95
        2
302
GRIDFORMAT
  1
GRIDFORMAT_BEGIN
 90
        0
 91
        1
 62
     0
 92
       -2
340
14
 93
        0
 40
0.045
309
GRIDFORMAT_END
 95
        4
302
GRIDFORMAT
  1
GRIDFORMAT_BEGIN
 90
        0
 91
        1
 62
     0
 92
       -2
340
14
 93
        0
 40
0.045
309
GRIDFORMAT_END
 95
        8
302
GRIDFORMAT
  1
GRIDFORMAT_BEGIN
 90
        0
 91
        1
 62
     0
 92
       -2
340
14
 93
        0
 40
0.045
309
GRIDFORMAT_END
 95
       16
302
GRIDFORMAT
  1
GRIDFORMAT_BEGIN
 90
        0
 91
        1
 62
     0
 92
       -2
340
14
 93
        0
 40
0.045
309
GRIDFORMAT_END
 95
       32
302
GRIDFORMAT
  1
GRIDFORMAT_BEGIN
 90
        0
 91
        1
 62
     0
 92
       -2
340
14
 93
        0
 40
0.045
309
GRIDFORMAT_END
309
TABLEFORMAT_END
  1
CELLSTYLE_BEGIN
 90
        2
 91
        1
300
_HEADER
309
CELLSTYLE_END
300
CELLSTYLE
  1
TABLEFORMAT_BEGIN
 90
        5
170
     1
 91
        0
 92
        0
 62
   257
 93
        1
300
CONTENTFORMAT
  1
CONTENTFORMAT_BEGIN
 90
        0
 91
        0
 92
        4
 93
        0
300

 40
0.0
140
1.0
 94
        2
 62
     0
340
11
144
4.5
309
CONTENTFORMAT_END
171
     1
301
MARGIN
  1
CELLMARGIN_BEGIN
 40
1.5
 40
1.5
 40
1.5
 40
1.5
 40
1.5
 40
1.5
309
CELLMARGIN_END
 94
        6
 95
        1
302
GRIDFORMAT
  1
GRIDFORMAT_BEGIN
 90
        0
 91
        1
 62
     0
 92
       -2
340
14
 93
        0
 40
0.045
309
GRIDFORMAT_END
 95
        2
302
GRIDFORMAT
  1
GRIDFORMAT_BEGIN
 90
        0
 91
        1
 62
     0
 92
       -2
340
14
 93
        0
 40
0.045
309
GRIDFORMAT_END
 95
        4
302
GRIDFORMAT
  1
GRIDFORMAT_BEGIN
 90
        0
 91
        1
 62
     0
 92
       -2
340
14
 93
        0
 40
0.045
309
GRIDFORMAT_END
 95
        8
302
GRIDFORMAT
  1
GRIDFORMAT_BEGIN
 90
        0
 91
        1
 62
     0
 92
       -2
340
14
 93
        0
 40
0.045
309
GRIDFORMAT_END
 95
       16
302
GRIDFORMAT
  1
GRIDFORMAT_BEGIN
 90
        0
 91
        1
 62
     0
 92
       -2
340
14
 93
        0
 40
0.045
309
GRIDFORMAT_END
 95
       32
302
GRIDFORMAT
  1
GRIDFORMAT_BEGIN
 90
        0
 91
        1
 62
     0
 92
       -2
340
14
 93
        0
 40
0.045
309
GRIDFORMAT_END
309
TABLEFORMAT_END
  1
CELLSTYLE_BEGIN
 90
        3
 91
        2
300
_DATA
309
CELLSTYLE_END
  0
ENDSEC
  0
EOF