0
SECTION
  2
HEADER
  9
$ACADVER
  1
AC1027
  9
$ACADMAINTVER
 70
     8
  9
$DWGCODEPAGE
  3
ANSI_1252
  9
$REQUIREDVERSIONS
160
                 0
  9
$COMMENTS
  1
File was created by Cadenas
  9
$CUSTOMPROPERTYTAG
  1
NN
  9
$CUSTOMPROPERTY
  1
Grip Tight Two-Bolt Flange - Stainless Housing, Corrosion Resistant Insert Inch Bore
  9
$CUSTOMPROPERTYTAG
  1
NT
  9
$CUSTOMPROPERTY
  1
GTEZ Normal Duty Stainless Steel Housed 2 Bolt Flange Bearings
  9
$CUSTOMPROPERTYTAG
  1
NB
  9
$CUSTOMPROPERTY
  1
 129355
  9
$CUSTOMPROPERTYTAG
  1
NBSYN
  9
$CUSTOMPROPERTY
  1
 $PN.$LUBE.
  9
$CUSTOMPROPERTYTAG
  1
LINA
  9
$CUSTOMPROPERTY
  1
129355
  9
$CUSTOMPROPERTYTAG
  1
SERIES
  9
$CUSTOMPROPERTY
  1
204
  9
$CUSTOMPROPERTYTAG
  1
SS
  9
$CUSTOMPROPERTY
  1
3/4
  9
$CUSTOMPROPERTYTAG
  1
PN
  9
$CUSTOMPROPERTY
  1
129355
  9
$CUSTOMPROPERTYTAG
  1
DESCRIPTION
  9
$CUSTOMPROPERTY
  1
F2B-GTEZ-012-SHCR
  9
$CUSTOMPROPERTYTAG
  1
A
  9
$CUSTOMPROPERTY
  1
1-15/32
  9
$CUSTOMPROPERTYTAG
  1
B
  9
$CUSTOMPROPERTY
  1
4-3/8
  9
$CUSTOMPROPERTYTAG
  1
C
  9
$CUSTOMPROPERTY
  1
1-1/2
  9
$CUSTOMPROPERTYTAG
  1
D
  9
$CUSTOMPROPERTY
  1
3-17/32
  9
$CUSTOMPROPERTYTAG
  1
F
  9
$CUSTOMPROPERTY
  1
3/8
  9
$CUSTOMPROPERTYTAG
  1
F1
  9
$CUSTOMPROPERTY
  1
0.375
  9
$CUSTOMPROPERTYTAG
  1
H
  9
$CUSTOMPROPERTY
  1
21/64
  9
$CUSTOMPROPERTYTAG
  1
J
  9
$CUSTOMPROPERTY
  1
39/64
  9
$CUSTOMPROPERTYTAG
  1
L
  9
$CUSTOMPROPERTY
  1
1-1/2
  9
$CUSTOMPROPERTYTAG
  1
M
  9
$CUSTOMPROPERTY
  1
2-3/8
  9
$CUSTOMPROPERTYTAG
  1
Z
  9
$CUSTOMPROPERTY
  1
1-1/2
  9
$CUSTOMPROPERTYTAG
  1
COMPANY
  9
$CUSTOMPROPERTY
  1
baldor
  9
$INSBASE
 10
0.0
 20
0.0
 30
0.0
  9
$EXTMIN
 10
1.000000000000000E+20
 20
1.000000000000000E+20
 30
1.000000000000000E+20
  9
$EXTMAX
 10
-1.000000000000000E+20
 20
-1.000000000000000E+20
 30
-1.000000000000000E+20
  9
$LIMMIN
 10
0.0
 20
0.0
  9
$LIMMAX
 10
12.0
 20
9.0
  9
$ORTHOMODE
 70
     0
  9
$REGENMODE
 70
     1
  9
$FILLMODE
 70
     1
  9
$QTEXTMODE
 70
     0
  9
$MIRRTEXT
 70
     1
  9
$LTSCALE
 40
1.0
  9
$ATTMODE
 70
     1
  9
$TEXTSIZE
 40
0.2
  9
$TRACEWID
 40
0.05
  9
$TEXTSTYLE
  7
Standard
  9
$CLAYER
  8
0
  9
$CELTYPE
  6
ByLayer
  9
$CECOLOR
 62
   256
  9
$CELTSCALE
 40
1.0
  9
$DISPSILH
 70
     0
  9
$DIMSCALE
 40
1.0
  9
$DIMASZ
 40
0.18
  9
$DIMEXO
 40
0.0625
  9
$DIMDLI
 40
0.38
  9
$DIMRND
 40
0.0
  9
$DIMDLE
 40
0.0
  9
$DIMEXE
 40
0.18
  9
$DIMTP
 40
0.0
  9
$DIMTM
 40
0.0
  9
$DIMTXT
 40
0.18
  9
$DIMCEN
 40
0.09
  9
$DIMTSZ
 40
0.0
  9
$DIMTOL
 70
     0
  9
$DIMLIM
 70
     0
  9
$DIMTIH
 70
     1
  9
$DIMTOH
 70
     1
  9
$DIMSE1
 70
     0
  9
$DIMSE2
 70
     0
  9
$DIMTAD
 70
     0
  9
$DIMZIN
 70
     0
  9
$DIMBLK
  1

  9
$DIMASO
 70
     1
  9
$DIMSHO
 70
     1
  9
$DIMPOST
  1

  9
$DIMAPOST
  1

  9
$DIMALT
 70
     0
  9
$DIMALTD
 70
     2
  9
$DIMALTF
 40
25.4
  9
$DIMLFAC
 40
1.0
  9
$DIMTOFL
 70
     0
  9
$DIMTVP
 40
0.0
  9
$DIMTIX
 70
     0
  9
$DIMSOXD
 70
     0
  9
$DIMSAH
 70
     0
  9
$DIMBLK1
  1

  9
$DIMBLK2
  1

  9
$DIMSTYLE
  2
Standard
  9
$DIMCLRD
 70
     0
  9
$DIMCLRE
 70
     0
  9
$DIMCLRT
 70
     0
  9
$DIMTFAC
 40
1.0
  9
$DIMGAP
 40
0.09
  9
$DIMJUST
 70
     0
  9
$DIMSD1
 70
     0
  9
$DIMSD2
 70
     0
  9
$DIMTOLJ
 70
     1
  9
$DIMTZIN
 70
     0
  9
$DIMALTZ
 70
     0
  9
$DIMALTTZ
 70
     0
  9
$DIMUPT
 70
     0
  9
$DIMDEC
 70
     4
  9
$DIMTDEC
 70
     4
  9
$DIMALTU
 70
     2
  9
$DIMALTTD
 70
     2
  9
$DIMTXSTY
  7
Standard
  9
$DIMAUNIT
 70
     0
  9
$DIMADEC
 70
     0
  9
$DIMALTRND
 40
0.0
  9
$DIMAZIN
 70
     0
  9
$DIMDSEP
 70
    46
  9
$DIMATFIT
 70
     3
  9
$DIMFRAC
 70
     0
  9
$DIMLDRBLK
  1

  9
$DIMLUNIT
 70
     2
  9
$DIMLWD
 70
    -2
  9
$DIMLWE
 70
    -2
  9
$DIMTMOVE
 70
     0
  9
$DIMFXL
 40
1.0
  9
$DIMFXLON
 70
     0
  9
$DIMJOGANG
 40
0.7853981633974483
  9
$DIMTFILL
 70
     0
  9
$DIMTFILLCLR
 70
     0
  9
$DIMARCSYM
 70
     0
  9
$DIMLTYPE
  6

  9
$DIMLTEX1
  6

  9
$DIMLTEX2
  6

  9
$DIMTXTDIRECTION
 70
     0
  9
$LUNITS
 70
     2
  9
$LUPREC
 70
     4
  9
$SKETCHINC
 40
0.1
  9
$FILLETRAD
 40
0.5
  9
$AUNITS
 70
     0
  9
$AUPREC
 70
     0
  9
$MENU
  1
.
  9
$ELEVATION
 40
0.0
  9
$PELEVATION
 40
0.0
  9
$THICKNESS
 40
0.0
  9
$LIMCHECK
 70
     0
  9
$CHAMFERA
 40
0.0
  9
$CHAMFERB
 40
0.0
  9
$CHAMFERC
 40
0.0
  9
$CHAMFERD
 40
0.0
  9
$SKPOLY
 70
     0
  9
$TDCREATE
 40
2458168.992033623
  9
$TDUCREATE
 40
2458168.950366956
  9
$TDUPDATE
 40
2458168.992033796
  9
$TDUUPDATE
 40
2458168.950367129
  9
$TDINDWG
 40
0.0000000116
  9
$TDUSRTIMER
 40
0.0000000116
  9
$USRTIMER
 70
     1
  9
$ANGBASE
 50
0.0
  9
$ANGDIR
 70
     0
  9
$PDMODE
 70
     0
  9
$PDSIZE
 40
0.0
  9
$PLINEWID
 40
0.0
  9
$SPLFRAME
 70
     0
  9
$SPLINETYPE
 70
     6
  9
$SPLINESEGS
 70
     8
  9
$HANDSEED
  5
21E
  9
$SURFTAB1
 70
     6
  9
$SURFTAB2
 70
     6
  9
$SURFTYPE
 70
     6
  9
$SURFU
 70
     6
  9
$SURFV
 70
     6
  9
$UCSBASE
  2

  9
$UCSNAME
  2

  9
$UCSORG
 10
0.0
 20
0.0
 30
0.0
  9
$UCSXDIR
 10
1.0
 20
0.0
 30
0.0
  9
$UCSYDIR
 10
0.0
 20
1.0
 30
0.0
  9
$UCSORTHOREF
  2

  9
$UCSORTHOVIEW
 70
     0
  9
$UCSORGTOP
 10
0.0
 20
0.0
 30
0.0
  9
$UCSORGBOTTOM
 10
0.0
 20
0.0
 30
0.0
  9
$UCSORGLEFT
 10
0.0
 20
0.0
 30
0.0
  9
$UCSORGRIGHT
 10
0.0
 20
0.0
 30
0.0
  9
$UCSORGFRONT
 10
0.0
 20
0.0
 30
0.0
  9
$UCSORGBACK
 10
0.0
 20
0.0
 30
0.0
  9
$PUCSBASE
  2

  9
$PUCSNAME
  2

  9
$PUCSORG
 10
0.0
 20
0.0
 30
0.0
  9
$PUCSXDIR
 10
1.0
 20
0.0
 30
0.0
  9
$PUCSYDIR
 10
0.0
 20
1.0
 30
0.0
  9
$PUCSORTHOREF
  2

  9
$PUCSORTHOVIEW
 70
     0
  9
$PUCSORGTOP
 10
0.0
 20
0.0
 30
0.0
  9
$PUCSORGBOTTOM
 10
0.0
 20
0.0
 30
0.0
  9
$PUCSORGLEFT
 10
0.0
 20
0.0
 30
0.0
  9
$PUCSORGRIGHT
 10
0.0
 20
0.0
 30
0.0
  9
$PUCSORGFRONT
 10
0.0
 20
0.0
 30
0.0
  9
$PUCSORGBACK
 10
0.0
 20
0.0
 30
0.0
  9
$USERI1
 70
     0
  9
$USERI2
 70
     0
  9
$USERI3
 70
     0
  9
$USERI4
 70
     0
  9
$USERI5
 70
     0
  9
$USERR1
 40
0.0
  9
$USERR2
 40
0.0
  9
$USERR3
 40
0.0
  9
$USERR4
 40
0.0
  9
$USERR5
 40
0.0
  9
$WORLDVIEW
 70
     1
  9
$SHADEDGE
 70
     3
  9
$SHADEDIF
 70
    70
  9
$TILEMODE
 70
     1
  9
$MAXACTVP
 70
    64
  9
$PINSBASE
 10
0.0
 20
0.0
 30
0.0
  9
$PLIMCHECK
 70
     0
  9
$PEXTMIN
 10
1.000000000000000E+20
 20
1.000000000000000E+20
 30
1.000000000000000E+20
  9
$PEXTMAX
 10
-1.000000000000000E+20
 20
-1.000000000000000E+20
 30
-1.000000000000000E+20
  9
$PLIMMIN
 10
0.0
 20
0.0
  9
$PLIMMAX
 10
12.0
 20
9.0
  9
$UNITMODE
 70
     0
  9
$VISRETAIN
 70
     1
  9
$PLINEGEN
 70
     0
  9
$PSLTSCALE
 70
     1
  9
$TREEDEPTH
 70
  3020
  9
$CMLSTYLE
  2
Standard
  9
$CMLJUST
 70
     0
  9
$CMLSCALE
 40
1.0
  9
$PROXYGRAPHICS
 70
     1
  9
$MEASUREMENT
 70
     0
  9
$CELWEIGHT
370
    -1
  9
$ENDCAPS
280
     0
  9
$JOINSTYLE
280
     0
  9
$LWDISPLAY
290
     0
  9
$INSUNITS
 70
     1
  9
$HYPERLINKBASE
  1

  9
$STYLESHEET
  1

  9
$XEDIT
290
     1
  9
$CEPSNTYPE
380
     0
  9
$PSTYLEMODE
290
     1
  9
$FINGERPRINTGUID
  2
{EC12AA95-74A3-4B70-8B88-2C5CB767BD6A}
  9
$VERSIONGUID
  2
{FAEB1C32-E019-11D5-929B-00C0DF256EC4}
  9
$EXTNAMES
290
     1
  9
$PSVPSCALE
 40
0.0
  9
$OLESTARTUP
290
     0
  9
$SORTENTS
280
   127
  9
$INDEXCTL
280
     0
  9
$HIDETEXT
280
     1
  9
$XCLIPFRAME
280
     2
  9
$HALOGAP
280
     0
  9
$OBSCOLOR
 70
   257
  9
$OBSLTYPE
280
     0
  9
$INTERSECTIONDISPLAY
280
     0
  9
$INTERSECTIONCOLOR
 70
   257
  9
$DIMASSOC
280
     2
  9
$PROJECTNAME
  1

  9
$CAMERADISPLAY
290
     0
  9
$LENSLENGTH
 40
50.0
  9
$CAMERAHEIGHT
 40
0.0
  9
$STEPSPERSEC
 40
2.0
  9
$STEPSIZE
 40
6.0
  9
$3DDWFPREC
 40
2.0
  9
$PSOLWIDTH
 40
0.25
  9
$PSOLHEIGHT
 40
4.0
  9
$LOFTANG1
 40
1.570796326794897
  9
$LOFTANG2
 40
1.570796326794897
  9
$LOFTMAG1
 40
0.0
  9
$LOFTMAG2
 40
0.0
  9
$LOFTPARAM
 70
     7
  9
$LOFTNORMALS
280
     1
  9
$LATITUDE
 40
37.795
  9
$LONGITUDE
 40
-122.394
  9
$NORTHDIRECTION
 40
0.0
  9
$TIMEZONE
 70
 -8000
  9
$LIGHTGLYPHDISPLAY
280
     1
  9
$TILEMODELIGHTSYNCH
280
     1
  9
$CMATERIAL
347
44
  9
$SOLIDHIST
280
     0
  9
$SHOWHIST
280
     1
  9
$DWFFRAME
280
     2
  9
$DGNFRAME
280
     2
  9
$REALWORLDSCALE
290
     1
  9
$INTERFERECOLOR
 62
   256
  9
$CSHADOW
280
     0
  9
$SHADOWPLANELOCATION
 40
0.0
  0
ENDSEC
  0
SECTION
  2
CLASSES
  0
CLASS
  1
ACDBDICTIONARYWDFLT
  2
AcDbDictionaryWithDefault
  3
ObjectDBX Classes
 90
        0
 91
        4
280
     0
281
     0
  0
CLASS
  1
VISUALSTYLE
  2
AcDbVisualStyle
  3
ObjectDBX Classes
 90
     4095
 91
        4
280
     0
281
     0
  0
CLASS
  1
MATERIAL
  2
AcDbMaterial
  3
ObjectDBX Classes
 90
     1153
 91
        4
280
     0
281
     0
  0
CLASS
  1
SCALE
  2
AcDbScale
  3
ObjectDBX Classes
 90
     1153
 91
        4
280
     0
281
     0
  0
CLASS
  1
TABLESTYLE
  2
AcDbTableStyle
  3
ObjectDBX Classes
 90
     4095
 91
        4
280
     0
281
     0
  0
CLASS
  1
MLEADERSTYLE
  2
AcDbMLeaderStyle
  3
ACDB_MLEADERSTYLE_CLASS
 90
     4095
 91
        4
280
     0
281
     0
  0
CLASS
  1
SUN
  2
AcDbSun
  3
SCENEOE
 90
     1153
 91
        4
280
     0
281
     0
  0
CLASS
  1
DICTIONARYVAR
  2
AcDbDictionaryVar
  3
ObjectDBX Classes
 90
        0
 91
        4
280
     0
281
     0
  0
CLASS
  1
CELLSTYLEMAP
  2
AcDbCellStyleMap
  3
ObjectDBX Classes
 90
     1152
 91
        4
280
     0
281
     0
  0
ENDSEC
  0
SECTION
  2
TABLES
  0
TABLE
  2
VPORT
  5
8
330
0
100
AcDbSymbolTable
 70
     1
  0
VPORT
  5
29
330
8
100
AcDbSymbolTableRecord
100
AcDbViewportTableRecord
  2
*Active
 70
     0
 10
0.0
 20
0.0
 11
1.0
 21
1.0
 12
0.0
 22
-0.7643187499999993
 13
0.0
 23
0.0
 14
0.5
 24
0.5
 15
0.5
 25
0.5
 16
0.0
 26
0.0
 36
1.0
 17
0.0
 27
0.0
 37
0.0
 40
1.650092250000001
 41
1.468099738060099
 42
50.0
 43
0.0
 44
0.0
 50
0.0
 51
0.0
 71
     0
 72
   100
 73
     1
 74
     3
 75
     0
 76
     0
 77
     0
 78
     0
281
     0
 65
     1
110
0.0
120
0.0
130
0.0
111
1.0
121
0.0
131
0.0
112
0.0
122
1.0
132
0.0
 79
     0
146
0.0
348
2F
 60
     3
 61
     5
292
     1
282
     1
141
0.0
142
0.0
 63
   250
361
6D
  0
ENDTAB
  0
TABLE
  2
LTYPE
  5
5
330
0
100
AcDbSymbolTable
 70
     3
  0
LTYPE
  5
14
330
5
100
AcDbSymbolTableRecord
100
AcDbLinetypeTableRecord
  2
ByBlock
 70
     0
  3

 72
    65
 73
     0
 40
0.0
  0
LTYPE
  5
15
330
5
100
AcDbSymbolTableRecord
100
AcDbLinetypeTableRecord
  2
ByLayer
 70
     0
  3

 72
    65
 73
     0
 40
0.0
  0
LTYPE
  5
16
330
5
100
AcDbSymbolTableRecord
100
AcDbLinetypeTableRecord
  2
Continuous
 70
     0
  3
Solid line
 72
    65
 73
     0
 40
0.0
  0
LTYPE
  5
9E
330
5
100
AcDbSymbolTableRecord
100
AcDbLinetypeTableRecord
  2
Dashed
 70
     0
  3

 72
    65
 73
     2
 40
2.0
 49
1.0
 74
     0
 49
-1.0
 74
     0
  0
LTYPE
  5
106
330
5
100
AcDbSymbolTableRecord
100
AcDbLinetypeTableRecord
  2
Center
 70
     0
  3

 72
    65
 73
     4
 40
1.5
 49
0.45
 74
     0
 49
-0.5
 74
     0
 49
0.05
 74
     0
 49
-0.5
 74
     0
  0
ENDTAB
  0
TABLE
  2
LAYER
  5
2
330
0
100
AcDbSymbolTable
 70
     7
  0
LAYER
  5
10
330
2
100
AcDbSymbolTableRecord
100
AcDbLayerTableRecord
  2
0
 70
     0
 62
     7
  6
Continuous
370
    -3
390
F
347
46
348
0
  0
LAYER
  5
72
330
2
100
AcDbSymbolTableRecord
100
AcDbLayerTableRecord
  2
AM_6
 70
     0
 62
    -2
  6
Continuous
370
    35
390
F
347
46
348
0
  0
LAYER
  5
9F
330
2
100
AcDbSymbolTableRecord
100
AcDbLayerTableRecord
  2
AM_9
 70
     0
 62
     6
  6
Dashed
370
    25
390
F
347
46
348
0
  0
LAYER
  5
CC
330
2
100
AcDbSymbolTableRecord
100
AcDbLayerTableRecord
  2
AM_4
 70
     0
 62
     7
  6
Continuous
370
    50
390
F
347
46
348
0
  0
LAYER
  5
103
330
2
100
AcDbSymbolTableRecord
100
AcDbLayerTableRecord
  2
AM_5
 70
     0
 62
     3
  6
Continuous
370
    25
390
F
347
46
348
0
  0
LAYER
  5
107
330
2
100
AcDbSymbolTableRecord
100
AcDbLayerTableRecord
  2
AM_7
 70
     0
 62
     7
  6
Center
370
    25
390
F
347
46
348
0
  0
LAYER
  5
211
330
2
100
AcDbSymbolTableRecord
100
AcDbLayerTableRecord
  2
ConnectionPoints
 70
     0
 62
     7
  6
Continuous
370
    50
390
F
347
46
348
0
  0
ENDTAB
  0
TABLE
  2
STYLE
  5
3
330
0
100
AcDbSymbolTable
 70
     1
  0
STYLE
  5
11
330
3
100
AcDbSymbolTableRecord
100
AcDbTextStyleTableRecord
  2
Standard
 70
     0
 40
0.0
 41
1.0
 50
0.0
 71
     0
 42
0.2
  3
txt
  4

  0
ENDTAB
  0
TABLE
  2
VIEW
  5
6
330
0
100
AcDbSymbolTable
 70
     0
  0
ENDTAB
  0
TABLE
  2
UCS
  5
7
330
0
100
AcDbSymbolTable
 70
     0
  0
ENDTAB
  0
TABLE
  2
APPID
  5
9
330
0
100
AcDbSymbolTable
 70
     1
  0
APPID
  5
12
330
9
100
AcDbSymbolTableRecord
100
AcDbRegAppTableRecord
  2
ACAD
 70
     0
  0
ENDTAB
  0
TABLE
  2
DIMSTYLE
  5
A
330
0
100
AcDbSymbolTable
 70
     1
100
AcDbDimStyleTable
  0
DIMSTYLE
105
27
330
A
100
AcDbSymbolTableRecord
100
AcDbDimStyleTableRecord
  2
Standard
 70
     0
178
     0
340
11
  0
ENDTAB
  0
TABLE
  2
BLOCK_RECORD
  5
1
330
0
100
AcDbSymbolTable
 70
     5
  0
BLOCK_RECORD
  5
1F
330
1
100
AcDbSymbolTableRecord
100
AcDbBlockTableRecord
  2
*Model_Space
340
22
 70
     0
280
     1
281
     0
  0
BLOCK_RECORD
  5
1B
330
1
100
AcDbSymbolTableRecord
100
AcDbBlockTableRecord
  2
*Paper_Space
340
1E
 70
     0
280
     1
281
     0
  0
BLOCK_RECORD
  5
23
330
1
100
AcDbSymbolTableRecord
100
AcDbBlockTableRecord
  2
*Paper_Space0
340
26
 70
     0
280
     1
281
     0
  0
BLOCK_RECORD
  5
6E
330
1
100
AcDbSymbolTableRecord
100
AcDbBlockTableRecord
  2
1__129355_4
340
0
102
{BLKREFS
331
6F
102
}
 70
     0
280
     1
281
     0
  0
BLOCK_RECORD
  5
88
330
1
100
AcDbSymbolTableRecord
100
AcDbBlockTableRecord
  2
2_INS_GT_04_CRI_0_in__129355_4
340
0
102
{BLKREFS
331
89
102
}
 70
     0
280
     1
281
     0
  0
BLOCK_RECORD
  5
D0
330
1
100
AcDbSymbolTableRecord
100
AcDbBlockTableRecord
  2
3_129967_0_in__129355_4
340
0
102
{BLKREFS
331
D1
102
}
 70
     0
280
     1
281
     0
  0
BLOCK_RECORD
  5
11F
330
1
100
AcDbSymbolTableRecord
100
AcDbBlockTableRecord
  2
4__F2B_GTEZ_04_SHCR_II_0_in__129355_4
340
0
102
{BLKREFS
331
120
102
}
 70
     0
280
     1
281
     0
  0
ENDTAB
  0
ENDSEC
  0
SECTION
  2
BLOCKS
  0
BLOCK
  5
20
330
1F
100
AcDbEntity
  8
0
100
AcDbBlockBegin
  2
*Model_Space
 70
     0
 10
0.0
 20
0.0
 30
0.0
  3
*Model_Space
  1

  0
ENDBLK
  5
21
330
1F
100
AcDbEntity
  8
0
100
AcDbBlockEnd
  0
BLOCK
  5
1C
330
1B
100
AcDbEntity
 67
     1
  8
0
100
AcDbBlockBegin
  2
*Paper_Space
 70
     0
 10
0.0
 20
0.0
 30
0.0
  3
*Paper_Space
  1

  0
ENDBLK
  5
1D
330
1B
100
AcDbEntity
 67
     1
  8
0
100
AcDbBlockEnd
  0
BLOCK
  5
24
330
23
100
AcDbEntity
  8
0
100
AcDbBlockBegin
  2
*Paper_Space0
 70
     0
 10
0.0
 20
0.0
 30
0.0
  3
*Paper_Space0
  1

  0
ENDBLK
  5
25
330
23
100
AcDbEntity
  8
0
100
AcDbBlockEnd
  0
BLOCK
  5
70
330
6E
100
AcDbEntity
  8
0
100
AcDbBlockBegin
  2
1__129355_4
 70
     2
 10
0.0
 20
0.0
 30
0.0
  3
1__129355_4
  1

  0
ATTDEF
  5
73
330
6E
100
AcDbEntity
  8
AM_6
100
AcDbText
 10
6.1875
 20
0.04455
 30
0.0
 40
0.5
  1
Grip Tight Two-Bolt Flange - Stainless Housing, Corrosion Resistant Insert Inch Bore
100
AcDbAttributeDefinition
  3

  2
NN
 70
     8
280
     0
  0
ATTDEF
  5
74
330
6E
100
AcDbEntity
  8
AM_6
100
AcDbText
 10
6.1875
 20
-0.45545
 30
0.0
 40
0.5
  1
GTEZ Normal Duty Stainless Steel Housed 2 Bolt Flange Bearings
100
AcDbAttributeDefinition
  3

  2
NT
 70
     8
280
     0
  0
ATTDEF
  5
75
330
6E
100
AcDbEntity
  8
AM_6
100
AcDbText
 10
6.1875
 20
-0.95545
 30
0.0
 40
0.5
  1
 129355
100
AcDbAttributeDefinition
  3

  2
NB
 70
     8
280
     0
  0
ATTDEF
  5
76
330
6E
100
AcDbEntity
  8
AM_6
100
AcDbText
 10
6.1875
 20
-1.45545
 30
0.0
 40
0.5
  1
 $PN.$LUBE.
100
AcDbAttributeDefinition
  3

  2
NBSYN
 70
     8
280
     0
  0
ATTDEF
  5
77
330
6E
100
AcDbEntity
  8
AM_6
100
AcDbText
 10
6.1875
 20
-1.95545
 30
0.0
 40
0.5
  1
129355
100
AcDbAttributeDefinition
  3

  2
LINA
 70
     8
280
     0
  0
ATTDEF
  5
78
330
6E
100
AcDbEntity
  8
AM_6
100
AcDbText
 10
6.1875
 20
-2.45545
 30
0.0
 40
0.5
  1
204
100
AcDbAttributeDefinition
  3

  2
SERIES
 70
     8
280
     0
  0
ATTDEF
  5
79
330
6E
100
AcDbEntity
  8
AM_6
100
AcDbText
 10
6.1875
 20
-2.95545
 30
0.0
 40
0.5
  1
3/4
100
AcDbAttributeDefinition
  3

  2
SS
 70
     8
280
     0
  0
ATTDEF
  5
7A
330
6E
100
AcDbEntity
  8
AM_6
100
AcDbText
 10
6.1875
 20
-3.45545
 30
0.0
 40
0.5
  1
129355
100
AcDbAttributeDefinition
  3

  2
PN
 70
     8
280
     0
  0
ATTDEF
  5
7B
330
6E
100
AcDbEntity
  8
AM_6
100
AcDbText
 10
6.1875
 20
-3.95545
 30
0.0
 40
0.5
  1
F2B-GTEZ-012-SHCR
100
AcDbAttributeDefinition
  3

  2
DESCRIPTION
 70
     8
280
     0
  0
ATTDEF
  5
7C
330
6E
100
AcDbEntity
  8
AM_6
100
AcDbText
 10
6.1875
 20
-4.45545
 30
0.0
 40
0.5
  1
1-15/32
100
AcDbAttributeDefinition
  3

  2
A
 70
     8
280
     0
  0
ATTDEF
  5
7D
330
6E
100
AcDbEntity
  8
AM_6
100
AcDbText
 10
6.1875
 20
-4.95545
 30
0.0
 40
0.5
  1
4-3/8
100
AcDbAttributeDefinition
  3

  2
B
 70
     8
280
     0
  0
ATTDEF
  5
7E
330
6E
100
AcDbEntity
  8
AM_6
100
AcDbText
 10
6.1875
 20
-5.45545
 30
0.0
 40
0.5
  1
1-1/2
100
AcDbAttributeDefinition
  3

  2
C
 70
     8
280
     0
  0
ATTDEF
  5
7F
330
6E
100
AcDbEntity
  8
AM_6
100
AcDbText
 10
6.1875
 20
-5.95545
 30
0.0
 40
0.5
  1
3-17/32
100
AcDbAttributeDefinition
  3

  2
D
 70
     8
280
     0
  0
ATTDEF
  5
80
330
6E
100
AcDbEntity
  8
AM_6
100
AcDbText
 10
6.1875
 20
-6.45545
 30
0.0
 40
0.5
  1
3/8
100
AcDbAttributeDefinition
  3

  2
F
 70
     8
280
     0
  0
ATTDEF
  5
81
330
6E
100
AcDbEntity
  8
AM_6
100
AcDbText
 10
6.1875
 20
-6.95545
 30
0.0
 40
0.5
  1
0.375
100
AcDbAttributeDefinition
  3

  2
F1
 70
     8
280
     0
  0
ATTDEF
  5
82
330
6E
100
AcDbEntity
  8
AM_6
100
AcDbText
 10
6.1875
 20
-7.45545
 30
0.0
 40
0.5
  1
21/64
100
AcDbAttributeDefinition
  3

  2
H
 70
     8
280
     0
  0
ATTDEF
  5
83
330
6E
100
AcDbEntity
  8
AM_6
100
AcDbText
 10
6.1875
 20
-7.95545
 30
0.0
 40
0.5
  1
39/64
100
AcDbAttributeDefinition
  3

  2
J
 70
     8
280
     0
  0
ATTDEF
  5
84
330
6E
100
AcDbEntity
  8
AM_6
100
AcDbText
 10
6.1875
 20
-8.455449999999999
 30
0.0
 40
0.5
  1
1-1/2
100
AcDbAttributeDefinition
  3

  2
L
 70
     8
280
     0
  0
ATTDEF
  5
85
330
6E
100
AcDbEntity
  8
AM_6
100
AcDbText
 10
6.1875
 20
-8.955449999999999
 30
0.0
 40
0.5
  1
2-3/8
100
AcDbAttributeDefinition
  3

  2
M
 70
     8
280
     0
  0
ATTDEF
  5
86
330
6E
100
AcDbEntity
  8
AM_6
100
AcDbText
 10
6.1875
 20
-9.455449999999999
 30
0.0
 40
0.5
  1
1-1/2
100
AcDbAttributeDefinition
  3

  2
Z
 70
     8
280
     0
  0
ATTDEF
  5
87
330
6E
100
AcDbEntity
  8
AM_6
100
AcDbText
 10
6.1875
 20
-9.955449999999999
 30
0.0
 40
0.5
  1
baldor
100
AcDbAttributeDefinition
  3

  2
COMPANY
 70
     8
280
     0
  0
INSERT
  5
89
330
6E
100
AcDbEntity
  8
0
100
AcDbBlockReference
  2
2_INS_GT_04_CRI_0_in__129355_4
 10
0.0
 20
0.0
 30
0.0
  0
INSERT
  5
D1
330
6E
100
AcDbEntity
  8
0
100
AcDbBlockReference
  2
3_129967_0_in__129355_4
 10
0.0
 20
0.0
 30
0.0
  0
INSERT
  5
120
330
6E
100
AcDbEntity
  8
0
100
AcDbBlockReference
  2
4__F2B_GTEZ_04_SHCR_II_0_in__129355_4
 10
0.0
 20
0.0
 30
0.0
  0
ENDBLK
  5
71
330
6E
100
AcDbEntity
  8
0
100
AcDbBlockEnd
  0
BLOCK
  5
8A
330
88
100
AcDbEntity
  8
0
100
AcDbBlockBegin
  2
2_INS_GT_04_CRI_0_in__129355_4
 70
     2
 10
0.0
 20
0.0
 30
0.0
  3
2_INS_GT_04_CRI_0_in__129355_4
  1

  0
ATTDEF
  5
8C
330
88
100
AcDbEntity
  8
AM_6
100
AcDbText
 10
5.925198287331976
 20
-0.0794374999999999
 30
0.0
 40
0.5
  1
INS-GT-CR-I
100
AcDbAttributeDefinition
  3

  2
NN
 70
     8
280
     0
  0
ATTDEF
  5
8D
330
88
100
AcDbEntity
  8
AM_6
100
AcDbText
 10
5.925198287331976
 20
-0.5794374999999999
 30
0.0
 40
0.5
  1
GT Normal Duty Corrosion Resistant Bearing Inserts
100
AcDbAttributeDefinition
  3

  2
NT
 70
     8
280
     0
  0
ATTDEF
  5
8E
330
88
100
AcDbEntity
  8
AM_6
100
AcDbText
 10
5.925198287331976
 20
-1.0794375
 30
0.0
 40
0.5
  1
INS-GT-04-CRI
100
AcDbAttributeDefinition
  3

  2
NB
 70
     8
280
     0
  0
ATTDEF
  5
8F
330
88
100
AcDbEntity
  8
AM_6
100
AcDbText
 10
5.925198287331976
 20
-1.5794375
 30
0.0
 40
0.5
  1
$PN.I
100
AcDbAttributeDefinition
  3

  2
NBSYN
 70
     8
280
     0
  0
ATTDEF
  5
90
330
88
100
AcDbEntity
  8
AM_6
100
AcDbText
 10
5.925198287331976
 20
-2.0794375
 30
0.0
 40
0.5
  1
INS-GT-04-CR
100
AcDbAttributeDefinition
  3

  2
LINA
 70
     8
280
     0
  0
ATTDEF
  5
91
330
88
100
AcDbEntity
  8
AM_6
100
AcDbText
 10
5.925198287331976
 20
-2.5794375
 30
0.0
 40
0.5
  1
204
100
AcDbAttributeDefinition
  3

  2
SERIES
 70
     8
280
     0
  0
ATTDEF
  5
92
330
88
100
AcDbEntity
  8
AM_6
100
AcDbText
 10
5.925198287331976
 20
-3.0794375
 30
0.0
 40
0.5
  1
INS-GT-04-CR
100
AcDbAttributeDefinition
  3

  2
PN
 70
     8
280
     0
  0
ATTDEF
  5
93
330
88
100
AcDbEntity
  8
AM_6
100
AcDbText
 10
5.925198287331976
 20
-3.5794375
 30
0.0
 40
0.5
  1
INS-GT-04-CR
100
AcDbAttributeDefinition
  3

  2
DESCRIPTION
 70
     8
280
     0
  0
ATTDEF
  5
94
330
88
100
AcDbEntity
  8
AM_6
100
AcDbText
 10
5.925198287331976
 20
-4.0794375
 30
0.0
 40
0.5
  1
1-15/32
100
AcDbAttributeDefinition
  3

  2
A
 70
     8
280
     0
  0
ATTDEF
  5
95
330
88
100
AcDbEntity
  8
AM_6
100
AcDbText
 10
5.925198287331976
 20
-4.5794375
 30
0.0
 40
0.5
  1
0.5906
100
AcDbAttributeDefinition
  3

  2
C
 70
     8
280
     0
  0
ATTDEF
  5
96
330
88
100
AcDbEntity
  8
AM_6
100
AcDbText
 10
5.925198287331976
 20
-5.0794375
 30
0.0
 40
0.5
  1
1.8504
100
AcDbAttributeDefinition
  3

  2
D
 70
     8
280
     0
  0
ATTDEF
  5
97
330
88
100
AcDbEntity
  8
AM_6
100
AcDbText
 10
5.925198287331976
 20
-5.5794375
 30
0.0
 40
0.5
  1
0.152
100
AcDbAttributeDefinition
  3

  2
J
 70
     8
280
     0
  0
ATTDEF
  5
98
330
88
100
AcDbEntity
  8
AM_6
100
AcDbText
 10
5.925198287331976
 20
-6.0794375
 30
0.0
 40
0.5
  1
1-1/2
100
AcDbAttributeDefinition
  3

  2
L
 70
     8
280
     0
  0
ATTDEF
  5
99
330
88
100
AcDbEntity
  8
AM_6
100
AcDbText
 10
5.925198287331976
 20
-6.5794375
 30
0.0
 40
0.5
  1
10 - 32 x 1/4
100
AcDbAttributeDefinition
  3

  2
N
 70
     8
280
     0
  0
ATTDEF
  5
9A
330
88
100
AcDbEntity
  8
AM_6
100
AcDbText
 10
5.925198287331976
 20
-7.0794375
 30
0.0
 40
0.5
  1
31/64
100
AcDbAttributeDefinition
  3

  2
W
 70
     8
280
     0
  0
ATTDEF
  5
9B
330
88
100
AcDbEntity
  8
AM_6
100
AcDbText
 10
5.925198287331976
 20
-7.5794375
 30
0.0
 40
0.5
  1
63/64
100
AcDbAttributeDefinition
  3

  2
X
 70
     8
280
     0
  0
ATTDEF
  5
9C
330
88
100
AcDbEntity
  8
AM_6
100
AcDbText
 10
5.925198287331976
 20
-8.079437500000001
 30
0.0
 40
0.5
  1
63/64
100
AcDbAttributeDefinition
  3

  2
Y
 70
     8
280
     0
  0
ATTDEF
  5
9D
330
88
100
AcDbEntity
  8
AM_6
100
AcDbText
 10
5.925198287331976
 20
-8.579437500000001
 30
0.0
 40
0.5
  1
baldor
100
AcDbAttributeDefinition
  3

  2
COMPANY
 70
     8
280
     0
  0
LINE
  5
A0
330
88
100
AcDbEntity
  8
AM_9
100
AcDbLine
 10
0.5595237666666667
 20
-1.253655624920625
 30
0.0
 11
0.5595237666666667
 21
-0.8845149999206249
 31
0.0
  0
LINE
  5
A1
330
88
100
AcDbEntity
  8
AM_9
100
AcDbLine
 10
-0.5595237666666666
 20
-0.8845149999206249
 30
0.0
 11
-0.5595237666666666
 21
-1.253655624920625
 31
0.0
  0
LINE
  5
A2
330
88
100
AcDbEntity
  8
AM_9
100
AcDbLine
 10
-0.5595237666666666
 20
-0.8845149999206249
 30
0.0
 11
0.5595237666666667
 21
-0.8845149999206249
 31
0.0
  0
LINE
  5
A3
330
88
100
AcDbEntity
  8
AM_9
100
AcDbLine
 10
0.5595237666666667
 20
-0.8845149999206249
 30
0.0
 11
0.5876376924643874
 21
-0.0794374999999999
 31
0.0
  0
LINE
  5
A4
330
88
100
AcDbEntity
  8
AM_9
100
AcDbLine
 10
-0.5876376924643871
 20
-0.0794374999999999
 30
0.0
 11
-0.5595237666666666
 21
-0.8845149999206249
 31
0.0
  0
LINE
  5
A5
330
88
100
AcDbEntity
  8
AM_9
100
AcDbLine
 10
0.6130952166666667
 20
-1.130608749920625
 30
0.0
 11
0.6130952166666667
 21
-1.0075625
 31
0.0
  0
LINE
  5
A6
330
88
100
AcDbEntity
  8
AM_9
100
AcDbLine
 10
-0.6130952166666664
 20
-1.0075625
 30
0.0
 11
-0.6130952166666664
 21
-1.130608749920625
 31
0.0
  0
LINE
  5
A7
330
88
100
AcDbEntity
  8
AM_9
100
AcDbLine
 10
-0.6430426666666665
 20
-0.0794374999999999
 30
0.0
 11
0.6430426666666665
 21
-0.0794374999999999
 31
0.0
  0
LINE
  5
A8
330
88
100
AcDbEntity
  8
AM_9
100
AcDbLine
 10
-0.6430426666666665
 20
-0.0794374999999999
 30
0.0
 11
-0.6666666666666665
 21
-0.1030614999999999
 31
0.0
  0
LINE
  5
A9
330
88
100
AcDbEntity
  8
AM_9
100
AcDbLine
 10
0.6666666666666665
 20
-0.1030614999999999
 30
0.0
 11
0.6430426666666665
 21
-0.0794374999999999
 31
0.0
  0
LINE
  5
AA
330
88
100
AcDbEntity
  8
AM_9
100
AcDbLine
 10
0.6666666666666666
 20
-1.230031624920625
 30
0.0
 11
0.6666666666666666
 21
-1.130608749920625
 31
0.0
  0
LINE
  5
AB
330
88
100
AcDbEntity
  8
AM_9
100
AcDbLine
 10
-0.6666666666666666
 20
-1.130608749920625
 30
0.0
 11
-0.6666666666666666
 21
-1.230031624920625
 31
0.0
  0
LINE
  5
AC
330
88
100
AcDbEntity
  8
AM_9
100
AcDbLine
 10
-0.6666666666666666
 20
-1.130608749920625
 30
0.0
 11
0.6666666666666666
 21
-1.130608749920625
 31
0.0
  0
LINE
  5
AD
330
88
100
AcDbEntity
  8
AM_9
100
AcDbLine
 10
0.6666666666666665
 20
-0.8909999999999999
 30
0.0
 11
0.6666666666666665
 21
-0.8106749999999999
 31
0.0
  0
LINE
  5
AE
330
88
100
AcDbEntity
  8
AM_9
100
AcDbLine
 10
-0.6666666666666665
 20
-0.8106749999999999
 30
0.0
 11
-0.6666666666666665
 21
-0.8909999999999999
 31
0.0
  0
LINE
  5
AF
330
88
100
AcDbEntity
  8
AM_9
100
AcDbLine
 10
0.6430426666666667
 20
-1.253655624920625
 30
0.0
 11
0.6666666666666666
 21
-1.230031624920625
 31
0.0
  0
LINE
  5
B0
330
88
100
AcDbEntity
  8
AM_9
100
AcDbLine
 10
-0.6666666666666666
 20
-1.230031624920625
 30
0.0
 11
-0.6430426666666667
 21
-1.253655624920625
 31
0.0
  0
LINE
  5
B1
330
88
100
AcDbEntity
  8
AM_9
100
AcDbLine
 10
-0.6430426666666667
 20
-1.253655624920625
 30
0.0
 11
0.6430426666666667
 21
-1.253655624920625
 31
0.0
  0
LINE
  5
B2
330
88
100
AcDbEntity
  8
AM_9
100
AcDbLine
 10
-0.6666666666666666
 20
-1.230031624920625
 30
0.0
 11
0.6666666666666666
 21
-1.230031624920625
 31
0.0
  0
LINE
  5
B3
330
88
100
AcDbEntity
  8
AM_9
100
AcDbLine
 10
-0.6666666666666667
 20
-0.1030614999999999
 30
0.0
 11
0.6666666666666667
 21
-0.1030614999999999
 31
0.0
  0
LINE
  5
B4
330
88
100
AcDbEntity
  8
AM_9
100
AcDbLine
 10
0.6666666666666667
 20
-0.2200749999999999
 30
0.0
 11
0.6666666666666667
 21
-0.1030614999999999
 31
0.0
  0
LINE
  5
B5
330
88
100
AcDbEntity
  8
AM_9
100
AcDbLine
 10
-0.6666666666666667
 20
-0.1030614999999999
 30
0.0
 11
-0.6666666666666667
 21
-0.2200749999999999
 31
0.0
  0
LINE
  5
B6
330
88
100
AcDbEntity
  8
AM_9
100
AcDbLine
 10
0.86614
 20
-0.6977749999999999
 30
0.0
 11
0.86614
 21
-0.6369749999999998
 31
0.0
  0
LINE
  5
B7
330
88
100
AcDbEntity
  8
AM_9
100
AcDbLine
 10
-0.86614
 20
-0.6369749999999998
 30
0.0
 11
-0.86614
 21
-0.6977749999999999
 31
0.0
  0
LINE
  5
B8
330
88
100
AcDbEntity
  8
AM_9
100
AcDbLine
 10
-0.8502116738529749
 20
-0.8106749999999999
 30
0.0
 11
0.8502116738529749
 21
-0.8106749999999999
 31
0.0
  0
ARC
  5
B9
330
88
100
AcDbEntity
  8
AM_9
100
AcDbCircle
 10
0.8502116738529744
 20
-0.7870509999999991
 30
0.0
 40
0.0236240000000009
100
AcDbArc
 50
270.0
 51
338.5874968130132
  0
ARC
  5
BA
330
88
100
AcDbEntity
  8
AM_9
100
AcDbCircle
 10
-0.8502116738529745
 20
-0.7870509999999994
 30
0.0
 40
0.0236240000000006
100
AcDbArc
 50
201.4125031869861
 51
270.0
  0
LINE
  5
BB
330
88
100
AcDbEntity
  8
AM_9
100
AcDbLine
 10
-0.8502116738529699
 20
-0.2200749999999999
 30
0.0
 11
0.8502116738529699
 21
-0.2200749999999999
 31
0.0
  0
ARC
  5
BC
330
88
100
AcDbEntity
  8
AM_9
100
AcDbCircle
 10
0.8502116738529699
 20
-0.2436990000000001
 30
0.0
 40
0.0236240000000003
100
AcDbArc
 50
21.41246704688446
 51
90.0
  0
ARC
  5
BD
330
88
100
AcDbEntity
  8
AM_9
100
AcDbCircle
 10
-0.8502116738529699
 20
-0.2436990000000001
 30
0.0
 40
0.0236240000000002
100
AcDbArc
 50
90.0
 51
158.5875329531156
  0
ARC
  5
BE
330
88
100
AcDbEntity
  8
AM_9
100
AcDbCircle
 10
0.1574199999999567
 20
-0.5153749999999852
 30
0.0
 40
0.7677800000000458
100
AcDbArc
 50
338.5875318411131
 51
345.6903861191116
  0
ARC
  5
BF
330
88
100
AcDbEntity
  8
AM_9
100
AcDbCircle
 10
-0.1574200000000283
 20
-0.5153750000000082
 30
0.0
 40
0.7677799999999706
100
AcDbArc
 50
194.3096138808881
 51
201.4124681588872
  0
LINE
  5
C0
330
88
100
AcDbEntity
  8
AM_9
100
AcDbLine
 10
-0.8722050548843863
 20
-0.7956756487932642
 30
0.0
 11
0.8722050548843863
 21
-0.7956756487932642
 31
0.0
  0
LINE
  5
C1
330
88
100
AcDbEntity
  8
AM_9
100
AcDbLine
 10
-0.8956563051489678
 20
-0.6977749999999999
 30
0.0
 11
0.8956563051489678
 21
-0.6977749999999999
 31
0.0
  0
ARC
  5
C2
330
88
100
AcDbEntity
  8
AM_9
100
AcDbCircle
 10
0.8956563051489682
 20
-0.7036809999999997
 30
0.0
 40
0.0059059999999998
100
AcDbArc
 50
345.6903861191087
 51
90.0
  0
ARC
  5
C3
330
88
100
AcDbEntity
  8
AM_9
100
AcDbCircle
 10
-0.8956563051489682
 20
-0.7036809999999997
 30
0.0
 40
0.0059059999999997
100
AcDbArc
 50
90.0
 51
194.3096138808912
  0
LINE
  5
C4
330
88
100
AcDbEntity
  8
AM_9
100
AcDbLine
 10
-0.9013790672043863
 20
-0.7051407364341085
 30
0.0
 11
0.9013790672043863
 21
-0.7051407364341085
 31
0.0
  0
LINE
  5
C5
330
88
100
AcDbEntity
  8
AM_9
100
AcDbLine
 10
-0.9104584387533141
 20
-0.6369749999999998
 30
0.0
 11
0.9104584387533141
 21
-0.6369749999999998
 31
0.0
  0
ARC
  5
C6
330
88
100
AcDbEntity
  8
AM_9
100
AcDbCircle
 10
0.9104584387533142
 20
-0.6310690000000004
 30
0.0
 40
0.0059059999999994
100
AcDbArc
 50
270.0
 51
351.2654422166741
  0
ARC
  5
C7
330
88
100
AcDbEntity
  8
AM_9
100
AcDbCircle
 10
-0.9104584387533142
 20
-0.6310690000000004
 30
0.0
 40
0.0059059999999994
100
AcDbArc
 50
188.7345577833259
 51
270.0
  0
LINE
  5
C8
330
88
100
AcDbEntity
  8
AM_9
100
AcDbLine
 10
-0.872205060324493
 20
-0.235074365079365
 30
0.0
 11
0.872205060324493
 21
-0.235074365079365
 31
0.0
  0
ARC
  5
C9
330
88
100
AcDbEntity
  8
AM_9
100
AcDbCircle
 10
0.1574200000000422
 20
-0.5153749999999947
 30
0.0
 40
0.7677799999999589
100
AcDbArc
 50
351.2655856650843
 51
21.41246704688484
  0
ARC
  5
CA
330
88
100
AcDbEntity
  8
AM_9
100
AcDbCircle
 10
-0.1574199999999867
 20
-0.5153750000000009
 30
0.0
 40
0.7677800000000128
100
AcDbArc
 50
158.5875329531162
 51
188.7344143349146
  0
LINE
  5
CB
330
88
100
AcDbEntity
  8
AM_9
100
AcDbLine
 10
-0.9162959437676435
 20
-0.6319658674415288
 30
0.0
 11
0.9162959437676435
 21
-0.6319658674415288
 31
0.0
  0
LINE
  5
CD
330
88
100
AcDbEntity
  8
AM_4
100
AcDbLine
 10
0.6666666666666665
 20
-1.007561874920625
 30
0.0
 11
0.6666666666666665
 21
-0.8909999999999999
 31
0.0
  0
LINE
  5
CE
330
88
100
AcDbEntity
  8
AM_4
100
AcDbLine
 10
-0.6666666666666665
 20
-0.8909999999999999
 30
0.0
 11
-0.6666666666666665
 21
-1.007561874920625
 31
0.0
  0
LINE
  5
CF
330
88
100
AcDbEntity
  8
AM_4
100
AcDbLine
 10
-0.6666666666666665
 20
-1.007561874920625
 30
0.0
 11
0.6666666666666665
 21
-1.007561874920625
 31
0.0
  0
ENDBLK
  5
8B
330
88
100
AcDbEntity
  8
0
100
AcDbBlockEnd
  0
BLOCK
  5
D2
330
D0
100
AcDbEntity
  8
0
100
AcDbBlockBegin
  2
3_129967_0_in__129355_4
 70
     2
 10
0.0
 20
0.0
 30
0.0
  3
3_129967_0_in__129355_4
  1

  0
ATTDEF
  5
D4
330
D0
100
AcDbEntity
  8
AM_6
100
AcDbText
 10
5.746139397163827
 20
-0.0309999999999998
 30
0.0
 40
0.5
  1
Grip Tight Adapter and Nut - Corrosion Resistant Inch Bore
100
AcDbAttributeDefinition
  3

  2
NN
 70
     8
280
     0
  0
ATTDEF
  5
D5
330
D0
100
AcDbEntity
  8
AM_6
100
AcDbText
 10
5.746139397163827
 20
-0.5309999999999998
 30
0.0
 40
0.5
  1
GT and GTM Adapter & Lock Nut Assemblies
100
AcDbAttributeDefinition
  3

  2
NT
 70
     8
280
     0
  0
ATTDEF
  5
D6
330
D0
100
AcDbEntity
  8
AM_6
100
AcDbText
 10
5.746139397163827
 20
-1.031
 30
0.0
 40
0.5
  1
129967
100
AcDbAttributeDefinition
  3

  2
NB
 70
     8
280
     0
  0
ATTDEF
  5
D7
330
D0
100
AcDbEntity
  8
AM_6
100
AcDbText
 10
5.746139397163827
 20
-1.531
 30
0.0
 40
0.5
  1
$PN.
100
AcDbAttributeDefinition
  3

  2
NBSYN
 70
     8
280
     0
  0
ATTDEF
  5
D8
330
D0
100
AcDbEntity
  8
AM_6
100
AcDbText
 10
5.746139397163827
 20
-2.031
 30
0.0
 40
0.5
  1
129967
100
AcDbAttributeDefinition
  3

  2
LINA
 70
     8
280
     0
  0
ATTDEF
  5
D9
330
D0
100
AcDbEntity
  8
AM_6
100
AcDbText
 10
5.746139397163827
 20
-2.531
 30
0.0
 40
0.5
  1
204
100
AcDbAttributeDefinition
  3

  2
SERIES
 70
     8
280
     0
  0
ATTDEF
  5
DA
330
D0
100
AcDbEntity
  8
AM_6
100
AcDbText
 10
5.746139397163827
 20
-3.031
 30
0.0
 40
0.5
  1
3/4
100
AcDbAttributeDefinition
  3

  2
SS
 70
     8
280
     0
  0
ATTDEF
  5
DB
330
D0
100
AcDbEntity
  8
AM_6
100
AcDbText
 10
5.746139397163827
 20
-3.531
 30
0.0
 40
0.5
  1
129967
100
AcDbAttributeDefinition
  3

  2
PN
 70
     8
280
     0
  0
ATTDEF
  5
DC
330
D0
100
AcDbEntity
  8
AM_6
100
AcDbText
 10
5.746139397163827
 20
-4.031
 30
0.0
 40
0.5
  1
AN-GT-04-012-CR
100
AcDbAttributeDefinition
  3

  2
DESCRIPTION
 70
     8
280
     0
  0
ATTDEF
  5
DD
330
D0
100
AcDbEntity
  8
AM_6
100
AcDbText
 10
5.746139397163827
 20
-4.531
 30
0.0
 40
0.5
  1
1-15/32
100
AcDbAttributeDefinition
  3

  2
A
 70
     8
280
     0
  0
ATTDEF
  5
DE
330
D0
100
AcDbEntity
  8
AM_6
100
AcDbText
 10
5.746139397163827
 20
-5.031
 30
0.0
 40
0.5
  1
0.5906
100
AcDbAttributeDefinition
  3

  2
C
 70
     8
280
     0
  0
ATTDEF
  5
DF
330
D0
100
AcDbEntity
  8
AM_6
100
AcDbText
 10
5.746139397163827
 20
-5.531
 30
0.0
 40
0.5
  1
1.8504
100
AcDbAttributeDefinition
  3

  2
D
 70
     8
280
     0
  0
ATTDEF
  5
E0
330
D0
100
AcDbEntity
  8
AM_6
100
AcDbText
 10
5.746139397163827
 20
-6.031
 30
0.0
 40
0.5
  1
0.152
100
AcDbAttributeDefinition
  3

  2
J
 70
     8
280
     0
  0
ATTDEF
  5
E1
330
D0
100
AcDbEntity
  8
AM_6
100
AcDbText
 10
5.746139397163827
 20
-6.531
 30
0.0
 40
0.5
  1
1-1/2
100
AcDbAttributeDefinition
  3

  2
L
 70
     8
280
     0
  0
ATTDEF
  5
E2
330
D0
100
AcDbEntity
  8
AM_6
100
AcDbText
 10
5.746139397163827
 20
-7.031
 30
0.0
 40
0.5
  1
10 - 32 x 1/4
100
AcDbAttributeDefinition
  3

  2
N
 70
     8
280
     0
  0
ATTDEF
  5
E3
330
D0
100
AcDbEntity
  8
AM_6
100
AcDbText
 10
5.746139397163827
 20
-7.531
 30
0.0
 40
0.5
  1
31/64
100
AcDbAttributeDefinition
  3

  2
W
 70
     8
280
     0
  0
ATTDEF
  5
E4
330
D0
100
AcDbEntity
  8
AM_6
100
AcDbText
 10
5.746139397163827
 20
-8.030999999999999
 30
0.0
 40
0.5
  1
63/64
100
AcDbAttributeDefinition
  3

  2
X
 70
     8
280
     0
  0
ATTDEF
  5
E5
330
D0
100
AcDbEntity
  8
AM_6
100
AcDbText
 10
5.746139397163827
 20
-8.530999999999999
 30
0.0
 40
0.5
  1
63/64
100
AcDbAttributeDefinition
  3

  2
Y
 70
     8
280
     0
  0
ATTDEF
  5
E6
330
D0
100
AcDbEntity
  8
AM_6
100
AcDbText
 10
5.746139397163827
 20
-9.030999999999999
 30
0.0
 40
0.5
  1
baldor
100
AcDbAttributeDefinition
  3

  2
COMPANY
 70
     8
280
     0
  0
LINE
  5
E7
330
D0
100
AcDbEntity
  8
AM_9
100
AcDbLine
 10
0.6999998729997459
 20
-1.0075625
 30
0.0
 11
0.6999998729997459
 21
-1.49975
 31
0.0
  0
LINE
  5
E8
330
D0
100
AcDbEntity
  8
AM_9
100
AcDbLine
 10
-0.733
 20
-1.45469804167725
 30
0.0
 11
-0.5794999999999999
 21
-1.45469804167725
 31
0.0
  0
LINE
  5
E9
330
D0
100
AcDbEntity
  8
AM_9
100
AcDbLine
 10
-0.5794999999999999
 20
-1.29869804167725
 30
0.0
 11
-0.733
 21
-1.29869804167725
 31
0.0
  0
LINE
  5
EA
330
D0
100
AcDbEntity
  8
AM_9
100
AcDbLine
 10
-0.733
 20
-1.29869804167725
 30
0.0
 11
-0.7499999999999999
 21
-1.28169804167725
 31
0.0
  0
LINE
  5
EB
330
D0
100
AcDbEntity
  8
AM_9
100
AcDbLine
 10
-0.7499999999999999
 20
-1.47169804167725
 30
0.0
 11
-0.733
 21
-1.45469804167725
 31
0.0
  0
LINE
  5
EC
330
D0
100
AcDbEntity
  8
AM_9
100
AcDbLine
 10
-0.733
 20
-1.29869804167725
 30
0.0
 11
-0.733
 21
-1.45469804167725
 31
0.0
  0
LINE
  5
ED
330
D0
100
AcDbEntity
  8
AM_9
100
AcDbLine
 10
-0.5794999999999999
 20
-1.45469804167725
 30
0.0
 11
-0.5624999999999999
 21
-1.47169804167725
 31
0.0
  0
LINE
  5
EE
330
D0
100
AcDbEntity
  8
AM_9
100
AcDbLine
 10
-0.5624999999999999
 20
-1.28169804167725
 30
0.0
 11
-0.5794999999999999
 21
-1.29869804167725
 31
0.0
  0
LINE
  5
EF
330
D0
100
AcDbEntity
  8
AM_9
100
AcDbLine
 10
-0.5624999999999999
 20
-1.28169804167725
 30
0.0
 11
-0.5624999999999999
 21
-1.47169804167725
 31
0.0
  0
LINE
  5
F0
330
D0
100
AcDbEntity
  8
AM_9
100
AcDbLine
 10
-0.5794999999999999
 20
-1.29869804167725
 30
0.0
 11
-0.5794999999999999
 21
-1.45469804167725
 31
0.0
  0
LINE
  5
F1
330
D0
100
AcDbEntity
  8
AM_9
100
AcDbLine
 10
0.3750000000000001
 20
-1.49975
 30
0.0
 11
0.3750000000000001
 21
-0.0309999999999998
 31
0.0
  0
LINE
  5
F2
330
D0
100
AcDbEntity
  8
AM_9
100
AcDbLine
 10
-0.3749999999999999
 20
-0.0309999999999998
 30
0.0
 11
-0.3749999999999999
 21
-1.49975
 31
0.0
  0
LINE
  5
F3
330
D0
100
AcDbEntity
  8
AM_9
100
AcDbLine
 10
0.5595238095238098
 20
-1.253655624920625
 30
0.0
 11
0.5595238095238098
 21
-0.8845156249999995
 31
0.0
  0
LINE
  5
F4
330
D0
100
AcDbEntity
  8
AM_9
100
AcDbLine
 10
-0.5595238095238096
 20
-0.8845156249999995
 30
0.0
 11
-0.5595238095238096
 21
-1.253655624920625
 31
0.0
  0
LINE
  5
F5
330
D0
100
AcDbEntity
  8
AM_9
100
AcDbLine
 10
0.0500000000000001
 20
-0.0309999999999998
 30
0.0
 11
0.0500000000000001
 21
-1.49975
 31
0.0
  0
LINE
  5
F6
330
D0
100
AcDbEntity
  8
AM_9
100
AcDbLine
 10
-0.0499999999999999
 20
-0.0309999999999998
 30
0.0
 11
-0.0499999999999999
 21
-1.49975
 31
0.0
  0
LINE
  5
F7
330
D0
100
AcDbEntity
  8
AM_9
100
AcDbLine
 10
0.5595238095238096
 20
-0.8845156249999995
 30
0.0
 11
0.5893292319220396
 21
-0.0309999999999999
 31
0.0
  0
LINE
  5
F8
330
D0
100
AcDbEntity
  8
AM_9
100
AcDbLine
 10
-0.5893292319220395
 20
-0.0309999999999999
 30
0.0
 11
-0.5595238095238095
 21
-0.8845156249999995
 31
0.0
  0
LINE
  5
F9
330
D0
100
AcDbEntity
  8
AM_9
100
AcDbLine
 10
-0.5595238095238095
 20
-0.8845156249999995
 30
0.0
 11
0.5595238095238096
 21
-0.8845156249999995
 31
0.0
  0
LINE
  5
FA
330
D0
100
AcDbEntity
  8
AM_9
100
AcDbLine
 10
-0.5893292319220395
 20
-0.0309999999999999
 30
0.0
 11
0.5893292319220396
 21
-0.0309999999999999
 31
0.0
  0
LINE
  5
FB
330
D0
100
AcDbEntity
  8
AM_9
100
AcDbLine
 10
-0.7472759590419817
 20
-1.443302933233586
 30
0.0
 11
-0.7467624816908959
 21
-1.436485641622495
 31
0.0
  0
LINE
  5
FC
330
D0
100
AcDbEntity
  8
AM_9
100
AcDbLine
 10
0.6130952380952382
 20
-1.130609375
 30
0.0
 11
0.6130952380952382
 21
-1.0075625
 31
0.0
  0
LINE
  5
FD
330
D0
100
AcDbEntity
  8
AM_9
100
AcDbLine
 10
-0.6130952380952381
 20
-1.0075625
 30
0.0
 11
-0.6130952380952381
 21
-1.130609375
 31
0.0
  0
LINE
  5
FE
330
D0
100
AcDbEntity
  8
AM_9
100
AcDbLine
 10
-0.2841820058122558
 20
-1.0075625
 30
0.0
 11
-0.2841820058122558
 21
-1.49975
 31
0.0
  0
LINE
  5
FF
330
D0
100
AcDbEntity
  8
AM_9
100
AcDbLine
 10
-0.6666666666666662
 20
-1.130609375
 30
0.0
 11
0.6666666666666662
 21
-1.130609375
 31
0.0
  0
LINE
  5
100
330
D0
100
AcDbEntity
  8
AM_9
100
AcDbLine
 10
-0.6666666666666662
 20
-1.25365625
 30
0.0
 11
0.6666666666666662
 21
-1.25365625
 31
0.0
  0
LINE
  5
101
330
D0
100
AcDbEntity
  8
AM_9
100
AcDbLine
 10
0.6666666666666662
 20
-1.25365625
 30
0.0
 11
0.6666666666666662
 21
-1.130609375
 31
0.0
  0
LINE
  5
102
330
D0
100
AcDbEntity
  8
AM_9
100
AcDbLine
 10
-0.6666666666666662
 20
-1.130609375
 30
0.0
 11
-0.6666666666666662
 21
-1.25365625
 31
0.0
  0
LINE
  5
104
330
D0
100
AcDbEntity
  8
AM_5
100
AcDbLine
 10
-0.7499999999999998
 20
-1.47169804167725
 30
0.0
 11
-0.5625000000000001
 21
-1.47169804167725
 31
0.0
  0
LINE
  5
105
330
D0
100
AcDbEntity
  8
AM_5
100
AcDbLine
 10
-0.7500000000000001
 20
-1.28169804167725
 30
0.0
 11
-0.5624999999999999
 21
-1.28169804167725
 31
0.0
  0
LINE
  5
108
330
D0
100
AcDbEntity
  8
AM_7
100
AcDbLine
 10
-0.553125
 20
-1.37669804167725
 30
0.0
 11
-0.7593749999999999
 21
-1.37669804167725
 31
0.0
  0
LINE
  5
109
330
D0
100
AcDbEntity
  8
AM_4
100
AcDbLine
 10
-0.7263759999999999
 20
-1.0075625
 30
0.0
 11
-0.7499999999999999
 21
-1.0311865
 31
0.0
  0
LINE
  5
10A
330
D0
100
AcDbEntity
  8
AM_4
100
AcDbLine
 10
-0.7499999999999999
 20
-1.476126
 30
0.0
 11
-0.7263759999999999
 21
-1.49975
 31
0.0
  0
LINE
  5
10B
330
D0
100
AcDbEntity
  8
AM_4
100
AcDbLine
 10
-0.4270125089193513
 20
-1.0075625
 30
0.0
 11
-0.4388876292695314
 21
-1.0311865
 31
0.0
  0
LINE
  5
10C
330
D0
100
AcDbEntity
  8
AM_4
100
AcDbLine
 10
-0.4388876292695315
 20
-1.476126
 30
0.0
 11
-0.4270125089193513
 21
-1.49975
 31
0.0
  0
LINE
  5
10D
330
D0
100
AcDbEntity
  8
AM_4
100
AcDbLine
 10
-0.4388876292695314
 20
-1.0311865
 30
0.0
 11
-0.4388876292695315
 21
-1.476126
 31
0.0
  0
LWPOLYLINE
  5
10E
330
D0
100
AcDbEntity
  8
AM_4
100
AcDbPolyline
 90
        7
 70
     0
 43
0.0
 10
-0.747174030945291
 20
-1.442005656085818
 10
-0.7479563600415353
 20
-1.451394771182327
 10
-0.7487047524628812
 20
-1.459398628099803
 10
-0.7493803733697746
 20
-1.466021044701336
 10
-0.7498405207652583
 20
-1.470269035903769
 10
-0.7499990182607705
 20
-1.471689308973933
 10
-0.7499999999999946
 20
-1.471698041677202
  0
LINE
  5
10F
330
D0
100
AcDbEntity
  8
AM_4
100
AcDbLine
 10
-0.7499999999999999
 20
-1.0311865
 30
0.0
 11
-0.7499999999999999
 21
-1.28169804167725
 31
0.0
  0
LINE
  5
110
330
D0
100
AcDbEntity
  8
AM_4
100
AcDbLine
 10
-0.7499999999999999
 20
-1.47169804167725
 30
0.0
 11
-0.7499999999999999
 21
-1.476126
 31
0.0
  0
LINE
  5
111
330
D0
100
AcDbEntity
  8
AM_4
100
AcDbLine
 10
-0.7499999999999999
 20
-1.476126
 30
0.0
 11
-0.4388876292695315
 21
-1.476126
 31
0.0
  0
LINE
  5
112
330
D0
100
AcDbEntity
  8
AM_4
100
AcDbLine
 10
-0.7499999999999999
 20
-1.0311865
 30
0.0
 11
-0.4388876292695314
 21
-1.0311865
 31
0.0
  0
LWPOLYLINE
  5
113
330
D0
100
AcDbEntity
  8
AM_4
100
AcDbPolyline
 90
       16
 70
     0
 43
0.0
 10
-0.7499999999999879
 20
-1.281698041677356
 10
-0.749988122521054
 20
-1.281803746049271
 10
-0.7497817981125721
 20
-1.283658619740232
 10
-0.7493239240146906
 20
-1.287909834451836
 10
-0.748683991379267
 20
-1.294209198865989
 10
-0.7478982630678785
 20
-1.302658193075442
 10
-0.7470462457995286
 20
-1.313053680348401
 10
-0.7462073267159484
 20
-1.325276733922273
 10
-0.7454686519408815
 20
-1.339173542872393
 10
-0.7449230789039106
 20
-1.354414558932383
 10
-0.7446486627513424
 20
-1.370492103354435
 10
-0.7446915282825843
 20
-1.387188158050143
 10
-0.7450535541846957
 20
-1.403427075040675
 10
-0.7457150738146924
 20
-1.419361795985297
 10
-0.7463960604734258
 20
-1.431106854936795
 10
-0.747174030945291
 20
-1.442005656085818
  0
LINE
  5
114
330
D0
100
AcDbEntity
  8
AM_4
100
AcDbLine
 10
-0.4158178671874905
 20
-1.0075625
 30
0.0
 11
-0.4158178671874905
 21
-1.49975
 31
0.0
  0
LINE
  5
115
330
D0
100
AcDbEntity
  8
AM_4
100
AcDbLine
 10
0.7461393971638274
 20
-1.0311865
 30
0.0
 11
0.7461393971638276
 21
-1.476126
 31
0.0
  0
LINE
  5
116
330
D0
100
AcDbEntity
  8
AM_4
100
AcDbLine
 10
-0.3072517678942966
 20
-1.476126
 30
0.0
 11
-0.3072517678942966
 21
-1.0311865
 31
0.0
  0
LINE
  5
117
330
D0
100
AcDbEntity
  8
AM_4
100
AcDbLine
 10
0.7223891564634672
 20
-1.0075625
 30
0.0
 11
0.7461393971638274
 21
-1.0311865
 31
0.0
  0
LINE
  5
118
330
D0
100
AcDbEntity
  8
AM_4
100
AcDbLine
 10
-0.7263759999999999
 20
-1.0075625
 30
0.0
 11
0.7223891564634672
 21
-1.0075625
 31
0.0
  0
LINE
  5
119
330
D0
100
AcDbEntity
  8
AM_4
100
AcDbLine
 10
-0.3072517678942966
 20
-1.0311865
 30
0.0
 11
-0.2953766475441165
 21
-1.0075625
 31
0.0
  0
LINE
  5
11A
330
D0
100
AcDbEntity
  8
AM_4
100
AcDbLine
 10
-0.3072517678942966
 20
-1.0311865
 30
0.0
 11
0.7461393971638274
 21
-1.0311865
 31
0.0
  0
LINE
  5
11B
330
D0
100
AcDbEntity
  8
AM_4
100
AcDbLine
 10
0.7461393971638276
 20
-1.476126
 30
0.0
 11
0.7223891564634672
 21
-1.49975
 31
0.0
  0
LINE
  5
11C
330
D0
100
AcDbEntity
  8
AM_4
100
AcDbLine
 10
-0.3072517678942966
 20
-1.476126
 30
0.0
 11
0.7461393971638276
 21
-1.476126
 31
0.0
  0
LINE
  5
11D
330
D0
100
AcDbEntity
  8
AM_4
100
AcDbLine
 10
-0.2953766475441165
 20
-1.49975
 30
0.0
 11
-0.3072517678942966
 21
-1.476126
 31
0.0
  0
LINE
  5
11E
330
D0
100
AcDbEntity
  8
AM_4
100
AcDbLine
 10
-0.7263759999999999
 20
-1.49975
 30
0.0
 11
0.7223891564634672
 21
-1.49975
 31
0.0
  0
ENDBLK
  5
D3
330
D0
100
AcDbEntity
  8
0
100
AcDbBlockEnd
  0
BLOCK
  5
121
330
11F
100
AcDbEntity
  8
0
100
AcDbBlockBegin
  2
4__F2B_GTEZ_04_SHCR_II_0_in__129355_4
 70
     2
 10
0.0
 20
0.0
 30
0.0
  3
4__F2B_GTEZ_04_SHCR_II_0_in__129355_4
  1

  0
ATTDEF
  5
123
330
11F
100
AcDbEntity
  8
AM_6
100
AcDbText
 10
6.1875
 20
0.04455
 30
0.0
 40
0.5
  1
F2B-GTEZ-SHCR -I
100
AcDbAttributeDefinition
  3

  2
NN
 70
     8
280
     0
  0
ATTDEF
  5
124
330
11F
100
AcDbEntity
  8
AM_6
100
AcDbText
 10
6.1875
 20
-0.45545
 30
0.0
 40
0.5
  1
GTEZ Normal Duty Stainless Steel Housed 2 Bolt Flange Bearings
100
AcDbAttributeDefinition
  3

  2
NT
 70
     8
280
     0
  0
ATTDEF
  5
125
330
11F
100
AcDbEntity
  8
AM_6
100
AcDbText
 10
6.1875
 20
-0.95545
 30
0.0
 40
0.5
  1
 F2B-GTEZ-04-SHCR-II
100
AcDbAttributeDefinition
  3

  2
NB
 70
     8
280
     0
  0
ATTDEF
  5
126
330
11F
100
AcDbEntity
  8
AM_6
100
AcDbText
 10
6.1875
 20
-1.45545
 30
0.0
 40
0.5
  1
 $PN.$LUBE.I
100
AcDbAttributeDefinition
  3

  2
NBSYN
 70
     8
280
     0
  0
ATTDEF
  5
127
330
11F
100
AcDbEntity
  8
AM_6
100
AcDbText
 10
6.1875
 20
-1.95545
 30
0.0
 40
0.5
  1
F2B-GTEZ-04-SHCR-I
100
AcDbAttributeDefinition
  3

  2
LINA
 70
     8
280
     0
  0
ATTDEF
  5
128
330
11F
100
AcDbEntity
  8
AM_6
100
AcDbText
 10
6.1875
 20
-2.45545
 30
0.0
 40
0.5
  1
204
100
AcDbAttributeDefinition
  3

  2
SERIES
 70
     8
280
     0
  0
ATTDEF
  5
129
330
11F
100
AcDbEntity
  8
AM_6
100
AcDbText
 10
6.1875
 20
-2.95545
 30
0.0
 40
0.5
  1
3/4
100
AcDbAttributeDefinition
  3

  2
SS
 70
     8
280
     0
  0
ATTDEF
  5
12A
330
11F
100
AcDbEntity
  8
AM_6
100
AcDbText
 10
6.1875
 20
-3.45545
 30
0.0
 40
0.5
  1
F2B-GTEZ-04-SHCR-I
100
AcDbAttributeDefinition
  3

  2
PN
 70
     8
280
     0
  0
ATTDEF
  5
12B
330
11F
100
AcDbEntity
  8
AM_6
100
AcDbText
 10
6.1875
 20
-3.95545
 30
0.0
 40
0.5
  1
F2B-GTEZ-04-SHCR
100
AcDbAttributeDefinition
  3

  2
DESCRIPTION
 70
     8
280
     0
  0
ATTDEF
  5
12C
330
11F
100
AcDbEntity
  8
AM_6
100
AcDbText
 10
6.1875
 20
-4.45545
 30
0.0
 40
0.5
  1
1.10
100
AcDbAttributeDefinition
  3

  2
WEIGHT
 70
     8
280
     0
  0
ATTDEF
  5
12D
330
11F
100
AcDbEntity
  8
AM_6
100
AcDbText
 10
6.1875
 20
-4.95545
 30
0.0
 40
0.5
  1
1-15/32
100
AcDbAttributeDefinition
  3

  2
A
 70
     8
280
     0
  0
ATTDEF
  5
12E
330
11F
100
AcDbEntity
  8
AM_6
100
AcDbText
 10
6.1875
 20
-5.45545
 30
0.0
 40
0.5
  1
4-3/8
100
AcDbAttributeDefinition
  3

  2
B
 70
     8
280
     0
  0
ATTDEF
  5
12F
330
11F
100
AcDbEntity
  8
AM_6
100
AcDbText
 10
6.1875
 20
-5.95545
 30
0.0
 40
0.5
  1
1-1/2
100
AcDbAttributeDefinition
  3

  2
C
 70
     8
280
     0
  0
ATTDEF
  5
130
330
11F
100
AcDbEntity
  8
AM_6
100
AcDbText
 10
6.1875
 20
-6.45545
 30
0.0
 40
0.5
  1
3-17/32
100
AcDbAttributeDefinition
  3

  2
D
 70
     8
280
     0
  0
ATTDEF
  5
131
330
11F
100
AcDbEntity
  8
AM_6
100
AcDbText
 10
6.1875
 20
-6.95545
 30
0.0
 40
0.5
  1
3/8
100
AcDbAttributeDefinition
  3

  2
F
 70
     8
280
     0
  0
ATTDEF
  5
132
330
11F
100
AcDbEntity
  8
AM_6
100
AcDbText
 10
6.1875
 20
-7.45545
 30
0.0
 40
0.5
  1
21/46
100
AcDbAttributeDefinition
  3

  2
H
 70
     8
280
     0
  0
ATTDEF
  5
133
330
11F
100
AcDbEntity
  8
AM_6
100
AcDbText
 10
6.1875
 20
-7.95545
 30
0.0
 40
0.5
  1
39/64
100
AcDbAttributeDefinition
  3

  2
J
 70
     8
280
     0
  0
ATTDEF
  5
134
330
11F
100
AcDbEntity
  8
AM_6
100
AcDbText
 10
6.1875
 20
-8.455449999999999
 30
0.0
 40
0.5
  1
1-1/2
100
AcDbAttributeDefinition
  3

  2
L
 70
     8
280
     0
  0
ATTDEF
  5
135
330
11F
100
AcDbEntity
  8
AM_6
100
AcDbText
 10
6.1875
 20
-8.955449999999999
 30
0.0
 40
0.5
  1
2-3/8
100
AcDbAttributeDefinition
  3

  2
M
 70
     8
280
     0
  0
ATTDEF
  5
136
330
11F
100
AcDbEntity
  8
AM_6
100
AcDbText
 10
6.1875
 20
-9.455449999999999
 30
0.0
 40
0.5
  1
1-1/2
100
AcDbAttributeDefinition
  3

  2
Z
 70
     8
280
     0
  0
ATTDEF
  5
137
330
11F
100
AcDbEntity
  8
AM_6
100
AcDbText
 10
6.1875
 20
-9.955449999999999
 30
0.0
 40
0.5
  1
f2b_gtez_shcr_templ.prj
100
AcDbAttributeDefinition
  3

  2
PPATH
 70
     8
280
     0
  0
ATTDEF
  5
138
330
11F
100
AcDbEntity
  8
AM_6
100
AcDbText
 10
6.1875
 20
-10.45545
 30
0.0
 40
0.5
  1
Infotext
100
AcDbAttributeDefinition
  3

  2
INFO
 70
     8
280
     0
  0
ATTDEF
  5
139
330
11F
100
AcDbEntity
  8
AM_6
100
AcDbText
 10
6.1875
 20
-10.95545
 30
0.0
 40
0.5
  1
baldor
100
AcDbAttributeDefinition
  3

  2
COMPANY
 70
     8
280
     0
  0
LINE
  5
13A
330
11F
100
AcDbEntity
  8
AM_9
100
AcDbLine
 10
0.9809593599659862
 20
-0.81225984
 30
0.0
 11
0.9809593599659862
 21
-0.891
 31
0.0
  0
LINE
  5
13B
330
11F
100
AcDbEntity
  8
AM_9
100
AcDbLine
 10
0.9331297911481836
 20
-0.81225984
 30
0.0
 11
0.9331297911481836
 21
-0.891
 31
0.0
  0
LINE
  5
13C
330
11F
100
AcDbEntity
  8
AM_9
100
AcDbLine
 10
0.8687115916987685
 20
-0.81225984
 30
0.0
 11
0.8687115916987685
 21
-0.891
 31
0.0
  0
LINE
  5
13D
330
11F
100
AcDbEntity
  8
AM_9
100
AcDbLine
 10
0.9973858541590845
 20
-0.81225984
 30
0.0
 11
0.9973858541590845
 21
-0.891
 31
0.0
  0
LINE
  5
13E
330
11F
100
AcDbEntity
  8
AM_9
100
AcDbLine
 10
1.012365858976275
 20
-0.81225984
 30
0.0
 11
1.012365858976275
 21
-0.891
 31
0.0
  0
LINE
  5
13F
330
11F
100
AcDbEntity
  8
AM_9
100
AcDbLine
 10
0.9767751795056066
 20
-0.81225984
 30
0.0
 11
0.9767751795056066
 21
-0.891
 31
0.0
  0
LINE
  5
140
330
11F
100
AcDbEntity
  8
AM_9
100
AcDbLine
 10
0.9495562759443555
 20
-0.81225984
 30
0.0
 11
0.9495562759443555
 21
-0.891
 31
0.0
  0
LINE
  5
141
330
11F
100
AcDbEntity
  8
AM_9
100
AcDbLine
 10
0.9603486947094344
 20
-0.81225984
 30
0.0
 11
0.9603486947094344
 21
-0.891
 31
0.0
  0
LINE
  5
142
330
11F
100
AcDbEntity
  8
AM_9
100
AcDbLine
 10
0.9165445849021557
 20
-0.81225984
 30
0.0
 11
0.9165445849021557
 21
-0.891
 31
0.0
  0
LINE
  5
143
330
11F
100
AcDbEntity
  8
AM_9
100
AcDbLine
 10
0.8851380858918669
 20
-0.81225984
 30
0.0
 11
0.8851380858918669
 21
-0.891
 31
0.0
  0
LINE
  5
144
330
11F
100
AcDbEntity
  8
AM_9
100
AcDbLine
 10
1.10150237
 20
-0.81225984
 30
0.0
 11
0.8687115916987685
 21
-0.81225984
 31
0.0
  0
LINE
  5
145
330
11F
100
AcDbEntity
  8
AM_9
100
AcDbLine
 10
1.048120435179167
 20
-0.81225984
 30
0.0
 11
1.048120435179167
 21
-0.891
 31
0.0
  0
LINE
  5
146
330
11F
100
AcDbEntity
  8
AM_9
100
AcDbLine
 10
1.036432378592494
 20
-0.81225984
 30
0.0
 11
1.036432378592494
 21
-0.891
 31
0.0
  0
LINE
  5
147
330
11F
100
AcDbEntity
  8
AM_9
100
AcDbLine
 10
1.045571298204345
 20
-0.81225984
 30
0.0
 11
1.045571298204345
 21
-0.891
 31
0.0
  0
LINE
  5
148
330
11F
100
AcDbEntity
  8
AM_9
100
AcDbLine
 10
1.061723421837206
 20
-0.81225984
 30
0.0
 11
1.061723421837206
 21
-0.891
 31
0.0
  0
LINE
  5
149
330
11F
100
AcDbEntity
  8
AM_9
100
AcDbLine
 10
1.052904100386981
 20
-0.81225984
 30
0.0
 11
1.052904100386981
 21
-0.891
 31
0.0
  0
LINE
  5
14A
330
11F
100
AcDbEntity
  8
AM_9
100
AcDbLine
 10
0.9933943397145868
 20
-0.81225984
 30
0.0
 11
0.9933943397145868
 21
-0.891
 31
0.0
  0
LINE
  5
14B
330
11F
100
AcDbEntity
  8
AM_9
100
AcDbLine
 10
0.9704409133150997
 20
-0.81225984
 30
0.0
 11
0.9704409133150997
 21
-0.891
 31
0.0
  0
LINE
  5
14C
330
11F
100
AcDbEntity
  8
AM_9
100
AcDbLine
 10
0.9534374035601193
 20
-0.81225984
 30
0.0
 11
0.9534374035601193
 21
-0.891
 31
0.0
  0
LINE
  5
14D
330
11F
100
AcDbEntity
  8
AM_9
100
AcDbLine
 10
0.9623649206965759
 20
-0.81225984
 30
0.0
 11
0.9623649206965759
 21
-0.891
 31
0.0
  0
LINE
  5
14E
330
11F
100
AcDbEntity
  8
AM_9
100
AcDbLine
 10
1.069587698578337
 20
-0.81225984
 30
0.0
 11
1.069587698578337
 21
-0.891
 31
0.0
  0
LINE
  5
14F
330
11F
100
AcDbEntity
  8
AM_9
100
AcDbLine
 10
1.057899641991664
 20
-0.81225984
 30
0.0
 11
1.057899641991664
 21
-0.891
 31
0.0
  0
LINE
  5
150
330
11F
100
AcDbEntity
  8
AM_9
100
AcDbLine
 10
0.9582210687679331
 20
-0.81225984
 30
0.0
 11
0.9582210687679331
 21
-0.891
 31
0.0
  0
LINE
  5
151
330
11F
100
AcDbEntity
  8
AM_9
100
AcDbLine
 10
0.9440867668571212
 20
-0.81225984
 30
0.0
 11
0.9440867668571212
 21
-0.891
 31
0.0
  0
LINE
  5
152
330
11F
100
AcDbEntity
  8
AM_9
100
AcDbLine
 10
1.015393143658559
 20
-0.81225984
 30
0.0
 11
1.015393143658559
 21
-0.891
 31
0.0
  0
LINE
  5
153
330
11F
100
AcDbEntity
  8
AM_9
100
AcDbLine
 10
1.007420368891029
 20
-0.81225984
 30
0.0
 11
1.007420368891029
 21
-0.891
 31
0.0
  0
LINE
  5
154
330
11F
100
AcDbEntity
  8
AM_9
100
AcDbLine
 10
0.9981780049224007
 20
-0.81225984
 30
0.0
 11
0.9981780049224007
 21
-0.891
 31
0.0
  0
LINE
  5
155
330
11F
100
AcDbEntity
  8
AM_9
100
AcDbLine
 10
0.9402627998981057
 20
-0.81225984
 30
0.0
 11
0.9402627998981057
 21
-0.891
 31
0.0
  0
LINE
  5
156
330
11F
100
AcDbEntity
  8
AM_9
100
AcDbLine
 10
0.9404744190312057
 20
-0.81225984
 30
0.0
 11
0.9404744190312057
 21
-0.891
 31
0.0
  0
LINE
  5
157
330
11F
100
AcDbEntity
  8
AM_9
100
AcDbLine
 10
1.075114780727822
 20
-0.81225984
 30
0.0
 11
1.075114780727822
 21
-0.891
 31
0.0
  0
LINE
  5
158
330
11F
100
AcDbEntity
  8
AM_9
100
AcDbLine
 10
1.079686508761904
 20
-0.81225984
 30
0.0
 11
1.079686508761904
 21
-0.891
 31
0.0
  0
LINE
  5
159
330
11F
100
AcDbEntity
  8
AM_9
100
AcDbLine
 10
1.062683307199477
 20
-0.81225984
 30
0.0
 11
1.062683307199477
 21
-0.891
 31
0.0
  0
LINE
  5
15A
330
11F
100
AcDbEntity
  8
AM_9
100
AcDbLine
 10
0.9574779386342637
 20
-0.81225984
 30
0.0
 11
0.9574779386342637
 21
-0.891
 31
0.0
  0
LINE
  5
15B
330
11F
100
AcDbEntity
  8
AM_9
100
AcDbLine
 10
0.9450464651059196
 20
-0.81225984
 30
0.0
 11
0.9450464651059196
 21
-0.891
 31
0.0
  0
LINE
  5
15C
330
11F
100
AcDbEntity
  8
AM_9
100
AcDbLine
 10
1.061939857264653
 20
-0.81225984
 30
0.0
 11
1.061939857264653
 21
-0.891
 31
0.0
  0
LINE
  5
15D
330
11F
100
AcDbEntity
  8
AM_9
100
AcDbLine
 10
1.057796150749878
 20
-0.81225984
 30
0.0
 11
1.057796150749878
 21
-0.891
 31
0.0
  0
LINE
  5
15E
330
11F
100
AcDbEntity
  8
AM_9
100
AcDbLine
 10
1.050251807623907
 20
-0.81225984
 30
0.0
 11
1.050251807623907
 21
-0.891
 31
0.0
  0
LINE
  5
15F
330
11F
100
AcDbEntity
  8
AM_9
100
AcDbLine
 10
0.9505732292147734
 20
-0.81225984
 30
0.0
 11
0.9505732292147734
 21
-0.8909999999999999
 31
0.0
  0
LINE
  5
160
330
11F
100
AcDbEntity
  8
AM_9
100
AcDbLine
 10
0.9672568256456051
 20
-0.81225984
 30
0.0
 11
0.9672568256456051
 21
-0.891
 31
0.0
  0
LINE
  5
161
330
11F
100
AcDbEntity
  8
AM_9
100
AcDbLine
 10
1.066723494688758
 20
-0.81225984
 30
0.0
 11
1.066723494688758
 21
-0.891
 31
0.0
  0
LINE
  5
162
330
11F
100
AcDbEntity
  8
AM_9
100
AcDbLine
 10
0.974589773242109
 20
-0.81225984
 30
0.0
 11
0.974589773242109
 21
-0.891
 31
0.0
  0
LINE
  5
163
330
11F
100
AcDbEntity
  8
AM_9
100
AcDbLine
 10
0.9842603423465128
 20
-0.81225984
 30
0.0
 11
0.9842603423465128
 21
-0.891
 31
0.0
  0
LINE
  5
164
330
11F
100
AcDbEntity
  8
AM_9
100
AcDbLine
 10
1.039306429919861
 20
-0.81225984
 30
0.0
 11
1.039306429919861
 21
-0.891
 31
0.0
  0
LINE
  5
165
330
11F
100
AcDbEntity
  8
AM_9
100
AcDbLine
 10
0.9962687849650557
 20
-0.81225984
 30
0.0
 11
0.9962687849650557
 21
-0.891
 31
0.0
  0
LINE
  5
166
330
11F
100
AcDbEntity
  8
AM_9
100
AcDbLine
 10
1.056310032351316
 20
-0.81225984
 30
0.0
 11
1.056310032351316
 21
-0.891
 31
0.0
  0
LINE
  5
167
330
11F
100
AcDbEntity
  8
AM_9
100
AcDbLine
 10
1.042495527324204
 20
-0.81225984
 30
0.0
 11
1.042495527324204
 21
-0.891
 31
0.0
  0
LINE
  5
168
330
11F
100
AcDbEntity
  8
AM_9
100
AcDbLine
 10
0.9720404630697108
 20
-0.81225984
 30
0.0
 11
0.9720404630697108
 21
-0.891
 31
0.0
  0
LINE
  5
169
330
11F
100
AcDbEntity
  8
AM_9
100
AcDbLine
 10
0.9845802695625157
 20
-0.81225984
 30
0.0
 11
0.9845802695625157
 21
-0.891
 31
0.0
  0
LINE
  5
16A
330
11F
100
AcDbEntity
  8
AM_9
100
AcDbLine
 10
0.9994578823693986
 20
-0.81225984
 30
0.0
 11
0.9994578823693986
 21
-0.891
 31
0.0
  0
LINE
  5
16B
330
11F
100
AcDbEntity
  8
AM_9
100
AcDbLine
 10
0.99661803
 20
-0.81225984
 30
0.0
 11
0.99661803
 21
-0.891
 31
0.0
  0
LINE
  5
16C
330
11F
100
AcDbEntity
  8
AM_9
100
AcDbLine
 10
1.06945434
 20
-0.81225984
 30
0.0
 11
1.06945434
 21
-0.891
 31
0.0
  0
LINE
  5
16D
330
11F
100
AcDbEntity
  8
AM_9
100
AcDbLine
 10
1.01118544
 20
-0.81225984
 30
0.0
 11
1.01118544
 21
-0.891
 31
0.0
  0
LINE
  5
16E
330
11F
100
AcDbEntity
  8
AM_9
100
AcDbLine
 10
1.05488701
 20
-0.81225984
 30
0.0
 11
1.05488701
 21
-0.891
 31
0.0
  0
LINE
  5
16F
330
11F
100
AcDbEntity
  8
AM_9
100
AcDbLine
 10
1.06654095
 20
-0.81225984
 30
0.0
 11
1.06654095
 21
-0.891
 31
0.0
  0
LINE
  5
170
330
11F
100
AcDbEntity
  8
AM_9
100
AcDbLine
 10
0.9907911399999999
 20
-0.81225984
 30
0.0
 11
0.9907911399999999
 21
-0.891
 31
0.0
  0
LINE
  5
171
330
11F
100
AcDbEntity
  8
AM_9
100
AcDbLine
 10
1.07528111
 20
-0.81225984
 30
0.0
 11
1.07528111
 21
-0.891
 31
0.0
  0
LINE
  5
172
330
11F
100
AcDbEntity
  8
AM_9
100
AcDbLine
 10
0.97331043
 20
-0.81225984
 30
0.0
 11
0.97331043
 21
-0.891
 31
0.0
  0
LINE
  5
173
330
11F
100
AcDbEntity
  8
AM_9
100
AcDbLine
 10
1.09276182
 20
-0.81225984
 30
0.0
 11
1.09276182
 21
-0.891
 31
0.0
  0
LINE
  5
174
330
11F
100
AcDbEntity
  8
AM_9
100
AcDbLine
 10
1.08110788
 20
-0.81225984
 30
0.0
 11
1.08110788
 21
-0.891
 31
0.0
  0
LINE
  5
175
330
11F
100
AcDbEntity
  8
AM_9
100
AcDbLine
 10
0.96748353
 20
-0.81225984
 30
0.0
 11
0.96748353
 21
-0.891
 31
0.0
  0
LINE
  5
176
330
11F
100
AcDbEntity
  8
AM_9
100
AcDbLine
 10
1.09858859
 20
-0.81225984
 30
0.0
 11
1.09858859
 21
-0.891
 31
0.0
  0
LINE
  5
177
330
11F
100
AcDbEntity
  8
AM_9
100
AcDbLine
 10
1.08402166
 20
-0.81225984
 30
0.0
 11
1.08402166
 21
-0.891
 31
0.0
  0
LINE
  5
178
330
11F
100
AcDbEntity
  8
AM_9
100
AcDbLine
 10
0.98205079
 20
-0.81225984
 30
0.0
 11
0.98205079
 21
-0.891
 31
0.0
  0
LINE
  5
179
330
11F
100
AcDbEntity
  8
AM_9
100
AcDbLine
 10
0.96457008
 20
-0.81225984
 30
0.0
 11
0.96457008
 21
-0.891
 31
0.0
  0
LINE
  5
17A
330
11F
100
AcDbEntity
  8
AM_9
100
AcDbLine
 10
1.10150237
 20
-0.81225984
 30
0.0
 11
1.10150237
 21
-0.891
 31
0.0
  0
LINE
  5
17B
330
11F
100
AcDbEntity
  8
AM_9
100
AcDbLine
 10
1.002206311492318
 20
-0.81225984
 30
0.0
 11
1.002206311492318
 21
-0.891
 31
0.0
  0
LINE
  5
17C
330
11F
100
AcDbEntity
  8
AM_9
100
AcDbLine
 10
1.017083882623639
 20
-0.81225984
 30
0.0
 11
1.017083882623639
 21
-0.891
 31
0.0
  0
LINE
  5
17D
330
11F
100
AcDbEntity
  8
AM_9
100
AcDbLine
 10
1.060121527578444
 20
-0.81225984
 30
0.0
 11
1.060121527578444
 21
-0.891
 31
0.0
  0
LINE
  5
17E
330
11F
100
AcDbEntity
  8
AM_9
100
AcDbLine
 10
0.9896664581145055
 20
-0.81225984
 30
0.0
 11
0.9896664581145055
 21
-0.891
 31
0.0
  0
LINE
  5
17F
330
11F
100
AcDbEntity
  8
AM_9
100
AcDbLine
 10
1.013894773063923
 20
-0.81225984
 30
0.0
 11
1.013894773063923
 21
-0.891
 31
0.0
  0
LINE
  5
180
330
11F
100
AcDbEntity
  8
AM_9
100
AcDbLine
 10
1.001886370384461
 20
-0.81225984
 30
0.0
 11
1.001886370384461
 21
-0.891
 31
0.0
  0
LINE
  5
181
330
11F
100
AcDbEntity
  8
AM_9
100
AcDbLine
 10
1.073936074281119
 20
-0.81225984
 30
0.0
 11
1.073936074281119
 21
-0.891
 31
0.0
  0
LINE
  5
182
330
11F
100
AcDbEntity
  8
AM_9
100
AcDbLine
 10
0.9922157526585678
 20
-0.81225984
 30
0.0
 11
0.9922157526585678
 21
-0.891
 31
0.0
  0
LINE
  5
183
330
11F
100
AcDbEntity
  8
AM_9
100
AcDbLine
 10
0.9760636967484956
 20
-0.81225984
 30
0.0
 11
0.9760636967484956
 21
-0.891
 31
0.0
  0
LINE
  5
184
330
11F
100
AcDbEntity
  8
AM_9
100
AcDbLine
 10
1.056932418018729
 20
-0.81225984
 30
0.0
 11
1.056932418018729
 21
-0.891
 31
0.0
  0
LINE
  5
185
330
11F
100
AcDbEntity
  8
AM_9
100
AcDbLine
 10
1.067877835661855
 20
-0.81225984
 30
0.0
 11
1.067877835661855
 21
-0.891
 31
0.0
  0
LINE
  5
186
330
11F
100
AcDbEntity
  8
AM_9
100
AcDbLine
 10
0.9848828606294809
 20
-0.81225984
 30
0.0
 11
0.9848828606294809
 21
-0.891
 31
0.0
  0
LINE
  5
187
330
11F
100
AcDbEntity
  8
AM_9
100
AcDbLine
 10
1.084349489733553
 20
-0.81225984
 30
0.0
 11
1.084349489733553
 21
-0.891
 31
0.0
  0
LINE
  5
188
330
11F
100
AcDbEntity
  8
AM_9
100
AcDbLine
 10
1.075422130166337
 20
-0.81225984
 30
0.0
 11
1.075422130166337
 21
-0.891
 31
0.0
  0
LINE
  5
189
330
11F
100
AcDbEntity
  8
AM_9
100
AcDbLine
 10
0.9681992242595682
 20
-0.81225984
 30
0.0
 11
0.9681992242595682
 21
-0.891
 31
0.0
  0
LINE
  5
18A
330
11F
100
AcDbEntity
  8
AM_9
100
AcDbLine
 10
0.9798876058327994
 20
-0.81225984
 30
0.0
 11
0.9798876058327994
 21
-0.8909999999999999
 31
0.0
  0
LINE
  5
18B
330
11F
100
AcDbEntity
  8
AM_9
100
AcDbLine
 10
1.079565892248528
 20
-0.81225984
 30
0.0
 11
1.079565892248528
 21
-0.891
 31
0.0
  0
LINE
  5
18C
330
11F
100
AcDbEntity
  8
AM_9
100
AcDbLine
 10
1.093700351728581
 20
-0.81225984
 30
0.0
 11
1.093700351728581
 21
-0.891
 31
0.0
  0
LINE
  5
18D
330
11F
100
AcDbEntity
  8
AM_9
100
AcDbLine
 10
1.097524447926358
 20
-0.81225984
 30
0.0
 11
1.097524447926358
 21
-0.891
 31
0.0
  0
LINE
  5
18E
330
11F
100
AcDbEntity
  8
AM_9
100
AcDbLine
 10
1.097312503806699
 20
-0.81225984
 30
0.0
 11
1.097312503806699
 21
-0.891
 31
0.0
  0
LINE
  5
18F
330
11F
100
AcDbEntity
  8
AM_9
100
AcDbLine
 10
0.9584203424336295
 20
-0.81225984
 30
0.0
 11
0.9584203424336295
 21
-0.891
 31
0.0
  0
LINE
  5
190
330
11F
100
AcDbEntity
  8
AM_9
100
AcDbLine
 10
0.9626724670966414
 20
-0.81225984
 30
0.0
 11
0.9626724670966414
 21
-0.891
 31
0.0
  0
LINE
  5
191
330
11F
100
AcDbEntity
  8
AM_9
100
AcDbLine
 10
0.9586319546208025
 20
-0.81225984
 30
0.0
 11
0.9586319546208025
 21
-0.891
 31
0.0
  0
LINE
  5
192
330
11F
100
AcDbEntity
  8
AM_9
100
AcDbLine
 10
0.9756354811697875
 20
-0.81225984
 30
0.0
 11
0.9756354811697875
 21
-0.891
 31
0.0
  0
LINE
  5
193
330
11F
100
AcDbEntity
  8
AM_9
100
AcDbLine
 10
1.080309309190199
 20
-0.81225984
 30
0.0
 11
1.080309309190199
 21
-0.891
 31
0.0
  0
LINE
  5
194
330
11F
100
AcDbEntity
  8
AM_9
100
AcDbLine
 10
1.093272323263346
 20
-0.81225984
 30
0.0
 11
1.093272323263346
 21
-0.891
 31
0.0
  0
LINE
  5
195
330
11F
100
AcDbEntity
  8
AM_9
100
AcDbLine
 10
0.9763785765738215
 20
-0.81225984
 30
0.0
 11
0.9763785765738215
 21
-0.891
 31
0.0
  0
LINE
  5
196
330
11F
100
AcDbEntity
  8
AM_9
100
AcDbLine
 10
0.9622442677170825
 20
-0.81225984
 30
0.0
 11
0.9622442677170825
 21
-0.8909999999999999
 31
0.0
  0
LINE
  5
197
330
11F
100
AcDbEntity
  8
AM_9
100
AcDbLine
 10
1.076057184527188
 20
-0.81225984
 30
0.0
 11
1.076057184527188
 21
-0.891
 31
0.0
  0
LINE
  5
198
330
11F
100
AcDbEntity
  8
AM_9
100
AcDbLine
 10
0.9805224406578367
 20
-0.81225984
 30
0.0
 11
0.9805224406578367
 21
-0.891
 31
0.0
  0
LINE
  5
199
330
11F
100
AcDbEntity
  8
AM_9
100
AcDbLine
 10
0.9666906708113379
 20
-0.81225984
 30
0.0
 11
0.9666906708113379
 21
-0.891
 31
0.0
  0
LINE
  5
19A
330
11F
100
AcDbEntity
  8
AM_9
100
AcDbLine
 10
0.9880669413530483
 20
-0.81225984
 30
0.0
 11
0.9880669413530483
 21
-0.891
 31
0.0
  0
LINE
  5
19B
330
11F
100
AcDbEntity
  8
AM_9
100
AcDbLine
 10
1.087745234167933
 20
-0.81225984
 30
0.0
 11
1.087745234167933
 21
-0.891
 31
0.0
  0
LINE
  5
19C
330
11F
100
AcDbEntity
  8
AM_9
100
AcDbLine
 10
1.071061608192869
 20
-0.81225984
 30
0.0
 11
1.071061608192869
 21
-0.891
 31
0.0
  0
LINE
  5
19D
330
11F
100
AcDbEntity
  8
AM_9
100
AcDbLine
 10
1.063728818165605
 20
-0.81225984
 30
0.0
 11
1.063728818165605
 21
-0.891
 31
0.0
  0
LINE
  5
19E
330
11F
100
AcDbEntity
  8
AM_9
100
AcDbLine
 10
0.9990123515034768
 20
-0.81225984
 30
0.0
 11
0.9990123515034768
 21
-0.891
 31
0.0
  0
LINE
  5
19F
330
11F
100
AcDbEntity
  8
AM_9
100
AcDbLine
 10
1.054058406630442
 20
-0.81225984
 30
0.0
 11
1.054058406630442
 21
-0.891
 31
0.0
  0
LINE
  5
1A0
330
11F
100
AcDbEntity
  8
AM_9
100
AcDbLine
 10
1.042049996458282
 20
-0.81225984
 30
0.0
 11
1.042049996458282
 21
-0.891
 31
0.0
  0
LINE
  5
1A1
330
11F
100
AcDbEntity
  8
AM_9
100
AcDbLine
 10
1.079880922697168
 20
-0.81225984
 30
0.0
 11
1.079880922697168
 21
-0.891
 31
0.0
  0
LINE
  5
1A2
330
11F
100
AcDbEntity
  8
AM_9
100
AcDbLine
 10
0.9998233724319984
 20
-0.81225984
 30
0.0
 11
0.9998233724319984
 21
-0.891
 31
0.0
  0
LINE
  5
1A3
330
11F
100
AcDbEntity
  8
AM_9
100
AcDbLine
 10
1.066277970768763
 20
-0.81225984
 30
0.0
 11
1.066277970768763
 21
-0.891
 31
0.0
  0
LINE
  5
1A4
330
11F
100
AcDbEntity
  8
AM_9
100
AcDbLine
 10
1.053738440022129
 20
-0.81225984
 30
0.0
 11
1.053738440022129
 21
-0.891
 31
0.0
  0
LINE
  5
1A5
330
11F
100
AcDbEntity
  8
AM_9
100
AcDbLine
 10
1.038860905999867
 20
-0.81225984
 30
0.0
 11
1.038860905999867
 21
-0.891
 31
0.0
  0
LINE
  5
1A6
330
11F
100
AcDbEntity
  8
AM_9
100
AcDbLine
 10
0.9773430613508063
 20
-0.81225984
 30
0.0
 11
0.9773430613508063
 21
-0.891
 31
0.0
  0
LINE
  5
1A7
330
11F
100
AcDbEntity
  8
AM_9
100
AcDbLine
 10
0.9642981916945935
 20
-0.81225984
 30
0.0
 11
0.9642981916945935
 21
-0.891
 31
0.0
  0
LINE
  5
1A8
330
11F
100
AcDbEntity
  8
AM_9
100
AcDbLine
 10
0.9920787461430359
 20
-0.81225984
 30
0.0
 11
0.9920787461430359
 21
-0.891
 31
0.0
  0
LINE
  5
1A9
330
11F
100
AcDbEntity
  8
AM_9
100
AcDbLine
 10
0.9491597619833504
 20
-0.81225984
 30
0.0
 11
0.9491597619833504
 21
-0.891
 31
0.0
  0
LINE
  5
1AA
330
11F
100
AcDbEntity
  8
AM_9
100
AcDbLine
 10
0.9857974265038099
 20
-0.81225984
 30
0.0
 11
0.9857974265038099
 21
-0.891
 31
0.0
  0
LINE
  5
1AB
330
11F
100
AcDbEntity
  8
AM_9
100
AcDbLine
 10
0.9737994703837565
 20
-0.81225984
 30
0.0
 11
0.9737994703837565
 21
-0.891
 31
0.0
  0
LINE
  5
1AC
330
11F
100
AcDbEntity
  8
AM_9
100
AcDbLine
 10
0.9634925251458578
 20
-0.81225984
 30
0.0
 11
0.9634925251458578
 21
-0.891
 31
0.0
  0
LINE
  5
1AD
330
11F
100
AcDbEntity
  8
AM_9
100
AcDbLine
 10
1.033144788988795
 20
-0.81225984
 30
0.0
 11
1.033144788988795
 21
-0.891
 31
0.0
  0
LINE
  5
1AE
330
11F
100
AcDbEntity
  8
AM_9
100
AcDbLine
 10
0.9548763439135096
 20
-0.81225984
 30
0.0
 11
0.9548763439135096
 21
-0.891
 31
0.0
  0
LINE
  5
1AF
330
11F
100
AcDbEntity
  8
AM_9
100
AcDbLine
 10
0.9394966750224566
 20
-0.81225984
 30
0.0
 11
0.9394966750224566
 21
-0.891
 31
0.0
  0
LINE
  5
1B0
330
11F
100
AcDbEntity
  8
AM_9
100
AcDbLine
 10
1.026863469349569
 20
-0.81225984
 30
0.0
 11
1.026863469349569
 21
-0.891
 31
0.0
  0
LINE
  5
1B1
330
11F
100
AcDbEntity
  8
AM_9
100
AcDbLine
 10
1.045786804383081
 20
-0.81225984
 30
0.0
 11
1.045786804383081
 21
-0.891
 31
0.0
  0
LINE
  5
1B2
330
11F
100
AcDbEntity
  8
AM_9
100
AcDbLine
 10
0.9479510326094229
 20
-0.81225984
 30
0.0
 11
0.947951032609423
 21
-0.8909999999999999
 31
0.0
  0
LINE
  5
1B3
330
11F
100
AcDbEntity
  8
AM_9
100
AcDbLine
 10
1.036767793659384
 20
-0.81225984
 30
0.0
 11
1.036767793659384
 21
-0.891
 31
0.0
  0
LINE
  5
1B4
330
11F
100
AcDbEntity
  8
AM_9
100
AcDbLine
 10
1.042887126485281
 20
-0.81225984
 30
0.0
 11
1.042887126485281
 21
-0.891
 31
0.0
  0
LINE
  5
1B5
330
11F
100
AcDbEntity
  8
AM_9
100
AcDbLine
 10
1.054643688928869
 20
-0.81225984
 30
0.0
 11
1.054643688928869
 21
-0.891
 31
0.0
  0
LINE
  5
1B6
330
11F
100
AcDbEntity
  8
AM_9
100
AcDbLine
 10
1.06140735170897
 20
-0.81225984
 30
0.0
 11
1.06140735170897
 21
-0.891
 31
0.0
  0
LINE
  5
1B7
330
11F
100
AcDbEntity
  8
AM_9
100
AcDbLine
 10
1.045221841147785
 20
-0.81225984
 30
0.0
 11
1.045221841147785
 21
-0.891
 31
0.0
  0
LINE
  5
1B8
330
11F
100
AcDbEntity
  8
AM_9
100
AcDbLine
 10
0.9063993864068733
 20
-0.81225984
 30
0.0
 11
0.9063993864068733
 21
-0.891
 31
0.0
  0
LINE
  5
1B9
330
11F
100
AcDbEntity
  8
AM_9
100
AcDbLine
 10
0.9315245384163244
 20
-0.81225984
 30
0.0
 11
0.9315245384163244
 21
-0.891
 31
0.0
  0
LINE
  5
1BA
330
11F
100
AcDbEntity
  8
AM_9
100
AcDbLine
 10
1.043772306683542
 20
-0.81225984
 30
0.0
 11
1.043772306683542
 21
-0.891
 31
0.0
  0
LINE
  5
1BB
330
11F
100
AcDbEntity
  8
AM_9
100
AcDbLine
 10
1.024928450371907
 20
-0.81225984
 30
0.0
 11
1.024928450371907
 21
-0.891
 31
0.0
  0
LINE
  5
1BC
330
11F
100
AcDbEntity
  8
AM_9
100
AcDbLine
 10
0.9291071762977877
 20
-0.81225984
 30
0.0
 11
0.9291071762977877
 21
-0.891
 31
0.0
  0
LINE
  5
1BD
330
11F
100
AcDbEntity
  8
AM_9
100
AcDbLine
 10
1.035073648867189
 20
-0.81225984
 30
0.0
 11
1.035073648867189
 21
-0.891
 31
0.0
  0
LWPOLYLINE
  5
1BE
330
11F
100
AcDbEntity
  8
AM_9
100
AcDbPolyline
 90
        3
 70
     0
 43
0.0
 10
0.8908132644301999
 20
-0.5376180422838974
 10
0.9198704732820636
 20
-0.5603483685699145
 10
0.9511068567681185
 20
-0.5830786948559316
  0
LWPOLYLINE
  5
1BF
330
11F
100
AcDbEntity
  8
AM_9
100
AcDbPolyline
 90
        3
 70
     0
 43
0.0
 10
0.9511068567681185
 20
-0.5830786948559316
 10
0.9477200873319825
 20
-0.6283349440926895
 10
0.9464909655179138
 20
-0.6739999999999999
  0
LWPOLYLINE
  5
1C0
330
11F
100
AcDbEntity
  8
AM_9
100
AcDbPolyline
 90
        3
 70
     0
 43
0.0
 10
0.9511068567681185
 20
-0.7649213051440684
 10
0.9200064077564131
 20
-0.7875494297624475
 10
0.8908132644301999
 20
-0.8103819577161027
  0
LWPOLYLINE
  5
1C1
330
11F
100
AcDbEntity
  8
AM_9
100
AcDbPolyline
 90
        3
 70
     0
 43
0.0
 10
0.9464909655179138
 20
-0.6739999999999999
 10
0.9477093238259205
 20
-0.7194606525720341
 10
0.9511068567681185
 20
-0.7649213051440684
  0
LINE
  5
1C2
330
11F
100
AcDbEntity
  8
AM_9
100
AcDbLine
 10
1.02539162589928
 20
-0.5830786948559316
 30
0.0
 11
0.9511068567681185
 21
-0.5830786948559316
 31
0.0
  0
LINE
  5
1C3
330
11F
100
AcDbEntity
  8
AM_9
100
AcDbLine
 10
1.02539162589928
 20
-0.7649213051440684
 30
0.0
 11
0.9511068567681185
 21
-0.7649213051440684
 31
0.0
  0
LINE
  5
1C4
330
11F
100
AcDbEntity
  8
AM_9
100
AcDbLine
 10
1.02539162589928
 20
-0.5830786948559316
 30
0.0
 11
1.010166363556989
 21
-0.5687088515972297
 31
0.0
  0
LWPOLYLINE
  5
1C5
330
11F
100
AcDbEntity
  8
AM_9
100
AcDbPolyline
 90
        3
 70
     0
 43
0.0
 10
1.030007517149484
 20
-0.6739999999999999
 10
1.028789158841478
 20
-0.6285393474279658
 10
1.02539162589928
 20
-0.5830786948559316
  0
LINE
  5
1C6
330
11F
100
AcDbEntity
  8
AM_9
100
AcDbLine
 10
1.010196460713893
 20
-0.779263422441268
 30
0.0
 11
1.02539162589928
 21
-0.7649213051440684
 31
0.0
  0
LWPOLYLINE
  5
1C7
330
11F
100
AcDbEntity
  8
AM_9
100
AcDbPolyline
 90
        3
 70
     0
 43
0.0
 10
1.02539162589928
 20
-0.7649213051440684
 10
1.028778395335415
 20
-0.7196650559073104
 10
1.030007517149484
 20
-0.6739999999999999
  0
LWPOLYLINE
  5
1C8
330
11F
100
AcDbEntity
  8
AM_9
100
AcDbPolyline
 90
        3
 70
     0
 43
0.0
 10
0.8908132644301999
 20
-0.8103819577161027
 10
0.8641927721943499
 20
-0.8331122840021198
 10
0.839751454592691
 20
-0.8558426102881368
  0
LWPOLYLINE
  5
1C9
330
11F
100
AcDbEntity
  8
AM_9
100
AcDbPolyline
 90
        3
 70
     0
 43
0.0
 10
0.839751454592691
 20
-0.4921573897118632
 10
0.8640783647321244
 20
-0.5147855143302422
 10
0.8908132644301999
 20
-0.5376180422838974
  0
LINE
  5
1CA
330
11F
100
AcDbEntity
  8
AM_9
100
AcDbLine
 10
0.8228955501934166
 20
-0.7842362199999999
 30
0.0
 11
0.8351355633424863
 21
-0.7842362199999999
 31
0.0
  0
LINE
  5
1CB
330
11F
100
AcDbEntity
  8
AM_9
100
AcDbLine
 10
0.8351355633424863
 20
-0.5637637799999999
 30
0.0
 11
0.8228955501934166
 21
-0.5637637799999999
 31
0.0
  0
LINE
  5
1CC
330
11F
100
AcDbEntity
  8
AM_9
100
AcDbLine
 10
0.9252
 20
-0.891
 30
0.0
 11
0.9252
 21
0.0
 31
0.0
  0
LINE
  5
1CD
330
11F
100
AcDbEntity
  8
AM_9
100
AcDbLine
 10
-0.9252
 20
0.0
 30
0.0
 11
-0.9252
 21
-0.891
 31
0.0
  0
ELLIPSE
  5
1CE
330
11F
100
AcDbEntity
  8
AM_9
100
AcDbEllipse
 10
0.932571540245985
 20
-0.6739999999999999
 30
0.0
 11
-2.025006509596555E-17
 21
-0.1102362200000002
 31
0.0
210
0.0
220
0.0
230
1.0
 40
0.7071067811865461
 41
0.6103037345661972
 42
2.531823202520151
  0
ELLIPSE
  5
1CF
330
11F
100
AcDbEntity
  8
AM_9
100
AcDbEllipse
 10
0.9186521149740569
 20
-0.6739999999999999
 30
0.0
 11
-2.025006509596551E-17
 21
-0.11023622
 31
0.0
210
0.0
220
0.0
230
1.0
 40
0.7071067811865474
 41
0.0
 42
3.141592653589793
  0
ELLIPSE
  5
1D0
330
11F
100
AcDbEntity
  8
AM_9
100
AcDbEllipse
 10
0.918652114974057
 20
-0.6739999999999997
 30
0.0
 11
-2.892866547250520E-17
 21
-0.1574803200000003
 31
0.0
210
0.0
220
0.0
230
1.0
 40
0.7071067811865447
 41
0.8520614501847286
 42
2.289697506586751
  0
LWPOLYLINE
  5
1D1
330
11F
100
AcDbEntity
  8
AM_9
100
AcDbPolyline
 90
       54
 70
     0
 43
0.0
 10
0.9495169652841217
 20
-0.6233260790416552
 10
0.9507690250840161
 20
-0.620608075981652
 10
0.9539406904590753
 20
-0.6146025511097096
 10
0.9572263119250567
 20
-0.6094369774566829
 10
0.9605030465219467
 20
-0.6051437501652934
 10
0.9636413531443878
 20
-0.6017267302430224
 10
0.9665191709495675
 20
-0.5991494383574846
 10
0.9690268139104847
 20
-0.5973400771571239
 10
0.9710772238874171
 20
-0.5961927223885076
 10
0.972622175412851
 20
-0.5955701750533225
 10
0.9736882112197596
 20
-0.5953111013141135
 10
0.9744990442044912
 20
-0.5952635783702039
 10
0.9754192308380503
 20
-0.595398252228554
 10
0.9767366167147221
 20
-0.595821787774309
 10
0.9785509642179485
 20
-0.5966941506954436
 10
0.9808047159548534
 20
-0.598133412361732
 10
0.9837198579850903
 20
-0.6004988390231156
 10
0.9868822165075885
 20
-0.6036781147169209
 10
0.9901781763481352
 20
-0.6076992035627403
 10
0.9934972792200555
 20
-0.6125703387911763
 10
0.9967287119510834
 20
-0.6182736978577547
 10
0.9997638186983587
 20
-0.6247623966391257
 10
1.002501818512482
 20
-0.6319637590001984
 10
1.004856159152067
 20
-0.639791909040492
 10
1.006752510692457
 20
-0.6481429563044658
 10
1.008130901662046
 20
-0.6568981347177896
 10
1.008947343297637
 20
-0.6659271848378759
 10
1.009174999555304
 20
-0.6750918047430389
 10
1.008804989230547
 20
-0.684249099037371
 10
1.007847367704006
 20
-0.6932516490716862
 10
1.006331423879109
 20
-0.7019564021508538
 10
1.004304784286482
 20
-0.7102293107645513
 10
1.001832837545616
 20
-0.7179469357822823
 10
0.9989976773953124
 20
-0.7250003994192704
 10
0.9958964143368743
 20
-0.7312994964558969
 10
0.9926386841412959
 20
-0.7367768086677132
 10
0.9893432251674124
 20
-0.7413915485755107
 10
0.9861398583279053
 20
-0.7451260310999448
 10
0.9831534049261543
 20
-0.7480033627991294
 10
0.9804991024712425
 20
-0.7500825065640295
 10
0.978273693065687
 20
-0.7514571635824238
 10
0.9765421821954102
 20
-0.7522535919214496
 10
0.9753121053982183
 20
-0.7526257918696917
 10
0.9744599988107809
 20
-0.7527379438762468
 10
0.9733394174680287
 20
-0.752624037823217
 10
0.9720894306065179
 20
-0.7522429742212982
 10
0.9703259635520249
 20
-0.7514249461086633
 10
0.9681160243067101
 20
-0.750051453701217
 10
0.9652293062781002
 20
-0.7477603930361787
 10
0.9620852230233334
 20
-0.7446596872757945
 10
0.9587972433342271
 20
-0.7407193116184193
 10
0.9554755512056166
 20
-0.7359285554965662
 10
0.9522310989991997
 20
-0.7303027661226702
 10
0.9508061644571199
 20
-0.7274692042471662
  0
ELLIPSE
  5
1D2
330
11F
100
AcDbEntity
  8
AM_9
100
AcDbEllipse
 10
1.010405144614356
 20
-0.6739999999999945
 30
0.0
 11
-1.842731288563717E-17
 21
-0.1003136191238539
 31
0.0
210
0.0
220
0.0
230
1.0
 40
0.7071067811863203
 41
4.573298695919428
 42
4.918933999133722
  0
ELLIPSE
  5
1D3
330
11F
100
AcDbEntity
  8
AM_9
100
AcDbEllipse
 10
1.010405144614431
 20
-0.674
 30
0.0
 11
-1.842731288565063E-17
 21
-0.1003136191239272
 31
0.0
210
0.0
220
0.0
230
1.0
 40
0.7071067811865476
 41
5.158388405909744
 42
10.40214263544034
  0
ELLIPSE
  5
1D4
330
11F
100
AcDbEntity
  8
AM_9
100
AcDbEllipse
 10
1.02556093721195
 20
-0.674
 30
0.0
 11
-1.926569708652823E-17
 21
-0.1048775701420838
 31
0.0
210
0.0
220
0.0
230
1.0
 40
0.7071067811865479
 41
0.4216390059589568
 42
2.730075862949645
  0
ELLIPSE
  5
1D5
330
11F
100
AcDbEntity
  8
AM_9
100
AcDbEllipse
 10
1.063015911893567
 20
-0.674
 30
0.0
 11
-1.537357412142466E-17
 21
-0.08368983956369214
 31
0.0
210
0.0
220
0.0
230
1.0
 40
0.7071067811865462
 41
0.424268233280789
 42
2.727947785733707
  0
LINE
  5
1D6
330
11F
100
AcDbEntity
  8
AM_9
100
AcDbLine
 10
0.989991446228819
 20
-0.7970090282933884
 30
0.0
 11
0.989991446228819
 21
-0.5509936155094325
 31
0.0
  0
LINE
  5
1D7
330
11F
100
AcDbEntity
  8
AM_9
100
AcDbLine
 10
0.655799654158014
 20
-0.841
 30
0.0
 11
0.989991446228819
 21
-0.841
 31
0.0
  0
LINE
  5
1D8
330
11F
100
AcDbEntity
  8
AM_9
100
AcDbLine
 10
0.1875
 20
-0.4569999999999999
 30
0.0
 11
0.1875
 21
0.0000000000000001
 31
0.0
  0
LINE
  5
1D9
330
11F
100
AcDbEntity
  8
AM_9
100
AcDbLine
 10
-0.1875
 20
0.0000000000000001
 30
0.0
 11
-0.1875
 21
-0.4569999999999999
 31
0.0
  0
ELLIPSE
  5
1DA
330
11F
100
AcDbEntity
  8
AM_9
100
AcDbEllipse
 10
0.8351355633424872
 20
-0.6740000000000008
 30
0.0
 11
-2.892866547250538E-17
 21
-0.1574803200000013
 31
0.0
210
0.0
220
0.0
230
1.0
 40
0.7071067811865479
 41
0.0
 42
6.283185307179586
  0
ELLIPSE
  5
1DB
330
11F
100
AcDbEntity
  8
AM_9
100
AcDbEllipse
 10
0.8351355633424863
 20
-0.674
 30
0.0
 11
-2.025006509596549E-17
 21
-0.1102362199999999
 31
0.0
210
0.0
220
0.0
230
1.0
 40
0.7071067811865482
 41
0.0
 42
6.283185307179586
  0
ELLIPSE
  5
1DC
330
11F
100
AcDbEntity
  8
AM_9
100
AcDbEllipse
 10
0.8228955501934166
 20
-0.6739999999999999
 30
0.0
 11
-2.025006509596551E-17
 21
-0.11023622
 31
0.0
210
0.0
220
0.0
230
1.0
 40
0.7071067811865474
 41
0.0
 42
6.283185307179586
  0
LINE
  5
1DD
330
11F
100
AcDbEntity
  8
AM_7
100
AcDbLine
 10
0.0
 20
0.04455
 30
0.0
 11
0.0000000000000001
 21
-1.5731875
 31
0.0
  0
LWPOLYLINE
  5
1DE
330
11F
100
AcDbEntity
  8
AM_4
100
AcDbPolyline
 90
        3
 70
     0
 43
0.0
 10
1.010166363556989
 20
-0.5687088515972297
 10
1.001064715759846
 20
-0.5604505702375526
 10
0.9743298160617706
 20
-0.5376180422838974
  0
LWPOLYLINE
  5
1DF
330
11F
100
AcDbEntity
  8
AM_4
100
AcDbPolyline
 90
        3
 70
     0
 43
0.0
 10
0.9743298160617705
 20
-0.8103819577161027
 10
1.000950308297621
 20
-0.7876516314300857
 10
1.010196460713893
 20
-0.779263422441268
  0
LWPOLYLINE
  5
1E0
330
11F
100
AcDbEntity
  8
AM_4
100
AcDbPolyline
 90
        3
 70
     0
 43
0.0
 10
0.9140362237238521
 20
-0.8558426102881368
 10
0.9451366727355575
 20
-0.833214485669758
 10
0.9743298160617705
 20
-0.8103819577161027
  0
LWPOLYLINE
  5
1E1
330
11F
100
AcDbEntity
  8
AM_4
100
AcDbPolyline
 90
        3
 70
     0
 43
0.0
 10
0.9743298160617706
 20
-0.5376180422838974
 10
0.945272607209907
 20
-0.5148877159978803
 10
0.9140362237238521
 20
-0.4921573897118632
  0
LINE
  5
1E2
330
11F
100
AcDbEntity
  8
AM_4
100
AcDbLine
 10
0.9186521149740569
 20
-0.7842362199999999
 30
0.0
 11
0.9325715402459852
 21
-0.7842362199999999
 31
0.0
  0
LINE
  5
1E3
330
11F
100
AcDbEntity
  8
AM_4
100
AcDbLine
 10
0.9325715402459852
 20
-0.5637637799999998
 30
0.0
 11
0.9186521149740569
 21
-0.5637637799999998
 31
0.0
  0
ELLIPSE
  5
1E4
330
11F
100
AcDbEntity
  8
AM_4
100
AcDbEllipse
 10
0.9325715402459854
 20
-0.6740000000000003
 30
0.0
 11
-2.025006509596545E-17
 21
-0.1102362199999997
 31
0.0
210
0.0
220
0.0
230
1.0
 40
0.7071067811865477
 41
2.531823202520159
 42
6.893489041745778
  0
ELLIPSE
  5
1E5
330
11F
100
AcDbEntity
  8
AM_4
100
AcDbEllipse
 10
0.9186521149740571
 20
-0.6740000000000002
 30
0.0
 11
-2.025006509596559E-17
 21
-0.1102362200000004
 31
0.0
210
0.0
220
0.0
230
1.0
 40
0.7071067811865467
 41
3.141592653589793
 42
6.283185307179586
  0
LWPOLYLINE
  5
1E6
330
11F
100
AcDbEntity
  8
AM_4
100
AcDbPolyline
 90
        3
 70
     0
 43
0.0
 10
0.9140362237238521
 20
-0.4921573897118632
 10
0.8897093135844187
 20
-0.5147855143302421
 10
0.8629744138863432
 20
-0.5376180422838973
  0
LINE
  5
1E7
330
11F
100
AcDbEntity
  8
AM_4
100
AcDbLine
 10
0.9140362237238521
 20
-0.4921573897118632
 30
0.0
 11
0.839751454592691
 21
-0.4921573897118632
 31
0.0
  0
LWPOLYLINE
  5
1E8
330
11F
100
AcDbEntity
  8
AM_4
100
AcDbPolyline
 90
        3
 70
     0
 43
0.0
 10
0.7794578622547725
 20
-0.5376180422838973
 10
0.8085150711066361
 20
-0.5148877159978802
 10
0.839751454592691
 20
-0.4921573897118632
  0
LWPOLYLINE
  5
1E9
330
11F
100
AcDbEntity
  8
AM_4
100
AcDbPolyline
 90
        3
 70
     0
 43
0.0
 10
0.7283960524172634
 20
-0.5830786948559316
 10
0.752722962556697
 20
-0.5604505702375525
 10
0.7794578622547725
 20
-0.5376180422838973
  0
LINE
  5
1EA
330
11F
100
AcDbEntity
  8
AM_4
100
AcDbLine
 10
0.9140362237238521
 20
-0.8558426102881368
 30
0.0
 11
0.839751454592691
 21
-0.8558426102881368
 31
0.0
  0
LWPOLYLINE
  5
1EB
330
11F
100
AcDbEntity
  8
AM_4
100
AcDbPolyline
 90
        3
 70
     0
 43
0.0
 10
0.8629744138863432
 20
-0.8103819577161027
 10
0.8895949061221933
 20
-0.8331122840021198
 10
0.9140362237238521
 20
-0.8558426102881368
  0
LWPOLYLINE
  5
1EC
330
11F
100
AcDbEntity
  8
AM_4
100
AcDbPolyline
 90
        3
 70
     0
 43
0.0
 10
0.7794578622547725
 20
-0.8103819577161027
 10
0.7528373700189224
 20
-0.7876516314300857
 10
0.7283960524172636
 20
-0.7649213051440684
  0
LWPOLYLINE
  5
1ED
330
11F
100
AcDbEntity
  8
AM_4
100
AcDbPolyline
 90
        3
 70
     0
 43
0.0
 10
0.839751454592691
 20
-0.8558426102881368
 10
0.8086510055809856
 20
-0.8332144856697579
 10
0.7794578622547725
 20
-0.8103819577161027
  0
LWPOLYLINE
  5
1EE
330
11F
100
AcDbEntity
  8
AM_4
100
AcDbPolyline
 90
        3
 70
     0
 43
0.0
 10
0.8026808215484246
 20
-0.7649213051440684
 10
0.8337812705601301
 20
-0.7875494297624476
 10
0.8629744138863432
 20
-0.8103819577161027
  0
ELLIPSE
  5
1EF
330
11F
100
AcDbEntity
  8
AM_4
100
AcDbEllipse
 10
0.9186521149740576
 20
-0.6740000000000004
 30
0.0
 11
-2.892866547250528E-17
 21
-0.1574803200000008
 31
0.0
210
0.0
220
0.0
230
1.0
 40
0.7071067811865483
 41
2.289697506586762
 42
7.135246757364312
  0
LWPOLYLINE
  5
1F0
330
11F
100
AcDbEntity
  8
AM_4
100
AcDbPolyline
 90
        3
 70
     0
 43
0.0
 10
0.8629744138863432
 20
-0.5376180422838973
 10
0.8339172050344795
 20
-0.5603483685699144
 10
0.8026808215484246
 20
-0.5830786948559316
  0
LINE
  5
1F1
330
11F
100
AcDbEntity
  8
AM_4
100
AcDbLine
 10
0.8026808215484246
 20
-0.7649213051440684
 30
0.0
 11
0.7283960524172636
 21
-0.7649213051440684
 31
0.0
  0
LWPOLYLINE
  5
1F2
330
11F
100
AcDbEntity
  8
AM_4
100
AcDbPolyline
 90
        3
 70
     0
 43
0.0
 10
0.8072967127986294
 20
-0.6739999999999999
 10
0.8060783544906225
 20
-0.7194606525720341
 10
0.8026808215484246
 20
-0.7649213051440684
  0
LWPOLYLINE
  5
1F3
330
11F
100
AcDbEntity
  8
AM_4
100
AcDbPolyline
 90
        3
 70
     0
 43
0.0
 10
0.8026808215484246
 20
-0.5830786948559316
 10
0.8060675909845604
 20
-0.6283349440926895
 10
0.8072967127986294
 20
-0.6739999999999999
  0
LINE
  5
1F4
330
11F
100
AcDbEntity
  8
AM_4
100
AcDbLine
 10
0.8026808215484246
 20
-0.5830786948559316
 30
0.0
 11
0.7283960524172634
 21
-0.5830786948559316
 31
0.0
  0
LWPOLYLINE
  5
1F5
330
11F
100
AcDbEntity
  8
AM_4
100
AcDbPolyline
 90
        3
 70
     0
 43
0.0
 10
0.7237801611670587
 20
-0.6739999999999999
 10
0.7249985194750654
 20
-0.6285393474279658
 10
0.7283960524172634
 20
-0.5830786948559316
  0
LWPOLYLINE
  5
1F6
330
11F
100
AcDbEntity
  8
AM_4
100
AcDbPolyline
 90
        3
 70
     0
 43
0.0
 10
0.7283960524172636
 20
-0.7649213051440684
 10
0.7250092829811274
 20
-0.7196650559073104
 10
0.7237801611670587
 20
-0.6739999999999999
  0
LWPOLYLINE
  5
1F7
330
11F
100
AcDbEntity
  8
AM_4
100
AcDbPolyline
 90
        3
 70
     0
 43
0.0
 10
1.052087652899059
 20
-0.771952139879628
 10
1.054585686535877
 20
-0.7705118736578415
 10
1.056005220779727
 20
-0.7696334566404739
  0
LWPOLYLINE
  5
1F8
330
11F
100
AcDbEntity
  8
AM_4
100
AcDbPolyline
 90
       21
 70
     0
 43
0.0
 10
0.9394705741117837
 20
-0.6739999999999999
 10
0.9395932281918404
 20
-0.6799028950666416
 10
0.9404513150539109
 20
-0.6906447550802074
 10
0.94212542466011
 20
-0.7012342506779317
 10
0.9446064632041345
 20
-0.7115661332024149
 10
0.9478807309694672
 20
-0.7215390698298465
 10
0.9519292837410567
 20
-0.7310518374300636
 10
0.9567266832055805
 20
-0.7400026412316196
 10
0.9622359196009167
 20
-0.7482848783033245
 10
0.9684076987009707
 20
-0.7557941875246177
 10
0.9751764013044913
 20
-0.7624298537646752
 10
0.9824584023009525
 20
-0.7681007796033682
 10
0.9901542987211944
 20
-0.7727332445995613
 10
0.9981554322547586
 20
-0.7762772045071438
 10
1.006352561541722
 20
-0.7787080085552381
 10
1.01464328983915
 20
-0.7800228607537125
 10
1.022936092117483
 20
-0.7802340904288342
 10
1.031150852638945
 20
-0.7793620795540718
 10
1.039206101165031
 20
-0.777433150569713
 10
1.047037234381702
 20
-0.7744746329355638
 10
1.050689029508763
 20
-0.7727016981025914
  0
LWPOLYLINE
  5
1F9
330
11F
100
AcDbEntity
  8
AM_4
100
AcDbPolyline
 90
       21
 70
     0
 43
0.0
 10
1.055581261522352
 20
-0.5780995368028193
 10
1.048814939784089
 20
-0.5743557579150224
 10
1.040759308711722
 20
-0.5710660059137023
 10
1.032531997715169
 20
-0.5688917699463782
 10
1.024233126972742
 20
-0.5678317242358245
 10
1.01595154086449
 20
-0.5678711020283352
 10
1.007765451925743
 20
-0.5689884212344066
 10
0.9997564073260478
 20
-0.5711561041751915
 10
0.9919850199032217
 20
-0.5743474422150088
 10
0.9845098358128703
 20
-0.5785372249805104
 10
0.9773918827838356
 20
-0.5836981300366704
 10
0.9706971516151606
 20
-0.5897948189356217
 10
0.9644959149917822
 20
-0.5967779302792933
 10
0.9588589451549822
 20
-0.6045806148259448
 10
0.9538522536169364
 20
-0.6131191639497048
 10
0.9495326586350936
 20
-0.6222970747745796
 10
0.9459456481826872
 20
-0.6320103127271023
 10
0.9431259373118619
 20
-0.6421497829586312
 10
0.9410974245351987
 20
-0.6526081351570514
 10
0.9398758452801742
 20
-0.6632800069431805
 10
0.9394705741117837
 20
-0.6739999999999999
  0
ELLIPSE
  5
1FA
330
11F
100
AcDbEntity
  8
AM_4
100
AcDbEllipse
 10
1.02556093721195
 20
-0.6739999999999997
 30
0.0
 11
-1.926569708652830E-17
 21
-0.1048775701420841
 31
0.0
210
0.0
220
0.0
230
1.0
 40
0.7071067811865478
 41
2.730075862949643
 42
6.694702097819734
  0
LINE
  5
1FB
330
11F
100
AcDbEntity
  8
AM_4
100
AcDbLine
 10
1.086686970116103
 20
-0.5972969932046521
 30
0.0
 11
1.055224789861374
 21
-0.5778781168989382
 31
0.0
  0
LINE
  5
1FC
330
11F
100
AcDbEntity
  8
AM_4
100
AcDbLine
 10
1.055224789861374
 20
-0.7701218831010617
 30
0.0
 11
1.086686970116103
 21
-0.7507030067953476
 31
0.0
  0
ELLIPSE
  5
1FD
330
11F
100
AcDbEntity
  8
AM_4
100
AcDbEllipse
 10
1.063015911893567
 20
-0.6740000000000002
 30
0.0
 11
-1.537357412142460E-17
 21
-0.0836898395636918
 31
0.0
210
0.0
220
0.0
230
1.0
 40
0.7071067811865464
 41
2.727947785733706
 42
6.694702097819739
  0
ELLIPSE
  5
1FE
330
11F
100
AcDbEntity
  8
AM_4
100
AcDbEllipse
 10
1.07176579296527
 20
-0.6739999999999999
 30
0.0
 11
4.005375037968867E-18
 21
0.06541273844438356
 31
0.0
210
0.0
220
0.0
230
1.0
 40
0.7071067811865476
 41
0.0
 42
6.283185307179586
  0
LWPOLYLINE
  5
1FF
330
11F
100
AcDbEntity
  8
AM_4
100
AcDbPolyline
 90
       21
 70
     0
 43
0.0
 10
1.087492395569473
 20
-0.750197132942915
 10
1.093067566475344
 20
-0.7461853415804726
 10
1.099095083019867
 20
-0.7406960958714083
 10
1.104619160045441
 20
-0.7343313677163027
 10
1.109562344411417
 20
-0.7271616997188036
 10
1.113850956002806
 20
-0.7192806263848425
 10
1.117422338850841
 20
-0.7107994827867404
 10
1.120228653573771
 20
-0.7018391129565212
 10
1.122236128946711
 20
-0.6925260624670923
 10
1.123424768071876
 20
-0.6829798847953724
 10
1.123783123189658
 20
-0.6733175860236803
 10
1.123306329934911
 20
-0.6636543335729024
 10
1.121995273398076
 20
-0.654105409885234
 10
1.119856175241334
 20
-0.6447847959337505
 10
1.116900160416362
 20
-0.6358052322803525
 10
1.113144218154843
 20
-0.6272807753630637
 10
1.10861454878297
 20
-0.6193297171882219
 10
1.10335442909845
 20
-0.612078075034931
 10
1.097427355199258
 20
-0.6056498466423359
 10
1.090922793132052
 20
-0.6001613351270673
 10
1.086826354715434
 20
-0.5973832839067781
  0
LWPOLYLINE
  5
200
330
11F
100
AcDbEntity
  8
AM_4
100
AcDbPolyline
 90
       22
 70
     0
 43
0.0
 10
0.655799654158014
 20
-0.841
 10
0.6562496551549273
 20
-0.8445541190643354
 10
0.6578820228835567
 20
-0.8486100453662255
 10
0.6621302308834679
 20
-0.8541092563778748
 10
0.6696534318888835
 20
-0.8599814785890766
 10
0.6778948166835089
 20
-0.8644145393844973
 10
0.6948827195867924
 20
-0.8706673806701206
 10
0.7123271046999364
 20
-0.8749485913215863
 10
0.7301120847594033
 20
-0.8780056512345383
 10
0.7479868259304799
 20
-0.8801811334209247
 10
0.7876752977596775
 20
-0.8828791652577247
 10
0.8274670958483836
 20
-0.8835439992947121
 10
0.8812932084565255
 20
-0.8816043665430261
 10
0.9176622157788351
 20
-0.8777146048231195
 10
0.9422949983916967
 20
-0.8729786835829936
 10
0.9590208760394027
 20
-0.8680279024903285
 10
0.9703887326354903
 20
-0.8632117789486117
 10
0.9808130064031148
 20
-0.8566573299942334
 10
0.9859882833565844
 20
-0.8514938769652889
 10
0.9886422227494853
 20
-0.8471384154100827
 10
0.9897589402809233
 20
-0.8435562947490381
 10
0.989991446228819
 20
-0.8409999999999999
  0
LINE
  5
201
330
11F
100
AcDbEntity
  8
AM_4
100
AcDbLine
 10
1.1375
 20
-0.8909999999999999
 30
0.0
 11
-1.137499999998823
 21
-0.8909999999999999
 31
0.0
  0
ARC
  5
202
330
11F
100
AcDbEntity
  8
AM_4
100
AcDbCircle
 10
-1.1375
 20
-0.8409999999999996
 30
0.0
 40
0.0500000000000003
100
AcDbArc
 50
180.0
 51
270.0
  0
ARC
  5
203
330
11F
100
AcDbEntity
  8
AM_4
100
AcDbCircle
 10
1.1375
 20
-0.8409999999999996
 30
0.0
 40
0.0500000000000003
100
AcDbArc
 50
270.0
 51
0.0
  0
LINE
  5
204
330
11F
100
AcDbEntity
  8
AM_4
100
AcDbLine
 10
0.989991446228819
 20
-0.5509936155094325
 30
0.0
 11
0.989991446228819
 21
0.0
 31
0.0
  0
LINE
  5
205
330
11F
100
AcDbEntity
  8
AM_4
100
AcDbLine
 10
0.989991446228819
 20
-0.8409999999999999
 30
0.0
 11
0.989991446228819
 21
-0.7970090282933884
 31
0.0
  0
LINE
  5
206
330
11F
100
AcDbEntity
  8
AM_4
100
AcDbLine
 10
0.655799654158014
 20
-0.841
 30
0.0
 11
-1.1875
 21
-0.841
 31
0.0
  0
LINE
  5
207
330
11F
100
AcDbEntity
  8
AM_4
100
AcDbLine
 10
0.655799654158014
 20
-0.841
 30
0.0
 11
0.6557996541580143
 21
0.0000000000000001
 31
0.0
  0
LINE
  5
208
330
11F
100
AcDbEntity
  8
AM_4
100
AcDbLine
 10
-1.1875
 20
0.0
 30
0.0
 11
-1.1875
 21
-0.841
 31
0.0
  0
LINE
  5
209
330
11F
100
AcDbEntity
  8
AM_4
100
AcDbLine
 10
1.1875
 20
-0.841
 30
0.0
 11
1.1875
 21
0.0
 31
0.0
  0
LINE
  5
20A
330
11F
100
AcDbEntity
  8
AM_4
100
AcDbLine
 10
1.1875
 20
-0.841
 30
0.0
 11
0.989991446228819
 21
-0.8409999999999999
 31
0.0
  0
LINE
  5
20B
330
11F
100
AcDbEntity
  8
AM_4
100
AcDbLine
 10
-0.5474997946027119
 20
-0.4570000000000001
 30
0.0
 11
-0.5474997946027119
 21
0.0000000000000001
 31
0.0
  0
LINE
  5
20C
330
11F
100
AcDbEntity
  8
AM_4
100
AcDbLine
 10
1.1875
 20
0.0
 30
0.0
 11
-1.1875
 21
0.0
 31
0.0
  0
LINE
  5
20D
330
11F
100
AcDbEntity
  8
AM_4
100
AcDbLine
 10
0.5474997946027123
 20
-0.4570000000000001
 30
0.0
 11
-0.5474997946027119
 21
-0.4570000000000001
 31
0.0
  0
LINE
  5
20E
330
11F
100
AcDbEntity
  8
AM_4
100
AcDbLine
 10
0.5474997946027123
 20
-0.4570000000000001
 30
0.0
 11
0.5474997946027123
 21
0.0000000000000001
 31
0.0
  0
LINE
  5
20F
330
11F
100
AcDbEntity
  8
AM_4
100
AcDbLine
 10
0.422
 20
-0.4570000000000001
 30
0.0
 11
0.422
 21
0.0000000000000001
 31
0.0
  0
LINE
  5
210
330
11F
100
AcDbEntity
  8
AM_4
100
AcDbLine
 10
-0.4219999999999998
 20
-0.4570000000000001
 30
0.0
 11
-0.4219999999999998
 21
0.0000000000000001
 31
0.0
  0
ENDBLK
  5
122
330
11F
100
AcDbEntity
  8
0
100
AcDbBlockEnd
  0
ENDSEC
  0
SECTION
  2
ENTITIES
  0
INSERT
  5
6F
330
1F
100
AcDbEntity
  8
0
100
AcDbBlockReference
  2
1__129355_4
 10
0.0
 20
0.0
 30
0.0
  0
POINT
  5
212
330
1F
100
AcDbEntity
  8
ConnectionPoints
100
AcDbPoint
 10
0.0000000000000001
 20
-0.5153749999999999
 30
0.0
  0
POINT
  5
213
330
1F
100
AcDbEntity
  8
ConnectionPoints
100
AcDbPoint
 10
0.0000000000000001
 20
-0.0309999999999999
 30
0.0
  0
POINT
  5
214
330
1F
100
AcDbEntity
  8
ConnectionPoints
100
AcDbPoint
 10
0.0
 20
-0.0309999999999999
 30
0.0
  0
ENDSEC
  0
SECTION
  2
OBJECTS
  0
DICTIONARY
  5
C
330
0
100
AcDbDictionary
281
     1
  3
ACAD_DETAILVIEWSTYLE
350
21C
  3
ACAD_GROUP
350
D
  3
ACAD_LAYOUT
350
1A
  3
ACAD_MATERIAL
350
43
  3
ACAD_MLEADERSTYLE
350
6B
  3
ACAD_MLINESTYLE
350
17
  3
ACAD_PLOTSETTINGS
350
19
  3
ACAD_PLOTSTYLENAME
350
E
  3
ACAD_SCALELIST
350
47
  3
ACAD_SECTIONVIEWSTYLE
350
21D
  3
ACAD_TABLESTYLE
350
69
  3
ACAD_VISUALSTYLE
350
2A
  3
ACDB_RECOMPOSE_DATA
350
219
  3
AcDbVariableDictionary
350
215
  0
SUN
  5
6D
330
29
100
AcDbSun
 90
        1
290
     0
 63
     7
421
 16777215
 40
1.0
291
     1
 91
  2455826
 92
 54000000
292
     0
 70
     2
 71
   256
280
     1
  0
DICTIONARY
  5
21C
102
{ACAD_REACTORS
330
C
102
}
330
C
100
AcDbDictionary
281
     1
  0
DICTIONARY
  5
D
102
{ACAD_REACTORS
330
C
102
}
330
C
100
AcDbDictionary
281
     1
  0
DICTIONARY
  5
1A
102
{ACAD_REACTORS
330
C
102
}
330
C
100
AcDbDictionary
281
     1
  3
Layout1
350
1E
  3
Layout2
350
26
  3
Model
350
22
  0
DICTIONARY
  5
43
102
{ACAD_REACTORS
330
C
102
}
330
C
100
AcDbDictionary
281
     1
  3
ByBlock
350
45
  3
ByLayer
350
44
  3
Global
350
46
  0
DICTIONARY
  5
6B
102
{ACAD_REACTORS
330
C
102
}
330
C
100
AcDbDictionary
281
     1
  3
Standard
350
6C
  0
DICTIONARY
  5
17
102
{ACAD_REACTORS
330
C
102
}
330
C
100
AcDbDictionary
281
     1
  3
Standard
350
18
  0
DICTIONARY
  5
19
102
{ACAD_REACTORS
330
C
102
}
330
C
100
AcDbDictionary
281
     1
  0
ACDBDICTIONARYWDFLT
  5
E
102
{ACAD_REACTORS
330
C
102
}
330
C
100
AcDbDictionary
281
     1
  3
Normal
350
F
100
AcDbDictionaryWithDefault
340
F
  0
DICTIONARY
  5
47
102
{ACAD_REACTORS
330
C
102
}
330
C
100
AcDbDictionary
281
     1
  3
A0
350
48
  3
A1
350
49
  3
A2
350
4A
  3
A3
350
4B
  3
A4
350
4C
  3
A5
350
4D
  3
A6
350
4E
  3
A7
350
4F
  3
A8
350
50
  3
A9
350
51
  3
B0
350
52
  3
B1
350
53
  3
B2
350
54
  3
B3
350
55
  3
B4
350
56
  3
B5
350
57
  3
B6
350
58
  3
B7
350
59
  3
B8
350
5A
  3
B9
350
5B
  3
C0
350
5C
  3
C1
350
5D
  3
C2
350
5E
  3
C3
350
5F
  3
C4
350
60
  3
C5
350
61
  3
C6
350
62
  3
C7
350
63
  3
C8
350
64
  3
C9
350
65
  3
D0
350
66
  3
D1
350
67
  3
D2
350
68
  0
DICTIONARY
  5
21D
102
{ACAD_REACTORS
330
C
102
}
330
C
100
AcDbDictionary
281
     1
  0
DICTIONARY
  5
69
102
{ACAD_REACTORS
330
C
102
}
330
C
100
AcDbDictionary
281
     1
  3
Standard
350
6A
  0
DICTIONARY
  5
2A
102
{ACAD_REACTORS
330
C
102
}
330
C
100
AcDbDictionary
281
     1
  3
2dWireframe
350
2F
  3
Basic
350
32
  3
Brighten
350
36
  3
ColorChange
350
3A
  3
Conceptual
350
34
  3
Dim
350
35
  3
EdgeColorOff
350
3D
  3
Facepattern
350
39
  3
Flat
350
2B
  3
FlatWithEdges
350
2C
  3
Gouraud
350
2D
  3
GouraudWithEdges
350
2E
  3
Hidden
350
31
  3
JitterOff
350
3B
  3
Linepattern
350
38
  3
OverhangOff
350
3C
  3
Realistic
350
33
  3
Shaded
350
42
  3
Shaded with edges
350
41
  3
Shades of Gray
350
3E
  3
Sketchy
350
3F
  3
Thicken
350
37
  3
Wireframe
350
30
  3
X-Ray
350
40
  0
XRECORD
  5
219
102
{ACAD_REACTORS
330
C
102
}
330
C
100
AcDbXrecord
280
     1
 90
        1
330
6A
  0
DICTIONARY
  5
215
102
{ACAD_REACTORS
330
C
102
}
330
C
100
AcDbDictionary
281
     1
  3
CANNOSCALE
350
216
  3
CMLEADERSTYLE
350
21B
  3
CTABLESTYLE
350
21A
  0
LAYOUT
  5
1E
102
{ACAD_REACTORS
330
1A
102
}
330
1A
100
AcDbPlotSettings
  1

  2
none_device
  4

  6

 40
0.0
 41
0.0
 42
0.0
 43
0.0
 44
0.0
 45
0.0
 46
0.0
 47
0.0
 48
0.0
 49
0.0
140
0.0
141
0.0
142
1.0
143
1.0
 70
   688
 72
     0
 73
     0
 74
     5
  7

 75
    16
 76
     0
 77
     2
 78
   300
147
1.0
148
0.0
149
0.0
100
AcDbLayout
  1
Layout1
 70
     1
 71
     1
 10
0.0
 20
0.0
 11
12.0
 21
9.0
 12
0.0
 22
0.0
 32
0.0
 14
1.000000000000000E+20
 24
1.000000000000000E+20
 34
1.000000000000000E+20
 15
-1.000000000000000E+20
 25
-1.000000000000000E+20
 35
-1.000000000000000E+20
146
0.0
 13
0.0
 23
0.0
 33
0.0
 16
1.0
 26
0.0
 36
0.0
 17
0.0
 27
1.0
 37
0.0
 76
     0
330
1B
  0
LAYOUT
  5
26
102
{ACAD_REACTORS
330
1A
102
}
330
1A
100
AcDbPlotSettings
  1

  2
none_device
  4

  6

 40
0.0
 41
0.0
 42
0.0
 43
0.0
 44
0.0
 45
0.0
 46
0.0
 47
0.0
 48
0.0
 49
0.0
140
0.0
141
0.0
142
1.0
143
1.0
 70
   688
 72
     0
 73
     0
 74
     5
  7

 75
    16
 76
     0
 77
     2
 78
   300
147
1.0
148
0.0
149
0.0
100
AcDbLayout
  1
Layout2
 70
     1
 71
     2
 10
0.0
 20
0.0
 11
0.0
 21
0.0
 12
0.0
 22
0.0
 32
0.0
 14
0.0
 24
0.0
 34
0.0
 15
0.0
 25
0.0
 35
0.0
146
0.0
 13
0.0
 23
0.0
 33
0.0
 16
1.0
 26
0.0
 36
0.0
 17
0.0
 27
1.0
 37
0.0
 76
     0
330
23
  0
LAYOUT
  5
22
102
{ACAD_REACTORS
330
1A
102
}
330
1A
100
AcDbPlotSettings
  1

  2
none_device
  4
Letter_(8.50_x_11.00_Inches)
  6

 40
6.35
 41
6.35
 42
6.35000508
 43
6.35000508
 44
215.9
 45
279.4
 46
0.0
 47
0.0
 48
0.0
 49
0.0
140
0.0
141
0.0
142
1.0
143
1.0
 70
  1712
 72
     0
 73
     0
 74
     0
  7

 75
     0
 76
     0
 77
     2
 78
   300
147
1.0
148
0.0
149
0.0
100
AcDbLayout
  1
Model
 70
     1
 71
     0
 10
0.0
 20
0.0
 11
12.0
 21
9.0
 12
0.0
 22
0.0
 32
0.0
 14
1.000000000000000E+20
 24
1.000000000000000E+20
 34
1.000000000000000E+20
 15
-1.000000000000000E+20
 25
-1.000000000000000E+20
 35
-1.000000000000000E+20
146
0.0
 13
0.0
 23
0.0
 33
0.0
 16
1.0
 26
0.0
 36
0.0
 17
0.0
 27
1.0
 37
0.0
 76
     0
330
1F
331
29
  0
MATERIAL
  5
45
102
{ACAD_REACTORS
330
43
102
}
330
43
100
AcDbMaterial
  1
ByBlock
 72
     1
 94
      127
  0
MATERIAL
  5
44
102
{ACAD_REACTORS
330
43
102
}
330
43
100
AcDbMaterial
  1
ByLayer
 72
     1
 94
      127
  0
MATERIAL
  5
46
102
{ACAD_REACTORS
330
43
102
}
330
43
100
AcDbMaterial
  1
Global
 72
     1
 94
      127
  0
MLEADERSTYLE
  5
6C
102
{ACAD_REACTORS
330
6B
102
}
330
6B
100
AcDbMLeaderStyle
179
     2
170
     2
171
     1
172
     0
 90
        2
 40
0.0
 41
0.0
173
     1
 91
-1056964608
340
14
 92
       -2
290
     1
 42
0.09
291
     1
 43
0.36
  3
Standard
341
0
 44
0.18
300

342
11
174
     1
178
     6
175
     1
176
     0
 93
-1056964608
 45
0.18
292
     0
297
     0
 46
0.18
343
0
 94
-1056964608
 47
1.0
 49
1.0
140
1.0
293
     1
141
0.0
294
     1
177
     0
142
1.0
295
     0
296
     0
143
0.125
271
     0
272
     9
273
     9
298
     0
  0
MLINESTYLE
  5
18
102
{ACAD_REACTORS
330
17
102
}
330
17
100
AcDbMlineStyle
  2
Standard
 70
     0
  3

 62
   256
 51
90.0
 52
90.0
 71
     2
 49
0.5
 62
   256
  6
BYLAYER
 49
-0.5
 62
   256
  6
BYLAYER
  0
ACDBPLACEHOLDER
  5
F
102
{ACAD_REACTORS
330
E
102
}
330
E
  0
SCALE
  5
48
102
{ACAD_REACTORS
330
47
102
}
330
47
100
AcDbScale
 70
     0
300
1:1
140
1.0
141
1.0
290
     1
  0
SCALE
  5
49
102
{ACAD_REACTORS
330
47
102
}
330
47
100
AcDbScale
 70
     0
300
1:2
140
1.0
141
2.0
290
     0
  0
SCALE
  5
4A
102
{ACAD_REACTORS
330
47
102
}
330
47
100
AcDbScale
 70
     0
300
1:4
140
1.0
141
4.0
290
     0
  0
SCALE
  5
4B
102
{ACAD_REACTORS
330
47
102
}
330
47
100
AcDbScale
 70
     0
300
1:5
140
1.0
141
5.0
290
     0
  0
SCALE
  5
4C
102
{ACAD_REACTORS
330
47
102
}
330
47
100
AcDbScale
 70
     0
300
1:8
140
1.0
141
8.0
290
     0
  0
SCALE
  5
4D
102
{ACAD_REACTORS
330
47
102
}
330
47
100
AcDbScale
 70
     0
300
1:10
140
1.0
141
10.0
290
     0
  0
SCALE
  5
4E
102
{ACAD_REACTORS
330
47
102
}
330
47
100
AcDbScale
 70
     0
300
1:16
140
1.0
141
16.0
290
     0
  0
SCALE
  5
4F
102
{ACAD_REACTORS
330
47
102
}
330
47
100
AcDbScale
 70
     0
300
1:20
140
1.0
141
20.0
290
     0
  0
SCALE
  5
50
102
{ACAD_REACTORS
330
47
102
}
330
47
100
AcDbScale
 70
     0
300
1:30
140
1.0
141
30.0
290
     0
  0
SCALE
  5
51
102
{ACAD_REACTORS
330
47
102
}
330
47
100
AcDbScale
 70
     0
300
1:40
140
1.0
141
40.0
290
     0
  0
SCALE
  5
52
102
{ACAD_REACTORS
330
47
102
}
330
47
100
AcDbScale
 70
     0
300
1:50
140
1.0
141
50.0
290
     0
  0
SCALE
  5
53
102
{ACAD_REACTORS
330
47
102
}
330
47
100
AcDbScale
 70
     0
300
1:100
140
1.0
141
100.0
290
     0
  0
SCALE
  5
54
102
{ACAD_REACTORS
330
47
102
}
330
47
100
AcDbScale
 70
     0
300
2:1
140
2.0
141
1.0
290
     0
  0
SCALE
  5
55
102
{ACAD_REACTORS
330
47
102
}
330
47
100
AcDbScale
 70
     0
300
4:1
140
4.0
141
1.0
290
     0
  0
SCALE
  5
56
102
{ACAD_REACTORS
330
47
102
}
330
47
100
AcDbScale
 70
     0
300
8:1
140
8.0
141
1.0
290
     0
  0
SCALE
  5
57
102
{ACAD_REACTORS
330
47
102
}
330
47
100
AcDbScale
 70
     0
300
10:1
140
10.0
141
1.0
290
     0
  0
SCALE
  5
58
102
{ACAD_REACTORS
330
47
102
}
330
47
100
AcDbScale
 70
     0
300
100:1
140
100.0
141
1.0
290
     0
  0
SCALE
  5
59
102
{ACAD_REACTORS
330
47
102
}
330
47
100
AcDbScale
 70
     0
300
1/128" = 1'-0"
140
0.0078125
141
12.0
290
     0
  0
SCALE
  5
5A
102
{ACAD_REACTORS
330
47
102
}
330
47
100
AcDbScale
 70
     0
300
1/64" = 1'-0"
140
0.015625
141
12.0
290
     0
  0
SCALE
  5
5B
102
{ACAD_REACTORS
330
47
102
}
330
47
100
AcDbScale
 70
     0
300
1/32" = 1'-0"
140
0.03125
141
12.0
290
     0
  0
SCALE
  5
5C
102
{ACAD_REACTORS
330
47
102
}
330
47
100
AcDbScale
 70
     0
300
1/16" = 1'-0"
140
0.0625
141
12.0
290
     0
  0
SCALE
  5
5D
102
{ACAD_REACTORS
330
47
102
}
330
47
100
AcDbScale
 70
     0
300
3/32" = 1'-0"
140
0.09375
141
12.0
290
     0
  0
SCALE
  5
5E
102
{ACAD_REACTORS
330
47
102
}
330
47
100
AcDbScale
 70
     0
300
1/8" = 1'-0"
140
0.125
141
12.0
290
     0
  0
SCALE
  5
5F
102
{ACAD_REACTORS
330
47
102
}
330
47
100
AcDbScale
 70
     0
300
3/16" = 1'-0"
140
0.1875
141
12.0
290
     0
  0
SCALE
  5
60
102
{ACAD_REACTORS
330
47
102
}
330
47
100
AcDbScale
 70
     0
300
1/4" = 1'-0"
140
0.25
141
12.0
290
     0
  0
SCALE
  5
61
102
{ACAD_REACTORS
330
47
102
}
330
47
100
AcDbScale
 70
     0
300
3/8" = 1'-0"
140
0.375
141
12.0
290
     0
  0
SCALE
  5
62
102
{ACAD_REACTORS
330
47
102
}
330
47
100
AcDbScale
 70
     0
300
1/2" = 1'-0"
140
0.5
141
12.0
290
     0
  0
SCALE
  5
63
102
{ACAD_REACTORS
330
47
102
}
330
47
100
AcDbScale
 70
     0
300
3/4" = 1'-0"
140
0.75
141
12.0
290
     0
  0
SCALE
  5
64
102
{ACAD_REACTORS
330
47
102
}
330
47
100
AcDbScale
 70
     0
300
1" = 1'-0"
140
1.0
141
12.0
290
     0
  0
SCALE
  5
65
102
{ACAD_REACTORS
330
47
102
}
330
47
100
AcDbScale
 70
     0
300
1-1/2" = 1'-0"
140
1.5
141
12.0
290
     0
  0
SCALE
  5
66
102
{ACAD_REACTORS
330
47
102
}
330
47
100
AcDbScale
 70
     0
300
3" = 1'-0"
140
3.0
141
12.0
290
     0
  0
SCALE
  5
67
102
{ACAD_REACTORS
330
47
102
}
330
47
100
AcDbScale
 70
     0
300
6" = 1'-0"
140
6.0
141
12.0
290
     0
  0
SCALE
  5
68
102
{ACAD_REACTORS
330
47
102
}
330
47
100
AcDbScale
 70
     0
300
1'-0" = 1'-0"
140
12.0
141
12.0
290
     0
  0
TABLESTYLE
  5
6A
102
{ACAD_REACTORS
330
69
102
}
102
{ACAD_XDICTIONARY
360
217
102
}
330
69
100
AcDbTableStyle
  3
Standard
 70
     0
 71
     0
 40
0.06
 41
0.06
280
     0
281
     0
  7
Standard
140
0.18
170
     2
 62
     0
 63
   257
283
     0
 90
        4
 91
        0
  1

274
    -2
284
     1
 64
     0
275
    -2
285
     1
 65
     0
276
    -2
286
     1
 66
     0
277
    -2
287
     1
 67
     0
278
    -2
288
     1
 68
     0
279
    -2
289
     1
 69
     0
  7
Standard
140
0.25
170
     5
 62
     0
 63
   257
283
     0
 90
        4
 91
        0
  1

274
    -2
284
     1
 64
     0
275
    -2
285
     1
 65
     0
276
    -2
286
     1
 66
     0
277
    -2
287
     1
 67
     0
278
    -2
288
     1
 68
     0
279
    -2
289
     1
 69
     0
  7
Standard
140
0.18
170
     5
 62
     0
 63
   257
283
     0
 90
        4
 91
        0
  1

274
    -2
284
     1
 64
     0
275
    -2
285
     1
 65
     0
276
    -2
286
     1
 66
     0
277
    -2
287
     1
 67
     0
278
    -2
288
     1
 68
     0
279
    -2
289
     1
 69
     0
  0
VISUALSTYLE
  5
2F
102
{ACAD_REACTORS
330
2A
102
}
330
2A
100
AcDbVisualStyle
  2
2dWireframe
 70
     4
177
     3
291
     0
 70
    58
 90
        0
176
     1
 90
        2
176
     1
 90
        0
176
     1
 90
        0
176
     1
 40
0.6
176
     1
 40
30.0
176
     1
 62
     7
420
 16777215
176
     1
 90
        1
176
     1
 90
        4
176
     1
 62
     7
176
     1
 62
   257
176
     1
 90
        1
176
     1
 90
        1
176
     1
 40
1.0
176
     1
 90
        0
176
     1
 62
   257
176
     1
 40
1.0
176
     1
 90
        1
176
     1
 90
        6
176
     1
 90
        2
176
     1
 62
     7
176
     1
 90
        5
176
     1
 90
        0
176
     1
 90
        0
176
     1
290
     0
176
     1
 90
        1
176
     1
 40
0.0
176
     1
 90
        0
176
     1
290
     1
176
     1
290
     1
176
     1
290
     0
176
     1
290
     0
176
     1
290
     0
176
     1
290
     0
176
     1
290
     0
176
     1
290
     0
176
     1
290
     0
176
     1
 90
       50
176
     1
 40
0.0
176
     1
 40
1.0
176
     1
 90
        0
176
     1
 62
    18
420
        0
176
     1
 90
       50
176
     1
 90
        3
176
     1
 62
     5
420
      255
176
     1
290
     0
176
     1
 90
       50
176
     1
 90
       50
176
     1
 90
       50
176
     1
290
     0
176
     1
 90
       50
176
     1
 62
   256
176
     0
 40
1.0
176
     0
 90
        2
176
     1
  1
strokes_ogs.tif
176
     1
290
     0
176
     1
 40
1.0
176
     1
 40
1.0
176
     1
  0
VISUALSTYLE
  5
32
102
{ACAD_REACTORS
330
2A
102
}
330
2A
100
AcDbVisualStyle
  2
Basic
 70
     7
177
     3
291
     1
 70
    58
 90
        1
176
     1
 90
        0
176
     1
 90
        1
176
     1
 90
        0
176
     1
 40
0.6
176
     1
 40
30.0
176
     1
 62
     7
420
 16777215
176
     1
 90
        0
176
     1
 90
        4
176
     1
 62
     7
176
     1
 62
   257
176
     1
 90
        1
176
     1
 90
        1
176
     1
 40
1.0
176
     1
 90
        8
176
     1
 62
     7
176
     1
 40
1.0
176
     1
 90
        1
176
     1
 90
        6
176
     1
 90
        2
176
     1
 62
     7
176
     1
 90
        5
176
     1
 90
        0
176
     1
 90
        0
176
     1
290
     0
176
     1
 90
        1
176
     1
 40
0.0
176
     1
 90
        0
176
     1
290
     0
176
     1
290
     1
176
     1
290
     1
176
     1
290
     0
176
     1
290
     0
176
     1
290
     0
176
     1
290
     0
176
     1
290
     0
176
     1
290
     0
176
     1
 90
       50
176
     1
 40
0.0
176
     1
 40
1.0
176
     1
 90
        0
176
     1
 62
    18
420
        0
176
     1
 90
       50
176
     1
 90
        3
176
     1
 62
     5
420
      255
176
     1
290
     0
176
     1
 90
       50
176
     1
 90
       50
176
     1
 90
       50
176
     1
290
     0
176
     1
 90
       50
176
     1
 62
   256
176
     0
 40
1.0
176
     0
 90
        2
176
     1
  1
strokes_ogs.tif
176
     1
290
     0
176
     1
 40
1.0
176
     1
 40
1.0
176
     1
  0
VISUALSTYLE
  5
36
102
{ACAD_REACTORS
330
2A
102
}
330
2A
100
AcDbVisualStyle
  2
Brighten
 70
    12
177
     3
291
     1
 70
    58
 90
        2
176
     1
 90
        2
176
     1
 90
        0
176
     1
 90
        0
176
     1
 40
0.6
176
     1
 40
30.0
176
     1
 62
     7
420
 16777215
176
     1
 90
        1
176
     1
 90
        4
176
     1
 62
     7
176
     1
 62
   257
176
     1
 90
        1
176
     1
 90
        1
176
     1
 40
1.0
176
     1
 90
        8
176
     1
 62
     7
176
     1
 40
1.0
176
     1
 90
        1
176
     1
 90
        6
176
     1
 90
        2
176
     1
 62
     7
176
     1
 90
        5
176
     1
 90
        0
176
     1
 90
        0
176
     1
290
     0
176
     1
 90
        1
176
     1
 40
50.0
176
     1
 90
        0
176
     1
290
     0
176
     1
290
     1
176
     1
290
     1
176
     1
290
     0
176
     1
290
     0
176
     1
290
     0
176
     1
290
     0
176
     1
290
     0
176
     1
290
     0
176
     1
 90
       50
176
     1
 40
0.0
176
     1
 40
1.0
176
     1
 90
        0
176
     1
 62
    18
420
        0
176
     1
 90
       50
176
     1
 90
        3
176
     1
 62
     5
420
      255
176
     1
290
     0
176
     1
 90
       50
176
     1
 90
       50
176
     1
 90
       50
176
     1
290
     0
176
     1
 90
       50
176
     1
 62
   256
176
     0
 40
1.0
176
     0
 90
        2
176
     1
  1
strokes_ogs.tif
176
     1
290
     0
176
     1
 40
1.0
176
     1
 40
1.0
176
     1
  0
VISUALSTYLE
  5
3A
102
{ACAD_REACTORS
330
2A
102
}
330
2A
100
AcDbVisualStyle
  2
ColorChange
 70
    16
177
     3
291
     1
 70
    58
 90
        2
176
     1
 90
        2
176
     1
 90
        3
176
     1
 90
        0
176
     1
 40
0.6
176
     1
 40
30.0
176
     1
 62
     8
420
  8421504
176
     1
 90
        1
176
     1
 90
        4
176
     1
 62
     7
176
     1
 62
   257
176
     1
 90
        1
176
     1
 90
        1
176
     1
 40
1.0
176
     1
 90
        8
176
     1
 62
     8
420
  8421504
176
     1
 40
1.0
176
     1
 90
        1
176
     1
 90
        6
176
     1
 90
        2
176
     1
 62
     7
176
     1
 90
        5
176
     1
 90
        0
176
     1
 90
        0
176
     1
290
     0
176
     1
 90
        1
176
     1
 40
0.0
176
     1
 90
        0
176
     1
290
     0
176
     1
290
     1
176
     1
290
     1
176
     1
290
     0
176
     1
290
     0
176
     1
290
     0
176
     1
290
     0
176
     1
290
     0
176
     1
290
     0
176
     1
 90
       50
176
     1
 40
0.0
176
     1
 40
1.0
176
     1
 90
        0
176
     1
 62
    18
420
        0
176
     1
 90
       50
176
     1
 90
        3
176
     1
 62
     5
420
      255
176
     1
290
     0
176
     1
 90
       50
176
     1
 90
       50
176
     1
 90
       50
176
     1
290
     0
176
     1
 90
       50
176
     1
 62
   256
176
     0
 40
1.0
176
     0
 90
        2
176
     1
  1
strokes_ogs.tif
176
     1
290
     0
176
     1
 40
1.0
176
     1
 40
1.0
176
     1
  0
VISUALSTYLE
  5
34
102
{ACAD_REACTORS
330
2A
102
}
330
2A
100
AcDbVisualStyle
  2
Conceptual
 70
     9
177
     3
291
     0
 70
    58
 90
        3
176
     1
 90
        2
176
     1
 90
        0
176
     1
 90
        0
176
     1
 40
0.6
176
     1
 40
30.0
176
     1
 62
     7
420
 16777215
176
     1
 90
        2
176
     1
 90
        2
176
     1
 62
     7
176
     1
 62
   257
176
     1
 90
        1
176
     1
 90
        1
176
     1
 40
179.0
176
     1
 90
        8
176
     1
 62
     7
176
     1
 40
1.0
176
     1
 90
        1
176
     1
 90
        6
176
     1
 90
        2
176
     1
 62
     7
176
     1
 90
        3
176
     1
 90
        0
176
     1
 90
        0
176
     1
290
     0
176
     1
 90
        1
176
     1
 40
0.0
176
     1
 90
        0
176
     1
290
     0
176
     1
290
     1
176
     1
290
     1
176
     1
290
     0
176
     1
290
     0
176
     1
290
     0
176
     1
290
     0
176
     1
290
     0
176
     1
290
     0
176
     1
 90
       50
176
     1
 40
0.0
176
     1
 40
1.0
176
     1
 90
        0
176
     1
 62
    18
420
        0
176
     1
 90
       50
176
     1
 90
        3
176
     1
 62
     5
420
      255
176
     1
290
     0
176
     1
 90
       50
176
     1
 90
       50
176
     1
 90
       50
176
     1
290
     0
176
     1
 90
       50
176
     1
 62
   256
176
     0
 40
1.0
176
     0
 90
        2
176
     1
  1
strokes_ogs.tif
176
     1
290
     0
176
     1
 40
1.0
176
     1
 40
1.0
176
     1
  0
VISUALSTYLE
  5
35
102
{ACAD_REACTORS
330
2A
102
}
330
2A
100
AcDbVisualStyle
  2
Dim
 70
    11
177
     3
291
     1
 70
    58
 90
        2
176
     1
 90
        2
176
     1
 90
        0
176
     1
 90
        0
176
     1
 40
0.6
176
     1
 40
30.0
176
     1
 62
     7
420
 16777215
176
     1
 90
        1
176
     1
 90
        4
176
     1
 62
     7
176
     1
 62
   257
176
     1
 90
        1
176
     1
 90
        1
176
     1
 40
1.0
176
     1
 90
        8
176
     1
 62
     7
176
     1
 40
1.0
176
     1
 90
        1
176
     1
 90
        6
176
     1
 90
        2
176
     1
 62
     7
176
     1
 90
        5
176
     1
 90
        0
176
     1
 90
        0
176
     1
290
     0
176
     1
 90
        1
176
     1
 40
-50.0
176
     1
 90
        0
176
     1
290
     0
176
     1
290
     1
176
     1
290
     1
176
     1
290
     0
176
     1
290
     0
176
     1
290
     0
176
     1
290
     0
176
     1
290
     0
176
     1
290
     0
176
     1
 90
       50
176
     1
 40
0.0
176
     1
 40
1.0
176
     1
 90
        0
176
     1
 62
    18
420
        0
176
     1
 90
       50
176
     1
 90
        3
176
     1
 62
     5
420
      255
176
     1
290
     0
176
     1
 90
       50
176
     1
 90
       50
176
     1
 90
       50
176
     1
290
     0
176
     1
 90
       50
176
     1
 62
   256
176
     0
 40
1.0
176
     0
 90
        2
176
     1
  1
strokes_ogs.tif
176
     1
290
     0
176
     1
 40
1.0
176
     1
 40
1.0
176
     1
  0
VISUALSTYLE
  5
3D
102
{ACAD_REACTORS
330
2A
102
}
330
2A
100
AcDbVisualStyle
  2
EdgeColorOff
 70
    22
177
     3
291
     1
 70
    58
 90
        2
176
     0
 90
        2
176
     0
 90
        0
176
     0
 90
        0
176
     0
 40
0.6
176
     0
 40
30.0
176
     0
 62
     7
420
 16777215
176
     0
 90
        1
176
     0
 90
        4
176
     0
 62
     7
176
     0
 62
   257
176
     0
 90
        1
176
     0
 90
        1
176
     0
 40
1.0
176
     0
 90
        8
176
     2
 62
     7
176
     0
 40
1.0
176
     0
 90
        1
176
     0
 90
        6
176
     0
 90
        2
176
     0
 62
     7
176
     0
 90
        5
176
     0
 90
        0
176
     0
 90
        0
176
     0
290
     0
176
     0
 90
        1
176
     0
 40
0.0
176
     0
 90
        0
176
     0
290
     0
176
     0
290
     1
176
     0
290
     1
176
     0
290
     0
176
     0
290
     0
176
     0
290
     0
176
     0
290
     0
176
     0
290
     0
176
     0
290
     0
176
     0
 90
       50
176
     0
 40
0.0
176
     0
 40
1.0
176
     0
 90
        0
176
     0
 62
    18
420
        0
176
     0
 90
       50
176
     0
 90
        3
176
     0
 62
     5
420
      255
176
     0
290
     0
176
     0
 90
       50
176
     0
 90
       50
176
     0
 90
       50
176
     0
290
     0
176
     0
 90
       50
176
     0
 62
   256
176
     0
 40
1.0
176
     0
 90
        2
176
     0
  1
strokes_ogs.tif
176
     0
290
     0
176
     0
 40
1.0
176
     0
 40
1.0
176
     0
  0
VISUALSTYLE
  5
39
102
{ACAD_REACTORS
330
2A
102
}
330
2A
100
AcDbVisualStyle
  2
Facepattern
 70
    15
177
     3
291
     1
 70
    58
 90
        2
176
     1
 90
        2
176
     1
 90
        0
176
     1
 90
        0
176
     1
 40
0.6
176
     1
 40
30.0
176
     1
 62
     7
420
 16777215
176
     1
 90
        1
176
     1
 90
        4
176
     1
 62
     7
176
     1
 62
   257
176
     1
 90
        1
176
     1
 90
        1
176
     1
 40
1.0
176
     1
 90
        8
176
     1
 62
     7
176
     1
 40
1.0
176
     1
 90
        1
176
     1
 90
        6
176
     1
 90
        2
176
     1
 62
     7
176
     1
 90
        5
176
     1
 90
        0
176
     1
 90
        0
176
     1
290
     0
176
     1
 90
        1
176
     1
 40
0.0
176
     1
 90
        0
176
     1
290
     0
176
     1
290
     1
176
     1
290
     1
176
     1
290
     0
176
     1
290
     0
176
     1
290
     0
176
     1
290
     0
176
     1
290
     0
176
     1
290
     0
176
     1
 90
       50
176
     1
 40
0.0
176
     1
 40
1.0
176
     1
 90
        0
176
     1
 62
    18
420
        0
176
     1
 90
       50
176
     1
 90
        3
176
     1
 62
     5
420
      255
176
     1
290
     0
176
     1
 90
       50
176
     1
 90
       50
176
     1
 90
       50
176
     1
290
     0
176
     1
 90
       50
176
     1
 62
   256
176
     0
 40
1.0
176
     0
 90
        2
176
     1
  1
strokes_ogs.tif
176
     1
290
     0
176
     1
 40
1.0
176
     1
 40
1.0
176
     1
  0
VISUALSTYLE
  5
2B
102
{ACAD_REACTORS
330
2A
102
}
330
2A
100
AcDbVisualStyle
  2
Flat
 70
     0
177
     3
291
     1
 70
    58
 90
        2
176
     1
 90
        1
176
     1
 90
        1
176
     1
 90
        2
176
     1
 40
0.6
176
     1
 40
30.0
176
     1
 62
     7
420
 16777215
176
     1
 90
        0
176
     1
 90
        0
176
     1
 62
     7
176
     1
 62
   257
176
     1
 90
        1
176
     1
 90
        1
176
     1
 40
1.0
176
     1
 90
        8
176
     1
 62
     7
176
     1
 40
1.0
176
     1
 90
        1
176
     1
 90
        6
176
     1
 90
        2
176
     1
 62
     7
176
     1
 90
        5
176
     1
 90
        0
176
     1
 90
        0
176
     1
290
     0
176
     1
 90
       13
176
     1
 40
0.0
176
     1
 90
        0
176
     1
290
     0
176
     1
290
     1
176
     1
290
     1
176
     1
290
     0
176
     1
290
     0
176
     1
290
     0
176
     1
290
     0
176
     1
290
     0
176
     1
290
     0
176
     1
 90
       50
176
     1
 40
0.0
176
     1
 40
1.0
176
     1
 90
        0
176
     1
 62
    18
420
        0
176
     1
 90
       50
176
     1
 90
        3
176
     1
 62
     5
420
      255
176
     1
290
     0
176
     1
 90
       50
176
     1
 90
       50
176
     1
 90
       50
176
     1
290
     0
176
     1
 90
       50
176
     1
 62
   256
176
     0
 40
1.0
176
     0
 90
        2
176
     1
  1
strokes_ogs.tif
176
     1
290
     0
176
     1
 40
1.0
176
     1
 40
1.0
176
     1
  0
VISUALSTYLE
  5
2C
102
{ACAD_REACTORS
330
2A
102
}
330
2A
100
AcDbVisualStyle
  2
FlatWithEdges
 70
     1
177
     3
291
     1
 70
    58
 90
        2
176
     1
 90
        1
176
     1
 90
        1
176
     1
 90
        2
176
     1
 40
0.6
176
     1
 40
30.0
176
     1
 62
     7
420
 16777215
176
     1
 90
        1
176
     1
 90
        0
176
     1
 62
     7
176
     1
 62
   257
176
     1
 90
        1
176
     1
 90
        1
176
     1
 40
1.0
176
     1
 90
        0
176
     1
 62
   257
176
     1
 40
1.0
176
     1
 90
        1
176
     1
 90
        6
176
     1
 90
        2
176
     1
 62
     7
176
     1
 90
        5
176
     1
 90
        0
176
     1
 90
        0
176
     1
290
     0
176
     1
 90
       13
176
     1
 40
0.0
176
     1
 90
        0
176
     1
290
     0
176
     1
290
     1
176
     1
290
     1
176
     1
290
     0
176
     1
290
     0
176
     1
290
     0
176
     1
290
     0
176
     1
290
     0
176
     1
290
     0
176
     1
 90
       50
176
     1
 40
0.0
176
     1
 40
1.0
176
     1
 90
        0
176
     1
 62
    18
420
        0
176
     1
 90
       50
176
     1
 90
        3
176
     1
 62
     5
420
      255
176
     1
290
     0
176
     1
 90
       50
176
     1
 90
       50
176
     1
 90
       50
176
     1
290
     0
176
     1
 90
       50
176
     1
 62
   256
176
     0
 40
1.0
176
     0
 90
        2
176
     1
  1
strokes_ogs.tif
176
     1
290
     0
176
     1
 40
1.0
176
     1
 40
1.0
176
     1
  0
VISUALSTYLE
  5
2D
102
{ACAD_REACTORS
330
2A
102
}
330
2A
100
AcDbVisualStyle
  2
Gouraud
 70
     2
177
     3
291
     1
 70
    58
 90
        2
176
     1
 90
        2
176
     1
 90
        1
176
     1
 90
        2
176
     1
 40
0.6
176
     1
 40
30.0
176
     1
 62
     7
420
 16777215
176
     1
 90
        0
176
     1
 90
        0
176
     1
 62
     7
176
     1
 62
   257
176
     1
 90
        1
176
     1
 90
        1
176
     1
 40
1.0
176
     1
 90
        0
176
     1
 62
     7
176
     1
 40
1.0
176
     1
 90
        1
176
     1
 90
        6
176
     1
 90
        2
176
     1
 62
     7
176
     1
 90
        5
176
     1
 90
        0
176
     1
 90
        0
176
     1
290
     0
176
     1
 90
       13
176
     1
 40
0.0
176
     1
 90
        0
176
     1
290
     0
176
     1
290
     1
176
     1
290
     1
176
     1
290
     0
176
     1
290
     0
176
     1
290
     0
176
     1
290
     0
176
     1
290
     0
176
     1
290
     0
176
     1
 90
       50
176
     1
 40
0.0
176
     1
 40
1.0
176
     1
 90
        0
176
     1
 62
    18
420
        0
176
     1
 90
       50
176
     1
 90
        3
176
     1
 62
     5
420
      255
176
     1
290
     0
176
     1
 90
       50
176
     1
 90
       50
176
     1
 90
       50
176
     1
290
     0
176
     1
 90
       50
176
     1
 62
   256
176
     0
 40
1.0
176
     0
 90
        2
176
     1
  1
strokes_ogs.tif
176
     1
290
     0
176
     1
 40
1.0
176
     1
 40
1.0
176
     1
  0
VISUALSTYLE
  5
2E
102
{ACAD_REACTORS
330
2A
102
}
330
2A
100
AcDbVisualStyle
  2
GouraudWithEdges
 70
     3
177
     3
291
     1
 70
    58
 90
        2
176
     1
 90
        2
176
     1
 90
        1
176
     1
 90
        2
176
     1
 40
0.6
176
     1
 40
30.0
176
     1
 62
     7
420
 16777215
176
     1
 90
        1
176
     1
 90
        0
176
     1
 62
     7
176
     1
 62
   257
176
     1
 90
        1
176
     1
 90
        1
176
     1
 40
1.0
176
     1
 90
        0
176
     1
 62
   257
176
     1
 40
1.0
176
     1
 90
        1
176
     1
 90
        6
176
     1
 90
        2
176
     1
 62
     7
176
     1
 90
        5
176
     1
 90
        0
176
     1
 90
        0
176
     1
290
     0
176
     1
 90
       13
176
     1
 40
0.0
176
     1
 90
        0
176
     1
290
     0
176
     1
290
     1
176
     1
290
     1
176
     1
290
     0
176
     1
290
     0
176
     1
290
     0
176
     1
290
     0
176
     1
290
     0
176
     1
290
     0
176
     1
 90
       50
176
     1
 40
0.0
176
     1
 40
1.0
176
     1
 90
        0
176
     1
 62
    18
420
        0
176
     1
 90
       50
176
     1
 90
        3
176
     1
 62
     5
420
      255
176
     1
290
     0
176
     1
 90
       50
176
     1
 90
       50
176
     1
 90
       50
176
     1
290
     0
176
     1
 90
       50
176
     1
 62
   256
176
     0
 40
1.0
176
     0
 90
        2
176
     1
  1
strokes_ogs.tif
176
     1
290
     0
176
     1
 40
1.0
176
     1
 40
1.0
176
     1
  0
VISUALSTYLE
  5
31
102
{ACAD_REACTORS
330
2A
102
}
330
2A
100
AcDbVisualStyle
  2
Hidden
 70
     6
177
     3
291
     0
 70
    58
 90
        1
176
     1
 90
        2
176
     1
 90
        2
176
     1
 90
        0
176
     1
 40
0.6
176
     1
 40
30.0
176
     1
 62
     7
420
 16777215
176
     1
 90
        2
176
     1
 90
        2
176
     1
 62
     7
176
     1
 62
   257
176
     1
 90
        2
176
     1
 90
        1
176
     1
 40
40.0
176
     1
 90
        0
176
     1
 62
   257
176
     1
 40
1.0
176
     1
 90
        1
176
     1
 90
        6
176
     1
 90
        2
176
     1
 62
     7
176
     1
 90
        3
176
     1
 90
        0
176
     1
 90
        0
176
     1
290
     0
176
     1
 90
        1
176
     1
 40
0.0
176
     1
 90
        0
176
     1
290
     0
176
     1
290
     1
176
     1
290
     1
176
     1
290
     0
176
     1
290
     0
176
     1
290
     0
176
     1
290
     0
176
     1
290
     0
176
     1
290
     0
176
     1
 90
       50
176
     1
 40
0.0
176
     1
 40
1.0
176
     1
 90
        0
176
     1
 62
    18
420
        0
176
     1
 90
       50
176
     1
 90
        3
176
     1
 62
     5
420
      255
176
     1
290
     0
176
     1
 90
       50
176
     1
 90
       50
176
     1
 90
       50
176
     1
290
     0
176
     1
 90
       50
176
     1
 62
   256
176
     0
 40
1.0
176
     0
 90
        2
176
     1
  1
strokes_ogs.tif
176
     1
290
     0
176
     1
 40
1.0
176
     1
 40
1.0
176
     1
  0
VISUALSTYLE
  5
3B
102
{ACAD_REACTORS
330
2A
102
}
330
2A
100
AcDbVisualStyle
  2
JitterOff
 70
    20
177
     3
291
     1
 70
    58
 90
        2
176
     0
 90
        2
176
     0
 90
        0
176
     0
 90
        0
176
     0
 40
0.6
176
     0
 40
30.0
176
     0
 62
     7
420
 16777215
176
     0
 90
        1
176
     0
 90
        4
176
     0
 62
     7
176
     0
 62
   257
176
     0
 90
        1
176
     0
 90
        1
176
     0
 40
1.0
176
     0
 90
       10
176
     2
 62
     7
176
     0
 40
1.0
176
     0
 90
        1
176
     0
 90
        6
176
     0
 90
        2
176
     0
 62
     7
176
     0
 90
        5
176
     0
 90
        0
176
     0
 90
        0
176
     0
290
     0
176
     0
 90
        1
176
     0
 40
0.0
176
     0
 90
        0
176
     0
290
     0
176
     0
290
     1
176
     0
290
     1
176
     0
290
     0
176
     0
290
     0
176
     0
290
     0
176
     0
290
     0
176
     0
290
     0
176
     0
290
     0
176
     0
 90
       50
176
     0
 40
0.0
176
     0
 40
1.0
176
     0
 90
        0
176
     0
 62
    18
420
        0
176
     0
 90
       50
176
     0
 90
        3
176
     0
 62
     5
420
      255
176
     0
290
     0
176
     0
 90
       50
176
     0
 90
       50
176
     0
 90
       50
176
     0
290
     0
176
     0
 90
       50
176
     0
 62
   256
176
     0
 40
1.0
176
     0
 90
        2
176
     0
  1
strokes_ogs.tif
176
     0
290
     0
176
     0
 40
1.0
176
     0
 40
1.0
176
     0
  0
VISUALSTYLE
  5
38
102
{ACAD_REACTORS
330
2A
102
}
330
2A
100
AcDbVisualStyle
  2
Linepattern
 70
    14
177
     3
291
     1
 70
    58
 90
        2
176
     1
 90
        2
176
     1
 90
        0
176
     1
 90
        0
176
     1
 40
0.6
176
     1
 40
30.0
176
     1
 62
     7
420
 16777215
176
     1
 90
        1
176
     1
 90
        4
176
     1
 62
     7
176
     1
 62
   257
176
     1
 90
        7
176
     1
 90
        7
176
     1
 40
1.0
176
     1
 90
        8
176
     1
 62
     7
176
     1
 40
1.0
176
     1
 90
        1
176
     1
 90
        6
176
     1
 90
        2
176
     1
 62
     7
176
     1
 90
        5
176
     1
 90
        0
176
     1
 90
        0
176
     1
290
     0
176
     1
 90
        1
176
     1
 40
0.0
176
     1
 90
        0
176
     1
290
     0
176
     1
290
     1
176
     1
290
     1
176
     1
290
     0
176
     1
290
     0
176
     1
290
     0
176
     1
290
     0
176
     1
290
     0
176
     1
290
     0
176
     1
 90
       50
176
     1
 40
0.0
176
     1
 40
1.0
176
     1
 90
        0
176
     1
 62
    18
420
        0
176
     1
 90
       50
176
     1
 90
        3
176
     1
 62
     5
420
      255
176
     1
290
     0
176
     1
 90
       50
176
     1
 90
       50
176
     1
 90
       50
176
     1
290
     0
176
     1
 90
       50
176
     1
 62
   256
176
     0
 40
1.0
176
     0
 90
        2
176
     1
  1
strokes_ogs.tif
176
     1
290
     0
176
     1
 40
1.0
176
     1
 40
1.0
176
     1
  0
VISUALSTYLE
  5
3C
102
{ACAD_REACTORS
330
2A
102
}
330
2A
100
AcDbVisualStyle
  2
OverhangOff
 70
    21
177
     3
291
     1
 70
    58
 90
        2
176
     0
 90
        2
176
     0
 90
        0
176
     0
 90
        0
176
     0
 40
0.6
176
     0
 40
30.0
176
     0
 62
     7
420
 16777215
176
     0
 90
        1
176
     0
 90
        4
176
     0
 62
     7
176
     0
 62
   257
176
     0
 90
        1
176
     0
 90
        1
176
     0
 40
1.0
176
     0
 90
        9
176
     2
 62
     7
176
     0
 40
1.0
176
     0
 90
        1
176
     0
 90
        6
176
     0
 90
        2
176
     0
 62
     7
176
     0
 90
        5
176
     0
 90
        0
176
     0
 90
        0
176
     0
290
     0
176
     0
 90
        1
176
     0
 40
0.0
176
     0
 90
        0
176
     0
290
     0
176
     0
290
     1
176
     0
290
     1
176
     0
290
     0
176
     0
290
     0
176
     0
290
     0
176
     0
290
     0
176
     0
290
     0
176
     0
290
     0
176
     0
 90
       50
176
     0
 40
0.0
176
     0
 40
1.0
176
     0
 90
        0
176
     0
 62
    18
420
        0
176
     0
 90
       50
176
     0
 90
        3
176
     0
 62
     5
420
      255
176
     0
290
     0
176
     0
 90
       50
176
     0
 90
       50
176
     0
 90
       50
176
     0
290
     0
176
     0
 90
       50
176
     0
 62
   256
176
     0
 40
1.0
176
     0
 90
        2
176
     0
  1
strokes_ogs.tif
176
     0
290
     0
176
     0
 40
1.0
176
     0
 40
1.0
176
     0
  0
VISUALSTYLE
  5
33
102
{ACAD_REACTORS
330
2A
102
}
330
2A
100
AcDbVisualStyle
  2
Realistic
 70
     8
177
     3
291
     0
 70
    58
 90
        2
176
     1
 90
        3
176
     1
 90
        0
176
     1
 90
        2
176
     1
 40
0.6
176
     1
 40
30.0
176
     1
 62
     7
420
 16777215
176
     1
 90
        0
176
     1
 90
        0
176
     1
 62
     7
176
     1
 62
   257
176
     1
 90
        1
176
     1
 90
        1
176
     1
 40
1.0
176
     1
 90
        8
176
     1
 62
   257
176
     1
 40
1.0
176
     1
 90
        1
176
     1
 90
        6
176
     1
 90
        2
176
     1
 62
     7
176
     1
 90
        3
176
     1
 90
        0
176
     1
 90
        0
176
     1
290
     0
176
     1
 90
       13
176
     1
 40
0.0
176
     1
 90
        0
176
     1
290
     0
176
     1
290
     1
176
     1
290
     1
176
     1
290
     0
176
     1
290
     0
176
     1
290
     0
176
     1
290
     0
176
     1
290
     0
176
     1
290
     0
176
     1
 90
       50
176
     1
 40
0.0
176
     1
 40
1.0
176
     1
 90
        0
176
     1
 62
    18
420
        0
176
     1
 90
       50
176
     1
 90
        3
176
     1
 62
     5
420
      255
176
     1
290
     0
176
     1
 90
       50
176
     1
 90
       50
176
     1
 90
       50
176
     1
290
     0
176
     1
 90
       50
176
     1
 62
   256
176
     0
 40
1.0
176
     0
 90
        2
176
     1
  1
strokes_ogs.tif
176
     1
290
     0
176
     1
 40
1.0
176
     1
 40
1.0
176
     1
  0
VISUALSTYLE
  5
42
102
{ACAD_REACTORS
330
2A
102
}
330
2A
100
AcDbVisualStyle
  2
Shaded
 70
    27
177
     3
291
     0
 70
    58
 90
        2
176
     1
 90
        2
176
     1
 90
        1
176
     1
 90
        2
176
     1
 40
0.6
176
     1
 40
30.0
176
     1
 62
     7
420
 16777215
176
     1
 90
        0
176
     1
 90
        4
176
     1
 62
     7
176
     1
 62
   257
176
     1
 90
        1
176
     1
 90
        1
176
     1
 40
1.0
176
     1
 90
        8
176
     1
 62
   257
176
     1
 40
1.0
176
     1
 90
        1
176
     1
 90
        6
176
     1
 90
        2
176
     1
 62
     8
420
  7895160
176
     1
 90
        3
176
     1
 90
        0
176
     1
 90
        0
176
     1
290
     0
176
     1
 90
        5
176
     1
 40
0.0
176
     1
 90
        0
176
     1
290
     0
176
     1
290
     1
176
     1
290
     1
176
     1
290
     0
176
     1
290
     0
176
     1
290
     0
176
     1
290
     0
176
     1
290
     0
176
     1
290
     0
176
     1
 90
       50
176
     1
 40
0.0
176
     1
 40
1.0
176
     1
 90
        0
176
     1
 62
    18
420
        0
176
     1
 90
       50
176
     1
 90
        3
176
     1
 62
     5
420
      255
176
     1
290
     0
176
     1
 90
       50
176
     1
 90
       50
176
     1
 90
       50
176
     1
290
     0
176
     1
 90
       50
176
     1
 62
   256
176
     0
 40
1.0
176
     0
 90
        2
176
     1
  1
strokes_ogs.tif
176
     1
290
     0
176
     1
 40
1.0
176
     1
 40
1.0
176
     1
  0
VISUALSTYLE
  5
41
102
{ACAD_REACTORS
330
2A
102
}
330
2A
100
AcDbVisualStyle
  2
Shaded with edges
 70
    26
177
     3
291
     0
 70
    58
 90
        2
176
     1
 90
        2
176
     1
 90
        1
176
     1
 90
        2
176
     1
 40
0.6
176
     1
 40
30.0
176
     1
 62
     7
420
 16777215
176
     1
 90
        1
176
     1
 90
       10
176
     1
 62
     7
176
     1
 62
   257
176
     1
 90
        2
176
     1
 90
        1
176
     1
 40
1.0
176
     1
 90
        8
176
     1
 62
   257
176
     1
 40
1.0
176
     1
 90
        1
176
     1
 90
        6
176
     1
 90
        2
176
     1
 62
     7
176
     1
 90
        3
176
     1
 90
        0
176
     1
 90
        0
176
     1
290
     0
176
     1
 90
        5
176
     1
 40
0.0
176
     1
 90
        0
176
     1
290
     0
176
     1
290
     1
176
     1
290
     1
176
     1
290
     0
176
     1
290
     0
176
     1
290
     0
176
     1
290
     0
176
     1
290
     0
176
     1
290
     0
176
     1
 90
       50
176
     1
 40
0.0
176
     1
 40
1.0
176
     1
 90
        0
176
     1
 62
    18
420
        0
176
     1
 90
       50
176
     1
 90
        3
176
     1
 62
     5
420
      255
176
     1
290
     0
176
     1
 90
       50
176
     1
 90
       50
176
     1
 90
       50
176
     1
290
     0
176
     1
 90
       50
176
     1
 62
   256
176
     0
 40
1.0
176
     0
 90
        2
176
     1
  1
strokes_ogs.tif
176
     1
290
     0
176
     1
 40
1.0
176
     1
 40
1.0
176
     1
  0
VISUALSTYLE
  5
3E
102
{ACAD_REACTORS
330
2A
102
}
330
2A
100
AcDbVisualStyle
  2
Shades of Gray
 70
    23
177
     3
291
     0
 70
    58
 90
        2
176
     1
 90
        2
176
     1
 90
        3
176
     1
 90
        0
176
     1
 40
0.6
176
     1
 40
30.0
176
     1
 62
     7
420
 16777215
176
     1
 90
        2
176
     1
 90
        2
176
     1
 62
     7
176
     1
 62
     7
176
     1
 90
        1
176
     1
 90
        1
176
     1
 40
40.0
176
     1
 90
        8
176
     1
 62
     7
176
     1
 40
1.0
176
     1
 90
        1
176
     1
 90
        6
176
     1
 90
        2
176
     1
 62
     7
176
     1
 90
        3
176
     1
 90
        0
176
     1
 90
        0
176
     1
290
     0
176
     1
 90
        1
176
     1
 40
0.0
176
     1
 90
        0
176
     1
290
     0
176
     1
290
     1
176
     1
290
     1
176
     1
290
     0
176
     1
290
     0
176
     1
290
     0
176
     1
290
     0
176
     1
290
     0
176
     1
290
     0
176
     1
 90
       50
176
     1
 40
0.0
176
     1
 40
1.0
176
     1
 90
        0
176
     1
 62
    18
420
        0
176
     1
 90
       50
176
     1
 90
        3
176
     1
 62
     5
420
      255
176
     1
290
     0
176
     1
 90
       50
176
     1
 90
       50
176
     1
 90
       50
176
     1
290
     0
176
     1
 90
       50
176
     1
 62
   256
176
     0
 40
1.0
176
     0
 90
        2
176
     1
  1
strokes_ogs.tif
176
     1
290
     0
176
     1
 40
1.0
176
     1
 40
1.0
176
     1
  0
VISUALSTYLE
  5
3F
102
{ACAD_REACTORS
330
2A
102
}
330
2A
100
AcDbVisualStyle
  2
Sketchy
 70
    24
177
     3
291
     0
 70
    58
 90
        1
176
     1
 90
        2
176
     1
 90
        2
176
     1
 90
        0
176
     1
 40
0.6
176
     1
 40
30.0
176
     1
 62
     7
420
 16777215
176
     1
 90
        2
176
     1
 90
        2
176
     1
 62
     7
176
     1
 62
     7
176
     1
 90
        1
176
     1
 90
        1
176
     1
 40
40.0
176
     1
 90
       11
176
     1
 62
     7
176
     1
 40
1.0
176
     1
 90
        1
176
     1
 90
        6
176
     1
 90
        2
176
     1
 62
     7
176
     1
 90
        6
176
     1
 90
        0
176
     1
 90
        0
176
     1
290
     0
176
     1
 90
        1
176
     1
 40
0.0
176
     1
 90
        0
176
     1
290
     0
176
     1
290
     1
176
     1
290
     1
176
     1
290
     0
176
     1
290
     0
176
     1
290
     0
176
     1
290
     0
176
     1
290
     0
176
     1
290
     0
176
     1
 90
       50
176
     1
 40
0.0
176
     1
 40
1.0
176
     1
 90
        0
176
     1
 62
    18
420
        0
176
     1
 90
       50
176
     1
 90
        3
176
     1
 62
     5
420
      255
176
     1
290
     0
176
     1
 90
       50
176
     1
 90
       50
176
     1
 90
       50
176
     1
290
     0
176
     1
 90
       50
176
     1
 62
   256
176
     0
 40
1.0
176
     0
 90
        2
176
     1
  1
strokes_ogs.tif
176
     1
290
     0
176
     1
 40
1.0
176
     1
 40
1.0
176
     1
  0
VISUALSTYLE
  5
37
102
{ACAD_REACTORS
330
2A
102
}
330
2A
100
AcDbVisualStyle
  2
Thicken
 70
    13
177
     3
291
     1
 70
    58
 90
        2
176
     1
 90
        2
176
     1
 90
        0
176
     1
 90
        0
176
     1
 40
0.6
176
     1
 40
30.0
176
     1
 62
     7
420
 16777215
176
     1
 90
        1
176
     1
 90
        4
176
     1
 62
     7
176
     1
 62
   257
176
     1
 90
        1
176
     1
 90
        1
176
     1
 40
1.0
176
     1
 90
       12
176
     1
 62
     7
176
     1
 40
1.0
176
     1
 90
        1
176
     1
 90
        6
176
     1
 90
        2
176
     1
 62
     7
176
     1
 90
        5
176
     1
 90
        0
176
     1
 90
        0
176
     1
290
     0
176
     1
 90
        1
176
     1
 40
0.0
176
     1
 90
        0
176
     1
290
     0
176
     1
290
     1
176
     1
290
     1
176
     1
290
     0
176
     1
290
     0
176
     1
290
     0
176
     1
290
     0
176
     1
290
     0
176
     1
290
     0
176
     1
 90
       50
176
     1
 40
0.0
176
     1
 40
1.0
176
     1
 90
        0
176
     1
 62
    18
420
        0
176
     1
 90
       50
176
     1
 90
        3
176
     1
 62
     5
420
      255
176
     1
290
     0
176
     1
 90
       50
176
     1
 90
       50
176
     1
 90
       50
176
     1
290
     0
176
     1
 90
       50
176
     1
 62
   256
176
     0
 40
1.0
176
     0
 90
        2
176
     1
  1
strokes_ogs.tif
176
     1
290
     0
176
     1
 40
1.0
176
     1
 40
1.0
176
     1
  0
VISUALSTYLE
  5
30
102
{ACAD_REACTORS
330
2A
102
}
330
2A
100
AcDbVisualStyle
  2
Wireframe
 70
     5
177
     3
291
     0
 70
    58
 90
        0
176
     1
 90
        2
176
     1
 90
        0
176
     1
 90
        0
176
     1
 40
0.6
176
     1
 40
30.0
176
     1
 62
     7
420
 16777215
176
     1
 90
        1
176
     1
 90
        4
176
     1
 62
     7
176
     1
 62
   257
176
     1
 90
        1
176
     1
 90
        1
176
     1
 40
1.0
176
     1
 90
        0
176
     1
 62
   257
176
     1
 40
1.0
176
     1
 90
        1
176
     1
 90
        6
176
     1
 90
        2
176
     1
 62
     7
176
     1
 90
        3
176
     1
 90
        0
176
     1
 90
        0
176
     1
290
     0
176
     1
 90
        1
176
     1
 40
0.0
176
     1
 90
        0
176
     1
290
     0
176
     1
290
     1
176
     1
290
     1
176
     1
290
     0
176
     1
290
     0
176
     1
290
     0
176
     1
290
     0
176
     1
290
     0
176
     1
290
     0
176
     1
 90
       50
176
     1
 40
0.0
176
     1
 40
1.0
176
     1
 90
        0
176
     1
 62
    18
420
        0
176
     1
 90
       50
176
     1
 90
        3
176
     1
 62
     5
420
      255
176
     1
290
     0
176
     1
 90
       50
176
     1
 90
       50
176
     1
 90
       50
176
     1
290
     0
176
     1
 90
       50
176
     1
 62
   256
176
     0
 40
1.0
176
     0
 90
        2
176
     1
  1
strokes_ogs.tif
176
     1
290
     0
176
     1
 40
1.0
176
     1
 40
1.0
176
     1
  0
VISUALSTYLE
  5
40
102
{ACAD_REACTORS
330
2A
102
}
330
2A
100
AcDbVisualStyle
  2
X-Ray
 70
    25
177
     3
291
     0
 70
    58
 90
        2
176
     1
 90
        2
176
     1
 90
        1
176
     1
 90
        1
176
     1
 40
0.5
176
     1
 40
30.0
176
     1
 62
     7
420
 16777215
176
     1
 90
        1
176
     1
 90
        0
176
     1
 62
     7
176
     1
 62
   257
176
     1
 90
        1
176
     1
 90
        1
176
     1
 40
1.0
176
     1
 90
        8
176
     1
 62
     7
176
     1
 40
1.0
176
     1
 90
        1
176
     1
 90
        6
176
     1
 90
        2
176
     1
 62
     7
176
     1
 90
        3
176
     1
 90
        0
176
     1
 90
        0
176
     1
290
     0
176
     1
 90
       13
176
     1
 40
0.0
176
     1
 90
        0
176
     1
290
     0
176
     1
290
     1
176
     1
290
     1
176
     1
290
     0
176
     1
290
     0
176
     1
290
     0
176
     1
290
     0
176
     1
290
     0
176
     1
290
     0
176
     1
 90
       50
176
     1
 40
0.0
176
     1
 40
1.0
176
     1
 90
        0
176
     1
 62
    18
420
        0
176
     1
 90
       50
176
     1
 90
        3
176
     1
 62
     5
420
      255
176
     1
290
     0
176
     1
 90
       50
176
     1
 90
       50
176
     1
 90
       50
176
     1
290
     0
176
     1
 90
       50
176
     1
 62
   256
176
     0
 40
1.0
176
     0
 90
        2
176
     1
  1
strokes_ogs.tif
176
     1
290
     0
176
     1
 40
1.0
176
     1
 40
1.0
176
     1
  0
DICTIONARYVAR
  5
216
102
{ACAD_REACTORS
330
215
102
}
330
215
100
DictionaryVariables
280
     0
  1
1:1
  0
DICTIONARYVAR
  5
21B
102
{ACAD_REACTORS
330
215
102
}
330
215
100
DictionaryVariables
280
     0
  1
Standard
  0
DICTIONARYVAR
  5
21A
102
{ACAD_REACTORS
330
215
102
}
330
215
100
DictionaryVariables
280
     0
  1
Standard
  0
DICTIONARY
  5
217
330
6A
100
AcDbDictionary
280
     1
281
     1
  3
ACAD_ROUNDTRIP_2008_TABLESTYLE_CELLSTYLEMAP
360
218
  0
CELLSTYLEMAP
  5
218
102
{ACAD_REACTORS
330
217
102
}
330
217
100
AcDbCellStyleMap
 90
        3
300
CELLSTYLE
  1
TABLEFORMAT_BEGIN
 90
        5
170
     1
 91
        0
 92
    32768
 62
   257
 93
        1
300
CONTENTFORMAT
  1
CONTENTFORMAT_BEGIN
 90
        0
 91
        0
 92
        4
 93
        0
300

 40
0.0
140
1.0
 94
        5
 62
     0
340
11
144
0.25
309
CONTENTFORMAT_END
171
     1
301
MARGIN
  1
CELLMARGIN_BEGIN
 40
0.06
 40
0.06
 40
0.06
 40
0.06
 40
0.06
 40
0.06
309
CELLMARGIN_END
 94
        6
 95
        1
302
GRIDFORMAT
  1
GRIDFORMAT_BEGIN
 90
        0
 91
        1
 62
     0
 92
       -2
340
14
 93
        0
 40
0.045
309
GRIDFORMAT_END
 95
        2
302
GRIDFORMAT
  1
GRIDFORMAT_BEGIN
 90
        0
 91
        1
 62
     0
 92
       -2
340
14
 93
        0
 40
0.045
309
GRIDFORMAT_END
 95
        4
302
GRIDFORMAT
  1
GRIDFORMAT_BEGIN
 90
        0
 91
        1
 62
     0
 92
       -2
340
14
 93
        0
 40
0.045
309
GRIDFORMAT_END
 95
        8
302
GRIDFORMAT
  1
GRIDFORMAT_BEGIN
 90
        0
 91
        1
 62
     0
 92
       -2
340
14
 93
        0
 40
0.045
309
GRIDFORMAT_END
 95
       16
302
GRIDFORMAT
  1
GRIDFORMAT_BEGIN
 90
        0
 91
        1
 62
     0
 92
       -2
340
14
 93
        0
 40
0.045
309
GRIDFORMAT_END
 95
       32
302
GRIDFORMAT
  1
GRIDFORMAT_BEGIN
 90
        0
 91
        1
 62
     0
 92
       -2
340
14
 93
        0
 40
0.045
309
GRIDFORMAT_END
309
TABLEFORMAT_END
  1
CELLSTYLE_BEGIN
 90
        1
 91
        1
300
_TITLE
309
CELLSTYLE_END
300
CELLSTYLE
  1
TABLEFORMAT_BEGIN
 90
        5
170
     1
 91
        0
 92
        0
 62
   257
 93
        1
300
CONTENTFORMAT
  1
CONTENTFORMAT_BEGIN
 90
        0
 91
        0
 92
        4
 93
        0
300

 40
0.0
140
1.0
 94
        5
 62
     0
340
11
144
0.18
309
CONTENTFORMAT_END
171
     1
301
MARGIN
  1
CELLMARGIN_BEGIN
 40
0.06
 40
0.06
 40
0.06
 40
0.06
 40
0.06
 40
0.06
309
CELLMARGIN_END
 94
        6
 95
        1
302
GRIDFORMAT
  1
GRIDFORMAT_BEGIN
 90
        0
 91
        1
 62
     0
 92
       -2
340
14
 93
        0
 40
0.045
309
GRIDFORMAT_END
 95
        2
302
GRIDFORMAT
  1
GRIDFORMAT_BEGIN
 90
        0
 91
        1
 62
     0
 92
       -2
340
14
 93
        0
 40
0.045
309
GRIDFORMAT_END
 95
        4
302
GRIDFORMAT
  1
GRIDFORMAT_BEGIN
 90
        0
 91
        1
 62
     0
 92
       -2
340
14
 93
        0
 40
0.045
309
GRIDFORMAT_END
 95
        8
302
GRIDFORMAT
  1
GRIDFORMAT_BEGIN
 90
        0
 91
        1
 62
     0
 92
       -2
340
14
 93
        0
 40
0.045
309
GRIDFORMAT_END
 95
       16
302
GRIDFORMAT
  1
GRIDFORMAT_BEGIN
 90
        0
 91
        1
 62
     0
 92
       -2
340
14
 93
        0
 40
0.045
309
GRIDFORMAT_END
 95
       32
302
GRIDFORMAT
  1
GRIDFORMAT_BEGIN
 90
        0
 91
        1
 62
     0
 92
       -2
340
14
 93
        0
 40
0.045
309
GRIDFORMAT_END
309
TABLEFORMAT_END
  1
CELLSTYLE_BEGIN
 90
        2
 91
        1
300
_HEADER
309
CELLSTYLE_END
300
CELLSTYLE
  1
TABLEFORMAT_BEGIN
 90
        5
170
     1
 91
        0
 92
        0
 62
   257
 93
        1
300
CONTENTFORMAT
  1
CONTENTFORMAT_BEGIN
 90
        0
 91
        0
 92
        4
 93
        0
300

 40
0.0
140
1.0
 94
        2
 62
     0
340
11
144
0.18
309
CONTENTFORMAT_END
171
     1
301
MARGIN
  1
CELLMARGIN_BEGIN
 40
0.06
 40
0.06
 40
0.06
 40
0.06
 40
0.06
 40
0.06
309
CELLMARGIN_END
 94
        6
 95
        1
302
GRIDFORMAT
  1
GRIDFORMAT_BEGIN
 90
        0
 91
        1
 62
     0
 92
       -2
340
14
 93
        0
 40
0.045
309
GRIDFORMAT_END
 95
        2
302
GRIDFORMAT
  1
GRIDFORMAT_BEGIN
 90
        0
 91
        1
 62
     0
 92
       -2
340
14
 93
        0
 40
0.045
309
GRIDFORMAT_END
 95
        4
302
GRIDFORMAT
  1
GRIDFORMAT_BEGIN
 90
        0
 91
        1
 62
     0
 92
       -2
340
14
 93
        0
 40
0.045
309
GRIDFORMAT_END
 95
        8
302
GRIDFORMAT
  1
GRIDFORMAT_BEGIN
 90
        0
 91
        1
 62
     0
 92
       -2
340
14
 93
        0
 40
0.045
309
GRIDFORMAT_END
 95
       16
302
GRIDFORMAT
  1
GRIDFORMAT_BEGIN
 90
        0
 91
        1
 62
     0
 92
       -2
340
14
 93
        0
 40
0.045
309
GRIDFORMAT_END
 95
       32
302
GRIDFORMAT
  1
GRIDFORMAT_BEGIN
 90
        0
 91
        1
 62
     0
 92
       -2
340
14
 93
        0
 40
0.045
309
GRIDFORMAT_END
309
TABLEFORMAT_END
  1
CELLSTYLE_BEGIN
 90
        3
 91
        2
300
_DATA
309
CELLSTYLE_END
  0
ENDSEC
  0
EOF