0
SECTION
  2
HEADER
  9
$ACADVER
  1
AC1027
  9
$ACADMAINTVER
 70
     8
  9
$DWGCODEPAGE
  3
ANSI_1252
  9
$REQUIREDVERSIONS
160
                 0
  9
$COMMENTS
  1
File was created by Cadenas
  9
$CUSTOMPROPERTYTAG
  1
NN
  9
$CUSTOMPROPERTY
  1
Grip Tight Two-Bolt Flange - Polymer Housing, Corrosion Resistant Insert Inch Bore
  9
$CUSTOMPROPERTYTAG
  1
NT
  9
$CUSTOMPROPERTY
  1
GTEZ Normal Duty Polymer Housed 2 Bolt Flange Bearings
  9
$CUSTOMPROPERTYTAG
  1
NB
  9
$CUSTOMPROPERTY
  1
129349
  9
$CUSTOMPROPERTYTAG
  1
NBSYN
  9
$CUSTOMPROPERTY
  1
$PN.$LUBE.
  9
$CUSTOMPROPERTYTAG
  1
LINA
  9
$CUSTOMPROPERTY
  1
129349
  9
$CUSTOMPROPERTYTAG
  1
SERIES
  9
$CUSTOMPROPERTY
  1
208
  9
$CUSTOMPROPERTYTAG
  1
SS
  9
$CUSTOMPROPERTY
  1
1-1/2
  9
$CUSTOMPROPERTYTAG
  1
PN
  9
$CUSTOMPROPERTY
  1
129349
  9
$CUSTOMPROPERTYTAG
  1
DESCRIPTION
  9
$CUSTOMPROPERTY
  1
F2B-GTEZ-108-PCR
  9
$CUSTOMPROPERTYTAG
  1
A
  9
$CUSTOMPROPERTY
  1
1-27/32
  9
$CUSTOMPROPERTYTAG
  1
B
  9
$CUSTOMPROPERTY
  1
6-25/32
  9
$CUSTOMPROPERTYTAG
  1
C
  9
$CUSTOMPROPERTY
  1
2-5/64
  9
$CUSTOMPROPERTYTAG
  1
D
  9
$CUSTOMPROPERTY
  1
5-21/32
  9
$CUSTOMPROPERTYTAG
  1
F
  9
$CUSTOMPROPERTY
  1
1/2
  9
$CUSTOMPROPERTYTAG
  1
H
  9
$CUSTOMPROPERTY
  1
43/64
  9
$CUSTOMPROPERTYTAG
  1
J
  9
$CUSTOMPROPERTY
  1
37/64
  9
$CUSTOMPROPERTYTAG
  1
L
  9
$CUSTOMPROPERTY
  1
2-1/2
  9
$CUSTOMPROPERTYTAG
  1
M
  9
$CUSTOMPROPERTY
  1
4-1/16
  9
$CUSTOMPROPERTYTAG
  1
Z
  9
$CUSTOMPROPERTY
  1
2-1/32
  9
$CUSTOMPROPERTYTAG
  1
COMPANY
  9
$CUSTOMPROPERTY
  1
baldor
  9
$INSBASE
 10
0.0
 20
0.0
 30
0.0
  9
$EXTMIN
 10
1.000000000000000E+20
 20
1.000000000000000E+20
 30
1.000000000000000E+20
  9
$EXTMAX
 10
-1.000000000000000E+20
 20
-1.000000000000000E+20
 30
-1.000000000000000E+20
  9
$LIMMIN
 10
0.0
 20
0.0
  9
$LIMMAX
 10
12.0
 20
9.0
  9
$ORTHOMODE
 70
     0
  9
$REGENMODE
 70
     1
  9
$FILLMODE
 70
     1
  9
$QTEXTMODE
 70
     0
  9
$MIRRTEXT
 70
     1
  9
$LTSCALE
 40
1.0
  9
$ATTMODE
 70
     1
  9
$TEXTSIZE
 40
0.2
  9
$TRACEWID
 40
0.05
  9
$TEXTSTYLE
  7
Standard
  9
$CLAYER
  8
0
  9
$CELTYPE
  6
ByLayer
  9
$CECOLOR
 62
   256
  9
$CELTSCALE
 40
1.0
  9
$DISPSILH
 70
     0
  9
$DIMSCALE
 40
1.0
  9
$DIMASZ
 40
0.18
  9
$DIMEXO
 40
0.0625
  9
$DIMDLI
 40
0.38
  9
$DIMRND
 40
0.0
  9
$DIMDLE
 40
0.0
  9
$DIMEXE
 40
0.18
  9
$DIMTP
 40
0.0
  9
$DIMTM
 40
0.0
  9
$DIMTXT
 40
0.18
  9
$DIMCEN
 40
0.09
  9
$DIMTSZ
 40
0.0
  9
$DIMTOL
 70
     0
  9
$DIMLIM
 70
     0
  9
$DIMTIH
 70
     1
  9
$DIMTOH
 70
     1
  9
$DIMSE1
 70
     0
  9
$DIMSE2
 70
     0
  9
$DIMTAD
 70
     0
  9
$DIMZIN
 70
     0
  9
$DIMBLK
  1

  9
$DIMASO
 70
     1
  9
$DIMSHO
 70
     1
  9
$DIMPOST
  1

  9
$DIMAPOST
  1

  9
$DIMALT
 70
     0
  9
$DIMALTD
 70
     2
  9
$DIMALTF
 40
25.4
  9
$DIMLFAC
 40
1.0
  9
$DIMTOFL
 70
     0
  9
$DIMTVP
 40
0.0
  9
$DIMTIX
 70
     0
  9
$DIMSOXD
 70
     0
  9
$DIMSAH
 70
     0
  9
$DIMBLK1
  1

  9
$DIMBLK2
  1

  9
$DIMSTYLE
  2
Standard
  9
$DIMCLRD
 70
     0
  9
$DIMCLRE
 70
     0
  9
$DIMCLRT
 70
     0
  9
$DIMTFAC
 40
1.0
  9
$DIMGAP
 40
0.09
  9
$DIMJUST
 70
     0
  9
$DIMSD1
 70
     0
  9
$DIMSD2
 70
     0
  9
$DIMTOLJ
 70
     1
  9
$DIMTZIN
 70
     0
  9
$DIMALTZ
 70
     0
  9
$DIMALTTZ
 70
     0
  9
$DIMUPT
 70
     0
  9
$DIMDEC
 70
     4
  9
$DIMTDEC
 70
     4
  9
$DIMALTU
 70
     2
  9
$DIMALTTD
 70
     2
  9
$DIMTXSTY
  7
Standard
  9
$DIMAUNIT
 70
     0
  9
$DIMADEC
 70
     0
  9
$DIMALTRND
 40
0.0
  9
$DIMAZIN
 70
     0
  9
$DIMDSEP
 70
    46
  9
$DIMATFIT
 70
     3
  9
$DIMFRAC
 70
     0
  9
$DIMLDRBLK
  1

  9
$DIMLUNIT
 70
     2
  9
$DIMLWD
 70
    -2
  9
$DIMLWE
 70
    -2
  9
$DIMTMOVE
 70
     0
  9
$DIMFXL
 40
1.0
  9
$DIMFXLON
 70
     0
  9
$DIMJOGANG
 40
0.7853981633974483
  9
$DIMTFILL
 70
     0
  9
$DIMTFILLCLR
 70
     0
  9
$DIMARCSYM
 70
     0
  9
$DIMLTYPE
  6

  9
$DIMLTEX1
  6

  9
$DIMLTEX2
  6

  9
$DIMTXTDIRECTION
 70
     0
  9
$LUNITS
 70
     2
  9
$LUPREC
 70
     4
  9
$SKETCHINC
 40
0.1
  9
$FILLETRAD
 40
0.5
  9
$AUNITS
 70
     0
  9
$AUPREC
 70
     0
  9
$MENU
  1
.
  9
$ELEVATION
 40
0.0
  9
$PELEVATION
 40
0.0
  9
$THICKNESS
 40
0.0
  9
$LIMCHECK
 70
     0
  9
$CHAMFERA
 40
0.0
  9
$CHAMFERB
 40
0.0
  9
$CHAMFERC
 40
0.0
  9
$CHAMFERD
 40
0.0
  9
$SKPOLY
 70
     0
  9
$TDCREATE
 40
2458168.992369398
  9
$TDUCREATE
 40
2458168.950702731
  9
$TDUPDATE
 40
2458168.992369583
  9
$TDUUPDATE
 40
2458168.950702917
  9
$TDINDWG
 40
0.0000000116
  9
$TDUSRTIMER
 40
0.0000000116
  9
$USRTIMER
 70
     1
  9
$ANGBASE
 50
0.0
  9
$ANGDIR
 70
     0
  9
$PDMODE
 70
     0
  9
$PDSIZE
 40
0.0
  9
$PLINEWID
 40
0.0
  9
$SPLFRAME
 70
     0
  9
$SPLINETYPE
 70
     6
  9
$SPLINESEGS
 70
     8
  9
$HANDSEED
  5
1CF
  9
$SURFTAB1
 70
     6
  9
$SURFTAB2
 70
     6
  9
$SURFTYPE
 70
     6
  9
$SURFU
 70
     6
  9
$SURFV
 70
     6
  9
$UCSBASE
  2

  9
$UCSNAME
  2

  9
$UCSORG
 10
0.0
 20
0.0
 30
0.0
  9
$UCSXDIR
 10
1.0
 20
0.0
 30
0.0
  9
$UCSYDIR
 10
0.0
 20
1.0
 30
0.0
  9
$UCSORTHOREF
  2

  9
$UCSORTHOVIEW
 70
     0
  9
$UCSORGTOP
 10
0.0
 20
0.0
 30
0.0
  9
$UCSORGBOTTOM
 10
0.0
 20
0.0
 30
0.0
  9
$UCSORGLEFT
 10
0.0
 20
0.0
 30
0.0
  9
$UCSORGRIGHT
 10
0.0
 20
0.0
 30
0.0
  9
$UCSORGFRONT
 10
0.0
 20
0.0
 30
0.0
  9
$UCSORGBACK
 10
0.0
 20
0.0
 30
0.0
  9
$PUCSBASE
  2

  9
$PUCSNAME
  2

  9
$PUCSORG
 10
0.0
 20
0.0
 30
0.0
  9
$PUCSXDIR
 10
1.0
 20
0.0
 30
0.0
  9
$PUCSYDIR
 10
0.0
 20
1.0
 30
0.0
  9
$PUCSORTHOREF
  2

  9
$PUCSORTHOVIEW
 70
     0
  9
$PUCSORGTOP
 10
0.0
 20
0.0
 30
0.0
  9
$PUCSORGBOTTOM
 10
0.0
 20
0.0
 30
0.0
  9
$PUCSORGLEFT
 10
0.0
 20
0.0
 30
0.0
  9
$PUCSORGRIGHT
 10
0.0
 20
0.0
 30
0.0
  9
$PUCSORGFRONT
 10
0.0
 20
0.0
 30
0.0
  9
$PUCSORGBACK
 10
0.0
 20
0.0
 30
0.0
  9
$USERI1
 70
     0
  9
$USERI2
 70
     0
  9
$USERI3
 70
     0
  9
$USERI4
 70
     0
  9
$USERI5
 70
     0
  9
$USERR1
 40
0.0
  9
$USERR2
 40
0.0
  9
$USERR3
 40
0.0
  9
$USERR4
 40
0.0
  9
$USERR5
 40
0.0
  9
$WORLDVIEW
 70
     1
  9
$SHADEDGE
 70
     3
  9
$SHADEDIF
 70
    70
  9
$TILEMODE
 70
     1
  9
$MAXACTVP
 70
    64
  9
$PINSBASE
 10
0.0
 20
0.0
 30
0.0
  9
$PLIMCHECK
 70
     0
  9
$PEXTMIN
 10
1.000000000000000E+20
 20
1.000000000000000E+20
 30
1.000000000000000E+20
  9
$PEXTMAX
 10
-1.000000000000000E+20
 20
-1.000000000000000E+20
 30
-1.000000000000000E+20
  9
$PLIMMIN
 10
0.0
 20
0.0
  9
$PLIMMAX
 10
12.0
 20
9.0
  9
$UNITMODE
 70
     0
  9
$VISRETAIN
 70
     1
  9
$PLINEGEN
 70
     0
  9
$PSLTSCALE
 70
     1
  9
$TREEDEPTH
 70
  3020
  9
$CMLSTYLE
  2
Standard
  9
$CMLJUST
 70
     0
  9
$CMLSCALE
 40
1.0
  9
$PROXYGRAPHICS
 70
     1
  9
$MEASUREMENT
 70
     0
  9
$CELWEIGHT
370
    -1
  9
$ENDCAPS
280
     0
  9
$JOINSTYLE
280
     0
  9
$LWDISPLAY
290
     0
  9
$INSUNITS
 70
     1
  9
$HYPERLINKBASE
  1

  9
$STYLESHEET
  1

  9
$XEDIT
290
     1
  9
$CEPSNTYPE
380
     0
  9
$PSTYLEMODE
290
     1
  9
$FINGERPRINTGUID
  2
{A282E0BE-C092-4B45-B0AD-45B7294F16B4}
  9
$VERSIONGUID
  2
{FAEB1C32-E019-11D5-929B-00C0DF256EC4}
  9
$EXTNAMES
290
     1
  9
$PSVPSCALE
 40
0.0
  9
$OLESTARTUP
290
     0
  9
$SORTENTS
280
   127
  9
$INDEXCTL
280
     0
  9
$HIDETEXT
280
     1
  9
$XCLIPFRAME
280
     2
  9
$HALOGAP
280
     0
  9
$OBSCOLOR
 70
   257
  9
$OBSLTYPE
280
     0
  9
$INTERSECTIONDISPLAY
280
     0
  9
$INTERSECTIONCOLOR
 70
   257
  9
$DIMASSOC
280
     2
  9
$PROJECTNAME
  1

  9
$CAMERADISPLAY
290
     0
  9
$LENSLENGTH
 40
50.0
  9
$CAMERAHEIGHT
 40
0.0
  9
$STEPSPERSEC
 40
2.0
  9
$STEPSIZE
 40
6.0
  9
$3DDWFPREC
 40
2.0
  9
$PSOLWIDTH
 40
0.25
  9
$PSOLHEIGHT
 40
4.0
  9
$LOFTANG1
 40
1.570796326794897
  9
$LOFTANG2
 40
1.570796326794897
  9
$LOFTMAG1
 40
0.0
  9
$LOFTMAG2
 40
0.0
  9
$LOFTPARAM
 70
     7
  9
$LOFTNORMALS
280
     1
  9
$LATITUDE
 40
37.795
  9
$LONGITUDE
 40
-122.394
  9
$NORTHDIRECTION
 40
0.0
  9
$TIMEZONE
 70
 -8000
  9
$LIGHTGLYPHDISPLAY
280
     1
  9
$TILEMODELIGHTSYNCH
280
     1
  9
$CMATERIAL
347
44
  9
$SOLIDHIST
280
     0
  9
$SHOWHIST
280
     1
  9
$DWFFRAME
280
     2
  9
$DGNFRAME
280
     2
  9
$REALWORLDSCALE
290
     1
  9
$INTERFERECOLOR
 62
   256
  9
$CSHADOW
280
     0
  9
$SHADOWPLANELOCATION
 40
0.0
  0
ENDSEC
  0
SECTION
  2
CLASSES
  0
CLASS
  1
ACDBDICTIONARYWDFLT
  2
AcDbDictionaryWithDefault
  3
ObjectDBX Classes
 90
        0
 91
        4
280
     0
281
     0
  0
CLASS
  1
VISUALSTYLE
  2
AcDbVisualStyle
  3
ObjectDBX Classes
 90
     4095
 91
        4
280
     0
281
     0
  0
CLASS
  1
MATERIAL
  2
AcDbMaterial
  3
ObjectDBX Classes
 90
     1153
 91
        4
280
     0
281
     0
  0
CLASS
  1
SCALE
  2
AcDbScale
  3
ObjectDBX Classes
 90
     1153
 91
        4
280
     0
281
     0
  0
CLASS
  1
TABLESTYLE
  2
AcDbTableStyle
  3
ObjectDBX Classes
 90
     4095
 91
        4
280
     0
281
     0
  0
CLASS
  1
MLEADERSTYLE
  2
AcDbMLeaderStyle
  3
ACDB_MLEADERSTYLE_CLASS
 90
     4095
 91
        4
280
     0
281
     0
  0
CLASS
  1
SUN
  2
AcDbSun
  3
SCENEOE
 90
     1153
 91
        4
280
     0
281
     0
  0
CLASS
  1
DICTIONARYVAR
  2
AcDbDictionaryVar
  3
ObjectDBX Classes
 90
        0
 91
        4
280
     0
281
     0
  0
CLASS
  1
CELLSTYLEMAP
  2
AcDbCellStyleMap
  3
ObjectDBX Classes
 90
     1152
 91
        4
280
     0
281
     0
  0
ENDSEC
  0
SECTION
  2
TABLES
  0
TABLE
  2
VPORT
  5
8
330
0
100
AcDbSymbolTable
 70
     1
  0
VPORT
  5
29
330
8
100
AcDbSymbolTableRecord
100
AcDbViewportTableRecord
  2
*Active
 70
     0
 10
0.0
 20
0.0
 11
1.0
 21
1.0
 12
0.0
 22
-1.03288875
 13
0.0
 23
0.0
 14
0.5
 24
0.5
 15
0.5
 25
0.5
 16
0.0
 26
0.0
 36
1.0
 17
0.0
 27
0.0
 37
0.0
 40
2.31957945
 41
1.786642833035962
 42
50.0
 43
0.0
 44
0.0
 50
0.0
 51
0.0
 71
     0
 72
   100
 73
     1
 74
     3
 75
     0
 76
     0
 77
     0
 78
     0
281
     0
 65
     1
110
0.0
120
0.0
130
0.0
111
1.0
121
0.0
131
0.0
112
0.0
122
1.0
132
0.0
 79
     0
146
0.0
348
2F
 60
     3
 61
     5
292
     1
282
     1
141
0.0
142
0.0
 63
   250
361
6D
  0
ENDTAB
  0
TABLE
  2
LTYPE
  5
5
330
0
100
AcDbSymbolTable
 70
     3
  0
LTYPE
  5
14
330
5
100
AcDbSymbolTableRecord
100
AcDbLinetypeTableRecord
  2
ByBlock
 70
     0
  3

 72
    65
 73
     0
 40
0.0
  0
LTYPE
  5
15
330
5
100
AcDbSymbolTableRecord
100
AcDbLinetypeTableRecord
  2
ByLayer
 70
     0
  3

 72
    65
 73
     0
 40
0.0
  0
LTYPE
  5
16
330
5
100
AcDbSymbolTableRecord
100
AcDbLinetypeTableRecord
  2
Continuous
 70
     0
  3
Solid line
 72
    65
 73
     0
 40
0.0
  0
LTYPE
  5
9D
330
5
100
AcDbSymbolTableRecord
100
AcDbLinetypeTableRecord
  2
Dashed
 70
     0
  3

 72
    65
 73
     2
 40
2.0
 49
1.0
 74
     0
 49
-1.0
 74
     0
  0
LTYPE
  5
104
330
5
100
AcDbSymbolTableRecord
100
AcDbLinetypeTableRecord
  2
Center
 70
     0
  3

 72
    65
 73
     4
 40
1.5
 49
0.45
 74
     0
 49
-0.5
 74
     0
 49
0.05
 74
     0
 49
-0.5
 74
     0
  0
ENDTAB
  0
TABLE
  2
LAYER
  5
2
330
0
100
AcDbSymbolTable
 70
     7
  0
LAYER
  5
10
330
2
100
AcDbSymbolTableRecord
100
AcDbLayerTableRecord
  2
0
 70
     0
 62
     7
  6
Continuous
370
    -3
390
F
347
46
348
0
  0
LAYER
  5
72
330
2
100
AcDbSymbolTableRecord
100
AcDbLayerTableRecord
  2
AM_6
 70
     0
 62
    -2
  6
Continuous
370
    35
390
F
347
46
348
0
  0
LAYER
  5
9E
330
2
100
AcDbSymbolTableRecord
100
AcDbLayerTableRecord
  2
AM_9
 70
     0
 62
     6
  6
Dashed
370
    25
390
F
347
46
348
0
  0
LAYER
  5
CB
330
2
100
AcDbSymbolTableRecord
100
AcDbLayerTableRecord
  2
AM_4
 70
     0
 62
     7
  6
Continuous
370
    50
390
F
347
46
348
0
  0
LAYER
  5
101
330
2
100
AcDbSymbolTableRecord
100
AcDbLayerTableRecord
  2
AM_5
 70
     0
 62
     3
  6
Continuous
370
    25
390
F
347
46
348
0
  0
LAYER
  5
105
330
2
100
AcDbSymbolTableRecord
100
AcDbLayerTableRecord
  2
AM_7
 70
     0
 62
     7
  6
Center
370
    25
390
F
347
46
348
0
  0
LAYER
  5
1C2
330
2
100
AcDbSymbolTableRecord
100
AcDbLayerTableRecord
  2
ConnectionPoints
 70
     0
 62
     7
  6
Continuous
370
    50
390
F
347
46
348
0
  0
ENDTAB
  0
TABLE
  2
STYLE
  5
3
330
0
100
AcDbSymbolTable
 70
     1
  0
STYLE
  5
11
330
3
100
AcDbSymbolTableRecord
100
AcDbTextStyleTableRecord
  2
Standard
 70
     0
 40
0.0
 41
1.0
 50
0.0
 71
     0
 42
0.2
  3
txt
  4

  0
ENDTAB
  0
TABLE
  2
VIEW
  5
6
330
0
100
AcDbSymbolTable
 70
     0
  0
ENDTAB
  0
TABLE
  2
UCS
  5
7
330
0
100
AcDbSymbolTable
 70
     0
  0
ENDTAB
  0
TABLE
  2
APPID
  5
9
330
0
100
AcDbSymbolTable
 70
     1
  0
APPID
  5
12
330
9
100
AcDbSymbolTableRecord
100
AcDbRegAppTableRecord
  2
ACAD
 70
     0
  0
ENDTAB
  0
TABLE
  2
DIMSTYLE
  5
A
330
0
100
AcDbSymbolTable
 70
     1
100
AcDbDimStyleTable
  0
DIMSTYLE
105
27
330
A
100
AcDbSymbolTableRecord
100
AcDbDimStyleTableRecord
  2
Standard
 70
     0
178
     0
340
11
  0
ENDTAB
  0
TABLE
  2
BLOCK_RECORD
  5
1
330
0
100
AcDbSymbolTable
 70
     5
  0
BLOCK_RECORD
  5
1F
330
1
100
AcDbSymbolTableRecord
100
AcDbBlockTableRecord
  2
*Model_Space
340
22
 70
     0
280
     1
281
     0
  0
BLOCK_RECORD
  5
1B
330
1
100
AcDbSymbolTableRecord
100
AcDbBlockTableRecord
  2
*Paper_Space
340
1E
 70
     0
280
     1
281
     0
  0
BLOCK_RECORD
  5
23
330
1
100
AcDbSymbolTableRecord
100
AcDbBlockTableRecord
  2
*Paper_Space0
340
26
 70
     0
280
     1
281
     0
  0
BLOCK_RECORD
  5
6E
330
1
100
AcDbSymbolTableRecord
100
AcDbBlockTableRecord
  2
1_129349_4
340
0
102
{BLKREFS
331
6F
102
}
 70
     0
280
     1
281
     0
  0
BLOCK_RECORD
  5
87
330
1
100
AcDbSymbolTableRecord
100
AcDbBlockTableRecord
  2
2_INS_GT_08_CRI_0_in_129349_4
340
0
102
{BLKREFS
331
88
102
}
 70
     0
280
     1
281
     0
  0
BLOCK_RECORD
  5
CF
330
1
100
AcDbSymbolTableRecord
100
AcDbBlockTableRecord
  2
3_129975_0_in_129349_4
340
0
102
{BLKREFS
331
D0
102
}
 70
     0
280
     1
281
     0
  0
BLOCK_RECORD
  5
122
330
1
100
AcDbSymbolTableRecord
100
AcDbBlockTableRecord
  2
4_F2B_GREZ_08_PCR_II_0_in_129349_4
340
0
102
{BLKREFS
331
123
102
}
 70
     0
280
     1
281
     0
  0
ENDTAB
  0
ENDSEC
  0
SECTION
  2
BLOCKS
  0
BLOCK
  5
20
330
1F
100
AcDbEntity
  8
0
100
AcDbBlockBegin
  2
*Model_Space
 70
     0
 10
0.0
 20
0.0
 30
0.0
  3
*Model_Space
  1

  0
ENDBLK
  5
21
330
1F
100
AcDbEntity
  8
0
100
AcDbBlockEnd
  0
BLOCK
  5
1C
330
1B
100
AcDbEntity
 67
     1
  8
0
100
AcDbBlockBegin
  2
*Paper_Space
 70
     0
 10
0.0
 20
0.0
 30
0.0
  3
*Paper_Space
  1

  0
ENDBLK
  5
1D
330
1B
100
AcDbEntity
 67
     1
  8
0
100
AcDbBlockEnd
  0
BLOCK
  5
24
330
23
100
AcDbEntity
  8
0
100
AcDbBlockBegin
  2
*Paper_Space0
 70
     0
 10
0.0
 20
0.0
 30
0.0
  3
*Paper_Space0
  1

  0
ENDBLK
  5
25
330
23
100
AcDbEntity
  8
0
100
AcDbBlockEnd
  0
BLOCK
  5
70
330
6E
100
AcDbEntity
  8
0
100
AcDbBlockBegin
  2
1_129349_4
 70
     2
 10
0.0
 20
0.0
 30
0.0
  3
1_129349_4
  1

  0
ATTDEF
  5
73
330
6E
100
AcDbEntity
  8
AM_6
100
AcDbText
 10
7.031499999999999
 20
0.1041599999999999
 30
0.0
 40
0.5
  1
Grip Tight Two-Bolt Flange - Polymer Housing, Corrosion Resistant Insert Inch Bore
100
AcDbAttributeDefinition
  3

  2
NN
 70
     8
280
     0
  0
ATTDEF
  5
74
330
6E
100
AcDbEntity
  8
AM_6
100
AcDbText
 10
7.031499999999999
 20
-0.3958400000000001
 30
0.0
 40
0.5
  1
GTEZ Normal Duty Polymer Housed 2 Bolt Flange Bearings
100
AcDbAttributeDefinition
  3

  2
NT
 70
     8
280
     0
  0
ATTDEF
  5
75
330
6E
100
AcDbEntity
  8
AM_6
100
AcDbText
 10
7.031499999999999
 20
-0.8958400000000002
 30
0.0
 40
0.5
  1
129349
100
AcDbAttributeDefinition
  3

  2
NB
 70
     8
280
     0
  0
ATTDEF
  5
76
330
6E
100
AcDbEntity
  8
AM_6
100
AcDbText
 10
7.031499999999999
 20
-1.39584
 30
0.0
 40
0.5
  1
$PN.$LUBE.
100
AcDbAttributeDefinition
  3

  2
NBSYN
 70
     8
280
     0
  0
ATTDEF
  5
77
330
6E
100
AcDbEntity
  8
AM_6
100
AcDbText
 10
7.031499999999999
 20
-1.89584
 30
0.0
 40
0.5
  1
129349
100
AcDbAttributeDefinition
  3

  2
LINA
 70
     8
280
     0
  0
ATTDEF
  5
78
330
6E
100
AcDbEntity
  8
AM_6
100
AcDbText
 10
7.031499999999999
 20
-2.39584
 30
0.0
 40
0.5
  1
208
100
AcDbAttributeDefinition
  3

  2
SERIES
 70
     8
280
     0
  0
ATTDEF
  5
79
330
6E
100
AcDbEntity
  8
AM_6
100
AcDbText
 10
7.031499999999999
 20
-2.89584
 30
0.0
 40
0.5
  1
1-1/2
100
AcDbAttributeDefinition
  3

  2
SS
 70
     8
280
     0
  0
ATTDEF
  5
7A
330
6E
100
AcDbEntity
  8
AM_6
100
AcDbText
 10
7.031499999999999
 20
-3.39584
 30
0.0
 40
0.5
  1
129349
100
AcDbAttributeDefinition
  3

  2
PN
 70
     8
280
     0
  0
ATTDEF
  5
7B
330
6E
100
AcDbEntity
  8
AM_6
100
AcDbText
 10
7.031499999999999
 20
-3.89584
 30
0.0
 40
0.5
  1
F2B-GTEZ-108-PCR
100
AcDbAttributeDefinition
  3

  2
DESCRIPTION
 70
     8
280
     0
  0
ATTDEF
  5
7C
330
6E
100
AcDbEntity
  8
AM_6
100
AcDbText
 10
7.031499999999999
 20
-4.39584
 30
0.0
 40
0.5
  1
1-27/32
100
AcDbAttributeDefinition
  3

  2
A
 70
     8
280
     0
  0
ATTDEF
  5
7D
330
6E
100
AcDbEntity
  8
AM_6
100
AcDbText
 10
7.031499999999999
 20
-4.89584
 30
0.0
 40
0.5
  1
6-25/32
100
AcDbAttributeDefinition
  3

  2
B
 70
     8
280
     0
  0
ATTDEF
  5
7E
330
6E
100
AcDbEntity
  8
AM_6
100
AcDbText
 10
7.031499999999999
 20
-5.39584
 30
0.0
 40
0.5
  1
2-5/64
100
AcDbAttributeDefinition
  3

  2
C
 70
     8
280
     0
  0
ATTDEF
  5
7F
330
6E
100
AcDbEntity
  8
AM_6
100
AcDbText
 10
7.031499999999999
 20
-5.89584
 30
0.0
 40
0.5
  1
5-21/32
100
AcDbAttributeDefinition
  3

  2
D
 70
     8
280
     0
  0
ATTDEF
  5
80
330
6E
100
AcDbEntity
  8
AM_6
100
AcDbText
 10
7.031499999999999
 20
-6.39584
 30
0.0
 40
0.5
  1
1/2
100
AcDbAttributeDefinition
  3

  2
F
 70
     8
280
     0
  0
ATTDEF
  5
81
330
6E
100
AcDbEntity
  8
AM_6
100
AcDbText
 10
7.031499999999999
 20
-6.89584
 30
0.0
 40
0.5
  1
43/64
100
AcDbAttributeDefinition
  3

  2
H
 70
     8
280
     0
  0
ATTDEF
  5
82
330
6E
100
AcDbEntity
  8
AM_6
100
AcDbText
 10
7.031499999999999
 20
-7.39584
 30
0.0
 40
0.5
  1
37/64
100
AcDbAttributeDefinition
  3

  2
J
 70
     8
280
     0
  0
ATTDEF
  5
83
330
6E
100
AcDbEntity
  8
AM_6
100
AcDbText
 10
7.031499999999999
 20
-7.89584
 30
0.0
 40
0.5
  1
2-1/2
100
AcDbAttributeDefinition
  3

  2
L
 70
     8
280
     0
  0
ATTDEF
  5
84
330
6E
100
AcDbEntity
  8
AM_6
100
AcDbText
 10
7.031499999999999
 20
-8.39584
 30
0.0
 40
0.5
  1
4-1/16
100
AcDbAttributeDefinition
  3

  2
M
 70
     8
280
     0
  0
ATTDEF
  5
85
330
6E
100
AcDbEntity
  8
AM_6
100
AcDbText
 10
7.031499999999999
 20
-8.89584
 30
0.0
 40
0.5
  1
2-1/32
100
AcDbAttributeDefinition
  3

  2
Z
 70
     8
280
     0
  0
ATTDEF
  5
86
330
6E
100
AcDbEntity
  8
AM_6
100
AcDbText
 10
7.031499999999999
 20
-9.39584
 30
0.0
 40
0.5
  1
baldor
100
AcDbAttributeDefinition
  3

  2
COMPANY
 70
     8
280
     0
  0
INSERT
  5
88
330
6E
100
AcDbEntity
  8
0
100
AcDbBlockReference
  2
2_INS_GT_08_CRI_0_in_129349_4
 10
0.0
 20
0.0
 30
0.0
  0
INSERT
  5
D0
330
6E
100
AcDbEntity
  8
0
100
AcDbBlockReference
  2
3_129975_0_in_129349_4
 10
0.0
 20
0.0
 30
0.0
  0
INSERT
  5
123
330
6E
100
AcDbEntity
  8
0
100
AcDbBlockReference
  2
4_F2B_GREZ_08_PCR_II_0_in_129349_4
 10
0.0
 20
0.0
 30
0.0
  0
ENDBLK
  5
71
330
6E
100
AcDbEntity
  8
0
100
AcDbBlockEnd
  0
BLOCK
  5
89
330
87
100
AcDbEntity
  8
0
100
AcDbBlockBegin
  2
2_INS_GT_08_CRI_0_in_129349_4
 70
     2
 10
0.0
 20
0.0
 30
0.0
  3
2_INS_GT_08_CRI_0_in_129349_4
  1

  0
ATTDEF
  5
8B
330
87
100
AcDbEntity
  8
AM_6
100
AcDbText
 10
6.574795958817282
 20
-0.2996249999999997
 30
0.0
 40
0.5
  1
INS-GT-CR-I
100
AcDbAttributeDefinition
  3

  2
NN
 70
     8
280
     0
  0
ATTDEF
  5
8C
330
87
100
AcDbEntity
  8
AM_6
100
AcDbText
 10
6.574795958817282
 20
-0.7996249999999997
 30
0.0
 40
0.5
  1
GT Normal Duty Corrosion Resistant Bearing Inserts
100
AcDbAttributeDefinition
  3

  2
NT
 70
     8
280
     0
  0
ATTDEF
  5
8D
330
87
100
AcDbEntity
  8
AM_6
100
AcDbText
 10
6.574795958817282
 20
-1.299625
 30
0.0
 40
0.5
  1
INS-GT-08-CRI
100
AcDbAttributeDefinition
  3

  2
NB
 70
     8
280
     0
  0
ATTDEF
  5
8E
330
87
100
AcDbEntity
  8
AM_6
100
AcDbText
 10
6.574795958817282
 20
-1.799625
 30
0.0
 40
0.5
  1
$PN.I
100
AcDbAttributeDefinition
  3

  2
NBSYN
 70
     8
280
     0
  0
ATTDEF
  5
8F
330
87
100
AcDbEntity
  8
AM_6
100
AcDbText
 10
6.574795958817282
 20
-2.299625
 30
0.0
 40
0.5
  1
INS-GT-08-CR
100
AcDbAttributeDefinition
  3

  2
LINA
 70
     8
280
     0
  0
ATTDEF
  5
90
330
87
100
AcDbEntity
  8
AM_6
100
AcDbText
 10
6.574795958817282
 20
-2.799625
 30
0.0
 40
0.5
  1
208
100
AcDbAttributeDefinition
  3

  2
SERIES
 70
     8
280
     0
  0
ATTDEF
  5
91
330
87
100
AcDbEntity
  8
AM_6
100
AcDbText
 10
6.574795958817282
 20
-3.299625
 30
0.0
 40
0.5
  1
INS-GT-08-CR
100
AcDbAttributeDefinition
  3

  2
PN
 70
     8
280
     0
  0
ATTDEF
  5
92
330
87
100
AcDbEntity
  8
AM_6
100
AcDbText
 10
6.574795958817282
 20
-3.799625
 30
0.0
 40
0.5
  1
INS-GT-08-CR
100
AcDbAttributeDefinition
  3

  2
DESCRIPTION
 70
     8
280
     0
  0
ATTDEF
  5
93
330
87
100
AcDbEntity
  8
AM_6
100
AcDbText
 10
6.574795958817282
 20
-4.299625
 30
0.0
 40
0.5
  1
1-27/32
100
AcDbAttributeDefinition
  3

  2
A
 70
     8
280
     0
  0
ATTDEF
  5
94
330
87
100
AcDbEntity
  8
AM_6
100
AcDbText
 10
6.574795958817282
 20
-4.799625
 30
0.0
 40
0.5
  1
0.8661
100
AcDbAttributeDefinition
  3

  2
C
 70
     8
280
     0
  0
ATTDEF
  5
95
330
87
100
AcDbEntity
  8
AM_6
100
AcDbText
 10
6.574795958817282
 20
-5.299625
 30
0.0
 40
0.5
  1
3.1496
100
AcDbAttributeDefinition
  3

  2
D
 70
     8
280
     0
  0
ATTDEF
  5
96
330
87
100
AcDbEntity
  8
AM_6
100
AcDbText
 10
6.574795958817282
 20
-5.799625
 30
0.0
 40
0.5
  1
0.224
100
AcDbAttributeDefinition
  3

  2
J
 70
     8
280
     0
  0
ATTDEF
  5
97
330
87
100
AcDbEntity
  8
AM_6
100
AcDbText
 10
6.574795958817282
 20
-6.299625
 30
0.0
 40
0.5
  1
2-1/2
100
AcDbAttributeDefinition
  3

  2
L
 70
     8
280
     0
  0
ATTDEF
  5
98
330
87
100
AcDbEntity
  8
AM_6
100
AcDbText
 10
6.574795958817282
 20
-6.799625
 30
0.0
 40
0.5
  1
10 - 32 x 1/4
100
AcDbAttributeDefinition
  3

  2
N
 70
     8
280
     0
  0
ATTDEF
  5
99
330
87
100
AcDbEntity
  8
AM_6
100
AcDbText
 10
6.574795958817282
 20
-7.299625
 30
0.0
 40
0.5
  1
21/32
100
AcDbAttributeDefinition
  3

  2
W
 70
     8
280
     0
  0
ATTDEF
  5
9A
330
87
100
AcDbEntity
  8
AM_6
100
AcDbText
 10
6.574795958817282
 20
-7.799625
 30
0.0
 40
0.5
  1
1-9/64
100
AcDbAttributeDefinition
  3

  2
X
 70
     8
280
     0
  0
ATTDEF
  5
9B
330
87
100
AcDbEntity
  8
AM_6
100
AcDbText
 10
6.574795958817282
 20
-8.299624999999999
 30
0.0
 40
0.5
  1
1-3/16
100
AcDbAttributeDefinition
  3

  2
Y
 70
     8
280
     0
  0
ATTDEF
  5
9C
330
87
100
AcDbEntity
  8
AM_6
100
AcDbText
 10
6.574795958817282
 20
-8.799624999999999
 30
0.0
 40
0.5
  1
baldor
100
AcDbAttributeDefinition
  3

  2
COMPANY
 70
     8
280
     0
  0
LINE
  5
9F
330
87
100
AcDbEntity
  8
AM_9
100
AcDbLine
 10
0.9325396111111113
 20
-1.745718025701676
 30
0.0
 11
0.9325396111111113
 21
-1.317983650701678
 31
0.0
  0
LINE
  5
A0
330
87
100
AcDbEntity
  8
AM_9
100
AcDbLine
 10
-0.9325396111111109
 20
-1.317983650701678
 30
0.0
 11
-0.9325396111111109
 21
-1.745718025701676
 31
0.0
  0
LINE
  5
A1
330
87
100
AcDbEntity
  8
AM_9
100
AcDbLine
 10
-0.9325396111111109
 20
-1.317983650701678
 30
0.0
 11
0.9325396111111113
 21
-1.317983650701678
 31
0.0
  0
LINE
  5
A2
330
87
100
AcDbEntity
  8
AM_9
100
AcDbLine
 10
0.9325396111111113
 20
-1.317983650701678
 30
0.0
 11
0.9681014788121918
 21
-0.2996249999999997
 31
0.0
  0
LINE
  5
A3
330
87
100
AcDbEntity
  8
AM_9
100
AcDbLine
 10
-0.9681014788121914
 20
-0.2996249999999997
 30
0.0
 11
-0.9325396111111109
 21
-1.317983650701678
 31
0.0
  0
LINE
  5
A4
330
87
100
AcDbEntity
  8
AM_9
100
AcDbLine
 10
1.021825361111111
 20
-1.603139900701676
 30
0.0
 11
1.021825361111111
 21
-1.4605625
 31
0.0
  0
LINE
  5
A5
330
87
100
AcDbEntity
  8
AM_9
100
AcDbLine
 10
-1.021825361111111
 20
-1.4605625
 30
0.0
 11
-1.021825361111111
 21
-1.603139900701676
 31
0.0
  0
LINE
  5
A6
330
87
100
AcDbEntity
  8
AM_9
100
AcDbLine
 10
1.076467111111111
 20
-1.745718025701676
 30
0.0
 11
1.111111111111111
 21
-1.711074025701676
 31
0.0
  0
LINE
  5
A7
330
87
100
AcDbEntity
  8
AM_9
100
AcDbLine
 10
-1.111111111111111
 20
-1.711074025701676
 30
0.0
 11
-1.076467111111111
 21
-1.745718025701676
 31
0.0
  0
LINE
  5
A8
330
87
100
AcDbEntity
  8
AM_9
100
AcDbLine
 10
-1.076467111111111
 20
-1.745718025701676
 30
0.0
 11
1.076467111111111
 21
-1.745718025701676
 31
0.0
  0
LINE
  5
A9
330
87
100
AcDbEntity
  8
AM_9
100
AcDbLine
 10
-1.076467111111111
 20
-0.2996249999999997
 30
0.0
 11
1.076467111111111
 21
-0.2996249999999997
 31
0.0
  0
LINE
  5
AA
330
87
100
AcDbEntity
  8
AM_9
100
AcDbLine
 10
-1.076467111111111
 20
-0.2996249999999997
 30
0.0
 11
-1.111111111111111
 21
-0.3342689999999996
 31
0.0
  0
LINE
  5
AB
330
87
100
AcDbEntity
  8
AM_9
100
AcDbLine
 10
1.111111111111111
 20
-0.3342689999999996
 30
0.0
 11
1.076467111111111
 21
-0.2996249999999997
 31
0.0
  0
LINE
  5
AC
330
87
100
AcDbEntity
  8
AM_9
100
AcDbLine
 10
1.111111111111111
 20
-1.452999966359787
 30
0.0
 11
1.111111111111111
 21
-1.3233
 31
0.0
  0
LINE
  5
AD
330
87
100
AcDbEntity
  8
AM_9
100
AcDbLine
 10
-1.111111111111111
 20
-1.3233
 30
0.0
 11
-1.111111111111111
 21
-1.452999966359787
 31
0.0
  0
LINE
  5
AE
330
87
100
AcDbEntity
  8
AM_9
100
AcDbLine
 10
1.111111111111111
 20
-1.711074025701676
 30
0.0
 11
1.111111111111111
 21
-1.603139900701676
 31
0.0
  0
LINE
  5
AF
330
87
100
AcDbEntity
  8
AM_9
100
AcDbLine
 10
-1.111111111111111
 20
-1.603139900701676
 30
0.0
 11
-1.111111111111111
 21
-1.711074025701676
 31
0.0
  0
LINE
  5
B0
330
87
100
AcDbEntity
  8
AM_9
100
AcDbLine
 10
-1.111111111111111
 20
-1.711074025701676
 30
0.0
 11
1.111111111111111
 21
-1.711074025701676
 31
0.0
  0
LINE
  5
B1
330
87
100
AcDbEntity
  8
AM_9
100
AcDbLine
 10
-1.111111111111111
 20
-1.603139900701676
 30
0.0
 11
1.111111111111111
 21
-1.603139900701676
 31
0.0
  0
LINE
  5
B2
330
87
100
AcDbEntity
  8
AM_9
100
AcDbLine
 10
-1.111111111111111
 20
-0.3342689999999996
 30
0.0
 11
1.111111111111111
 21
-0.3342689999999996
 31
0.0
  0
LINE
  5
B3
330
87
100
AcDbEntity
  8
AM_9
100
AcDbLine
 10
1.111111111111111
 20
-0.4571999999999998
 30
0.0
 11
1.111111111111111
 21
-0.3342689999999996
 31
0.0
  0
LINE
  5
B4
330
87
100
AcDbEntity
  8
AM_9
100
AcDbLine
 10
-1.111111111111111
 20
-0.3342689999999996
 30
0.0
 11
-1.111111111111111
 21
-0.4571999999999998
 31
0.0
  0
LINE
  5
B5
330
87
100
AcDbEntity
  8
AM_9
100
AcDbLine
 10
1.48819
 20
-1.15905
 30
0.0
 11
1.48819
 21
-1.06945
 31
0.0
  0
LINE
  5
B6
330
87
100
AcDbEntity
  8
AM_9
100
AcDbLine
 10
-1.48819
 20
-1.06945
 30
0.0
 11
-1.48819
 21
-1.15905
 31
0.0
  0
LINE
  5
B7
330
87
100
AcDbEntity
  8
AM_9
100
AcDbLine
 10
-1.464831511554448
 20
-0.4571999999999998
 30
0.0
 11
1.464831511554448
 21
-0.4571999999999998
 31
0.0
  0
ARC
  5
B8
330
87
100
AcDbEntity
  8
AM_9
100
AcDbCircle
 10
1.464831511554448
 20
-0.4918440000000003
 30
0.0
 40
0.0346440000000004
100
AcDbArc
 50
21.41247735053864
 51
90.0
  0
ARC
  5
B9
330
87
100
AcDbEntity
  8
AM_9
100
AcDbCircle
 10
-1.464831511554448
 20
-0.4918440000000003
 30
0.0
 40
0.0346440000000006
100
AcDbArc
 50
90.0
 51
158.5875226494614
  0
LINE
  5
BA
330
87
100
AcDbEntity
  8
AM_9
100
AcDbLine
 10
-1.464831511554448
 20
-1.323299999999999
 30
0.0
 11
1.464831511554448
 21
-1.323299999999999
 31
0.0
  0
ARC
  5
BB
330
87
100
AcDbEntity
  8
AM_9
100
AcDbCircle
 10
1.464831511554448
 20
-1.288656
 30
0.0
 40
0.0346439999999995
100
AcDbArc
 50
270.0
 51
338.5875329531163
  0
ARC
  5
BC
330
87
100
AcDbEntity
  8
AM_9
100
AcDbCircle
 10
-1.464831511554447
 20
-1.288655999999999
 30
0.0
 40
0.0346440000000006
100
AcDbArc
 50
201.412467046885
 51
270.0
  0
LINE
  5
BD
330
87
100
AcDbEntity
  8
AM_9
100
AcDbLine
 10
-1.497084257953002
 20
-1.301303809523809
 30
0.0
 11
1.497084257953002
 21
-1.301303809523809
 31
0.0
  0
ARC
  5
BE
330
87
100
AcDbEntity
  8
AM_9
100
AcDbCircle
 10
0.4488700000002239
 20
-0.8902500000000706
 30
0.0
 40
1.125929999999765
100
AcDbArc
 50
338.5875329531151
 51
345.6207801714356
  0
ARC
  5
BF
330
87
100
AcDbEntity
  8
AM_9
100
AcDbCircle
 10
-0.4488699999999779
 20
-0.8902499999999912
 30
0.0
 40
1.125930000000023
100
AcDbArc
 50
194.3792198285652
 51
201.412467046884
  0
LINE
  5
C0
330
87
100
AcDbEntity
  8
AM_9
100
AcDbLine
 10
-1.531138641253178
 20
-1.15905
 30
0.0
 11
1.531138641253178
 21
-1.15905
 31
0.0
  0
ARC
  5
C1
330
87
100
AcDbEntity
  8
AM_9
100
AcDbCircle
 10
1.531138641253178
 20
-1.167710999999999
 30
0.0
 40
0.0086609999999992
100
AcDbArc
 50
345.6207801714301
 51
90.0
  0
ARC
  5
C2
330
87
100
AcDbEntity
  8
AM_9
100
AcDbCircle
 10
-1.531138641253178
 20
-1.167710999999999
 30
0.0
 40
0.0086609999999994
100
AcDbArc
 50
90.0
 51
194.3792198285699
  0
LINE
  5
C3
330
87
100
AcDbEntity
  8
AM_9
100
AcDbLine
 10
-1.539528320642737
 20
-1.169861860465116
 30
0.0
 11
1.539528320642737
 21
-1.169861860465116
 31
0.0
  0
LINE
  5
C4
330
87
100
AcDbEntity
  8
AM_9
100
AcDbLine
 10
-1.553046828157519
 20
-1.06945
 30
0.0
 11
1.553046828157519
 21
-1.06945
 31
0.0
  0
ARC
  5
C5
330
87
100
AcDbEntity
  8
AM_9
100
AcDbCircle
 10
1.553046828157519
 20
-1.060789
 30
0.0
 40
0.0086610000000003
100
AcDbArc
 50
270.0
 51
351.2200992343489
  0
ARC
  5
C6
330
87
100
AcDbEntity
  8
AM_9
100
AcDbCircle
 10
-1.553046828157519
 20
-1.060789
 30
0.0
 40
0.0086610000000004
100
AcDbArc
 50
188.7799007656511
 51
270.0
  0
LINE
  5
C7
330
87
100
AcDbEntity
  8
AM_9
100
AcDbLine
 10
-1.497084255678512
 20
-0.4791961846760925
 30
0.0
 11
1.497084255678512
 21
-0.4791961846760925
 31
0.0
  0
ARC
  5
C8
330
87
100
AcDbEntity
  8
AM_9
100
AcDbCircle
 10
0.4488699999999741
 20
-0.8902500000000045
 30
0.0
 40
1.125930000000025
100
AcDbArc
 50
351.2200992343492
 51
21.41246736391933
  0
ARC
  5
C9
330
87
100
AcDbEntity
  8
AM_9
100
AcDbCircle
 10
-0.4488700000000316
 20
-0.8902499999999982
 30
0.0
 40
1.125929999999969
100
AcDbArc
 50
158.5875326360799
 51
188.7799007656516
  0
LINE
  5
CA
330
87
100
AcDbEntity
  8
AM_9
100
AcDbLine
 10
-1.561606338453314
 20
-1.062111007751938
 30
0.0
 11
1.561606338453314
 21
-1.062111007751938
 31
0.0
  0
LINE
  5
CC
330
87
100
AcDbEntity
  8
AM_4
100
AcDbLine
 10
1.111111111111111
 20
-1.460561775701676
 30
0.0
 11
1.111111111111111
 21
-1.452999966359787
 31
0.0
  0
LINE
  5
CD
330
87
100
AcDbEntity
  8
AM_4
100
AcDbLine
 10
-1.111111111111111
 20
-1.452999966359787
 30
0.0
 11
-1.111111111111111
 21
-1.460561775701676
 31
0.0
  0
LINE
  5
CE
330
87
100
AcDbEntity
  8
AM_4
100
AcDbLine
 10
-1.111111111111111
 20
-1.460561775701676
 30
0.0
 11
1.111111111111111
 21
-1.460561775701676
 31
0.0
  0
ENDBLK
  5
8A
330
87
100
AcDbEntity
  8
0
100
AcDbBlockEnd
  0
BLOCK
  5
D1
330
CF
100
AcDbEntity
  8
0
100
AcDbBlockBegin
  2
3_129975_0_in_129349_4
 70
     2
 10
0.0
 20
0.0
 30
0.0
  3
3_129975_0_in_129349_4
  1

  0
ATTDEF
  5
D3
330
CF
100
AcDbEntity
  8
AM_6
100
AcDbText
 10
6.24497228884823
 20
0.1041599999999999
 30
0.0
 40
0.5
  1
Grip Tight Adapter and Nut - Corrosion Resistant Inch Bore
100
AcDbAttributeDefinition
  3

  2
NN
 70
     8
280
     0
  0
ATTDEF
  5
D4
330
CF
100
AcDbEntity
  8
AM_6
100
AcDbText
 10
6.24497228884823
 20
-0.3958400000000001
 30
0.0
 40
0.5
  1
GT and GTM Adapter & Lock Nut Assemblies
100
AcDbAttributeDefinition
  3

  2
NT
 70
     8
280
     0
  0
ATTDEF
  5
D5
330
CF
100
AcDbEntity
  8
AM_6
100
AcDbText
 10
6.24497228884823
 20
-0.8958400000000002
 30
0.0
 40
0.5
  1
129975
100
AcDbAttributeDefinition
  3

  2
NB
 70
     8
280
     0
  0
ATTDEF
  5
D6
330
CF
100
AcDbEntity
  8
AM_6
100
AcDbText
 10
6.24497228884823
 20
-1.39584
 30
0.0
 40
0.5
  1
$PN.
100
AcDbAttributeDefinition
  3

  2
NBSYN
 70
     8
280
     0
  0
ATTDEF
  5
D7
330
CF
100
AcDbEntity
  8
AM_6
100
AcDbText
 10
6.24497228884823
 20
-1.89584
 30
0.0
 40
0.5
  1
129975
100
AcDbAttributeDefinition
  3

  2
LINA
 70
     8
280
     0
  0
ATTDEF
  5
D8
330
CF
100
AcDbEntity
  8
AM_6
100
AcDbText
 10
6.24497228884823
 20
-2.39584
 30
0.0
 40
0.5
  1
208
100
AcDbAttributeDefinition
  3

  2
SERIES
 70
     8
280
     0
  0
ATTDEF
  5
D9
330
CF
100
AcDbEntity
  8
AM_6
100
AcDbText
 10
6.24497228884823
 20
-2.89584
 30
0.0
 40
0.5
  1
1-1/2
100
AcDbAttributeDefinition
  3

  2
SS
 70
     8
280
     0
  0
ATTDEF
  5
DA
330
CF
100
AcDbEntity
  8
AM_6
100
AcDbText
 10
6.24497228884823
 20
-3.39584
 30
0.0
 40
0.5
  1
129975
100
AcDbAttributeDefinition
  3

  2
PN
 70
     8
280
     0
  0
ATTDEF
  5
DB
330
CF
100
AcDbEntity
  8
AM_6
100
AcDbText
 10
6.24497228884823
 20
-3.89584
 30
0.0
 40
0.5
  1
AN-GT-08-108-CR
100
AcDbAttributeDefinition
  3

  2
DESCRIPTION
 70
     8
280
     0
  0
ATTDEF
  5
DC
330
CF
100
AcDbEntity
  8
AM_6
100
AcDbText
 10
6.24497228884823
 20
-4.39584
 30
0.0
 40
0.5
  1
1-27/32
100
AcDbAttributeDefinition
  3

  2
A
 70
     8
280
     0
  0
ATTDEF
  5
DD
330
CF
100
AcDbEntity
  8
AM_6
100
AcDbText
 10
6.24497228884823
 20
-4.89584
 30
0.0
 40
0.5
  1
0.8661
100
AcDbAttributeDefinition
  3

  2
C
 70
     8
280
     0
  0
ATTDEF
  5
DE
330
CF
100
AcDbEntity
  8
AM_6
100
AcDbText
 10
6.24497228884823
 20
-5.39584
 30
0.0
 40
0.5
  1
3.1496
100
AcDbAttributeDefinition
  3

  2
D
 70
     8
280
     0
  0
ATTDEF
  5
DF
330
CF
100
AcDbEntity
  8
AM_6
100
AcDbText
 10
6.24497228884823
 20
-5.89584
 30
0.0
 40
0.5
  1
0.224
100
AcDbAttributeDefinition
  3

  2
J
 70
     8
280
     0
  0
ATTDEF
  5
E0
330
CF
100
AcDbEntity
  8
AM_6
100
AcDbText
 10
6.24497228884823
 20
-6.39584
 30
0.0
 40
0.5
  1
2-1/2
100
AcDbAttributeDefinition
  3

  2
L
 70
     8
280
     0
  0
ATTDEF
  5
E1
330
CF
100
AcDbEntity
  8
AM_6
100
AcDbText
 10
6.24497228884823
 20
-6.89584
 30
0.0
 40
0.5
  1
10 - 32 x 1/4
100
AcDbAttributeDefinition
  3

  2
N
 70
     8
280
     0
  0
ATTDEF
  5
E2
330
CF
100
AcDbEntity
  8
AM_6
100
AcDbText
 10
6.24497228884823
 20
-7.39584
 30
0.0
 40
0.5
  1
21/32
100
AcDbAttributeDefinition
  3

  2
W
 70
     8
280
     0
  0
ATTDEF
  5
E3
330
CF
100
AcDbEntity
  8
AM_6
100
AcDbText
 10
6.24497228884823
 20
-7.89584
 30
0.0
 40
0.5
  1
1-9/64
100
AcDbAttributeDefinition
  3

  2
X
 70
     8
280
     0
  0
ATTDEF
  5
E4
330
CF
100
AcDbEntity
  8
AM_6
100
AcDbText
 10
6.24497228884823
 20
-8.39584
 30
0.0
 40
0.5
  1
1-3/16
100
AcDbAttributeDefinition
  3

  2
Y
 70
     8
280
     0
  0
ATTDEF
  5
E5
330
CF
100
AcDbEntity
  8
AM_6
100
AcDbText
 10
6.24497228884823
 20
-8.89584
 30
0.0
 40
0.5
  1
baldor
100
AcDbAttributeDefinition
  3

  2
COMPANY
 70
     8
280
     0
  0
LINE
  5
E6
330
CF
100
AcDbEntity
  8
AM_9
100
AcDbLine
 10
-1.233
 20
-1.992437683324866
 30
0.0
 11
-0.9544999999999998
 21
-1.992437683324866
 31
0.0
  0
LINE
  5
E7
330
CF
100
AcDbEntity
  8
AM_9
100
AcDbLine
 10
-0.9544999999999998
 20
-1.836437683324866
 30
0.0
 11
-1.233
 21
-1.836437683324866
 31
0.0
  0
LINE
  5
E8
330
CF
100
AcDbEntity
  8
AM_9
100
AcDbLine
 10
-0.9544999999999998
 20
-1.992437683324866
 30
0.0
 11
-0.9374999999999999
 21
-2.009437683324866
 31
0.0
  0
LINE
  5
E9
330
CF
100
AcDbEntity
  8
AM_9
100
AcDbLine
 10
-0.9374999999999999
 20
-1.819437683324866
 30
0.0
 11
-0.9544999999999998
 21
-1.836437683324866
 31
0.0
  0
LINE
  5
EA
330
CF
100
AcDbEntity
  8
AM_9
100
AcDbLine
 10
-0.9374999999999999
 20
-1.819437683324866
 30
0.0
 11
-0.9374999999999999
 21
-2.009437683324866
 31
0.0
  0
LINE
  5
EB
330
CF
100
AcDbEntity
  8
AM_9
100
AcDbLine
 10
-0.9544999999999998
 20
-1.836437683324866
 30
0.0
 11
-0.9544999999999998
 21
-1.992437683324866
 31
0.0
  0
LINE
  5
EC
330
CF
100
AcDbEntity
  8
AM_9
100
AcDbLine
 10
-1.233
 20
-1.836437683324866
 30
0.0
 11
-1.249958062831273
 21
-1.819479620493593
 31
0.0
  0
LINE
  5
ED
330
CF
100
AcDbEntity
  8
AM_9
100
AcDbLine
 10
-1.243389991728897
 20
-2.002827675053763
 30
0.0
 11
-1.233
 21
-1.992437683324866
 31
0.0
  0
LINE
  5
EE
330
CF
100
AcDbEntity
  8
AM_9
100
AcDbLine
 10
-1.233
 20
-1.836437683324866
 30
0.0
 11
-1.233
 21
-1.992437683324866
 31
0.0
  0
LINE
  5
EF
330
CF
100
AcDbEntity
  8
AM_9
100
AcDbLine
 10
1.166666454999577
 20
-1.4605625
 30
0.0
 11
1.166666454999577
 21
-2.030875
 31
0.0
  0
LINE
  5
F0
330
CF
100
AcDbEntity
  8
AM_9
100
AcDbLine
 10
0.7500000000000002
 20
-2.07775
 30
0.0
 11
0.7500000000000002
 21
-0.234
 31
0.0
  0
LINE
  5
F1
330
CF
100
AcDbEntity
  8
AM_9
100
AcDbLine
 10
-0.7499999999999999
 20
-0.234
 30
0.0
 11
-0.7499999999999999
 21
-2.07775
 31
0.0
  0
LINE
  5
F2
330
CF
100
AcDbEntity
  8
AM_9
100
AcDbLine
 10
0.9325396825396826
 20
-1.745718025701676
 30
0.0
 11
0.9325396825396826
 21
-1.317984375000001
 31
0.0
  0
LINE
  5
F3
330
CF
100
AcDbEntity
  8
AM_9
100
AcDbLine
 10
-0.9325396825396823
 20
-1.317984375000001
 30
0.0
 11
-0.9325396825396823
 21
-1.745718025701676
 31
0.0
  0
LINE
  5
F4
330
CF
100
AcDbEntity
  8
AM_9
100
AcDbLine
 10
-0.0499999999999999
 20
-0.2339999999999997
 30
0.0
 11
-0.0499999999999998
 21
-2.030875
 31
0.0
  0
LINE
  5
F5
330
CF
100
AcDbEntity
  8
AM_9
100
AcDbLine
 10
0.0500000000000001
 20
-0.2339999999999997
 30
0.0
 11
0.0500000000000001
 21
-2.030875
 31
0.0
  0
LINE
  5
F6
330
CF
100
AcDbEntity
  8
AM_9
100
AcDbLine
 10
-0.9325396825396824
 20
-1.317984375000001
 30
0.0
 11
0.9325396825396827
 21
-1.317984375000001
 31
0.0
  0
LINE
  5
F7
330
CF
100
AcDbEntity
  8
AM_9
100
AcDbLine
 10
0.9325396825396827
 20
-1.317984375000001
 30
0.0
 11
0.9703932510317139
 21
-0.2339999999999997
 31
0.0
  0
LINE
  5
F8
330
CF
100
AcDbEntity
  8
AM_9
100
AcDbLine
 10
-0.9703932510317137
 20
-0.2339999999999997
 30
0.0
 11
-0.9325396825396824
 21
-1.317984375000001
 31
0.0
  0
LINE
  5
F9
330
CF
100
AcDbEntity
  8
AM_9
100
AcDbLine
 10
-0.9703932510317137
 20
-0.2339999999999997
 30
0.0
 11
0.9703932510317139
 21
-0.2339999999999997
 31
0.0
  0
LINE
  5
FA
330
CF
100
AcDbEntity
  8
AM_9
100
AcDbLine
 10
1.021825396825397
 20
-1.603140625
 30
0.0
 11
1.021825396825397
 21
-1.4605625
 31
0.0
  0
LINE
  5
FB
330
CF
100
AcDbEntity
  8
AM_9
100
AcDbLine
 10
-1.021825396825397
 20
-1.4605625
 30
0.0
 11
-1.021825396825397
 21
-1.603140625
 31
0.0
  0
LINE
  5
FC
330
CF
100
AcDbEntity
  8
AM_9
100
AcDbLine
 10
-0.4863383822759316
 20
-1.4605625
 30
0.0
 11
-0.4863383822759316
 21
-2.030875
 31
0.0
  0
LINE
  5
FD
330
CF
100
AcDbEntity
  8
AM_9
100
AcDbLine
 10
-1.111111111111111
 20
-1.74571875
 30
0.0
 11
1.111111111111111
 21
-1.74571875
 31
0.0
  0
LINE
  5
FE
330
CF
100
AcDbEntity
  8
AM_9
100
AcDbLine
 10
-1.111111111111111
 20
-1.603140625
 30
0.0
 11
1.111111111111111
 21
-1.603140625
 31
0.0
  0
LINE
  5
FF
330
CF
100
AcDbEntity
  8
AM_9
100
AcDbLine
 10
1.111111111111111
 20
-1.74571875
 30
0.0
 11
1.111111111111111
 21
-1.603140625
 31
0.0
  0
LINE
  5
100
330
CF
100
AcDbEntity
  8
AM_9
100
AcDbLine
 10
-1.111111111111111
 20
-1.603140625
 30
0.0
 11
-1.111111111111111
 21
-1.74571875
 31
0.0
  0
LINE
  5
102
330
CF
100
AcDbEntity
  8
AM_5
100
AcDbLine
 10
-1.236793316675134
 20
-2.009437683324866
 30
0.0
 11
-0.9375
 21
-2.009437683324866
 31
0.0
  0
LINE
  5
103
330
CF
100
AcDbEntity
  8
AM_5
100
AcDbLine
 10
-1.25
 20
-1.819437683324866
 30
0.0
 11
-0.9374999999999999
 21
-1.819437683324866
 31
0.0
  0
LINE
  5
106
330
CF
100
AcDbEntity
  8
AM_7
100
AcDbLine
 10
0.0000000000000001
 20
-2.1699375
 30
0.0
 11
0.0
 21
0.1041599999999999
 31
0.0
  0
LINE
  5
107
330
CF
100
AcDbEntity
  8
AM_7
100
AcDbLine
 10
-0.9218749999999999
 20
-1.914437683324866
 30
0.0
 11
-1.265625
 21
-1.914437683324866
 31
0.0
  0
LINE
  5
108
330
CF
100
AcDbEntity
  8
AM_4
100
AcDbLine
 10
-0.0499999999999999
 20
-2.07775
 30
0.0
 11
-0.0499999999999998
 21
-2.030875
 31
0.0
  0
LINE
  5
109
330
CF
100
AcDbEntity
  8
AM_4
100
AcDbLine
 10
0.0500000000000001
 20
-2.07775
 30
0.0
 11
0.0500000000000001
 21
-2.030875
 31
0.0
  0
LINE
  5
10A
330
CF
100
AcDbEntity
  8
AM_4
100
AcDbLine
 10
0.9325396825396824
 20
-2.07775
 30
0.0
 11
0.9325396825396824
 21
-2.030875
 31
0.0
  0
LINE
  5
10B
330
CF
100
AcDbEntity
  8
AM_4
100
AcDbLine
 10
-0.9325396825396821
 20
-2.030875
 30
0.0
 11
-0.9325396825396821
 21
-2.07775
 31
0.0
  0
LINE
  5
10C
330
CF
100
AcDbEntity
  8
AM_4
100
AcDbLine
 10
-0.9325396825396821
 20
-2.07775
 30
0.0
 11
0.9325396825396824
 21
-2.07775
 31
0.0
  0
LINE
  5
10D
330
CF
100
AcDbEntity
  8
AM_4
100
AcDbLine
 10
-1.215356
 20
-1.4605625
 30
0.0
 11
-1.25
 21
-1.4952065
 31
0.0
  0
LINE
  5
10E
330
CF
100
AcDbEntity
  8
AM_4
100
AcDbLine
 10
-1.25
 20
-1.4952065
 30
0.0
 11
-1.25
 21
-1.819516247089276
 31
0.0
  0
LWPOLYLINE
  5
10F
330
CF
100
AcDbEntity
  8
AM_4
100
AcDbPolyline
 90
       17
 70
     0
 43
0.0
 10
-1.25
 20
-1.819437683324872
 10
-1.249918195160432
 20
-1.820602943672506
 10
-1.249674945919556
 20
-1.824155814470052
 10
-1.249283980571241
 20
-1.830176582547077
 10
-1.248801420944572
 20
-1.838255693823394
 10
-1.248258036161323
 20
-1.848519657338115
 10
-1.247721648711152
 20
-1.86052463479124
 10
-1.247239072605746
 20
-1.874271145639757
 10
-1.24687494275573
 20
-1.889176488213118
 10
-1.246668572495202
 20
-1.905182585781663
 10
-1.246654515450888
 20
-1.921368130397458
 10
-1.246840751474802
 20
-1.937816801565424
 10
-1.24719887264129
 20
-1.953240518711333
 10
-1.247706835014988
 20
-1.967981155397713
 10
-1.248139519577779
 20
-1.977898146914636
 10
-1.248594676036784
 20
-1.986885099189958
 10
-1.249131463919283
 20
-1.996231
  0
LINE
  5
110
330
CF
100
AcDbEntity
  8
AM_4
100
AcDbLine
 10
-1.25
 20
-1.4952065
 30
0.0
 11
-0.719480989647972
 21
-1.4952065
 31
0.0
  0
LINE
  5
111
330
CF
100
AcDbEntity
  8
AM_4
100
AcDbLine
 10
-0.7020870296751192
 20
-1.4605625
 30
0.0
 11
-0.719480989647972
 21
-1.4952065
 31
0.0
  0
LINE
  5
112
330
CF
100
AcDbEntity
  8
AM_4
100
AcDbLine
 10
-0.719480989647972
 20
-1.4952065
 30
0.0
 11
-0.7194809896479721
 21
-1.996231
 31
0.0
  0
LINE
  5
113
330
CF
100
AcDbEntity
  8
AM_4
100
AcDbLine
 10
-1.249131463919283
 20
-1.996231
 30
0.0
 11
-0.7194809896479721
 21
-1.996231
 31
0.0
  0
LINE
  5
114
330
CF
100
AcDbEntity
  8
AM_4
100
AcDbLine
 10
-1.249131463919283
 20
-1.996231
 30
0.0
 11
-1.243396658337575
 21
-2.002834341662423
 31
0.0
  0
LINE
  5
115
330
CF
100
AcDbEntity
  8
AM_4
100
AcDbLine
 10
-0.7194809896479721
 20
-1.996231
 30
0.0
 11
-0.7020870296751196
 21
-2.030875
 31
0.0
  0
LINE
  5
116
330
CF
100
AcDbEntity
  8
AM_4
100
AcDbLine
 10
-1.24349129850301
 20
-2.00273970149699
 30
0.0
 11
-1.215356
 21
-2.030875
 31
0.0
  0
LINE
  5
117
330
CF
100
AcDbEntity
  8
AM_4
100
AcDbLine
 10
-0.6803280727236455
 20
-1.4605625
 30
0.0
 11
-0.6803280727236455
 21
-2.030875
 31
0.0
  0
LINE
  5
118
330
CF
100
AcDbEntity
  8
AM_4
100
AcDbLine
 10
1.210184368902524
 20
-1.4605625
 30
0.0
 11
1.24497228884823
 21
-1.4952065
 31
0.0
  0
LINE
  5
119
330
CF
100
AcDbEntity
  8
AM_4
100
AcDbLine
 10
-1.215356
 20
-1.4605625
 30
0.0
 11
1.210184368902524
 21
-1.4605625
 31
0.0
  0
LINE
  5
11A
330
CF
100
AcDbEntity
  8
AM_4
100
AcDbLine
 10
-0.525491299200258
 20
-1.4952065
 30
0.0
 11
-0.5080973392274051
 21
-1.4605625
 31
0.0
  0
LINE
  5
11B
330
CF
100
AcDbEntity
  8
AM_4
100
AcDbLine
 10
1.24497228884823
 20
-1.4952065
 30
0.0
 11
1.24497228884823
 21
-1.996231
 31
0.0
  0
LINE
  5
11C
330
CF
100
AcDbEntity
  8
AM_4
100
AcDbLine
 10
-0.525491299200258
 20
-1.4952065
 30
0.0
 11
1.24497228884823
 21
-1.4952065
 31
0.0
  0
LINE
  5
11D
330
CF
100
AcDbEntity
  8
AM_4
100
AcDbLine
 10
-0.5254912992002583
 20
-1.996231
 30
0.0
 11
-0.525491299200258
 21
-1.4952065
 31
0.0
  0
LINE
  5
11E
330
CF
100
AcDbEntity
  8
AM_4
100
AcDbLine
 10
1.24497228884823
 20
-1.996231
 30
0.0
 11
1.210184368902524
 21
-2.030875
 31
0.0
  0
LINE
  5
11F
330
CF
100
AcDbEntity
  8
AM_4
100
AcDbLine
 10
-0.5254912992002583
 20
-1.996231
 30
0.0
 11
1.24497228884823
 21
-1.996231
 31
0.0
  0
LINE
  5
120
330
CF
100
AcDbEntity
  8
AM_4
100
AcDbLine
 10
-0.5080973392274053
 20
-2.030875
 30
0.0
 11
-0.5254912992002583
 21
-1.996231
 31
0.0
  0
LINE
  5
121
330
CF
100
AcDbEntity
  8
AM_4
100
AcDbLine
 10
-1.215356
 20
-2.030875
 30
0.0
 11
1.210184368902524
 21
-2.030875
 31
0.0
  0
ENDBLK
  5
D2
330
CF
100
AcDbEntity
  8
0
100
AcDbBlockEnd
  0
BLOCK
  5
124
330
122
100
AcDbEntity
  8
0
100
AcDbBlockBegin
  2
4_F2B_GREZ_08_PCR_II_0_in_129349_4
 70
     2
 10
0.0
 20
0.0
 30
0.0
  3
4_F2B_GREZ_08_PCR_II_0_in_129349_4
  1

  0
ATTDEF
  5
126
330
122
100
AcDbEntity
  8
AM_6
100
AcDbText
 10
7.031499999999999
 20
0.0000000000000002
 30
0.0
 40
0.5
  1
F2B-GTEZ-PCR-B-I
100
AcDbAttributeDefinition
  3

  2
NN
 70
     8
280
     0
  0
ATTDEF
  5
127
330
122
100
AcDbEntity
  8
AM_6
100
AcDbText
 10
7.031499999999999
 20
-0.4999999999999998
 30
0.0
 40
0.5
  1
GTEZ Normal Duty Polymer Housed 2 Bolt Flange Bearings
100
AcDbAttributeDefinition
  3

  2
NT
 70
     8
280
     0
  0
ATTDEF
  5
128
330
122
100
AcDbEntity
  8
AM_6
100
AcDbText
 10
7.031499999999999
 20
-0.9999999999999998
 30
0.0
 40
0.5
  1
F2B-GREZ-08-PCR-II
100
AcDbAttributeDefinition
  3

  2
NB
 70
     8
280
     0
  0
ATTDEF
  5
129
330
122
100
AcDbEntity
  8
AM_6
100
AcDbText
 10
7.031499999999999
 20
-1.5
 30
0.0
 40
0.5
  1
$PN.$LUBE.I
100
AcDbAttributeDefinition
  3

  2
NBSYN
 70
     8
280
     0
  0
ATTDEF
  5
12A
330
122
100
AcDbEntity
  8
AM_6
100
AcDbText
 10
7.031499999999999
 20
-2.0
 30
0.0
 40
0.5
  1
F2B-GREZ-08-PCR-I
100
AcDbAttributeDefinition
  3

  2
LINA
 70
     8
280
     0
  0
ATTDEF
  5
12B
330
122
100
AcDbEntity
  8
AM_6
100
AcDbText
 10
7.031499999999999
 20
-2.5
 30
0.0
 40
0.5
  1
208
100
AcDbAttributeDefinition
  3

  2
SERIES
 70
     8
280
     0
  0
ATTDEF
  5
12C
330
122
100
AcDbEntity
  8
AM_6
100
AcDbText
 10
7.031499999999999
 20
-3.0
 30
0.0
 40
0.5
  1
1-1/2
100
AcDbAttributeDefinition
  3

  2
SS
 70
     8
280
     0
  0
ATTDEF
  5
12D
330
122
100
AcDbEntity
  8
AM_6
100
AcDbText
 10
7.031499999999999
 20
-3.5
 30
0.0
 40
0.5
  1
F2B-GREZ-08-PCR-I
100
AcDbAttributeDefinition
  3

  2
PN
 70
     8
280
     0
  0
ATTDEF
  5
12E
330
122
100
AcDbEntity
  8
AM_6
100
AcDbText
 10
7.031499999999999
 20
-4.0
 30
0.0
 40
0.5
  1
F2B-GREZ-08-PCR
100
AcDbAttributeDefinition
  3

  2
DESCRIPTION
 70
     8
280
     0
  0
ATTDEF
  5
12F
330
122
100
AcDbEntity
  8
AM_6
100
AcDbText
 10
7.031499999999999
 20
-4.5
 30
0.0
 40
0.5
  1
2.75
100
AcDbAttributeDefinition
  3

  2
WEIGHT
 70
     8
280
     0
  0
ATTDEF
  5
130
330
122
100
AcDbEntity
  8
AM_6
100
AcDbText
 10
7.031499999999999
 20
-5.0
 30
0.0
 40
0.5
  1
1-27/32
100
AcDbAttributeDefinition
  3

  2
A
 70
     8
280
     0
  0
ATTDEF
  5
131
330
122
100
AcDbEntity
  8
AM_6
100
AcDbText
 10
7.031499999999999
 20
-5.5
 30
0.0
 40
0.5
  1
6-25/32
100
AcDbAttributeDefinition
  3

  2
B
 70
     8
280
     0
  0
ATTDEF
  5
132
330
122
100
AcDbEntity
  8
AM_6
100
AcDbText
 10
7.031499999999999
 20
-6.0
 30
0.0
 40
0.5
  1
2-5/64
100
AcDbAttributeDefinition
  3

  2
C
 70
     8
280
     0
  0
ATTDEF
  5
133
330
122
100
AcDbEntity
  8
AM_6
100
AcDbText
 10
7.031499999999999
 20
-6.5
 30
0.0
 40
0.5
  1
5-21/32
100
AcDbAttributeDefinition
  3

  2
D
 70
     8
280
     0
  0
ATTDEF
  5
134
330
122
100
AcDbEntity
  8
AM_6
100
AcDbText
 10
7.031499999999999
 20
-7.0
 30
0.0
 40
0.5
  1
1/2
100
AcDbAttributeDefinition
  3

  2
F
 70
     8
280
     0
  0
ATTDEF
  5
135
330
122
100
AcDbEntity
  8
AM_6
100
AcDbText
 10
7.031499999999999
 20
-7.5
 30
0.0
 40
0.5
  1
0.813
100
AcDbAttributeDefinition
  3

  2
FMAJ1
 70
     8
280
     0
  0
ATTDEF
  5
136
330
122
100
AcDbEntity
  8
AM_6
100
AcDbText
 10
7.031499999999999
 20
-8.0
 30
0.0
 40
0.5
  1
0.516
100
AcDbAttributeDefinition
  3

  2
FMIN1
 70
     8
280
     0
  0
ATTDEF
  5
137
330
122
100
AcDbEntity
  8
AM_6
100
AcDbText
 10
7.031499999999999
 20
-8.5
 30
0.0
 40
0.5
  1
43/64
100
AcDbAttributeDefinition
  3

  2
H
 70
     8
280
     0
  0
ATTDEF
  5
138
330
122
100
AcDbEntity
  8
AM_6
100
AcDbText
 10
7.031499999999999
 20
-9.0
 30
0.0
 40
0.5
  1
37/64
100
AcDbAttributeDefinition
  3

  2
J
 70
     8
280
     0
  0
ATTDEF
  5
139
330
122
100
AcDbEntity
  8
AM_6
100
AcDbText
 10
7.031499999999999
 20
-9.5
 30
0.0
 40
0.5
  1
2-1/2
100
AcDbAttributeDefinition
  3

  2
L
 70
     8
280
     0
  0
ATTDEF
  5
13A
330
122
100
AcDbEntity
  8
AM_6
100
AcDbText
 10
7.031499999999999
 20
-10.0
 30
0.0
 40
0.5
  1
4-1/16
100
AcDbAttributeDefinition
  3

  2
M
 70
     8
280
     0
  0
ATTDEF
  5
13B
330
122
100
AcDbEntity
  8
AM_6
100
AcDbText
 10
7.031499999999999
 20
-10.5
 30
0.0
 40
0.5
  1
2-1/32
100
AcDbAttributeDefinition
  3

  2
Z
 70
     8
280
     0
  0
ATTDEF
  5
13C
330
122
100
AcDbEntity
  8
AM_6
100
AcDbText
 10
7.031499999999999
 20
-11.0
 30
0.0
 40
0.5
  1
Infotext
100
AcDbAttributeDefinition
  3

  2
INFO
 70
     8
280
     0
  0
ATTDEF
  5
13D
330
122
100
AcDbEntity
  8
AM_6
100
AcDbText
 10
7.031499999999999
 20
-11.5
 30
0.0
 40
0.5
  1
baldor
100
AcDbAttributeDefinition
  3

  2
COMPANY
 70
     8
280
     0
  0
LWPOLYLINE
  5
13E
330
122
100
AcDbEntity
  8
AM_9
100
AcDbPolyline
 90
        6
 70
     0
 43
0.0
 10
1.396082842832556
 20
-1.219980515
 10
1.408527944812362
 20
-1.181273450187078
 10
1.4232125018282
 20
-1.14222199485748
 10
1.424014087023951
 20
-1.14025852014252
 10
1.441135197468549
 20
-1.101376756411687
 10
1.460373993862675
 20
-1.0625
  0
LINE
  5
13F
330
122
100
AcDbEntity
  8
AM_9
100
AcDbLine
 10
1.460373993862675
 20
-1.0625
 30
0.0
 11
1.534659137996045
 21
-1.0625
 31
0.0
  0
LWPOLYLINE
  5
140
330
122
100
AcDbEntity
  8
AM_9
100
AcDbPolyline
 90
        6
 70
     0
 43
0.0
 10
1.460373993862675
 20
-1.0625
 10
1.441214909764977
 20
-1.023792935187069
 10
1.424014087023944
 20
-0.9847414798574619
 10
1.423212501828208
 20
-0.9827780051425379
 10
1.408586785126136
 20
-0.9438962414116957
 10
1.396082842832556
 20
-0.9050194850000001
  0
LINE
  5
141
330
122
100
AcDbEntity
  8
AM_9
100
AcDbLine
 10
1.5748
 20
-1.453
 30
0.0
 11
1.5748
 21
0.0
 31
0.0
  0
LINE
  5
142
330
122
100
AcDbEntity
  8
AM_9
100
AcDbLine
 10
-1.5748
 20
0.0
 30
0.0
 11
-1.5748
 21
-1.453
 31
0.0
  0
LINE
  5
143
330
122
100
AcDbEntity
  8
AM_9
100
AcDbLine
 10
1.315287787009764
 20
-1.17273583
 30
0.0
 11
1.327175683997422
 21
-1.17273583
 31
0.0
  0
LINE
  5
144
330
122
100
AcDbEntity
  8
AM_9
100
AcDbLine
 10
1.327175683997422
 20
-0.95226417
 30
0.0
 11
1.315287787009764
 21
-0.95226417
 31
0.0
  0
ELLIPSE
  5
145
330
122
100
AcDbEntity
  8
AM_9
100
AcDbEllipse
 10
1.327175683997422
 20
-1.0625
 30
0.0
 11
9.642864610222472E-18
 21
0.1574799300000002
 31
0.0
210
0.0
220
0.0
230
1.0
 40
0.7071067811865485
 41
0.0
 42
6.283185307179586
  0
ELLIPSE
  5
146
330
122
100
AcDbEntity
  8
AM_9
100
AcDbEllipse
 10
1.424612240728481
 20
-1.0625
 30
0.0
 11
-2.024999345412775E-17
 21
-0.1102358299999999
 31
0.0
210
0.0
220
0.0
230
1.0
 40
0.7071067811865492
 41
0.611348657461817
 42
2.531144229191201
  0
ELLIPSE
  5
147
330
122
100
AcDbEntity
  8
AM_9
100
AcDbEllipse
 10
1.410692843740824
 20
-1.0625
 30
0.0
 11
-2.024999345412775E-17
 21
-0.1102358299999999
 31
0.0
210
0.0
220
0.0
230
1.0
 40
0.7071067811865492
 41
0.0
 42
3.141592653589793
  0
ELLIPSE
  5
148
330
122
100
AcDbEntity
  8
AM_9
100
AcDbEllipse
 10
1.410692843740825
 20
-1.0625
 30
0.0
 11
-2.892859383066731E-17
 21
-0.1574799299999996
 31
0.0
210
0.0
220
0.0
230
1.0
 40
0.7071067811865481
 41
0.8512797302988702
 42
2.290157947149274
  0
LWPOLYLINE
  5
149
330
122
100
AcDbEntity
  8
AM_9
100
AcDbPolyline
 90
        4
 70
     0
 43
0.0
 10
1.534659137996045
 20
-1.0625
 10
1.522175513029751
 20
-1.101318175882799
 10
1.507438175076135
 20
-1.140482934915362
 10
1.496319218205342
 20
-1.166478880746059
  0
LWPOLYLINE
  5
14A
330
122
100
AcDbEntity
  8
AM_9
100
AcDbPolyline
 90
        4
 70
     0
 43
0.0
 10
1.496304455217794
 20
-0.9584881723640767
 10
1.506819823775119
 20
-0.9830024199153615
 10
1.521851468188747
 20
-1.022749182098117
 10
1.534659137996045
 20
-1.0625
  0
LWPOLYLINE
  5
14B
330
122
100
AcDbEntity
  8
AM_9
100
AcDbPolyline
 90
       45
 70
     0
 43
0.0
 10
1.442871230046035
 20
-1.008979975612974
 10
1.446471194836846
 20
-1.002270684928224
 10
1.450347850530858
 20
-0.9964332270091278
 10
1.454151550345787
 20
-0.9918123462185593
 10
1.457672451937559
 20
-0.9883880049347809
 10
1.460722039240348
 20
-0.9860640500941324
 10
1.463151386947487
 20
-0.9846767416013908
 10
1.464884865230915
 20
-0.9840023511595749
 10
1.465996259033798
 20
-0.9837778316056183
 10
1.467018359205598
 20
-0.983812080890419
 10
1.468472619678171
 20
-0.9842055008260184
 10
1.470520838094446
 20
-0.9851550109673447
 10
1.473187448907455
 20
-0.9868825641041468
 10
1.476717228989915
 20
-0.9898933192590725
 10
1.480532046084469
 20
-0.9940472136514916
 10
1.484448839067111
 20
-0.9993725282522731
 10
1.488289973355681
 20
-1.005858235074766
 10
1.491880611013792
 20
-1.013443111465932
 10
1.49505444846766
 20
-1.022006930432654
 10
1.497674457544403
 20
-1.031408252047566
 10
1.499627042154843
 20
-1.041472223572084
 10
1.50082671947915
 20
-1.051997562158084
 10
1.501219510723369
 20
-1.062764145429398
 10
1.500785234691281
 20
-1.073540748213066
 10
1.499539679678421
 20
-1.084088201781419
 10
1.497535705153244
 20
-1.09417378060143
 10
1.494861270885485
 20
-1.103583974502736
 10
1.491637826486769
 20
-1.112128810764039
 10
1.488017266079008
 20
-1.119651059083406
 10
1.484176890376786
 20
-1.126035693706092
 10
1.480311956341316
 20
-1.131218785310803
 10
1.476636367659638
 20
-1.135184519565344
 10
1.473349006398247
 20
-1.137997117214158
 10
1.470620175800517
 20
-1.139789864145767
 10
1.468564739101311
 20
-1.14076036653879
 10
1.467192823342622
 20
-1.14115805295206
 10
1.466261711592372
 20
-1.141238614663702
 10
1.465146848329771
 20
-1.141069080357238
 10
1.463511533862119
 20
-1.14048829099068
 10
1.461195488295272
 20
-1.139240858013916
 10
1.458311949465277
 20
-1.137149356996355
 10
1.454660977597399
 20
-1.133732258633452
 10
1.450788839483769
 20
-1.129154860845566
 10
1.446878952710946
 20
-1.123404284761316
 10
1.444642928658593
 20
-1.119501462569132
  0
ELLIPSE
  5
14C
330
122
100
AcDbEntity
  8
AM_9
100
AcDbEllipse
 10
1.502445596003466
 20
-1.062500000000004
 30
0.0
 11
-1.842727313895691E-17
 21
-0.1003134027530044
 31
0.0
210
0.0
220
0.0
230
1.0
 40
0.7071067811865476
 41
4.61570646005466
 42
4.955482593794743
  0
ELLIPSE
  5
14D
330
122
100
AcDbEntity
  8
AM_9
100
AcDbEllipse
 10
1.50244559600339
 20
-1.0625
 30
0.0
 11
-1.842727313893701E-17
 21
-0.100313402752896
 31
0.0
210
0.0
220
0.0
230
1.0
 40
0.7071067811865477
 41
5.236339007637692
 42
10.63408713077825
  0
ELLIPSE
  5
14E
330
122
100
AcDbEntity
  8
AM_9
100
AcDbEllipse
 10
1.517601255308919
 20
-1.0625
 30
0.0
 11
-1.926564871224226E-17
 21
-0.1048773068047362
 31
0.0
210
0.0
220
0.0
230
1.0
 40
0.707106781186548
 41
0.4222113355136621
 42
2.73008126710902
  0
ELLIPSE
  5
14F
330
122
100
AcDbEntity
  8
AM_9
100
AcDbEllipse
 10
1.555056299202467
 20
-1.062499999999827
 30
0.0
 11
-1.537356674937429E-17
 21
-0.08368979943211907
 31
0.0
210
0.0
220
0.0
230
1.0
 40
0.7071067811817368
 41
-3.606578809148718
 42
-3.575624924532912
  0
ELLIPSE
  5
150
330
122
100
AcDbEntity
  8
AM_9
100
AcDbEllipse
 10
1.555056299201484
 20
-1.0625
 30
0.0
 11
-1.537356674940920E-17
 21
-0.08368979943230914
 31
0.0
210
0.0
220
0.0
230
1.0
 40
0.7071067811865436
 41
0.4149862358497929
 42
2.645045300851267
  0
LINE
  5
151
330
122
100
AcDbEntity
  8
AM_9
100
AcDbLine
 10
0.16681783
 20
-1.37425984
 30
0.0
 11
0.16681783
 21
-1.453
 31
0.0
  0
LINE
  5
152
330
122
100
AcDbEntity
  8
AM_9
100
AcDbLine
 10
0.33516609
 20
-1.37425984
 30
0.0
 11
0.33516609
 21
-1.453
 31
0.0
  0
LINE
  5
153
330
122
100
AcDbEntity
  8
AM_9
100
AcDbLine
 10
0.06886975
 20
-1.37425984
 30
0.0
 11
0.06886975
 21
-1.453
 31
0.0
  0
LINE
  5
154
330
122
100
AcDbEntity
  8
AM_9
100
AcDbLine
 10
0.09335677
 20
-1.37425984
 30
0.0
 11
0.09335677
 21
-1.453
 31
0.0
  0
LINE
  5
155
330
122
100
AcDbEntity
  8
AM_9
100
AcDbLine
 10
-0.2004874629000166
 20
-1.37425984
 30
0.0
 11
-0.2004874629000166
 21
-1.453
 31
0.0
  0
LINE
  5
156
330
122
100
AcDbEntity
  8
AM_9
100
AcDbLine
 10
-0.2249744897000611
 20
-1.37425984
 30
0.0
 11
-0.2249744897000611
 21
-1.453
 31
0.0
  0
LINE
  5
157
330
122
100
AcDbEntity
  8
AM_9
100
AcDbLine
 10
-0.0780523722000355
 20
-1.37425984
 30
0.0
 11
-0.0780523722000355
 21
-1.453
 31
0.0
  0
LINE
  5
158
330
122
100
AcDbEntity
  8
AM_9
100
AcDbLine
 10
0.11172203
 20
-1.37425984
 30
0.0
 11
0.11172203
 21
-1.453
 31
0.0
  0
LINE
  5
159
330
122
100
AcDbEntity
  8
AM_9
100
AcDbLine
 10
-0.0964176369000162
 20
-1.37425984
 30
0.0
 11
-0.0964176369000162
 21
-1.453
 31
0.0
  0
LINE
  5
15A
330
122
100
AcDbEntity
  8
AM_9
100
AcDbLine
 10
0.05050448
 20
-1.37425984
 30
0.0
 11
0.05050448
 21
-1.453
 31
0.0
  0
LINE
  5
15B
330
122
100
AcDbEntity
  8
AM_9
100
AcDbLine
 10
0.21273099
 20
-1.37425984
 30
0.0
 11
0.21273099
 21
-1.453
 31
0.0
  0
LINE
  5
15C
330
122
100
AcDbEntity
  8
AM_9
100
AcDbLine
 10
-0.1821222090000572
 20
-1.37425984
 30
0.0
 11
-0.1821222090000572
 21
-1.453
 31
0.0
  0
LINE
  5
15D
330
122
100
AcDbEntity
  8
AM_9
100
AcDbLine
 10
-0.2433397436000182
 20
-1.37425984
 30
0.0
 11
-0.2433397436000182
 21
-1.453
 31
0.0
  0
LINE
  5
15E
330
122
100
AcDbEntity
  8
AM_9
100
AcDbLine
 10
0.09641765
 20
-1.37425984
 30
0.0
 11
0.09641765
 21
-1.453
 31
0.0
  0
LINE
  5
15F
330
122
100
AcDbEntity
  8
AM_9
100
AcDbLine
 10
-0.2280353653999914
 20
-1.37425984
 30
0.0
 11
-0.2280353653999914
 21
-1.453
 31
0.0
  0
LINE
  5
160
330
122
100
AcDbEntity
  8
AM_9
100
AcDbLine
 10
0.06580887
 20
-1.37425984
 30
0.0
 11
0.06580887
 21
-1.453
 31
0.0
  0
LINE
  5
161
330
122
100
AcDbEntity
  8
AM_9
100
AcDbLine
 10
-0.1974265873000162
 20
-1.37425984
 30
0.0
 11
-0.1974265873000162
 21
-1.453
 31
0.0
  0
LINE
  5
162
330
122
100
AcDbEntity
  8
AM_9
100
AcDbLine
 10
-0.0811132479000217
 20
-1.37425984
 30
0.0
 11
-0.0811132479000217
 21
-1.453
 31
0.0
  0
LINE
  5
163
330
122
100
AcDbEntity
  8
AM_9
100
AcDbLine
 10
0.19436572
 20
-1.37425984
 30
0.0
 11
0.19436572
 21
-1.453
 31
0.0
  0
LINE
  5
164
330
122
100
AcDbEntity
  8
AM_9
100
AcDbLine
 10
-0.1729395605000277
 20
-1.37425984
 30
0.0
 11
-0.1729395605000277
 21
-1.453
 31
0.0
  0
LINE
  5
165
330
122
100
AcDbEntity
  8
AM_9
100
AcDbLine
 10
-0.19130483600003
 20
-1.37425984
 30
0.0
 11
-0.1913048360000297
 21
-1.452999966359787
 31
0.0
  0
LINE
  5
166
330
122
100
AcDbEntity
  8
AM_9
100
AcDbLine
 10
0.04132185
 20
-1.37425984
 30
0.0
 11
0.04132185
 21
-1.453
 31
0.0
  0
LINE
  5
167
330
122
100
AcDbEntity
  8
AM_9
100
AcDbLine
 10
-0.2525223706000493
 20
-1.37425984
 30
0.0
 11
-0.2525223706000493
 21
-1.453
 31
0.0
  0
LINE
  5
168
330
122
100
AcDbEntity
  8
AM_9
100
AcDbLine
 10
0.12090467
 20
-1.37425984
 30
0.0
 11
0.12090467
 21
-1.453
 31
0.0
  0
LINE
  5
169
330
122
100
AcDbEntity
  8
AM_9
100
AcDbLine
 10
0.19130484
 20
-1.37425984
 30
0.0
 11
0.19130484
 21
-1.453
 31
0.0
  0
LINE
  5
16A
330
122
100
AcDbEntity
  8
AM_9
100
AcDbLine
 10
-0.234157116700034
 20
-1.37425984
 30
0.0
 11
-0.234157116700034
 21
-1.453
 31
0.0
  0
LINE
  5
16B
330
122
100
AcDbEntity
  8
AM_9
100
AcDbLine
 10
-0.1056002639000449
 20
-1.37425984
 30
0.0
 11
-0.1056002639000449
 21
-1.453
 31
0.0
  0
LINE
  5
16C
330
122
100
AcDbEntity
  8
AM_9
100
AcDbLine
 10
0.20967012
 20
-1.37425984
 30
0.0
 11
0.20967012
 21
-1.453
 31
0.0
  0
LINE
  5
16D
330
122
100
AcDbEntity
  8
AM_9
100
AcDbLine
 10
0.1025394
 20
-1.37425984
 30
0.0
 11
0.1025394000000001
 21
-1.452999966359787
 31
0.0
  0
LINE
  5
16E
330
122
100
AcDbEntity
  8
AM_9
100
AcDbLine
 10
-0.0872349992000083
 20
-1.37425984
 30
0.0
 11
-0.0872349992000083
 21
-1.453
 31
0.0
  0
LINE
  5
16F
330
122
100
AcDbEntity
  8
AM_9
100
AcDbLine
 10
0.05968711
 20
-1.37425984
 30
0.0
 11
0.05968711
 21
-1.453
 31
0.0
  0
LINE
  5
170
330
122
100
AcDbEntity
  8
AM_9
100
AcDbLine
 10
-0.2617050191000226
 20
-1.37425984
 30
0.0
 11
-0.2617050191000226
 21
-1.453
 31
0.0
  0
LINE
  5
171
330
122
100
AcDbEntity
  8
AM_9
100
AcDbLine
 10
0.03213922
 20
-1.37425984
 30
0.0
 11
0.03213922
 21
-1.453
 31
0.0
  0
LINE
  5
172
330
122
100
AcDbEntity
  8
AM_9
100
AcDbLine
 10
0.25558328
 20
-1.37425984
 30
0.0
 11
0.25558328
 21
-1.453
 31
0.0
  0
LINE
  5
173
330
122
100
AcDbEntity
  8
AM_9
100
AcDbLine
 10
0.18212221
 20
-1.37425984
 30
0.0
 11
0.18212221
 21
-1.453
 31
0.0
  0
LINE
  5
174
330
122
100
AcDbEntity
  8
AM_9
100
AcDbLine
 10
-0.3290443050000261
 20
-1.37425984
 30
0.0
 11
-0.3290443050000261
 21
-1.453
 31
0.0
  0
LINE
  5
175
330
122
100
AcDbEntity
  8
AM_9
100
AcDbLine
 10
-0.035200086200065
 20
-1.37425984
 30
0.0
 11
-0.035200086200065
 21
-1.453
 31
0.0
  0
LINE
  5
176
330
122
100
AcDbEntity
  8
AM_9
100
AcDbLine
 10
-0.1637569336000434
 20
-1.37425984
 30
0.0
 11
-0.1637569336000434
 21
-1.453
 31
0.0
  0
LINE
  5
177
330
122
100
AcDbEntity
  8
AM_9
100
AcDbLine
 10
-0.1147829015999969
 20
-1.37425984
 30
0.0
 11
-0.1147829015999969
 21
-1.453
 31
0.0
  0
LINE
  5
178
330
122
100
AcDbEntity
  8
AM_9
100
AcDbLine
 10
0.13008729
 20
-1.37425984
 30
0.0
 11
0.13008729
 21
-1.453
 31
0.0
  0
LINE
  5
179
330
122
100
AcDbEntity
  8
AM_9
100
AcDbLine
 10
-0.2464006193000068
 20
-1.37425984
 30
0.0
 11
-0.2464006193000068
 21
-1.453
 31
0.0
  0
LINE
  5
17A
330
122
100
AcDbEntity
  8
AM_9
100
AcDbLine
 10
0.11478291
 20
-1.37425984
 30
0.0
 11
0.11478291
 21
-1.453
 31
0.0
  0
LINE
  5
17B
330
122
100
AcDbEntity
  8
AM_9
100
AcDbLine
 10
0.19742659
 20
-1.37425984
 30
0.0
 11
0.19742659
 21
-1.453
 31
0.0
  0
LINE
  5
17C
330
122
100
AcDbEntity
  8
AM_9
100
AcDbLine
 10
0.04744361
 20
-1.37425984
 30
0.0
 11
0.04744361
 21
-1.453
 31
0.0
  0
LINE
  5
17D
330
122
100
AcDbEntity
  8
AM_9
100
AcDbLine
 10
-0.1790613334000591
 20
-1.37425984
 30
0.0
 11
-0.1790613334000591
 21
-1.453
 31
0.0
  0
LINE
  5
17E
330
122
100
AcDbEntity
  8
AM_9
100
AcDbLine
 10
-0.0994785126000024
 20
-1.37425984
 30
0.0
 11
-0.0994785126000024
 21
-1.453
 31
0.0
  0
LINE
  5
17F
330
122
100
AcDbEntity
  8
AM_9
100
AcDbLine
 10
0.12702642
 20
-1.37425984
 30
0.0
 11
0.12702642
 21
-1.453
 31
0.0
  0
LINE
  5
180
330
122
100
AcDbEntity
  8
AM_9
100
AcDbLine
 10
-0.258644143400034
 20
-1.37425984
 30
0.0
 11
-0.2586441434000339
 21
-1.452999966359787
 31
0.0
  0
LINE
  5
181
330
122
100
AcDbEntity
  8
AM_9
100
AcDbLine
 10
0.18518309
 20
-1.37425984
 30
0.0
 11
0.18518309
 21
-1.453
 31
0.0
  0
LINE
  5
182
330
122
100
AcDbEntity
  8
AM_9
100
AcDbLine
 10
0.0352001
 20
-1.37425984
 30
0.0
 11
0.0352001
 21
-1.453
 31
0.0
  0
LINE
  5
183
330
122
100
AcDbEntity
  8
AM_9
100
AcDbLine
 10
-0.1117220152000316
 20
-1.37425984
 30
0.0
 11
-0.1117220152000316
 21
-1.453
 31
0.0
  0
LINE
  5
184
330
122
100
AcDbEntity
  8
AM_9
100
AcDbLine
 10
-0.1668178092000414
 20
-1.37425984
 30
0.0
 11
-0.1668178092000414
 21
-1.453
 31
0.0
  0
LINE
  5
185
330
122
100
AcDbEntity
  8
AM_9
100
AcDbLine
 10
-0.0535653508999878
 20
-1.37425984
 30
0.0
 11
-0.0535653508999878
 21
-1.453
 31
0.0
  0
LINE
  5
186
330
122
100
AcDbEntity
  8
AM_9
100
AcDbLine
 10
-0.2739485216999935
 20
-1.37425984
 30
0.0
 11
-0.2739485216999935
 21
-1.453
 31
0.0
  0
LINE
  5
187
330
122
100
AcDbEntity
  8
AM_9
100
AcDbLine
 10
0.34740959
 20
-1.37425984
 30
0.0
 11
0.237218
 21
-1.37425984
 31
0.0
  0
LINE
  5
188
330
122
100
AcDbEntity
  8
AM_9
100
AcDbLine
 10
-0.2249744897000611
 20
-1.37425984
 30
0.0
 11
-0.347409580399984
 21
-1.37425984
 31
0.0
  0
LINE
  5
189
330
122
100
AcDbEntity
  8
AM_9
100
AcDbLine
 10
-0.347409580399984
 20
-1.37425984
 30
0.0
 11
-0.347409580399984
 21
-1.453
 31
0.0
  0
LINE
  5
18A
330
122
100
AcDbEntity
  8
AM_9
100
AcDbLine
 10
0.21273099
 20
-1.37425984
 30
0.0
 11
0.09335677
 21
-1.37425984
 31
0.0
  0
LINE
  5
18B
330
122
100
AcDbEntity
  8
AM_9
100
AcDbLine
 10
0.34740959
 20
-1.37425984
 30
0.0
 11
0.3474095899999998
 21
-1.452999966359787
 31
0.0
  0
LINE
  5
18C
330
122
100
AcDbEntity
  8
AM_9
100
AcDbLine
 10
0.237218
 20
-1.37425984
 30
0.0
 11
0.237218
 21
-1.453
 31
0.0
  0
LINE
  5
18D
330
122
100
AcDbEntity
  8
AM_9
100
AcDbLine
 10
0.06886975
 20
-1.37425984
 30
0.0
 11
-0.0535653508999878
 21
-1.37425984
 31
0.0
  0
LINE
  5
18E
330
122
100
AcDbEntity
  8
AM_9
100
AcDbLine
 10
0.01989571
 20
-1.37425984
 30
0.0
 11
0.0198957099999999
 21
-1.452999966359787
 31
0.0
  0
LINE
  5
18F
330
122
100
AcDbEntity
  8
AM_9
100
AcDbLine
 10
0.14233081
 20
-1.37425984
 30
0.0
 11
0.14233081
 21
-1.453
 31
0.0
  0
LINE
  5
190
330
122
100
AcDbEntity
  8
AM_9
100
AcDbLine
 10
0.1698787
 20
-1.37425984
 30
0.0
 11
0.1698787
 21
-1.453
 31
0.0
  0
LINE
  5
191
330
122
100
AcDbEntity
  8
AM_9
100
AcDbLine
 10
-0.1515134310000146
 20
-1.37425984
 30
0.0
 11
-0.1515134310000146
 21
-1.453
 31
0.0
  0
LINE
  5
192
330
122
100
AcDbEntity
  8
AM_9
100
AcDbLine
 10
-0.1270264042000257
 20
-1.37425984
 30
0.0
 11
-0.1270264042000257
 21
-1.453
 31
0.0
  0
LINE
  5
193
330
122
100
AcDbEntity
  8
AM_9
100
AcDbLine
 10
-0.0780523722000355
 20
-1.37425984
 30
0.0
 11
-0.2004874629000166
 21
-1.37425984
 31
0.0
  0
LINE
  5
194
330
122
100
AcDbEntity
  8
AM_9
100
AcDbLine
 10
0.258
 20
-0.6719999999999999
 30
0.0
 11
0.258
 21
0.0000000000000002
 31
0.0
  0
LINE
  5
195
330
122
100
AcDbEntity
  8
AM_9
100
AcDbLine
 10
-0.258
 20
0.0000000000000002
 30
0.0
 11
-0.258
 21
-0.6719999999999999
 31
0.0
  0
ELLIPSE
  5
196
330
122
100
AcDbEntity
  8
AM_9
100
AcDbEllipse
 10
1.327175683997422
 20
-1.0625
 30
0.0
 11
-2.024999345412783E-17
 21
-0.1102358300000004
 31
0.0
210
0.0
220
0.0
230
1.0
 40
0.7071067811865485
 41
0.0
 42
6.283185307179586
  0
ELLIPSE
  5
197
330
122
100
AcDbEntity
  8
AM_9
100
AcDbEllipse
 10
1.315287787009764
 20
-1.0625
 30
0.0
 11
6.749997818042597E-18
 21
0.1102358300000001
 31
0.0
210
0.0
220
0.0
230
1.0
 40
0.7071067811865477
 41
0.0
 42
6.283185307179586
  0
LINE
  5
198
330
122
100
AcDbEntity
  8
AM_4
100
AcDbLine
 10
2.0315
 20
-1.452999966359787
 30
0.0
 11
-2.0315
 21
-1.452999966359787
 31
0.0
  0
LINE
  5
199
330
122
100
AcDbEntity
  8
AM_4
100
AcDbLine
 10
2.0315
 20
-1.452999966359787
 30
0.0
 11
2.0315
 21
0.0
 31
0.0
  0
LINE
  5
19A
330
122
100
AcDbEntity
  8
AM_4
100
AcDbLine
 10
-2.0315
 20
-1.452999966359787
 30
0.0
 11
-2.0315
 21
0.0
 31
0.0
  0
LINE
  5
19B
330
122
100
AcDbEntity
  8
AM_4
100
AcDbLine
 10
2.0315
 20
0.0
 30
0.0
 11
-2.0315
 21
0.0
 31
0.0
  0
LINE
  5
19C
330
122
100
AcDbEntity
  8
AM_4
100
AcDbLine
 10
1.410692843740824
 20
-1.17273583
 30
0.0
 11
1.424612240728481
 21
-1.17273583
 31
0.0
  0
LINE
  5
19D
330
122
100
AcDbEntity
  8
AM_4
100
AcDbLine
 10
1.424612240728481
 20
-0.9522641700000001
 30
0.0
 11
1.410692843740824
 21
-0.9522641700000001
 31
0.0
  0
ELLIPSE
  5
19E
330
122
100
AcDbEntity
  8
AM_4
100
AcDbEllipse
 10
1.424612240728481
 20
-1.0625
 30
0.0
 11
-2.024999345412779E-17
 21
-0.1102358300000001
 31
0.0
210
0.0
220
0.0
230
1.0
 40
0.7071067811865477
 41
2.531144229191195
 42
6.894533964641404
  0
ELLIPSE
  5
19F
330
122
100
AcDbEntity
  8
AM_4
100
AcDbEllipse
 10
1.410692843740823
 20
-1.062499999999999
 30
0.0
 11
-2.024999345412763E-17
 21
-0.1102358299999993
 31
0.0
210
0.0
220
0.0
230
1.0
 40
0.7071067811865455
 41
3.141592653589793
 42
6.283185307179586
  0
LWPOLYLINE
  5
1A0
330
122
100
AcDbEntity
  8
AM_4
100
AcDbPolyline
 90
        6
 70
     0
 43
0.0
 10
1.2032093897422
 20
-1.0625
 10
1.21565449172199
 20
-1.101207064812877
 10
1.230339048737807
 20
-1.14025852014243
 10
1.231140633933632
 20
-1.14222199485757
 10
1.248261744378214
 20
-1.181103758588358
 10
1.267500540772319
 20
-1.219980515
  0
LINE
  5
1A1
330
122
100
AcDbEntity
  8
AM_4
100
AcDbLine
 10
1.267500540772319
 20
-1.219980515
 30
0.0
 11
1.470367986965927
 21
-1.219980515
 31
0.0
  0
LINE
  5
1A2
330
122
100
AcDbEntity
  8
AM_4
100
AcDbLine
 10
1.267500540772319
 20
-0.9050194850000001
 30
0.0
 11
1.470367986965927
 21
-0.9050194850000001
 31
0.0
  0
LWPOLYLINE
  5
1A3
330
122
100
AcDbEntity
  8
AM_4
100
AcDbPolyline
 90
        6
 70
     0
 43
0.0
 10
1.267500540772319
 20
-0.9050194850000001
 10
1.248341456674644
 20
-0.9437265498128826
 10
1.231140633933628
 20
-0.9827780051424403
 10
1.230339048737811
 20
-0.9847414798575606
 10
1.215713332035763
 20
-1.023623243588354
 10
1.2032093897422
 20
-1.0625
  0
LINE
  5
1A4
330
122
100
AcDbEntity
  8
AM_4
100
AcDbLine
 10
1.2032093897422
 20
-1.0625
 30
0.0
 11
1.277494533875571
 21
-1.0625
 31
0.0
  0
ELLIPSE
  5
1A5
330
122
100
AcDbEntity
  8
AM_4
100
AcDbEllipse
 10
1.410692843740824
 20
-1.0625
 30
0.0
 11
-2.892859383066739E-17
 21
-0.15747993
 31
0.0
210
0.0
220
0.0
230
1.0
 40
0.7071067811865476
 41
2.290157947149272
 42
7.134465037478458
  0
LWPOLYLINE
  5
1A6
330
122
100
AcDbEntity
  8
AM_4
100
AcDbPolyline
 90
        3
 70
     0
 43
0.0
 10
1.496319218205342
 20
-1.166478880746059
 10
1.490016724064597
 20
-1.180229697098117
 10
1.470367986965927
 20
-1.219980515
  0
LWPOLYLINE
  5
1A7
330
122
100
AcDbEntity
  8
AM_4
100
AcDbPolyline
 90
        3
 70
     0
 43
0.0
 10
1.470367986965927
 20
-0.9050194850000001
 10
1.489579269885789
 20
-0.9438376608827991
 10
1.496304455217794
 20
-0.9584881723640767
  0
LWPOLYLINE
  5
1A8
330
122
100
AcDbEntity
  8
AM_4
100
AcDbPolyline
 90
        5
 70
     0
 43
0.0
 10
1.277494533875571
 20
-1.0625
 10
1.296705816795432
 20
-1.023681824117201
 10
1.313946370684762
 20
-0.9845170650846384
 10
1.328978015098391
 20
-0.9447703029018831
 10
1.341785684905689
 20
-0.9050194850000001
  0
LWPOLYLINE
  5
1A9
330
122
100
AcDbEntity
  8
AM_4
100
AcDbPolyline
 90
        5
 70
     0
 43
0.0
 10
1.341785684905689
 20
-1.219980515
 10
1.329302059939395
 20
-1.181162339117201
 10
1.314564721985779
 20
-1.141997580084638
 10
1.297143270974241
 20
-1.102250817901883
 10
1.277494533875571
 20
-1.0625
  0
LWPOLYLINE
  5
1AA
330
122
100
AcDbEntity
  8
AM_4
100
AcDbPolyline
 90
       19
 70
     0
 43
0.0
 10
1.431511179915233
 20
-1.0625
 10
1.431680869916173
 20
-1.069442000529052
 10
1.43286886758015
 20
-1.08205960508453
 10
1.43518513089576
 20
-1.094429064208193
 10
1.438612407772883
 20
-1.106379402694598
 10
1.443124596003621
 20
-1.117746089850166
 10
1.448684726266353
 20
-1.128364157641757
 10
1.455237232795705
 20
-1.138062112293218
 10
1.462701367139008
 20
-1.146668115360435
 10
1.470964243825454
 20
-1.154018594289323
 10
1.479877087620906
 20
-1.159971760734263
 10
1.489263359332307
 20
-1.164425610152735
 10
1.498937523328316
 20
-1.167328640254021
 10
1.508725171409408
 20
-1.168676084716807
 10
1.518475041183694
 20
-1.168494854457962
 10
1.528057914427479
 20
-1.166826918655399
 10
1.537348589121629
 20
-1.163724088791985
 10
1.546255872991747
 20
-1.159233384053934
 10
1.548098487335188
 20
-1.158099540711577
  0
LWPOLYLINE
  5
1AB
330
122
100
AcDbEntity
  8
AM_4
100
AcDbPolyline
 90
       19
 70
     0
 43
0.0
 10
1.547650239586222
 20
-0.9666177483146787
 10
1.546278666328095
 20
-0.9657801890578522
 10
1.536947998096823
 20
-0.9611101961677763
 10
1.52730349225449
 20
-0.9579868262532152
 10
1.517522106348601
 20
-0.9564207043282528
 10
1.507758691335815
 20
-0.9563883014869211
 10
1.498143034215587
 20
-0.9578494454173072
 10
1.488805408205215
 20
-0.9607527036519941
 10
1.479838618759618
 20
-0.9650501132314041
 10
1.471332615648286
 20
-0.9706978372451592
 10
1.463384988768367
 20
-0.9776456706107106
 10
1.456103766562792
 20
-0.9858225238887083
 10
1.449601478179343
 20
-0.9951255604430469
 10
1.44398379748384
 20
-1.005419210441866
 10
1.439339383202384
 20
-1.016543592142701
 10
1.435735602550882
 20
-1.02832545613518
 10
1.433219470723284
 20
-1.040585164091512
 10
1.431819279759419
 20
-1.053150137937219
 10
1.431511179915233
 20
-1.0625
  0
ELLIPSE
  5
1AC
330
122
100
AcDbEntity
  8
AM_4
100
AcDbEllipse
 10
1.517601255308919
 20
-1.0625
 30
0.0
 11
-1.926564871224238E-17
 21
-0.1048773068047368
 31
0.0
210
0.0
220
0.0
230
1.0
 40
0.7071067811865478
 41
2.730081267109016
 42
6.69469669366036
  0
LINE
  5
1AD
330
122
100
AcDbEntity
  8
AM_4
100
AcDbLine
 10
1.578727052966386
 20
-0.9857968490776108
 30
0.0
 11
1.547264666163535
 21
-0.96637813154357
 31
0.0
  0
LINE
  5
1AE
330
122
100
AcDbEntity
  8
AM_4
100
AcDbLine
 10
1.547264666163535
 20
-1.15862186845643
 30
0.0
 11
1.578727052966386
 21
-1.139203150922389
 31
0.0
  0
ELLIPSE
  5
1AF
330
122
100
AcDbEntity
  8
AM_4
100
AcDbEllipse
 10
1.555056299201484
 20
-1.0625
 30
0.0
 11
-1.537356674940920E-17
 21
-0.08368979943230914
 31
0.0
210
0.0
220
0.0
230
1.0
 40
0.7071067811865462
 41
2.730081267109015
 42
6.69817154302938
  0
ELLIPSE
  5
1B0
330
122
100
AcDbEntity
  8
AM_4
100
AcDbEllipse
 10
1.563806217676121
 20
-1.0625
 30
0.0
 11
4.005372943323057E-18
 21
0.06541270423622148
 31
0.0
210
0.0
220
0.0
230
1.0
 40
0.7071067811865474
 41
0.0
 42
6.283185307179586
  0
LWPOLYLINE
  5
1B1
330
122
100
AcDbEntity
  8
AM_4
100
AcDbPolyline
 90
       18
 70
     0
 43
0.0
 10
1.578948588014957
 20
-1.139065759603823
 10
1.583695564890706
 20
-1.135790202606477
 10
1.590828479770651
 20
-1.129508961716048
 10
1.597278214327309
 20
-1.122020750207785
 10
1.602923119075252
 20
-1.113433795597722
 10
1.607646224968515
 20
-1.103900287678789
 10
1.611351317085483
 20
-1.093605479102194
 10
1.613969726502524
 20
-1.082752200930003
 10
1.61546013698236
 20
-1.071542013662232
 10
1.61580132500214
 20
-1.060166964982271
 10
1.614985250552059
 20
-1.048815286497538
 10
1.613015018435245
 20
-1.037675294909145
 10
1.60990356434026
 20
-1.026931773308024
 10
1.605673393748673
 20
-1.01676884064728
 10
1.600360640483501
 20
-1.007375559443869
 10
1.594032168536221
 20
-0.9989578878519386
 10
1.586794682399876
 20
-0.9917194562866608
 10
1.580148621443266
 20
-0.9867016683555195
  0
ELLIPSE
  5
1B2
330
122
100
AcDbEntity
  8
AM_4
100
AcDbEllipse
 10
1.555056299201355
 20
-1.062500000000413
 30
0.0
 11
-1.537356674949213E-17
 21
-0.08368979943276056
 31
0.0
210
0.0
220
0.0
230
1.0
 40
0.7071067811865474
 41
-3.575624924544405
 42
-3.55310404007058
  0
LINE
  5
1B3
330
122
100
AcDbEntity
  8
AM_4
100
AcDbLine
 10
-1.94866996337996
 20
-0.6047999664
 30
0.0
 11
-1.94866996337996
 21
-1.452999966359787
 31
0.0
  0
LINE
  5
1B4
330
122
100
AcDbEntity
  8
AM_4
100
AcDbLine
 10
1.94866996337996
 20
-0.6047999664
 30
0.0
 11
1.94866996337996
 21
-1.452999966359787
 31
0.0
  0
LINE
  5
1B5
330
122
100
AcDbEntity
  8
AM_4
100
AcDbLine
 10
-0.8166634063000004
 20
-0.6047999664
 30
0.0
 11
-0.8166634063
 21
-1.452999966359787
 31
0.0
  0
LINE
  5
1B6
330
122
100
AcDbEntity
  8
AM_4
100
AcDbLine
 10
0.8166634062999991
 20
-0.6047999664
 30
0.0
 11
0.8166634063
 21
-1.452999966359787
 31
0.0
  0
LINE
  5
1B7
330
122
100
AcDbEntity
  8
AM_4
100
AcDbLine
 10
-0.7110245936999993
 20
-0.6047999664
 30
0.0
 11
-0.7110245936999993
 21
-0.6719999999999999
 31
0.0
  0
LINE
  5
1B8
330
122
100
AcDbEntity
  8
AM_4
100
AcDbLine
 10
-0.7110245936999993
 20
-0.6719999999999999
 30
0.0
 11
0.7110245937
 21
-0.6719999999999999
 31
0.0
  0
LINE
  5
1B9
330
122
100
AcDbEntity
  8
AM_4
100
AcDbLine
 10
0.7110245937
 20
-0.6047999664
 30
0.0
 11
0.7110245937
 21
-0.6719999999999999
 31
0.0
  0
LINE
  5
1BA
330
122
100
AcDbEntity
  8
AM_4
100
AcDbLine
 10
-0.6094497968499994
 20
-0.6047999663999999
 30
0.0
 11
-2.031438933976274
 21
-0.6047999664
 31
0.0
  0
LINE
  5
1BB
330
122
100
AcDbEntity
  8
AM_4
100
AcDbLine
 10
-0.6094497968499994
 20
-0.6047999663999999
 30
0.0
 11
-0.6094497968499994
 21
-0.6719999999999998
 31
0.0
  0
LINE
  5
1BC
330
122
100
AcDbEntity
  8
AM_4
100
AcDbLine
 10
0.6094497968500001
 20
-0.6047999663999999
 30
0.0
 11
0.6094497968500001
 21
-0.6719999999999998
 31
0.0
  0
LINE
  5
1BD
330
122
100
AcDbEntity
  8
AM_4
100
AcDbLine
 10
2.031438933976274
 20
-0.6047999664
 30
0.0
 11
0.6094497968500001
 21
-0.6047999663999999
 31
0.0
  0
LINE
  5
1BE
330
122
100
AcDbEntity
  8
AM_4
100
AcDbLine
 10
-0.8435322321427998
 20
-0.6047999663999999
 30
0.0
 11
-0.8435322321427999
 21
0.0000000000000002
 31
0.0
  0
LINE
  5
1BF
330
122
100
AcDbEntity
  8
AM_4
100
AcDbLine
 10
-1.91701576793153
 20
-0.6047999664
 30
0.0
 11
-1.91701576793153
 21
0.0000000000000001
 31
0.0
  0
LINE
  5
1C0
330
122
100
AcDbEntity
  8
AM_4
100
AcDbLine
 10
1.91701576793153
 20
-0.6047999664
 30
0.0
 11
1.91701576793153
 21
0.0000000000000001
 31
0.0
  0
LINE
  5
1C1
330
122
100
AcDbEntity
  8
AM_4
100
AcDbLine
 10
0.843532232142799
 20
-0.6047999663999999
 30
0.0
 11
0.843532232142799
 21
0.0000000000000002
 31
0.0
  0
ENDBLK
  5
125
330
122
100
AcDbEntity
  8
0
100
AcDbBlockEnd
  0
ENDSEC
  0
SECTION
  2
ENTITIES
  0
INSERT
  5
6F
330
1F
100
AcDbEntity
  8
0
100
AcDbBlockReference
  2
1_129349_4
 10
0.0
 20
0.0
 30
0.0
  0
POINT
  5
1C3
330
1F
100
AcDbEntity
  8
ConnectionPoints
100
AcDbPoint
 10
0.0000000000000001
 20
-0.8902499999999998
 30
0.0000000000000001
  0
POINT
  5
1C4
330
1F
100
AcDbEntity
  8
ConnectionPoints
100
AcDbPoint
 10
0.0000000000000001
 20
-0.2339999999999998
 30
0.0
  0
POINT
  5
1C5
330
1F
100
AcDbEntity
  8
ConnectionPoints
100
AcDbPoint
 10
0.0
 20
-0.2339999999999997
 30
0.0
  0
ENDSEC
  0
SECTION
  2
OBJECTS
  0
DICTIONARY
  5
C
330
0
100
AcDbDictionary
281
     1
  3
ACAD_DETAILVIEWSTYLE
350
1CD
  3
ACAD_GROUP
350
D
  3
ACAD_LAYOUT
350
1A
  3
ACAD_MATERIAL
350
43
  3
ACAD_MLEADERSTYLE
350
6B
  3
ACAD_MLINESTYLE
350
17
  3
ACAD_PLOTSETTINGS
350
19
  3
ACAD_PLOTSTYLENAME
350
E
  3
ACAD_SCALELIST
350
47
  3
ACAD_SECTIONVIEWSTYLE
350
1CE
  3
ACAD_TABLESTYLE
350
69
  3
ACAD_VISUALSTYLE
350
2A
  3
ACDB_RECOMPOSE_DATA
350
1CA
  3
AcDbVariableDictionary
350
1C6
  0
SUN
  5
6D
330
29
100
AcDbSun
 90
        1
290
     0
 63
     7
421
 16777215
 40
1.0
291
     1
 91
  2455826
 92
 54000000
292
     0
 70
     2
 71
   256
280
     1
  0
DICTIONARY
  5
1CD
102
{ACAD_REACTORS
330
C
102
}
330
C
100
AcDbDictionary
281
     1
  0
DICTIONARY
  5
D
102
{ACAD_REACTORS
330
C
102
}
330
C
100
AcDbDictionary
281
     1
  0
DICTIONARY
  5
1A
102
{ACAD_REACTORS
330
C
102
}
330
C
100
AcDbDictionary
281
     1
  3
Layout1
350
1E
  3
Layout2
350
26
  3
Model
350
22
  0
DICTIONARY
  5
43
102
{ACAD_REACTORS
330
C
102
}
330
C
100
AcDbDictionary
281
     1
  3
ByBlock
350
45
  3
ByLayer
350
44
  3
Global
350
46
  0
DICTIONARY
  5
6B
102
{ACAD_REACTORS
330
C
102
}
330
C
100
AcDbDictionary
281
     1
  3
Standard
350
6C
  0
DICTIONARY
  5
17
102
{ACAD_REACTORS
330
C
102
}
330
C
100
AcDbDictionary
281
     1
  3
Standard
350
18
  0
DICTIONARY
  5
19
102
{ACAD_REACTORS
330
C
102
}
330
C
100
AcDbDictionary
281
     1
  0
ACDBDICTIONARYWDFLT
  5
E
102
{ACAD_REACTORS
330
C
102
}
330
C
100
AcDbDictionary
281
     1
  3
Normal
350
F
100
AcDbDictionaryWithDefault
340
F
  0
DICTIONARY
  5
47
102
{ACAD_REACTORS
330
C
102
}
330
C
100
AcDbDictionary
281
     1
  3
A0
350
48
  3
A1
350
49
  3
A2
350
4A
  3
A3
350
4B
  3
A4
350
4C
  3
A5
350
4D
  3
A6
350
4E
  3
A7
350
4F
  3
A8
350
50
  3
A9
350
51
  3
B0
350
52
  3
B1
350
53
  3
B2
350
54
  3
B3
350
55
  3
B4
350
56
  3
B5
350
57
  3
B6
350
58
  3
B7
350
59
  3
B8
350
5A
  3
B9
350
5B
  3
C0
350
5C
  3
C1
350
5D
  3
C2
350
5E
  3
C3
350
5F
  3
C4
350
60
  3
C5
350
61
  3
C6
350
62
  3
C7
350
63
  3
C8
350
64
  3
C9
350
65
  3
D0
350
66
  3
D1
350
67
  3
D2
350
68
  0
DICTIONARY
  5
1CE
102
{ACAD_REACTORS
330
C
102
}
330
C
100
AcDbDictionary
281
     1
  0
DICTIONARY
  5
69
102
{ACAD_REACTORS
330
C
102
}
330
C
100
AcDbDictionary
281
     1
  3
Standard
350
6A
  0
DICTIONARY
  5
2A
102
{ACAD_REACTORS
330
C
102
}
330
C
100
AcDbDictionary
281
     1
  3
2dWireframe
350
2F
  3
Basic
350
32
  3
Brighten
350
36
  3
ColorChange
350
3A
  3
Conceptual
350
34
  3
Dim
350
35
  3
EdgeColorOff
350
3D
  3
Facepattern
350
39
  3
Flat
350
2B
  3
FlatWithEdges
350
2C
  3
Gouraud
350
2D
  3
GouraudWithEdges
350
2E
  3
Hidden
350
31
  3
JitterOff
350
3B
  3
Linepattern
350
38
  3
OverhangOff
350
3C
  3
Realistic
350
33
  3
Shaded
350
42
  3
Shaded with edges
350
41
  3
Shades of Gray
350
3E
  3
Sketchy
350
3F
  3
Thicken
350
37
  3
Wireframe
350
30
  3
X-Ray
350
40
  0
XRECORD
  5
1CA
102
{ACAD_REACTORS
330
C
102
}
330
C
100
AcDbXrecord
280
     1
 90
        1
330
6A
  0
DICTIONARY
  5
1C6
102
{ACAD_REACTORS
330
C
102
}
330
C
100
AcDbDictionary
281
     1
  3
CANNOSCALE
350
1C7
  3
CMLEADERSTYLE
350
1CC
  3
CTABLESTYLE
350
1CB
  0
LAYOUT
  5
1E
102
{ACAD_REACTORS
330
1A
102
}
330
1A
100
AcDbPlotSettings
  1

  2
none_device
  4

  6

 40
0.0
 41
0.0
 42
0.0
 43
0.0
 44
0.0
 45
0.0
 46
0.0
 47
0.0
 48
0.0
 49
0.0
140
0.0
141
0.0
142
1.0
143
1.0
 70
   688
 72
     0
 73
     0
 74
     5
  7

 75
    16
 76
     0
 77
     2
 78
   300
147
1.0
148
0.0
149
0.0
100
AcDbLayout
  1
Layout1
 70
     1
 71
     1
 10
0.0
 20
0.0
 11
12.0
 21
9.0
 12
0.0
 22
0.0
 32
0.0
 14
1.000000000000000E+20
 24
1.000000000000000E+20
 34
1.000000000000000E+20
 15
-1.000000000000000E+20
 25
-1.000000000000000E+20
 35
-1.000000000000000E+20
146
0.0
 13
0.0
 23
0.0
 33
0.0
 16
1.0
 26
0.0
 36
0.0
 17
0.0
 27
1.0
 37
0.0
 76
     0
330
1B
  0
LAYOUT
  5
26
102
{ACAD_REACTORS
330
1A
102
}
330
1A
100
AcDbPlotSettings
  1

  2
none_device
  4

  6

 40
0.0
 41
0.0
 42
0.0
 43
0.0
 44
0.0
 45
0.0
 46
0.0
 47
0.0
 48
0.0
 49
0.0
140
0.0
141
0.0
142
1.0
143
1.0
 70
   688
 72
     0
 73
     0
 74
     5
  7

 75
    16
 76
     0
 77
     2
 78
   300
147
1.0
148
0.0
149
0.0
100
AcDbLayout
  1
Layout2
 70
     1
 71
     2
 10
0.0
 20
0.0
 11
0.0
 21
0.0
 12
0.0
 22
0.0
 32
0.0
 14
0.0
 24
0.0
 34
0.0
 15
0.0
 25
0.0
 35
0.0
146
0.0
 13
0.0
 23
0.0
 33
0.0
 16
1.0
 26
0.0
 36
0.0
 17
0.0
 27
1.0
 37
0.0
 76
     0
330
23
  0
LAYOUT
  5
22
102
{ACAD_REACTORS
330
1A
102
}
330
1A
100
AcDbPlotSettings
  1

  2
none_device
  4
Letter_(8.50_x_11.00_Inches)
  6

 40
6.35
 41
6.35
 42
6.35000508
 43
6.35000508
 44
215.9
 45
279.4
 46
0.0
 47
0.0
 48
0.0
 49
0.0
140
0.0
141
0.0
142
1.0
143
1.0
 70
  1712
 72
     0
 73
     0
 74
     0
  7

 75
     0
 76
     0
 77
     2
 78
   300
147
1.0
148
0.0
149
0.0
100
AcDbLayout
  1
Model
 70
     1
 71
     0
 10
0.0
 20
0.0
 11
12.0
 21
9.0
 12
0.0
 22
0.0
 32
0.0
 14
1.000000000000000E+20
 24
1.000000000000000E+20
 34
1.000000000000000E+20
 15
-1.000000000000000E+20
 25
-1.000000000000000E+20
 35
-1.000000000000000E+20
146
0.0
 13
0.0
 23
0.0
 33
0.0
 16
1.0
 26
0.0
 36
0.0
 17
0.0
 27
1.0
 37
0.0
 76
     0
330
1F
331
29
  0
MATERIAL
  5
45
102
{ACAD_REACTORS
330
43
102
}
330
43
100
AcDbMaterial
  1
ByBlock
 72
     1
 94
      127
  0
MATERIAL
  5
44
102
{ACAD_REACTORS
330
43
102
}
330
43
100
AcDbMaterial
  1
ByLayer
 72
     1
 94
      127
  0
MATERIAL
  5
46
102
{ACAD_REACTORS
330
43
102
}
330
43
100
AcDbMaterial
  1
Global
 72
     1
 94
      127
  0
MLEADERSTYLE
  5
6C
102
{ACAD_REACTORS
330
6B
102
}
330
6B
100
AcDbMLeaderStyle
179
     2
170
     2
171
     1
172
     0
 90
        2
 40
0.0
 41
0.0
173
     1
 91
-1056964608
340
14
 92
       -2
290
     1
 42
0.09
291
     1
 43
0.36
  3
Standard
341
0
 44
0.18
300

342
11
174
     1
178
     6
175
     1
176
     0
 93
-1056964608
 45
0.18
292
     0
297
     0
 46
0.18
343
0
 94
-1056964608
 47
1.0
 49
1.0
140
1.0
293
     1
141
0.0
294
     1
177
     0
142
1.0
295
     0
296
     0
143
0.125
271
     0
272
     9
273
     9
298
     0
  0
MLINESTYLE
  5
18
102
{ACAD_REACTORS
330
17
102
}
330
17
100
AcDbMlineStyle
  2
Standard
 70
     0
  3

 62
   256
 51
90.0
 52
90.0
 71
     2
 49
0.5
 62
   256
  6
BYLAYER
 49
-0.5
 62
   256
  6
BYLAYER
  0
ACDBPLACEHOLDER
  5
F
102
{ACAD_REACTORS
330
E
102
}
330
E
  0
SCALE
  5
48
102
{ACAD_REACTORS
330
47
102
}
330
47
100
AcDbScale
 70
     0
300
1:1
140
1.0
141
1.0
290
     1
  0
SCALE
  5
49
102
{ACAD_REACTORS
330
47
102
}
330
47
100
AcDbScale
 70
     0
300
1:2
140
1.0
141
2.0
290
     0
  0
SCALE
  5
4A
102
{ACAD_REACTORS
330
47
102
}
330
47
100
AcDbScale
 70
     0
300
1:4
140
1.0
141
4.0
290
     0
  0
SCALE
  5
4B
102
{ACAD_REACTORS
330
47
102
}
330
47
100
AcDbScale
 70
     0
300
1:5
140
1.0
141
5.0
290
     0
  0
SCALE
  5
4C
102
{ACAD_REACTORS
330
47
102
}
330
47
100
AcDbScale
 70
     0
300
1:8
140
1.0
141
8.0
290
     0
  0
SCALE
  5
4D
102
{ACAD_REACTORS
330
47
102
}
330
47
100
AcDbScale
 70
     0
300
1:10
140
1.0
141
10.0
290
     0
  0
SCALE
  5
4E
102
{ACAD_REACTORS
330
47
102
}
330
47
100
AcDbScale
 70
     0
300
1:16
140
1.0
141
16.0
290
     0
  0
SCALE
  5
4F
102
{ACAD_REACTORS
330
47
102
}
330
47
100
AcDbScale
 70
     0
300
1:20
140
1.0
141
20.0
290
     0
  0
SCALE
  5
50
102
{ACAD_REACTORS
330
47
102
}
330
47
100
AcDbScale
 70
     0
300
1:30
140
1.0
141
30.0
290
     0
  0
SCALE
  5
51
102
{ACAD_REACTORS
330
47
102
}
330
47
100
AcDbScale
 70
     0
300
1:40
140
1.0
141
40.0
290
     0
  0
SCALE
  5
52
102
{ACAD_REACTORS
330
47
102
}
330
47
100
AcDbScale
 70
     0
300
1:50
140
1.0
141
50.0
290
     0
  0
SCALE
  5
53
102
{ACAD_REACTORS
330
47
102
}
330
47
100
AcDbScale
 70
     0
300
1:100
140
1.0
141
100.0
290
     0
  0
SCALE
  5
54
102
{ACAD_REACTORS
330
47
102
}
330
47
100
AcDbScale
 70
     0
300
2:1
140
2.0
141
1.0
290
     0
  0
SCALE
  5
55
102
{ACAD_REACTORS
330
47
102
}
330
47
100
AcDbScale
 70
     0
300
4:1
140
4.0
141
1.0
290
     0
  0
SCALE
  5
56
102
{ACAD_REACTORS
330
47
102
}
330
47
100
AcDbScale
 70
     0
300
8:1
140
8.0
141
1.0
290
     0
  0
SCALE
  5
57
102
{ACAD_REACTORS
330
47
102
}
330
47
100
AcDbScale
 70
     0
300
10:1
140
10.0
141
1.0
290
     0
  0
SCALE
  5
58
102
{ACAD_REACTORS
330
47
102
}
330
47
100
AcDbScale
 70
     0
300
100:1
140
100.0
141
1.0
290
     0
  0
SCALE
  5
59
102
{ACAD_REACTORS
330
47
102
}
330
47
100
AcDbScale
 70
     0
300
1/128" = 1'-0"
140
0.0078125
141
12.0
290
     0
  0
SCALE
  5
5A
102
{ACAD_REACTORS
330
47
102
}
330
47
100
AcDbScale
 70
     0
300
1/64" = 1'-0"
140
0.015625
141
12.0
290
     0
  0
SCALE
  5
5B
102
{ACAD_REACTORS
330
47
102
}
330
47
100
AcDbScale
 70
     0
300
1/32" = 1'-0"
140
0.03125
141
12.0
290
     0
  0
SCALE
  5
5C
102
{ACAD_REACTORS
330
47
102
}
330
47
100
AcDbScale
 70
     0
300
1/16" = 1'-0"
140
0.0625
141
12.0
290
     0
  0
SCALE
  5
5D
102
{ACAD_REACTORS
330
47
102
}
330
47
100
AcDbScale
 70
     0
300
3/32" = 1'-0"
140
0.09375
141
12.0
290
     0
  0
SCALE
  5
5E
102
{ACAD_REACTORS
330
47
102
}
330
47
100
AcDbScale
 70
     0
300
1/8" = 1'-0"
140
0.125
141
12.0
290
     0
  0
SCALE
  5
5F
102
{ACAD_REACTORS
330
47
102
}
330
47
100
AcDbScale
 70
     0
300
3/16" = 1'-0"
140
0.1875
141
12.0
290
     0
  0
SCALE
  5
60
102
{ACAD_REACTORS
330
47
102
}
330
47
100
AcDbScale
 70
     0
300
1/4" = 1'-0"
140
0.25
141
12.0
290
     0
  0
SCALE
  5
61
102
{ACAD_REACTORS
330
47
102
}
330
47
100
AcDbScale
 70
     0
300
3/8" = 1'-0"
140
0.375
141
12.0
290
     0
  0
SCALE
  5
62
102
{ACAD_REACTORS
330
47
102
}
330
47
100
AcDbScale
 70
     0
300
1/2" = 1'-0"
140
0.5
141
12.0
290
     0
  0
SCALE
  5
63
102
{ACAD_REACTORS
330
47
102
}
330
47
100
AcDbScale
 70
     0
300
3/4" = 1'-0"
140
0.75
141
12.0
290
     0
  0
SCALE
  5
64
102
{ACAD_REACTORS
330
47
102
}
330
47
100
AcDbScale
 70
     0
300
1" = 1'-0"
140
1.0
141
12.0
290
     0
  0
SCALE
  5
65
102
{ACAD_REACTORS
330
47
102
}
330
47
100
AcDbScale
 70
     0
300
1-1/2" = 1'-0"
140
1.5
141
12.0
290
     0
  0
SCALE
  5
66
102
{ACAD_REACTORS
330
47
102
}
330
47
100
AcDbScale
 70
     0
300
3" = 1'-0"
140
3.0
141
12.0
290
     0
  0
SCALE
  5
67
102
{ACAD_REACTORS
330
47
102
}
330
47
100
AcDbScale
 70
     0
300
6" = 1'-0"
140
6.0
141
12.0
290
     0
  0
SCALE
  5
68
102
{ACAD_REACTORS
330
47
102
}
330
47
100
AcDbScale
 70
     0
300
1'-0" = 1'-0"
140
12.0
141
12.0
290
     0
  0
TABLESTYLE
  5
6A
102
{ACAD_REACTORS
330
69
102
}
102
{ACAD_XDICTIONARY
360
1C8
102
}
330
69
100
AcDbTableStyle
  3
Standard
 70
     0
 71
     0
 40
0.06
 41
0.06
280
     0
281
     0
  7
Standard
140
0.18
170
     2
 62
     0
 63
   257
283
     0
 90
        4
 91
        0
  1

274
    -2
284
     1
 64
     0
275
    -2
285
     1
 65
     0
276
    -2
286
     1
 66
     0
277
    -2
287
     1
 67
     0
278
    -2
288
     1
 68
     0
279
    -2
289
     1
 69
     0
  7
Standard
140
0.25
170
     5
 62
     0
 63
   257
283
     0
 90
        4
 91
        0
  1

274
    -2
284
     1
 64
     0
275
    -2
285
     1
 65
     0
276
    -2
286
     1
 66
     0
277
    -2
287
     1
 67
     0
278
    -2
288
     1
 68
     0
279
    -2
289
     1
 69
     0
  7
Standard
140
0.18
170
     5
 62
     0
 63
   257
283
     0
 90
        4
 91
        0
  1

274
    -2
284
     1
 64
     0
275
    -2
285
     1
 65
     0
276
    -2
286
     1
 66
     0
277
    -2
287
     1
 67
     0
278
    -2
288
     1
 68
     0
279
    -2
289
     1
 69
     0
  0
VISUALSTYLE
  5
2F
102
{ACAD_REACTORS
330
2A
102
}
330
2A
100
AcDbVisualStyle
  2
2dWireframe
 70
     4
177
     3
291
     0
 70
    58
 90
        0
176
     1
 90
        2
176
     1
 90
        0
176
     1
 90
        0
176
     1
 40
0.6
176
     1
 40
30.0
176
     1
 62
     7
420
 16777215
176
     1
 90
        1
176
     1
 90
        4
176
     1
 62
     7
176
     1
 62
   257
176
     1
 90
        1
176
     1
 90
        1
176
     1
 40
1.0
176
     1
 90
        0
176
     1
 62
   257
176
     1
 40
1.0
176
     1
 90
        1
176
     1
 90
        6
176
     1
 90
        2
176
     1
 62
     7
176
     1
 90
        5
176
     1
 90
        0
176
     1
 90
        0
176
     1
290
     0
176
     1
 90
        1
176
     1
 40
0.0
176
     1
 90
        0
176
     1
290
     1
176
     1
290
     1
176
     1
290
     0
176
     1
290
     0
176
     1
290
     0
176
     1
290
     0
176
     1
290
     0
176
     1
290
     0
176
     1
290
     0
176
     1
 90
       50
176
     1
 40
0.0
176
     1
 40
1.0
176
     1
 90
        0
176
     1
 62
    18
420
        0
176
     1
 90
       50
176
     1
 90
        3
176
     1
 62
     5
420
      255
176
     1
290
     0
176
     1
 90
       50
176
     1
 90
       50
176
     1
 90
       50
176
     1
290
     0
176
     1
 90
       50
176
     1
 62
   256
176
     0
 40
1.0
176
     0
 90
        2
176
     1
  1
strokes_ogs.tif
176
     1
290
     0
176
     1
 40
1.0
176
     1
 40
1.0
176
     1
  0
VISUALSTYLE
  5
32
102
{ACAD_REACTORS
330
2A
102
}
330
2A
100
AcDbVisualStyle
  2
Basic
 70
     7
177
     3
291
     1
 70
    58
 90
        1
176
     1
 90
        0
176
     1
 90
        1
176
     1
 90
        0
176
     1
 40
0.6
176
     1
 40
30.0
176
     1
 62
     7
420
 16777215
176
     1
 90
        0
176
     1
 90
        4
176
     1
 62
     7
176
     1
 62
   257
176
     1
 90
        1
176
     1
 90
        1
176
     1
 40
1.0
176
     1
 90
        8
176
     1
 62
     7
176
     1
 40
1.0
176
     1
 90
        1
176
     1
 90
        6
176
     1
 90
        2
176
     1
 62
     7
176
     1
 90
        5
176
     1
 90
        0
176
     1
 90
        0
176
     1
290
     0
176
     1
 90
        1
176
     1
 40
0.0
176
     1
 90
        0
176
     1
290
     0
176
     1
290
     1
176
     1
290
     1
176
     1
290
     0
176
     1
290
     0
176
     1
290
     0
176
     1
290
     0
176
     1
290
     0
176
     1
290
     0
176
     1
 90
       50
176
     1
 40
0.0
176
     1
 40
1.0
176
     1
 90
        0
176
     1
 62
    18
420
        0
176
     1
 90
       50
176
     1
 90
        3
176
     1
 62
     5
420
      255
176
     1
290
     0
176
     1
 90
       50
176
     1
 90
       50
176
     1
 90
       50
176
     1
290
     0
176
     1
 90
       50
176
     1
 62
   256
176
     0
 40
1.0
176
     0
 90
        2
176
     1
  1
strokes_ogs.tif
176
     1
290
     0
176
     1
 40
1.0
176
     1
 40
1.0
176
     1
  0
VISUALSTYLE
  5
36
102
{ACAD_REACTORS
330
2A
102
}
330
2A
100
AcDbVisualStyle
  2
Brighten
 70
    12
177
     3
291
     1
 70
    58
 90
        2
176
     1
 90
        2
176
     1
 90
        0
176
     1
 90
        0
176
     1
 40
0.6
176
     1
 40
30.0
176
     1
 62
     7
420
 16777215
176
     1
 90
        1
176
     1
 90
        4
176
     1
 62
     7
176
     1
 62
   257
176
     1
 90
        1
176
     1
 90
        1
176
     1
 40
1.0
176
     1
 90
        8
176
     1
 62
     7
176
     1
 40
1.0
176
     1
 90
        1
176
     1
 90
        6
176
     1
 90
        2
176
     1
 62
     7
176
     1
 90
        5
176
     1
 90
        0
176
     1
 90
        0
176
     1
290
     0
176
     1
 90
        1
176
     1
 40
50.0
176
     1
 90
        0
176
     1
290
     0
176
     1
290
     1
176
     1
290
     1
176
     1
290
     0
176
     1
290
     0
176
     1
290
     0
176
     1
290
     0
176
     1
290
     0
176
     1
290
     0
176
     1
 90
       50
176
     1
 40
0.0
176
     1
 40
1.0
176
     1
 90
        0
176
     1
 62
    18
420
        0
176
     1
 90
       50
176
     1
 90
        3
176
     1
 62
     5
420
      255
176
     1
290
     0
176
     1
 90
       50
176
     1
 90
       50
176
     1
 90
       50
176
     1
290
     0
176
     1
 90
       50
176
     1
 62
   256
176
     0
 40
1.0
176
     0
 90
        2
176
     1
  1
strokes_ogs.tif
176
     1
290
     0
176
     1
 40
1.0
176
     1
 40
1.0
176
     1
  0
VISUALSTYLE
  5
3A
102
{ACAD_REACTORS
330
2A
102
}
330
2A
100
AcDbVisualStyle
  2
ColorChange
 70
    16
177
     3
291
     1
 70
    58
 90
        2
176
     1
 90
        2
176
     1
 90
        3
176
     1
 90
        0
176
     1
 40
0.6
176
     1
 40
30.0
176
     1
 62
     8
420
  8421504
176
     1
 90
        1
176
     1
 90
        4
176
     1
 62
     7
176
     1
 62
   257
176
     1
 90
        1
176
     1
 90
        1
176
     1
 40
1.0
176
     1
 90
        8
176
     1
 62
     8
420
  8421504
176
     1
 40
1.0
176
     1
 90
        1
176
     1
 90
        6
176
     1
 90
        2
176
     1
 62
     7
176
     1
 90
        5
176
     1
 90
        0
176
     1
 90
        0
176
     1
290
     0
176
     1
 90
        1
176
     1
 40
0.0
176
     1
 90
        0
176
     1
290
     0
176
     1
290
     1
176
     1
290
     1
176
     1
290
     0
176
     1
290
     0
176
     1
290
     0
176
     1
290
     0
176
     1
290
     0
176
     1
290
     0
176
     1
 90
       50
176
     1
 40
0.0
176
     1
 40
1.0
176
     1
 90
        0
176
     1
 62
    18
420
        0
176
     1
 90
       50
176
     1
 90
        3
176
     1
 62
     5
420
      255
176
     1
290
     0
176
     1
 90
       50
176
     1
 90
       50
176
     1
 90
       50
176
     1
290
     0
176
     1
 90
       50
176
     1
 62
   256
176
     0
 40
1.0
176
     0
 90
        2
176
     1
  1
strokes_ogs.tif
176
     1
290
     0
176
     1
 40
1.0
176
     1
 40
1.0
176
     1
  0
VISUALSTYLE
  5
34
102
{ACAD_REACTORS
330
2A
102
}
330
2A
100
AcDbVisualStyle
  2
Conceptual
 70
     9
177
     3
291
     0
 70
    58
 90
        3
176
     1
 90
        2
176
     1
 90
        0
176
     1
 90
        0
176
     1
 40
0.6
176
     1
 40
30.0
176
     1
 62
     7
420
 16777215
176
     1
 90
        2
176
     1
 90
        2
176
     1
 62
     7
176
     1
 62
   257
176
     1
 90
        1
176
     1
 90
        1
176
     1
 40
179.0
176
     1
 90
        8
176
     1
 62
     7
176
     1
 40
1.0
176
     1
 90
        1
176
     1
 90
        6
176
     1
 90
        2
176
     1
 62
     7
176
     1
 90
        3
176
     1
 90
        0
176
     1
 90
        0
176
     1
290
     0
176
     1
 90
        1
176
     1
 40
0.0
176
     1
 90
        0
176
     1
290
     0
176
     1
290
     1
176
     1
290
     1
176
     1
290
     0
176
     1
290
     0
176
     1
290
     0
176
     1
290
     0
176
     1
290
     0
176
     1
290
     0
176
     1
 90
       50
176
     1
 40
0.0
176
     1
 40
1.0
176
     1
 90
        0
176
     1
 62
    18
420
        0
176
     1
 90
       50
176
     1
 90
        3
176
     1
 62
     5
420
      255
176
     1
290
     0
176
     1
 90
       50
176
     1
 90
       50
176
     1
 90
       50
176
     1
290
     0
176
     1
 90
       50
176
     1
 62
   256
176
     0
 40
1.0
176
     0
 90
        2
176
     1
  1
strokes_ogs.tif
176
     1
290
     0
176
     1
 40
1.0
176
     1
 40
1.0
176
     1
  0
VISUALSTYLE
  5
35
102
{ACAD_REACTORS
330
2A
102
}
330
2A
100
AcDbVisualStyle
  2
Dim
 70
    11
177
     3
291
     1
 70
    58
 90
        2
176
     1
 90
        2
176
     1
 90
        0
176
     1
 90
        0
176
     1
 40
0.6
176
     1
 40
30.0
176
     1
 62
     7
420
 16777215
176
     1
 90
        1
176
     1
 90
        4
176
     1
 62
     7
176
     1
 62
   257
176
     1
 90
        1
176
     1
 90
        1
176
     1
 40
1.0
176
     1
 90
        8
176
     1
 62
     7
176
     1
 40
1.0
176
     1
 90
        1
176
     1
 90
        6
176
     1
 90
        2
176
     1
 62
     7
176
     1
 90
        5
176
     1
 90
        0
176
     1
 90
        0
176
     1
290
     0
176
     1
 90
        1
176
     1
 40
-50.0
176
     1
 90
        0
176
     1
290
     0
176
     1
290
     1
176
     1
290
     1
176
     1
290
     0
176
     1
290
     0
176
     1
290
     0
176
     1
290
     0
176
     1
290
     0
176
     1
290
     0
176
     1
 90
       50
176
     1
 40
0.0
176
     1
 40
1.0
176
     1
 90
        0
176
     1
 62
    18
420
        0
176
     1
 90
       50
176
     1
 90
        3
176
     1
 62
     5
420
      255
176
     1
290
     0
176
     1
 90
       50
176
     1
 90
       50
176
     1
 90
       50
176
     1
290
     0
176
     1
 90
       50
176
     1
 62
   256
176
     0
 40
1.0
176
     0
 90
        2
176
     1
  1
strokes_ogs.tif
176
     1
290
     0
176
     1
 40
1.0
176
     1
 40
1.0
176
     1
  0
VISUALSTYLE
  5
3D
102
{ACAD_REACTORS
330
2A
102
}
330
2A
100
AcDbVisualStyle
  2
EdgeColorOff
 70
    22
177
     3
291
     1
 70
    58
 90
        2
176
     0
 90
        2
176
     0
 90
        0
176
     0
 90
        0
176
     0
 40
0.6
176
     0
 40
30.0
176
     0
 62
     7
420
 16777215
176
     0
 90
        1
176
     0
 90
        4
176
     0
 62
     7
176
     0
 62
   257
176
     0
 90
        1
176
     0
 90
        1
176
     0
 40
1.0
176
     0
 90
        8
176
     2
 62
     7
176
     0
 40
1.0
176
     0
 90
        1
176
     0
 90
        6
176
     0
 90
        2
176
     0
 62
     7
176
     0
 90
        5
176
     0
 90
        0
176
     0
 90
        0
176
     0
290
     0
176
     0
 90
        1
176
     0
 40
0.0
176
     0
 90
        0
176
     0
290
     0
176
     0
290
     1
176
     0
290
     1
176
     0
290
     0
176
     0
290
     0
176
     0
290
     0
176
     0
290
     0
176
     0
290
     0
176
     0
290
     0
176
     0
 90
       50
176
     0
 40
0.0
176
     0
 40
1.0
176
     0
 90
        0
176
     0
 62
    18
420
        0
176
     0
 90
       50
176
     0
 90
        3
176
     0
 62
     5
420
      255
176
     0
290
     0
176
     0
 90
       50
176
     0
 90
       50
176
     0
 90
       50
176
     0
290
     0
176
     0
 90
       50
176
     0
 62
   256
176
     0
 40
1.0
176
     0
 90
        2
176
     0
  1
strokes_ogs.tif
176
     0
290
     0
176
     0
 40
1.0
176
     0
 40
1.0
176
     0
  0
VISUALSTYLE
  5
39
102
{ACAD_REACTORS
330
2A
102
}
330
2A
100
AcDbVisualStyle
  2
Facepattern
 70
    15
177
     3
291
     1
 70
    58
 90
        2
176
     1
 90
        2
176
     1
 90
        0
176
     1
 90
        0
176
     1
 40
0.6
176
     1
 40
30.0
176
     1
 62
     7
420
 16777215
176
     1
 90
        1
176
     1
 90
        4
176
     1
 62
     7
176
     1
 62
   257
176
     1
 90
        1
176
     1
 90
        1
176
     1
 40
1.0
176
     1
 90
        8
176
     1
 62
     7
176
     1
 40
1.0
176
     1
 90
        1
176
     1
 90
        6
176
     1
 90
        2
176
     1
 62
     7
176
     1
 90
        5
176
     1
 90
        0
176
     1
 90
        0
176
     1
290
     0
176
     1
 90
        1
176
     1
 40
0.0
176
     1
 90
        0
176
     1
290
     0
176
     1
290
     1
176
     1
290
     1
176
     1
290
     0
176
     1
290
     0
176
     1
290
     0
176
     1
290
     0
176
     1
290
     0
176
     1
290
     0
176
     1
 90
       50
176
     1
 40
0.0
176
     1
 40
1.0
176
     1
 90
        0
176
     1
 62
    18
420
        0
176
     1
 90
       50
176
     1
 90
        3
176
     1
 62
     5
420
      255
176
     1
290
     0
176
     1
 90
       50
176
     1
 90
       50
176
     1
 90
       50
176
     1
290
     0
176
     1
 90
       50
176
     1
 62
   256
176
     0
 40
1.0
176
     0
 90
        2
176
     1
  1
strokes_ogs.tif
176
     1
290
     0
176
     1
 40
1.0
176
     1
 40
1.0
176
     1
  0
VISUALSTYLE
  5
2B
102
{ACAD_REACTORS
330
2A
102
}
330
2A
100
AcDbVisualStyle
  2
Flat
 70
     0
177
     3
291
     1
 70
    58
 90
        2
176
     1
 90
        1
176
     1
 90
        1
176
     1
 90
        2
176
     1
 40
0.6
176
     1
 40
30.0
176
     1
 62
     7
420
 16777215
176
     1
 90
        0
176
     1
 90
        0
176
     1
 62
     7
176
     1
 62
   257
176
     1
 90
        1
176
     1
 90
        1
176
     1
 40
1.0
176
     1
 90
        8
176
     1
 62
     7
176
     1
 40
1.0
176
     1
 90
        1
176
     1
 90
        6
176
     1
 90
        2
176
     1
 62
     7
176
     1
 90
        5
176
     1
 90
        0
176
     1
 90
        0
176
     1
290
     0
176
     1
 90
       13
176
     1
 40
0.0
176
     1
 90
        0
176
     1
290
     0
176
     1
290
     1
176
     1
290
     1
176
     1
290
     0
176
     1
290
     0
176
     1
290
     0
176
     1
290
     0
176
     1
290
     0
176
     1
290
     0
176
     1
 90
       50
176
     1
 40
0.0
176
     1
 40
1.0
176
     1
 90
        0
176
     1
 62
    18
420
        0
176
     1
 90
       50
176
     1
 90
        3
176
     1
 62
     5
420
      255
176
     1
290
     0
176
     1
 90
       50
176
     1
 90
       50
176
     1
 90
       50
176
     1
290
     0
176
     1
 90
       50
176
     1
 62
   256
176
     0
 40
1.0
176
     0
 90
        2
176
     1
  1
strokes_ogs.tif
176
     1
290
     0
176
     1
 40
1.0
176
     1
 40
1.0
176
     1
  0
VISUALSTYLE
  5
2C
102
{ACAD_REACTORS
330
2A
102
}
330
2A
100
AcDbVisualStyle
  2
FlatWithEdges
 70
     1
177
     3
291
     1
 70
    58
 90
        2
176
     1
 90
        1
176
     1
 90
        1
176
     1
 90
        2
176
     1
 40
0.6
176
     1
 40
30.0
176
     1
 62
     7
420
 16777215
176
     1
 90
        1
176
     1
 90
        0
176
     1
 62
     7
176
     1
 62
   257
176
     1
 90
        1
176
     1
 90
        1
176
     1
 40
1.0
176
     1
 90
        0
176
     1
 62
   257
176
     1
 40
1.0
176
     1
 90
        1
176
     1
 90
        6
176
     1
 90
        2
176
     1
 62
     7
176
     1
 90
        5
176
     1
 90
        0
176
     1
 90
        0
176
     1
290
     0
176
     1
 90
       13
176
     1
 40
0.0
176
     1
 90
        0
176
     1
290
     0
176
     1
290
     1
176
     1
290
     1
176
     1
290
     0
176
     1
290
     0
176
     1
290
     0
176
     1
290
     0
176
     1
290
     0
176
     1
290
     0
176
     1
 90
       50
176
     1
 40
0.0
176
     1
 40
1.0
176
     1
 90
        0
176
     1
 62
    18
420
        0
176
     1
 90
       50
176
     1
 90
        3
176
     1
 62
     5
420
      255
176
     1
290
     0
176
     1
 90
       50
176
     1
 90
       50
176
     1
 90
       50
176
     1
290
     0
176
     1
 90
       50
176
     1
 62
   256
176
     0
 40
1.0
176
     0
 90
        2
176
     1
  1
strokes_ogs.tif
176
     1
290
     0
176
     1
 40
1.0
176
     1
 40
1.0
176
     1
  0
VISUALSTYLE
  5
2D
102
{ACAD_REACTORS
330
2A
102
}
330
2A
100
AcDbVisualStyle
  2
Gouraud
 70
     2
177
     3
291
     1
 70
    58
 90
        2
176
     1
 90
        2
176
     1
 90
        1
176
     1
 90
        2
176
     1
 40
0.6
176
     1
 40
30.0
176
     1
 62
     7
420
 16777215
176
     1
 90
        0
176
     1
 90
        0
176
     1
 62
     7
176
     1
 62
   257
176
     1
 90
        1
176
     1
 90
        1
176
     1
 40
1.0
176
     1
 90
        0
176
     1
 62
     7
176
     1
 40
1.0
176
     1
 90
        1
176
     1
 90
        6
176
     1
 90
        2
176
     1
 62
     7
176
     1
 90
        5
176
     1
 90
        0
176
     1
 90
        0
176
     1
290
     0
176
     1
 90
       13
176
     1
 40
0.0
176
     1
 90
        0
176
     1
290
     0
176
     1
290
     1
176
     1
290
     1
176
     1
290
     0
176
     1
290
     0
176
     1
290
     0
176
     1
290
     0
176
     1
290
     0
176
     1
290
     0
176
     1
 90
       50
176
     1
 40
0.0
176
     1
 40
1.0
176
     1
 90
        0
176
     1
 62
    18
420
        0
176
     1
 90
       50
176
     1
 90
        3
176
     1
 62
     5
420
      255
176
     1
290
     0
176
     1
 90
       50
176
     1
 90
       50
176
     1
 90
       50
176
     1
290
     0
176
     1
 90
       50
176
     1
 62
   256
176
     0
 40
1.0
176
     0
 90
        2
176
     1
  1
strokes_ogs.tif
176
     1
290
     0
176
     1
 40
1.0
176
     1
 40
1.0
176
     1
  0
VISUALSTYLE
  5
2E
102
{ACAD_REACTORS
330
2A
102
}
330
2A
100
AcDbVisualStyle
  2
GouraudWithEdges
 70
     3
177
     3
291
     1
 70
    58
 90
        2
176
     1
 90
        2
176
     1
 90
        1
176
     1
 90
        2
176
     1
 40
0.6
176
     1
 40
30.0
176
     1
 62
     7
420
 16777215
176
     1
 90
        1
176
     1
 90
        0
176
     1
 62
     7
176
     1
 62
   257
176
     1
 90
        1
176
     1
 90
        1
176
     1
 40
1.0
176
     1
 90
        0
176
     1
 62
   257
176
     1
 40
1.0
176
     1
 90
        1
176
     1
 90
        6
176
     1
 90
        2
176
     1
 62
     7
176
     1
 90
        5
176
     1
 90
        0
176
     1
 90
        0
176
     1
290
     0
176
     1
 90
       13
176
     1
 40
0.0
176
     1
 90
        0
176
     1
290
     0
176
     1
290
     1
176
     1
290
     1
176
     1
290
     0
176
     1
290
     0
176
     1
290
     0
176
     1
290
     0
176
     1
290
     0
176
     1
290
     0
176
     1
 90
       50
176
     1
 40
0.0
176
     1
 40
1.0
176
     1
 90
        0
176
     1
 62
    18
420
        0
176
     1
 90
       50
176
     1
 90
        3
176
     1
 62
     5
420
      255
176
     1
290
     0
176
     1
 90
       50
176
     1
 90
       50
176
     1
 90
       50
176
     1
290
     0
176
     1
 90
       50
176
     1
 62
   256
176
     0
 40
1.0
176
     0
 90
        2
176
     1
  1
strokes_ogs.tif
176
     1
290
     0
176
     1
 40
1.0
176
     1
 40
1.0
176
     1
  0
VISUALSTYLE
  5
31
102
{ACAD_REACTORS
330
2A
102
}
330
2A
100
AcDbVisualStyle
  2
Hidden
 70
     6
177
     3
291
     0
 70
    58
 90
        1
176
     1
 90
        2
176
     1
 90
        2
176
     1
 90
        0
176
     1
 40
0.6
176
     1
 40
30.0
176
     1
 62
     7
420
 16777215
176
     1
 90
        2
176
     1
 90
        2
176
     1
 62
     7
176
     1
 62
   257
176
     1
 90
        2
176
     1
 90
        1
176
     1
 40
40.0
176
     1
 90
        0
176
     1
 62
   257
176
     1
 40
1.0
176
     1
 90
        1
176
     1
 90
        6
176
     1
 90
        2
176
     1
 62
     7
176
     1
 90
        3
176
     1
 90
        0
176
     1
 90
        0
176
     1
290
     0
176
     1
 90
        1
176
     1
 40
0.0
176
     1
 90
        0
176
     1
290
     0
176
     1
290
     1
176
     1
290
     1
176
     1
290
     0
176
     1
290
     0
176
     1
290
     0
176
     1
290
     0
176
     1
290
     0
176
     1
290
     0
176
     1
 90
       50
176
     1
 40
0.0
176
     1
 40
1.0
176
     1
 90
        0
176
     1
 62
    18
420
        0
176
     1
 90
       50
176
     1
 90
        3
176
     1
 62
     5
420
      255
176
     1
290
     0
176
     1
 90
       50
176
     1
 90
       50
176
     1
 90
       50
176
     1
290
     0
176
     1
 90
       50
176
     1
 62
   256
176
     0
 40
1.0
176
     0
 90
        2
176
     1
  1
strokes_ogs.tif
176
     1
290
     0
176
     1
 40
1.0
176
     1
 40
1.0
176
     1
  0
VISUALSTYLE
  5
3B
102
{ACAD_REACTORS
330
2A
102
}
330
2A
100
AcDbVisualStyle
  2
JitterOff
 70
    20
177
     3
291
     1
 70
    58
 90
        2
176
     0
 90
        2
176
     0
 90
        0
176
     0
 90
        0
176
     0
 40
0.6
176
     0
 40
30.0
176
     0
 62
     7
420
 16777215
176
     0
 90
        1
176
     0
 90
        4
176
     0
 62
     7
176
     0
 62
   257
176
     0
 90
        1
176
     0
 90
        1
176
     0
 40
1.0
176
     0
 90
       10
176
     2
 62
     7
176
     0
 40
1.0
176
     0
 90
        1
176
     0
 90
        6
176
     0
 90
        2
176
     0
 62
     7
176
     0
 90
        5
176
     0
 90
        0
176
     0
 90
        0
176
     0
290
     0
176
     0
 90
        1
176
     0
 40
0.0
176
     0
 90
        0
176
     0
290
     0
176
     0
290
     1
176
     0
290
     1
176
     0
290
     0
176
     0
290
     0
176
     0
290
     0
176
     0
290
     0
176
     0
290
     0
176
     0
290
     0
176
     0
 90
       50
176
     0
 40
0.0
176
     0
 40
1.0
176
     0
 90
        0
176
     0
 62
    18
420
        0
176
     0
 90
       50
176
     0
 90
        3
176
     0
 62
     5
420
      255
176
     0
290
     0
176
     0
 90
       50
176
     0
 90
       50
176
     0
 90
       50
176
     0
290
     0
176
     0
 90
       50
176
     0
 62
   256
176
     0
 40
1.0
176
     0
 90
        2
176
     0
  1
strokes_ogs.tif
176
     0
290
     0
176
     0
 40
1.0
176
     0
 40
1.0
176
     0
  0
VISUALSTYLE
  5
38
102
{ACAD_REACTORS
330
2A
102
}
330
2A
100
AcDbVisualStyle
  2
Linepattern
 70
    14
177
     3
291
     1
 70
    58
 90
        2
176
     1
 90
        2
176
     1
 90
        0
176
     1
 90
        0
176
     1
 40
0.6
176
     1
 40
30.0
176
     1
 62
     7
420
 16777215
176
     1
 90
        1
176
     1
 90
        4
176
     1
 62
     7
176
     1
 62
   257
176
     1
 90
        7
176
     1
 90
        7
176
     1
 40
1.0
176
     1
 90
        8
176
     1
 62
     7
176
     1
 40
1.0
176
     1
 90
        1
176
     1
 90
        6
176
     1
 90
        2
176
     1
 62
     7
176
     1
 90
        5
176
     1
 90
        0
176
     1
 90
        0
176
     1
290
     0
176
     1
 90
        1
176
     1
 40
0.0
176
     1
 90
        0
176
     1
290
     0
176
     1
290
     1
176
     1
290
     1
176
     1
290
     0
176
     1
290
     0
176
     1
290
     0
176
     1
290
     0
176
     1
290
     0
176
     1
290
     0
176
     1
 90
       50
176
     1
 40
0.0
176
     1
 40
1.0
176
     1
 90
        0
176
     1
 62
    18
420
        0
176
     1
 90
       50
176
     1
 90
        3
176
     1
 62
     5
420
      255
176
     1
290
     0
176
     1
 90
       50
176
     1
 90
       50
176
     1
 90
       50
176
     1
290
     0
176
     1
 90
       50
176
     1
 62
   256
176
     0
 40
1.0
176
     0
 90
        2
176
     1
  1
strokes_ogs.tif
176
     1
290
     0
176
     1
 40
1.0
176
     1
 40
1.0
176
     1
  0
VISUALSTYLE
  5
3C
102
{ACAD_REACTORS
330
2A
102
}
330
2A
100
AcDbVisualStyle
  2
OverhangOff
 70
    21
177
     3
291
     1
 70
    58
 90
        2
176
     0
 90
        2
176
     0
 90
        0
176
     0
 90
        0
176
     0
 40
0.6
176
     0
 40
30.0
176
     0
 62
     7
420
 16777215
176
     0
 90
        1
176
     0
 90
        4
176
     0
 62
     7
176
     0
 62
   257
176
     0
 90
        1
176
     0
 90
        1
176
     0
 40
1.0
176
     0
 90
        9
176
     2
 62
     7
176
     0
 40
1.0
176
     0
 90
        1
176
     0
 90
        6
176
     0
 90
        2
176
     0
 62
     7
176
     0
 90
        5
176
     0
 90
        0
176
     0
 90
        0
176
     0
290
     0
176
     0
 90
        1
176
     0
 40
0.0
176
     0
 90
        0
176
     0
290
     0
176
     0
290
     1
176
     0
290
     1
176
     0
290
     0
176
     0
290
     0
176
     0
290
     0
176
     0
290
     0
176
     0
290
     0
176
     0
290
     0
176
     0
 90
       50
176
     0
 40
0.0
176
     0
 40
1.0
176
     0
 90
        0
176
     0
 62
    18
420
        0
176
     0
 90
       50
176
     0
 90
        3
176
     0
 62
     5
420
      255
176
     0
290
     0
176
     0
 90
       50
176
     0
 90
       50
176
     0
 90
       50
176
     0
290
     0
176
     0
 90
       50
176
     0
 62
   256
176
     0
 40
1.0
176
     0
 90
        2
176
     0
  1
strokes_ogs.tif
176
     0
290
     0
176
     0
 40
1.0
176
     0
 40
1.0
176
     0
  0
VISUALSTYLE
  5
33
102
{ACAD_REACTORS
330
2A
102
}
330
2A
100
AcDbVisualStyle
  2
Realistic
 70
     8
177
     3
291
     0
 70
    58
 90
        2
176
     1
 90
        3
176
     1
 90
        0
176
     1
 90
        2
176
     1
 40
0.6
176
     1
 40
30.0
176
     1
 62
     7
420
 16777215
176
     1
 90
        0
176
     1
 90
        0
176
     1
 62
     7
176
     1
 62
   257
176
     1
 90
        1
176
     1
 90
        1
176
     1
 40
1.0
176
     1
 90
        8
176
     1
 62
   257
176
     1
 40
1.0
176
     1
 90
        1
176
     1
 90
        6
176
     1
 90
        2
176
     1
 62
     7
176
     1
 90
        3
176
     1
 90
        0
176
     1
 90
        0
176
     1
290
     0
176
     1
 90
       13
176
     1
 40
0.0
176
     1
 90
        0
176
     1
290
     0
176
     1
290
     1
176
     1
290
     1
176
     1
290
     0
176
     1
290
     0
176
     1
290
     0
176
     1
290
     0
176
     1
290
     0
176
     1
290
     0
176
     1
 90
       50
176
     1
 40
0.0
176
     1
 40
1.0
176
     1
 90
        0
176
     1
 62
    18
420
        0
176
     1
 90
       50
176
     1
 90
        3
176
     1
 62
     5
420
      255
176
     1
290
     0
176
     1
 90
       50
176
     1
 90
       50
176
     1
 90
       50
176
     1
290
     0
176
     1
 90
       50
176
     1
 62
   256
176
     0
 40
1.0
176
     0
 90
        2
176
     1
  1
strokes_ogs.tif
176
     1
290
     0
176
     1
 40
1.0
176
     1
 40
1.0
176
     1
  0
VISUALSTYLE
  5
42
102
{ACAD_REACTORS
330
2A
102
}
330
2A
100
AcDbVisualStyle
  2
Shaded
 70
    27
177
     3
291
     0
 70
    58
 90
        2
176
     1
 90
        2
176
     1
 90
        1
176
     1
 90
        2
176
     1
 40
0.6
176
     1
 40
30.0
176
     1
 62
     7
420
 16777215
176
     1
 90
        0
176
     1
 90
        4
176
     1
 62
     7
176
     1
 62
   257
176
     1
 90
        1
176
     1
 90
        1
176
     1
 40
1.0
176
     1
 90
        8
176
     1
 62
   257
176
     1
 40
1.0
176
     1
 90
        1
176
     1
 90
        6
176
     1
 90
        2
176
     1
 62
     8
420
  7895160
176
     1
 90
        3
176
     1
 90
        0
176
     1
 90
        0
176
     1
290
     0
176
     1
 90
        5
176
     1
 40
0.0
176
     1
 90
        0
176
     1
290
     0
176
     1
290
     1
176
     1
290
     1
176
     1
290
     0
176
     1
290
     0
176
     1
290
     0
176
     1
290
     0
176
     1
290
     0
176
     1
290
     0
176
     1
 90
       50
176
     1
 40
0.0
176
     1
 40
1.0
176
     1
 90
        0
176
     1
 62
    18
420
        0
176
     1
 90
       50
176
     1
 90
        3
176
     1
 62
     5
420
      255
176
     1
290
     0
176
     1
 90
       50
176
     1
 90
       50
176
     1
 90
       50
176
     1
290
     0
176
     1
 90
       50
176
     1
 62
   256
176
     0
 40
1.0
176
     0
 90
        2
176
     1
  1
strokes_ogs.tif
176
     1
290
     0
176
     1
 40
1.0
176
     1
 40
1.0
176
     1
  0
VISUALSTYLE
  5
41
102
{ACAD_REACTORS
330
2A
102
}
330
2A
100
AcDbVisualStyle
  2
Shaded with edges
 70
    26
177
     3
291
     0
 70
    58
 90
        2
176
     1
 90
        2
176
     1
 90
        1
176
     1
 90
        2
176
     1
 40
0.6
176
     1
 40
30.0
176
     1
 62
     7
420
 16777215
176
     1
 90
        1
176
     1
 90
       10
176
     1
 62
     7
176
     1
 62
   257
176
     1
 90
        2
176
     1
 90
        1
176
     1
 40
1.0
176
     1
 90
        8
176
     1
 62
   257
176
     1
 40
1.0
176
     1
 90
        1
176
     1
 90
        6
176
     1
 90
        2
176
     1
 62
     7
176
     1
 90
        3
176
     1
 90
        0
176
     1
 90
        0
176
     1
290
     0
176
     1
 90
        5
176
     1
 40
0.0
176
     1
 90
        0
176
     1
290
     0
176
     1
290
     1
176
     1
290
     1
176
     1
290
     0
176
     1
290
     0
176
     1
290
     0
176
     1
290
     0
176
     1
290
     0
176
     1
290
     0
176
     1
 90
       50
176
     1
 40
0.0
176
     1
 40
1.0
176
     1
 90
        0
176
     1
 62
    18
420
        0
176
     1
 90
       50
176
     1
 90
        3
176
     1
 62
     5
420
      255
176
     1
290
     0
176
     1
 90
       50
176
     1
 90
       50
176
     1
 90
       50
176
     1
290
     0
176
     1
 90
       50
176
     1
 62
   256
176
     0
 40
1.0
176
     0
 90
        2
176
     1
  1
strokes_ogs.tif
176
     1
290
     0
176
     1
 40
1.0
176
     1
 40
1.0
176
     1
  0
VISUALSTYLE
  5
3E
102
{ACAD_REACTORS
330
2A
102
}
330
2A
100
AcDbVisualStyle
  2
Shades of Gray
 70
    23
177
     3
291
     0
 70
    58
 90
        2
176
     1
 90
        2
176
     1
 90
        3
176
     1
 90
        0
176
     1
 40
0.6
176
     1
 40
30.0
176
     1
 62
     7
420
 16777215
176
     1
 90
        2
176
     1
 90
        2
176
     1
 62
     7
176
     1
 62
     7
176
     1
 90
        1
176
     1
 90
        1
176
     1
 40
40.0
176
     1
 90
        8
176
     1
 62
     7
176
     1
 40
1.0
176
     1
 90
        1
176
     1
 90
        6
176
     1
 90
        2
176
     1
 62
     7
176
     1
 90
        3
176
     1
 90
        0
176
     1
 90
        0
176
     1
290
     0
176
     1
 90
        1
176
     1
 40
0.0
176
     1
 90
        0
176
     1
290
     0
176
     1
290
     1
176
     1
290
     1
176
     1
290
     0
176
     1
290
     0
176
     1
290
     0
176
     1
290
     0
176
     1
290
     0
176
     1
290
     0
176
     1
 90
       50
176
     1
 40
0.0
176
     1
 40
1.0
176
     1
 90
        0
176
     1
 62
    18
420
        0
176
     1
 90
       50
176
     1
 90
        3
176
     1
 62
     5
420
      255
176
     1
290
     0
176
     1
 90
       50
176
     1
 90
       50
176
     1
 90
       50
176
     1
290
     0
176
     1
 90
       50
176
     1
 62
   256
176
     0
 40
1.0
176
     0
 90
        2
176
     1
  1
strokes_ogs.tif
176
     1
290
     0
176
     1
 40
1.0
176
     1
 40
1.0
176
     1
  0
VISUALSTYLE
  5
3F
102
{ACAD_REACTORS
330
2A
102
}
330
2A
100
AcDbVisualStyle
  2
Sketchy
 70
    24
177
     3
291
     0
 70
    58
 90
        1
176
     1
 90
        2
176
     1
 90
        2
176
     1
 90
        0
176
     1
 40
0.6
176
     1
 40
30.0
176
     1
 62
     7
420
 16777215
176
     1
 90
        2
176
     1
 90
        2
176
     1
 62
     7
176
     1
 62
     7
176
     1
 90
        1
176
     1
 90
        1
176
     1
 40
40.0
176
     1
 90
       11
176
     1
 62
     7
176
     1
 40
1.0
176
     1
 90
        1
176
     1
 90
        6
176
     1
 90
        2
176
     1
 62
     7
176
     1
 90
        6
176
     1
 90
        0
176
     1
 90
        0
176
     1
290
     0
176
     1
 90
        1
176
     1
 40
0.0
176
     1
 90
        0
176
     1
290
     0
176
     1
290
     1
176
     1
290
     1
176
     1
290
     0
176
     1
290
     0
176
     1
290
     0
176
     1
290
     0
176
     1
290
     0
176
     1
290
     0
176
     1
 90
       50
176
     1
 40
0.0
176
     1
 40
1.0
176
     1
 90
        0
176
     1
 62
    18
420
        0
176
     1
 90
       50
176
     1
 90
        3
176
     1
 62
     5
420
      255
176
     1
290
     0
176
     1
 90
       50
176
     1
 90
       50
176
     1
 90
       50
176
     1
290
     0
176
     1
 90
       50
176
     1
 62
   256
176
     0
 40
1.0
176
     0
 90
        2
176
     1
  1
strokes_ogs.tif
176
     1
290
     0
176
     1
 40
1.0
176
     1
 40
1.0
176
     1
  0
VISUALSTYLE
  5
37
102
{ACAD_REACTORS
330
2A
102
}
330
2A
100
AcDbVisualStyle
  2
Thicken
 70
    13
177
     3
291
     1
 70
    58
 90
        2
176
     1
 90
        2
176
     1
 90
        0
176
     1
 90
        0
176
     1
 40
0.6
176
     1
 40
30.0
176
     1
 62
     7
420
 16777215
176
     1
 90
        1
176
     1
 90
        4
176
     1
 62
     7
176
     1
 62
   257
176
     1
 90
        1
176
     1
 90
        1
176
     1
 40
1.0
176
     1
 90
       12
176
     1
 62
     7
176
     1
 40
1.0
176
     1
 90
        1
176
     1
 90
        6
176
     1
 90
        2
176
     1
 62
     7
176
     1
 90
        5
176
     1
 90
        0
176
     1
 90
        0
176
     1
290
     0
176
     1
 90
        1
176
     1
 40
0.0
176
     1
 90
        0
176
     1
290
     0
176
     1
290
     1
176
     1
290
     1
176
     1
290
     0
176
     1
290
     0
176
     1
290
     0
176
     1
290
     0
176
     1
290
     0
176
     1
290
     0
176
     1
 90
       50
176
     1
 40
0.0
176
     1
 40
1.0
176
     1
 90
        0
176
     1
 62
    18
420
        0
176
     1
 90
       50
176
     1
 90
        3
176
     1
 62
     5
420
      255
176
     1
290
     0
176
     1
 90
       50
176
     1
 90
       50
176
     1
 90
       50
176
     1
290
     0
176
     1
 90
       50
176
     1
 62
   256
176
     0
 40
1.0
176
     0
 90
        2
176
     1
  1
strokes_ogs.tif
176
     1
290
     0
176
     1
 40
1.0
176
     1
 40
1.0
176
     1
  0
VISUALSTYLE
  5
30
102
{ACAD_REACTORS
330
2A
102
}
330
2A
100
AcDbVisualStyle
  2
Wireframe
 70
     5
177
     3
291
     0
 70
    58
 90
        0
176
     1
 90
        2
176
     1
 90
        0
176
     1
 90
        0
176
     1
 40
0.6
176
     1
 40
30.0
176
     1
 62
     7
420
 16777215
176
     1
 90
        1
176
     1
 90
        4
176
     1
 62
     7
176
     1
 62
   257
176
     1
 90
        1
176
     1
 90
        1
176
     1
 40
1.0
176
     1
 90
        0
176
     1
 62
   257
176
     1
 40
1.0
176
     1
 90
        1
176
     1
 90
        6
176
     1
 90
        2
176
     1
 62
     7
176
     1
 90
        3
176
     1
 90
        0
176
     1
 90
        0
176
     1
290
     0
176
     1
 90
        1
176
     1
 40
0.0
176
     1
 90
        0
176
     1
290
     0
176
     1
290
     1
176
     1
290
     1
176
     1
290
     0
176
     1
290
     0
176
     1
290
     0
176
     1
290
     0
176
     1
290
     0
176
     1
290
     0
176
     1
 90
       50
176
     1
 40
0.0
176
     1
 40
1.0
176
     1
 90
        0
176
     1
 62
    18
420
        0
176
     1
 90
       50
176
     1
 90
        3
176
     1
 62
     5
420
      255
176
     1
290
     0
176
     1
 90
       50
176
     1
 90
       50
176
     1
 90
       50
176
     1
290
     0
176
     1
 90
       50
176
     1
 62
   256
176
     0
 40
1.0
176
     0
 90
        2
176
     1
  1
strokes_ogs.tif
176
     1
290
     0
176
     1
 40
1.0
176
     1
 40
1.0
176
     1
  0
VISUALSTYLE
  5
40
102
{ACAD_REACTORS
330
2A
102
}
330
2A
100
AcDbVisualStyle
  2
X-Ray
 70
    25
177
     3
291
     0
 70
    58
 90
        2
176
     1
 90
        2
176
     1
 90
        1
176
     1
 90
        1
176
     1
 40
0.5
176
     1
 40
30.0
176
     1
 62
     7
420
 16777215
176
     1
 90
        1
176
     1
 90
        0
176
     1
 62
     7
176
     1
 62
   257
176
     1
 90
        1
176
     1
 90
        1
176
     1
 40
1.0
176
     1
 90
        8
176
     1
 62
     7
176
     1
 40
1.0
176
     1
 90
        1
176
     1
 90
        6
176
     1
 90
        2
176
     1
 62
     7
176
     1
 90
        3
176
     1
 90
        0
176
     1
 90
        0
176
     1
290
     0
176
     1
 90
       13
176
     1
 40
0.0
176
     1
 90
        0
176
     1
290
     0
176
     1
290
     1
176
     1
290
     1
176
     1
290
     0
176
     1
290
     0
176
     1
290
     0
176
     1
290
     0
176
     1
290
     0
176
     1
290
     0
176
     1
 90
       50
176
     1
 40
0.0
176
     1
 40
1.0
176
     1
 90
        0
176
     1
 62
    18
420
        0
176
     1
 90
       50
176
     1
 90
        3
176
     1
 62
     5
420
      255
176
     1
290
     0
176
     1
 90
       50
176
     1
 90
       50
176
     1
 90
       50
176
     1
290
     0
176
     1
 90
       50
176
     1
 62
   256
176
     0
 40
1.0
176
     0
 90
        2
176
     1
  1
strokes_ogs.tif
176
     1
290
     0
176
     1
 40
1.0
176
     1
 40
1.0
176
     1
  0
DICTIONARYVAR
  5
1C7
102
{ACAD_REACTORS
330
1C6
102
}
330
1C6
100
DictionaryVariables
280
     0
  1
1:1
  0
DICTIONARYVAR
  5
1CC
102
{ACAD_REACTORS
330
1C6
102
}
330
1C6
100
DictionaryVariables
280
     0
  1
Standard
  0
DICTIONARYVAR
  5
1CB
102
{ACAD_REACTORS
330
1C6
102
}
330
1C6
100
DictionaryVariables
280
     0
  1
Standard
  0
DICTIONARY
  5
1C8
330
6A
100
AcDbDictionary
280
     1
281
     1
  3
ACAD_ROUNDTRIP_2008_TABLESTYLE_CELLSTYLEMAP
360
1C9
  0
CELLSTYLEMAP
  5
1C9
102
{ACAD_REACTORS
330
1C8
102
}
330
1C8
100
AcDbCellStyleMap
 90
        3
300
CELLSTYLE
  1
TABLEFORMAT_BEGIN
 90
        5
170
     1
 91
        0
 92
    32768
 62
   257
 93
        1
300
CONTENTFORMAT
  1
CONTENTFORMAT_BEGIN
 90
        0
 91
        0
 92
        4
 93
        0
300

 40
0.0
140
1.0
 94
        5
 62
     0
340
11
144
0.25
309
CONTENTFORMAT_END
171
     1
301
MARGIN
  1
CELLMARGIN_BEGIN
 40
0.06
 40
0.06
 40
0.06
 40
0.06
 40
0.06
 40
0.06
309
CELLMARGIN_END
 94
        6
 95
        1
302
GRIDFORMAT
  1
GRIDFORMAT_BEGIN
 90
        0
 91
        1
 62
     0
 92
       -2
340
14
 93
        0
 40
0.045
309
GRIDFORMAT_END
 95
        2
302
GRIDFORMAT
  1
GRIDFORMAT_BEGIN
 90
        0
 91
        1
 62
     0
 92
       -2
340
14
 93
        0
 40
0.045
309
GRIDFORMAT_END
 95
        4
302
GRIDFORMAT
  1
GRIDFORMAT_BEGIN
 90
        0
 91
        1
 62
     0
 92
       -2
340
14
 93
        0
 40
0.045
309
GRIDFORMAT_END
 95
        8
302
GRIDFORMAT
  1
GRIDFORMAT_BEGIN
 90
        0
 91
        1
 62
     0
 92
       -2
340
14
 93
        0
 40
0.045
309
GRIDFORMAT_END
 95
       16
302
GRIDFORMAT
  1
GRIDFORMAT_BEGIN
 90
        0
 91
        1
 62
     0
 92
       -2
340
14
 93
        0
 40
0.045
309
GRIDFORMAT_END
 95
       32
302
GRIDFORMAT
  1
GRIDFORMAT_BEGIN
 90
        0
 91
        1
 62
     0
 92
       -2
340
14
 93
        0
 40
0.045
309
GRIDFORMAT_END
309
TABLEFORMAT_END
  1
CELLSTYLE_BEGIN
 90
        1
 91
        1
300
_TITLE
309
CELLSTYLE_END
300
CELLSTYLE
  1
TABLEFORMAT_BEGIN
 90
        5
170
     1
 91
        0
 92
        0
 62
   257
 93
        1
300
CONTENTFORMAT
  1
CONTENTFORMAT_BEGIN
 90
        0
 91
        0
 92
        4
 93
        0
300

 40
0.0
140
1.0
 94
        5
 62
     0
340
11
144
0.18
309
CONTENTFORMAT_END
171
     1
301
MARGIN
  1
CELLMARGIN_BEGIN
 40
0.06
 40
0.06
 40
0.06
 40
0.06
 40
0.06
 40
0.06
309
CELLMARGIN_END
 94
        6
 95
        1
302
GRIDFORMAT
  1
GRIDFORMAT_BEGIN
 90
        0
 91
        1
 62
     0
 92
       -2
340
14
 93
        0
 40
0.045
309
GRIDFORMAT_END
 95
        2
302
GRIDFORMAT
  1
GRIDFORMAT_BEGIN
 90
        0
 91
        1
 62
     0
 92
       -2
340
14
 93
        0
 40
0.045
309
GRIDFORMAT_END
 95
        4
302
GRIDFORMAT
  1
GRIDFORMAT_BEGIN
 90
        0
 91
        1
 62
     0
 92
       -2
340
14
 93
        0
 40
0.045
309
GRIDFORMAT_END
 95
        8
302
GRIDFORMAT
  1
GRIDFORMAT_BEGIN
 90
        0
 91
        1
 62
     0
 92
       -2
340
14
 93
        0
 40
0.045
309
GRIDFORMAT_END
 95
       16
302
GRIDFORMAT
  1
GRIDFORMAT_BEGIN
 90
        0
 91
        1
 62
     0
 92
       -2
340
14
 93
        0
 40
0.045
309
GRIDFORMAT_END
 95
       32
302
GRIDFORMAT
  1
GRIDFORMAT_BEGIN
 90
        0
 91
        1
 62
     0
 92
       -2
340
14
 93
        0
 40
0.045
309
GRIDFORMAT_END
309
TABLEFORMAT_END
  1
CELLSTYLE_BEGIN
 90
        2
 91
        1
300
_HEADER
309
CELLSTYLE_END
300
CELLSTYLE
  1
TABLEFORMAT_BEGIN
 90
        5
170
     1
 91
        0
 92
        0
 62
   257
 93
        1
300
CONTENTFORMAT
  1
CONTENTFORMAT_BEGIN
 90
        0
 91
        0
 92
        4
 93
        0
300

 40
0.0
140
1.0
 94
        2
 62
     0
340
11
144
0.18
309
CONTENTFORMAT_END
171
     1
301
MARGIN
  1
CELLMARGIN_BEGIN
 40
0.06
 40
0.06
 40
0.06
 40
0.06
 40
0.06
 40
0.06
309
CELLMARGIN_END
 94
        6
 95
        1
302
GRIDFORMAT
  1
GRIDFORMAT_BEGIN
 90
        0
 91
        1
 62
     0
 92
       -2
340
14
 93
        0
 40
0.045
309
GRIDFORMAT_END
 95
        2
302
GRIDFORMAT
  1
GRIDFORMAT_BEGIN
 90
        0
 91
        1
 62
     0
 92
       -2
340
14
 93
        0
 40
0.045
309
GRIDFORMAT_END
 95
        4
302
GRIDFORMAT
  1
GRIDFORMAT_BEGIN
 90
        0
 91
        1
 62
     0
 92
       -2
340
14
 93
        0
 40
0.045
309
GRIDFORMAT_END
 95
        8
302
GRIDFORMAT
  1
GRIDFORMAT_BEGIN
 90
        0
 91
        1
 62
     0
 92
       -2
340
14
 93
        0
 40
0.045
309
GRIDFORMAT_END
 95
       16
302
GRIDFORMAT
  1
GRIDFORMAT_BEGIN
 90
        0
 91
        1
 62
     0
 92
       -2
340
14
 93
        0
 40
0.045
309
GRIDFORMAT_END
 95
       32
302
GRIDFORMAT
  1
GRIDFORMAT_BEGIN
 90
        0
 91
        1
 62
     0
 92
       -2
340
14
 93
        0
 40
0.045
309
GRIDFORMAT_END
309
TABLEFORMAT_END
  1
CELLSTYLE_BEGIN
 90
        3
 91
        2
300
_DATA
309
CELLSTYLE_END
  0
ENDSEC
  0
EOF