0
SECTION
  2
HEADER
  9
$ACADVER
  1
AC1027
  9
$ACADMAINTVER
 70
     8
  9
$DWGCODEPAGE
  3
ANSI_1252
  9
$REQUIREDVERSIONS
160
                 0
  9
$COMMENTS
  1
File was created by Cadenas
  9
$CUSTOMPROPERTYTAG
  1
NN
  9
$CUSTOMPROPERTY
  1
Grip Tight Two-Bolt Flange - Polymer Housing, Corrosion Resistant Insert Metric Bore
  9
$CUSTOMPROPERTYTAG
  1
NT
  9
$CUSTOMPROPERTY
  1
GTEZ Normal Duty Polymer Housed 2 Bolt Flange Bearings
  9
$CUSTOMPROPERTYTAG
  1
NB
  9
$CUSTOMPROPERTY
  1
129348
  9
$CUSTOMPROPERTYTAG
  1
NBSYN
  9
$CUSTOMPROPERTY
  1
$PN.$LUBE.
  9
$CUSTOMPROPERTYTAG
  1
LINA
  9
$CUSTOMPROPERTY
  1
129348
  9
$CUSTOMPROPERTYTAG
  1
SERIES
  9
$CUSTOMPROPERTY
  1
207
  9
$CUSTOMPROPERTYTAG
  1
SS
  9
$CUSTOMPROPERTY
  1
35
  9
$CUSTOMPROPERTYTAG
  1
PN
  9
$CUSTOMPROPERTY
  1
129348
  9
$CUSTOMPROPERTYTAG
  1
DESCRIPTION
  9
$CUSTOMPROPERTY
  1
F2B-GTEZ-35M-PCR
  9
$CUSTOMPROPERTYTAG
  1
A
  9
$CUSTOMPROPERTY
  1
41.3
  9
$CUSTOMPROPERTYTAG
  1
B
  9
$CUSTOMPROPERTY
  1
160.3
  9
$CUSTOMPROPERTYTAG
  1
C
  9
$CUSTOMPROPERTY
  1
46.8
  9
$CUSTOMPROPERTYTAG
  1
D
  9
$CUSTOMPROPERTY
  1
130.2
  9
$CUSTOMPROPERTYTAG
  1
F
  9
$CUSTOMPROPERTY
  1
M12
  9
$CUSTOMPROPERTYTAG
  1
H
  9
$CUSTOMPROPERTY
  1
15.9
  9
$CUSTOMPROPERTYTAG
  1
J
  9
$CUSTOMPROPERTY
  1
13.9
  9
$CUSTOMPROPERTYTAG
  1
L
  9
$CUSTOMPROPERTY
  1
58.3
  9
$CUSTOMPROPERTYTAG
  1
M
  9
$CUSTOMPROPERTY
  1
94.1
  9
$CUSTOMPROPERTYTAG
  1
Z
  9
$CUSTOMPROPERTY
  1
46.4
  9
$CUSTOMPROPERTYTAG
  1
COMPANY
  9
$CUSTOMPROPERTY
  1
baldor
  9
$INSBASE
 10
0.0
 20
0.0
 30
0.0
  9
$EXTMIN
 10
1.000000000000000E+20
 20
1.000000000000000E+20
 30
1.000000000000000E+20
  9
$EXTMAX
 10
-1.000000000000000E+20
 20
-1.000000000000000E+20
 30
-1.000000000000000E+20
  9
$LIMMIN
 10
0.0
 20
0.0
  9
$LIMMAX
 10
420.0
 20
297.0
  9
$ORTHOMODE
 70
     0
  9
$REGENMODE
 70
     1
  9
$FILLMODE
 70
     1
  9
$QTEXTMODE
 70
     0
  9
$MIRRTEXT
 70
     1
  9
$LTSCALE
 40
1.0
  9
$ATTMODE
 70
     1
  9
$TEXTSIZE
 40
2.5
  9
$TRACEWID
 40
1.0
  9
$TEXTSTYLE
  7
Standard
  9
$CLAYER
  8
0
  9
$CELTYPE
  6
ByLayer
  9
$CECOLOR
 62
   256
  9
$CELTSCALE
 40
1.0
  9
$DISPSILH
 70
     0
  9
$DIMSCALE
 40
1.0
  9
$DIMASZ
 40
2.5
  9
$DIMEXO
 40
0.625
  9
$DIMDLI
 40
3.75
  9
$DIMRND
 40
0.0
  9
$DIMDLE
 40
0.0
  9
$DIMEXE
 40
1.25
  9
$DIMTP
 40
0.0
  9
$DIMTM
 40
0.0
  9
$DIMTXT
 40
2.5
  9
$DIMCEN
 40
2.5
  9
$DIMTSZ
 40
0.0
  9
$DIMTOL
 70
     0
  9
$DIMLIM
 70
     0
  9
$DIMTIH
 70
     0
  9
$DIMTOH
 70
     0
  9
$DIMSE1
 70
     0
  9
$DIMSE2
 70
     0
  9
$DIMTAD
 70
     1
  9
$DIMZIN
 70
     8
  9
$DIMBLK
  1

  9
$DIMASO
 70
     1
  9
$DIMSHO
 70
     1
  9
$DIMPOST
  1

  9
$DIMAPOST
  1

  9
$DIMALT
 70
     0
  9
$DIMALTD
 70
     3
  9
$DIMALTF
 40
0.03937007874016
  9
$DIMLFAC
 40
1.0
  9
$DIMTOFL
 70
     1
  9
$DIMTVP
 40
0.0
  9
$DIMTIX
 70
     0
  9
$DIMSOXD
 70
     0
  9
$DIMSAH
 70
     0
  9
$DIMBLK1
  1

  9
$DIMBLK2
  1

  9
$DIMSTYLE
  2
ISO-25
  9
$DIMCLRD
 70
     0
  9
$DIMCLRE
 70
     0
  9
$DIMCLRT
 70
     0
  9
$DIMTFAC
 40
1.0
  9
$DIMGAP
 40
0.625
  9
$DIMJUST
 70
     0
  9
$DIMSD1
 70
     0
  9
$DIMSD2
 70
     0
  9
$DIMTOLJ
 70
     0
  9
$DIMTZIN
 70
     8
  9
$DIMALTZ
 70
     0
  9
$DIMALTTZ
 70
     0
  9
$DIMUPT
 70
     0
  9
$DIMDEC
 70
     2
  9
$DIMTDEC
 70
     2
  9
$DIMALTU
 70
     2
  9
$DIMALTTD
 70
     3
  9
$DIMTXSTY
  7
Standard
  9
$DIMAUNIT
 70
     0
  9
$DIMADEC
 70
     0
  9
$DIMALTRND
 40
0.0
  9
$DIMAZIN
 70
     0
  9
$DIMDSEP
 70
    44
  9
$DIMATFIT
 70
     3
  9
$DIMFRAC
 70
     0
  9
$DIMLDRBLK
  1

  9
$DIMLUNIT
 70
     2
  9
$DIMLWD
 70
    -2
  9
$DIMLWE
 70
    -2
  9
$DIMTMOVE
 70
     0
  9
$DIMFXL
 40
1.0
  9
$DIMFXLON
 70
     0
  9
$DIMJOGANG
 40
0.7853981633974483
  9
$DIMTFILL
 70
     0
  9
$DIMTFILLCLR
 70
     0
  9
$DIMARCSYM
 70
     0
  9
$DIMLTYPE
  6

  9
$DIMLTEX1
  6

  9
$DIMLTEX2
  6

  9
$DIMTXTDIRECTION
 70
     0
  9
$LUNITS
 70
     2
  9
$LUPREC
 70
     4
  9
$SKETCHINC
 40
1.0
  9
$FILLETRAD
 40
10.0
  9
$AUNITS
 70
     0
  9
$AUPREC
 70
     0
  9
$MENU
  1
.
  9
$ELEVATION
 40
0.0
  9
$PELEVATION
 40
0.0
  9
$THICKNESS
 40
0.0
  9
$LIMCHECK
 70
     0
  9
$CHAMFERA
 40
0.0
  9
$CHAMFERB
 40
0.0
  9
$CHAMFERC
 40
0.0
  9
$CHAMFERD
 40
0.0
  9
$SKPOLY
 70
     0
  9
$TDCREATE
 40
2458168.992327558
  9
$TDUCREATE
 40
2458168.950660891
  9
$TDUPDATE
 40
2458168.992327743
  9
$TDUUPDATE
 40
2458168.950661076
  9
$TDINDWG
 40
0.0000000116
  9
$TDUSRTIMER
 40
0.0000000116
  9
$USRTIMER
 70
     1
  9
$ANGBASE
 50
0.0
  9
$ANGDIR
 70
     0
  9
$PDMODE
 70
     0
  9
$PDSIZE
 40
0.0
  9
$PLINEWID
 40
0.0
  9
$SPLFRAME
 70
     0
  9
$SPLINETYPE
 70
     6
  9
$SPLINESEGS
 70
     8
  9
$HANDSEED
  5
1FE
  9
$SURFTAB1
 70
     6
  9
$SURFTAB2
 70
     6
  9
$SURFTYPE
 70
     6
  9
$SURFU
 70
     6
  9
$SURFV
 70
     6
  9
$UCSBASE
  2

  9
$UCSNAME
  2

  9
$UCSORG
 10
0.0
 20
0.0
 30
0.0
  9
$UCSXDIR
 10
1.0
 20
0.0
 30
0.0
  9
$UCSYDIR
 10
0.0
 20
1.0
 30
0.0
  9
$UCSORTHOREF
  2

  9
$UCSORTHOVIEW
 70
     0
  9
$UCSORGTOP
 10
0.0
 20
0.0
 30
0.0
  9
$UCSORGBOTTOM
 10
0.0
 20
0.0
 30
0.0
  9
$UCSORGLEFT
 10
0.0
 20
0.0
 30
0.0
  9
$UCSORGRIGHT
 10
0.0
 20
0.0
 30
0.0
  9
$UCSORGFRONT
 10
0.0
 20
0.0
 30
0.0
  9
$UCSORGBACK
 10
0.0
 20
0.0
 30
0.0
  9
$PUCSBASE
  2

  9
$PUCSNAME
  2

  9
$PUCSORG
 10
0.0
 20
0.0
 30
0.0
  9
$PUCSXDIR
 10
1.0
 20
0.0
 30
0.0
  9
$PUCSYDIR
 10
0.0
 20
1.0
 30
0.0
  9
$PUCSORTHOREF
  2

  9
$PUCSORTHOVIEW
 70
     0
  9
$PUCSORGTOP
 10
0.0
 20
0.0
 30
0.0
  9
$PUCSORGBOTTOM
 10
0.0
 20
0.0
 30
0.0
  9
$PUCSORGLEFT
 10
0.0
 20
0.0
 30
0.0
  9
$PUCSORGRIGHT
 10
0.0
 20
0.0
 30
0.0
  9
$PUCSORGFRONT
 10
0.0
 20
0.0
 30
0.0
  9
$PUCSORGBACK
 10
0.0
 20
0.0
 30
0.0
  9
$USERI1
 70
     0
  9
$USERI2
 70
     0
  9
$USERI3
 70
     0
  9
$USERI4
 70
     0
  9
$USERI5
 70
     0
  9
$USERR1
 40
0.0
  9
$USERR2
 40
0.0
  9
$USERR3
 40
0.0
  9
$USERR4
 40
0.0
  9
$USERR5
 40
0.0
  9
$WORLDVIEW
 70
     1
  9
$SHADEDGE
 70
     3
  9
$SHADEDIF
 70
    70
  9
$TILEMODE
 70
     1
  9
$MAXACTVP
 70
    64
  9
$PINSBASE
 10
0.0
 20
0.0
 30
0.0
  9
$PLIMCHECK
 70
     0
  9
$PEXTMIN
 10
1.000000000000000E+20
 20
1.000000000000000E+20
 30
1.000000000000000E+20
  9
$PEXTMAX
 10
-1.000000000000000E+20
 20
-1.000000000000000E+20
 30
-1.000000000000000E+20
  9
$PLIMMIN
 10
0.0
 20
0.0
  9
$PLIMMAX
 10
420.0
 20
297.0
  9
$UNITMODE
 70
     0
  9
$VISRETAIN
 70
     1
  9
$PLINEGEN
 70
     0
  9
$PSLTSCALE
 70
     1
  9
$TREEDEPTH
 70
  3020
  9
$CMLSTYLE
  2
Standard
  9
$CMLJUST
 70
     0
  9
$CMLSCALE
 40
20.0
  9
$PROXYGRAPHICS
 70
     1
  9
$MEASUREMENT
 70
     1
  9
$CELWEIGHT
370
    -1
  9
$ENDCAPS
280
     0
  9
$JOINSTYLE
280
     0
  9
$LWDISPLAY
290
     0
  9
$INSUNITS
 70
     4
  9
$HYPERLINKBASE
  1

  9
$STYLESHEET
  1

  9
$XEDIT
290
     1
  9
$CEPSNTYPE
380
     0
  9
$PSTYLEMODE
290
     1
  9
$FINGERPRINTGUID
  2
{78388CC3-76FB-4E2F-97EB-055753B6784C}
  9
$VERSIONGUID
  2
{FAEB1C32-E019-11D5-929B-00C0DF256EC4}
  9
$EXTNAMES
290
     1
  9
$PSVPSCALE
 40
0.0
  9
$OLESTARTUP
290
     0
  9
$SORTENTS
280
   127
  9
$INDEXCTL
280
     0
  9
$HIDETEXT
280
     1
  9
$XCLIPFRAME
280
     2
  9
$HALOGAP
280
     0
  9
$OBSCOLOR
 70
   257
  9
$OBSLTYPE
280
     0
  9
$INTERSECTIONDISPLAY
280
     0
  9
$INTERSECTIONCOLOR
 70
   257
  9
$DIMASSOC
280
     2
  9
$PROJECTNAME
  1

  9
$CAMERADISPLAY
290
     0
  9
$LENSLENGTH
 40
50.0
  9
$CAMERAHEIGHT
 40
0.0
  9
$STEPSPERSEC
 40
2.0
  9
$STEPSIZE
 40
6.0
  9
$3DDWFPREC
 40
2.0
  9
$PSOLWIDTH
 40
5.0
  9
$PSOLHEIGHT
 40
80.0
  9
$LOFTANG1
 40
1.570796326794897
  9
$LOFTANG2
 40
1.570796326794897
  9
$LOFTMAG1
 40
0.0
  9
$LOFTMAG2
 40
0.0
  9
$LOFTPARAM
 70
     7
  9
$LOFTNORMALS
280
     1
  9
$LATITUDE
 40
37.795
  9
$LONGITUDE
 40
-122.394
  9
$NORTHDIRECTION
 40
0.0
  9
$TIMEZONE
 70
 -8000
  9
$LIGHTGLYPHDISPLAY
280
     1
  9
$TILEMODELIGHTSYNCH
280
     1
  9
$CMATERIAL
347
44
  9
$SOLIDHIST
280
     0
  9
$SHOWHIST
280
     1
  9
$DWFFRAME
280
     2
  9
$DGNFRAME
280
     2
  9
$REALWORLDSCALE
290
     1
  9
$INTERFERECOLOR
 62
   256
  9
$CSHADOW
280
     0
  9
$SHADOWPLANELOCATION
 40
0.0
  0
ENDSEC
  0
SECTION
  2
CLASSES
  0
CLASS
  1
ACDBDICTIONARYWDFLT
  2
AcDbDictionaryWithDefault
  3
ObjectDBX Classes
 90
        0
 91
        4
280
     0
281
     0
  0
CLASS
  1
VISUALSTYLE
  2
AcDbVisualStyle
  3
ObjectDBX Classes
 90
     4095
 91
        4
280
     0
281
     0
  0
CLASS
  1
MATERIAL
  2
AcDbMaterial
  3
ObjectDBX Classes
 90
     1153
 91
        4
280
     0
281
     0
  0
CLASS
  1
SCALE
  2
AcDbScale
  3
ObjectDBX Classes
 90
     1153
 91
        4
280
     0
281
     0
  0
CLASS
  1
TABLESTYLE
  2
AcDbTableStyle
  3
ObjectDBX Classes
 90
     4095
 91
        4
280
     0
281
     0
  0
CLASS
  1
MLEADERSTYLE
  2
AcDbMLeaderStyle
  3
ACDB_MLEADERSTYLE_CLASS
 90
     4095
 91
        4
280
     0
281
     0
  0
CLASS
  1
SUN
  2
AcDbSun
  3
SCENEOE
 90
     1153
 91
        4
280
     0
281
     0
  0
CLASS
  1
DICTIONARYVAR
  2
AcDbDictionaryVar
  3
ObjectDBX Classes
 90
        0
 91
        4
280
     0
281
     0
  0
CLASS
  1
CELLSTYLEMAP
  2
AcDbCellStyleMap
  3
ObjectDBX Classes
 90
     1152
 91
        4
280
     0
281
     0
  0
ENDSEC
  0
SECTION
  2
TABLES
  0
TABLE
  2
VPORT
  5
8
330
0
100
AcDbSymbolTable
 70
     1
  0
VPORT
  5
29
330
8
100
AcDbSymbolTableRecord
100
AcDbViewportTableRecord
  2
*Active
 70
     0
 10
0.0
 20
0.0
 11
1.0
 21
1.0
 12
0.0
 22
0.0
 13
0.0
 23
0.0
 14
10.0
 24
10.0
 15
10.0
 25
10.0
 16
0.0
 26
0.0
 36
1.0
 17
0.0
 27
0.0
 37
0.0
 40
163.5060000000001
 41
0.5870243293824079
 42
50.0
 43
0.0
 44
0.0
 50
0.0
 51
0.0
 71
     0
 72
   100
 73
     1
 74
     3
 75
     0
 76
     0
 77
     0
 78
     0
281
     0
 65
     1
110
0.0
120
0.0
130
0.0
111
1.0
121
0.0
131
0.0
112
0.0
122
1.0
132
0.0
 79
     0
146
0.0
348
2F
 60
     3
 61
     5
292
     1
282
     1
141
0.0
142
0.0
 63
   250
361
6D
  0
ENDTAB
  0
TABLE
  2
LTYPE
  5
5
330
0
100
AcDbSymbolTable
 70
     3
  0
LTYPE
  5
14
330
5
100
AcDbSymbolTableRecord
100
AcDbLinetypeTableRecord
  2
ByBlock
 70
     0
  3

 72
    65
 73
     0
 40
0.0
  0
LTYPE
  5
15
330
5
100
AcDbSymbolTableRecord
100
AcDbLinetypeTableRecord
  2
ByLayer
 70
     0
  3

 72
    65
 73
     0
 40
0.0
  0
LTYPE
  5
16
330
5
100
AcDbSymbolTableRecord
100
AcDbLinetypeTableRecord
  2
Continuous
 70
     0
  3
Solid line
 72
    65
 73
     0
 40
0.0
  0
LTYPE
  5
9D
330
5
100
AcDbSymbolTableRecord
100
AcDbLinetypeTableRecord
  2
Dashed
 70
     0
  3

 72
    65
 73
     2
 40
2.0
 49
1.0
 74
     0
 49
-1.0
 74
     0
  0
LTYPE
  5
10E
330
5
100
AcDbSymbolTableRecord
100
AcDbLinetypeTableRecord
  2
Center
 70
     0
  3

 72
    65
 73
     4
 40
1.5
 49
0.45
 74
     0
 49
-0.5
 74
     0
 49
0.05
 74
     0
 49
-0.5
 74
     0
  0
ENDTAB
  0
TABLE
  2
LAYER
  5
2
330
0
100
AcDbSymbolTable
 70
     7
  0
LAYER
  5
10
330
2
100
AcDbSymbolTableRecord
100
AcDbLayerTableRecord
  2
0
 70
     0
 62
     7
  6
Continuous
370
    -3
390
F
347
46
348
0
  0
LAYER
  5
72
330
2
100
AcDbSymbolTableRecord
100
AcDbLayerTableRecord
  2
AM_6
 70
     0
 62
    -2
  6
Continuous
370
    35
390
F
347
46
348
0
  0
LAYER
  5
9E
330
2
100
AcDbSymbolTableRecord
100
AcDbLayerTableRecord
  2
AM_9
 70
     0
 62
     6
  6
Dashed
370
    25
390
F
347
46
348
0
  0
LAYER
  5
A6
330
2
100
AcDbSymbolTableRecord
100
AcDbLayerTableRecord
  2
AM_4
 70
     0
 62
     3
  6
Continuous
370
    25
390
F
347
46
348
0
  0
LAYER
  5
D6
330
2
100
AcDbSymbolTableRecord
100
AcDbLayerTableRecord
  2
AM_5
 70
     0
 62
     3
  6
Continuous
370
    25
390
F
347
46
348
0
  0
LAYER
  5
10F
330
2
100
AcDbSymbolTableRecord
100
AcDbLayerTableRecord
  2
AM_7
 70
     0
 62
     7
  6
Center
370
    25
390
F
347
46
348
0
  0
LAYER
  5
1F1
330
2
100
AcDbSymbolTableRecord
100
AcDbLayerTableRecord
  2
ConnectionPoints
 70
     0
 62
     7
  6
Continuous
370
    50
390
F
347
46
348
0
  0
ENDTAB
  0
TABLE
  2
STYLE
  5
3
330
0
100
AcDbSymbolTable
 70
     1
  0
STYLE
  5
11
330
3
100
AcDbSymbolTableRecord
100
AcDbTextStyleTableRecord
  2
Standard
 70
     0
 40
0.0
 41
1.0
 50
0.0
 71
     0
 42
2.5
  3
txt
  4

  0
ENDTAB
  0
TABLE
  2
VIEW
  5
6
330
0
100
AcDbSymbolTable
 70
     0
  0
ENDTAB
  0
TABLE
  2
UCS
  5
7
330
0
100
AcDbSymbolTable
 70
     0
  0
ENDTAB
  0
TABLE
  2
APPID
  5
9
330
0
100
AcDbSymbolTable
 70
     1
  0
APPID
  5
12
330
9
100
AcDbSymbolTableRecord
100
AcDbRegAppTableRecord
  2
ACAD
 70
     0
  0
ENDTAB
  0
TABLE
  2
DIMSTYLE
  5
A
330
0
100
AcDbSymbolTable
 70
     1
100
AcDbDimStyleTable
  0
DIMSTYLE
105
27
330
A
100
AcDbSymbolTableRecord
100
AcDbDimStyleTableRecord
  2
ISO-25
 70
     0
 41
2.5
 42
0.625
 43
3.75
 44
1.25
 73
     0
 74
     0
 77
     1
 78
     8
140
2.5
141
2.5
143
0.03937007874016
147
0.625
171
     3
172
     1
178
     0
271
     2
272
     2
274
     3
278
    44
283
     0
284
     8
340
11
  0
ENDTAB
  0
TABLE
  2
BLOCK_RECORD
  5
1
330
0
100
AcDbSymbolTable
 70
     5
  0
BLOCK_RECORD
  5
1F
330
1
100
AcDbSymbolTableRecord
100
AcDbBlockTableRecord
  2
*Model_Space
340
22
 70
     0
280
     1
281
     0
  0
BLOCK_RECORD
  5
1B
330
1
100
AcDbSymbolTableRecord
100
AcDbBlockTableRecord
  2
*Paper_Space
340
1E
 70
     0
280
     1
281
     0
  0
BLOCK_RECORD
  5
23
330
1
100
AcDbSymbolTableRecord
100
AcDbBlockTableRecord
  2
*Paper_Space0
340
26
 70
     0
280
     1
281
     0
  0
BLOCK_RECORD
  5
6E
330
1
100
AcDbSymbolTableRecord
100
AcDbBlockTableRecord
  2
1_129348_0
340
0
102
{BLKREFS
331
6F
102
}
 70
     0
280
     1
281
     0
  0
BLOCK_RECORD
  5
87
330
1
100
AcDbSymbolTableRecord
100
AcDbBlockTableRecord
  2
2_129520_0_in_129348_0
340
0
102
{BLKREFS
331
88
102
}
 70
     0
280
     1
281
     0
  0
BLOCK_RECORD
  5
AD
330
1
100
AcDbSymbolTableRecord
100
AcDbBlockTableRecord
  2
3_129946_0_in_129348_0
340
0
102
{BLKREFS
331
AE
102
}
 70
     0
280
     1
281
     0
  0
BLOCK_RECORD
  5
F0
330
1
100
AcDbSymbolTableRecord
100
AcDbBlockTableRecord
  2
4_F2B_GTEZ_07_PCR_0_in_129348_0
340
0
102
{BLKREFS
331
F1
102
}
 70
     0
280
     1
281
     0
  0
ENDTAB
  0
ENDSEC
  0
SECTION
  2
BLOCKS
  0
BLOCK
  5
20
330
1F
100
AcDbEntity
  8
0
100
AcDbBlockBegin
  2
*Model_Space
 70
     0
 10
0.0
 20
0.0
 30
0.0
  3
*Model_Space
  1

  0
ENDBLK
  5
21
330
1F
100
AcDbEntity
  8
0
100
AcDbBlockEnd
  0
BLOCK
  5
1C
330
1B
100
AcDbEntity
 67
     1
  8
0
100
AcDbBlockBegin
  2
*Paper_Space
 70
     0
 10
0.0
 20
0.0
 30
0.0
  3
*Paper_Space
  1

  0
ENDBLK
  5
1D
330
1B
100
AcDbEntity
 67
     1
  8
0
100
AcDbBlockEnd
  0
BLOCK
  5
24
330
23
100
AcDbEntity
  8
0
100
AcDbBlockBegin
  2
*Paper_Space0
 70
     0
 10
0.0
 20
0.0
 30
0.0
  3
*Paper_Space0
  1

  0
ENDBLK
  5
25
330
23
100
AcDbEntity
  8
0
100
AcDbBlockEnd
  0
BLOCK
  5
70
330
6E
100
AcDbEntity
  8
0
100
AcDbBlockBegin
  2
1_129348_0
 70
     2
 10
0.0
 20
0.0
 30
0.0
  3
1_129348_0
  1

  0
ATTDEF
  5
73
330
6E
100
AcDbEntity
  8
AM_6
100
AcDbText
 10
52.05000000000001
 20
80.15000000000002
 30
0.0
 40
0.5
  1
Grip Tight Two-Bolt Flange - Polymer Housing, Corrosion Resistant Insert Metric Bore
100
AcDbAttributeDefinition
  3

  2
NN
 70
     8
280
     0
  0
ATTDEF
  5
74
330
6E
100
AcDbEntity
  8
AM_6
100
AcDbText
 10
52.05000000000001
 20
79.65000000000002
 30
0.0
 40
0.5
  1
GTEZ Normal Duty Polymer Housed 2 Bolt Flange Bearings
100
AcDbAttributeDefinition
  3

  2
NT
 70
     8
280
     0
  0
ATTDEF
  5
75
330
6E
100
AcDbEntity
  8
AM_6
100
AcDbText
 10
52.05000000000001
 20
79.15000000000002
 30
0.0
 40
0.5
  1
129348
100
AcDbAttributeDefinition
  3

  2
NB
 70
     8
280
     0
  0
ATTDEF
  5
76
330
6E
100
AcDbEntity
  8
AM_6
100
AcDbText
 10
52.05000000000001
 20
78.65000000000002
 30
0.0
 40
0.5
  1
$PN.$LUBE.
100
AcDbAttributeDefinition
  3

  2
NBSYN
 70
     8
280
     0
  0
ATTDEF
  5
77
330
6E
100
AcDbEntity
  8
AM_6
100
AcDbText
 10
52.05000000000001
 20
78.15000000000002
 30
0.0
 40
0.5
  1
129348
100
AcDbAttributeDefinition
  3

  2
LINA
 70
     8
280
     0
  0
ATTDEF
  5
78
330
6E
100
AcDbEntity
  8
AM_6
100
AcDbText
 10
52.05000000000001
 20
77.65000000000002
 30
0.0
 40
0.5
  1
207
100
AcDbAttributeDefinition
  3

  2
SERIES
 70
     8
280
     0
  0
ATTDEF
  5
79
330
6E
100
AcDbEntity
  8
AM_6
100
AcDbText
 10
52.05000000000001
 20
77.15000000000002
 30
0.0
 40
0.5
  1
35
100
AcDbAttributeDefinition
  3

  2
SS
 70
     8
280
     0
  0
ATTDEF
  5
7A
330
6E
100
AcDbEntity
  8
AM_6
100
AcDbText
 10
52.05000000000001
 20
76.65000000000002
 30
0.0
 40
0.5
  1
129348
100
AcDbAttributeDefinition
  3

  2
PN
 70
     8
280
     0
  0
ATTDEF
  5
7B
330
6E
100
AcDbEntity
  8
AM_6
100
AcDbText
 10
52.05000000000001
 20
76.15000000000002
 30
0.0
 40
0.5
  1
F2B-GTEZ-35M-PCR
100
AcDbAttributeDefinition
  3

  2
DESCRIPTION
 70
     8
280
     0
  0
ATTDEF
  5
7C
330
6E
100
AcDbEntity
  8
AM_6
100
AcDbText
 10
52.05000000000001
 20
75.65000000000002
 30
0.0
 40
0.5
  1
41.3
100
AcDbAttributeDefinition
  3

  2
A
 70
     8
280
     0
  0
ATTDEF
  5
7D
330
6E
100
AcDbEntity
  8
AM_6
100
AcDbText
 10
52.05000000000001
 20
75.15000000000002
 30
0.0
 40
0.5
  1
160.3
100
AcDbAttributeDefinition
  3

  2
B
 70
     8
280
     0
  0
ATTDEF
  5
7E
330
6E
100
AcDbEntity
  8
AM_6
100
AcDbText
 10
52.05000000000001
 20
74.65000000000002
 30
0.0
 40
0.5
  1
46.8
100
AcDbAttributeDefinition
  3

  2
C
 70
     8
280
     0
  0
ATTDEF
  5
7F
330
6E
100
AcDbEntity
  8
AM_6
100
AcDbText
 10
52.05000000000001
 20
74.15000000000002
 30
0.0
 40
0.5
  1
130.2
100
AcDbAttributeDefinition
  3

  2
D
 70
     8
280
     0
  0
ATTDEF
  5
80
330
6E
100
AcDbEntity
  8
AM_6
100
AcDbText
 10
52.05000000000001
 20
73.65000000000002
 30
0.0
 40
0.5
  1
M12
100
AcDbAttributeDefinition
  3

  2
F
 70
     8
280
     0
  0
ATTDEF
  5
81
330
6E
100
AcDbEntity
  8
AM_6
100
AcDbText
 10
52.05000000000001
 20
73.15000000000002
 30
0.0
 40
0.5
  1
15.9
100
AcDbAttributeDefinition
  3

  2
H
 70
     8
280
     0
  0
ATTDEF
  5
82
330
6E
100
AcDbEntity
  8
AM_6
100
AcDbText
 10
52.05000000000001
 20
72.65000000000002
 30
0.0
 40
0.5
  1
13.9
100
AcDbAttributeDefinition
  3

  2
J
 70
     8
280
     0
  0
ATTDEF
  5
83
330
6E
100
AcDbEntity
  8
AM_6
100
AcDbText
 10
52.05000000000001
 20
72.15000000000002
 30
0.0
 40
0.5
  1
58.3
100
AcDbAttributeDefinition
  3

  2
L
 70
     8
280
     0
  0
ATTDEF
  5
84
330
6E
100
AcDbEntity
  8
AM_6
100
AcDbText
 10
52.05000000000001
 20
71.65000000000002
 30
0.0
 40
0.5
  1
94.1
100
AcDbAttributeDefinition
  3

  2
M
 70
     8
280
     0
  0
ATTDEF
  5
85
330
6E
100
AcDbEntity
  8
AM_6
100
AcDbText
 10
52.05000000000001
 20
71.15000000000002
 30
0.0
 40
0.5
  1
46.4
100
AcDbAttributeDefinition
  3

  2
Z
 70
     8
280
     0
  0
ATTDEF
  5
86
330
6E
100
AcDbEntity
  8
AM_6
100
AcDbText
 10
52.05000000000001
 20
70.65000000000002
 30
0.0
 40
0.5
  1
baldor
100
AcDbAttributeDefinition
  3

  2
COMPANY
 70
     8
280
     0
  0
INSERT
  5
88
330
6E
100
AcDbEntity
  8
0
100
AcDbBlockReference
  2
2_129520_0_in_129348_0
 10
0.0
 20
0.0
 30
0.0
  0
INSERT
  5
AE
330
6E
100
AcDbEntity
  8
0
100
AcDbBlockReference
  2
3_129946_0_in_129348_0
 10
0.0
 20
0.0
 30
0.0
  0
INSERT
  5
F1
330
6E
100
AcDbEntity
  8
0
100
AcDbBlockReference
  2
4_F2B_GTEZ_07_PCR_0_in_129348_0
 10
0.0
 20
0.0
 30
0.0
  0
ENDBLK
  5
71
330
6E
100
AcDbEntity
  8
0
100
AcDbBlockEnd
  0
BLOCK
  5
89
330
87
100
AcDbEntity
  8
0
100
AcDbBlockBegin
  2
2_129520_0_in_129348_0
 70
     2
 10
0.0
 20
0.0
 30
0.0
  3
2_129520_0_in_129348_0
  1

  0
ATTDEF
  5
8B
330
87
100
AcDbEntity
  8
AM_6
100
AcDbText
 10
40.68875169220892
 20
35.68875169220892
 30
0.0
 40
0.5
  1
INS-GT-M B
100
AcDbAttributeDefinition
  3

  2
NN
 70
     8
280
     0
  0
ATTDEF
  5
8C
330
87
100
AcDbEntity
  8
AM_6
100
AcDbText
 10
40.68875169220892
 20
35.18875169220892
 30
0.0
 40
0.5
  1
GT Normal Duty Bearing Inserts
100
AcDbAttributeDefinition
  3

  2
NT
 70
     8
280
     0
  0
ATTDEF
  5
8D
330
87
100
AcDbEntity
  8
AM_6
100
AcDbText
 10
40.68875169220892
 20
34.68875169220892
 30
0.0
 40
0.5
  1
129520
100
AcDbAttributeDefinition
  3

  2
NB
 70
     8
280
     0
  0
ATTDEF
  5
8E
330
87
100
AcDbEntity
  8
AM_6
100
AcDbText
 10
40.68875169220892
 20
34.18875169220892
 30
0.0
 40
0.5
  1
$PN.
100
AcDbAttributeDefinition
  3

  2
NBSYN
 70
     8
280
     0
  0
ATTDEF
  5
8F
330
87
100
AcDbEntity
  8
AM_6
100
AcDbText
 10
40.68875169220892
 20
33.68875169220892
 30
0.0
 40
0.5
  1
129520
100
AcDbAttributeDefinition
  3

  2
LINA
 70
     8
280
     0
  0
ATTDEF
  5
90
330
87
100
AcDbEntity
  8
AM_6
100
AcDbText
 10
40.68875169220892
 20
33.18875169220892
 30
0.0
 40
0.5
  1
207
100
AcDbAttributeDefinition
  3

  2
SERIES
 70
     8
280
     0
  0
ATTDEF
  5
91
330
87
100
AcDbEntity
  8
AM_6
100
AcDbText
 10
40.68875169220892
 20
32.68875169220892
 30
0.0
 40
0.5
  1
129520
100
AcDbAttributeDefinition
  3

  2
PN
 70
     8
280
     0
  0
ATTDEF
  5
92
330
87
100
AcDbEntity
  8
AM_6
100
AcDbText
 10
40.68875169220892
 20
32.18875169220892
 30
0.0
 40
0.5
  1
INS-GT-07
100
AcDbAttributeDefinition
  3

  2
DESCRIPTION
 70
     8
280
     0
  0
ATTDEF
  5
93
330
87
100
AcDbEntity
  8
AM_6
100
AcDbText
 10
40.68875169220892
 20
31.68875169220892
 30
0.0
 40
0.5
  1
41.1
100
AcDbAttributeDefinition
  3

  2
A
 70
     8
280
     0
  0
ATTDEF
  5
94
330
87
100
AcDbEntity
  8
AM_6
100
AcDbText
 10
40.68875169220892
 20
31.18875169220892
 30
0.0
 40
0.5
  1
19.1
100
AcDbAttributeDefinition
  3

  2
C
 70
     8
280
     0
  0
ATTDEF
  5
95
330
87
100
AcDbEntity
  8
AM_6
100
AcDbText
 10
40.68875169220892
 20
30.68875169220892
 30
0.0
 40
0.5
  1
72.0
100
AcDbAttributeDefinition
  3

  2
D
 70
     8
280
     0
  0
ATTDEF
  5
96
330
87
100
AcDbEntity
  8
AM_6
100
AcDbText
 10
40.68875169220892
 20
30.18875169220892
 30
0.0
 40
0.5
  1
5.1
100
AcDbAttributeDefinition
  3

  2
J
 70
     8
280
     0
  0
ATTDEF
  5
97
330
87
100
AcDbEntity
  8
AM_6
100
AcDbText
 10
40.68875169220892
 20
29.68875169220892
 30
0.0
 40
0.5
  1
60.5
100
AcDbAttributeDefinition
  3

  2
L
 70
     8
280
     0
  0
ATTDEF
  5
98
330
87
100
AcDbEntity
  8
AM_6
100
AcDbText
 10
40.68875169220892
 20
29.18875169220892
 30
0.0
 40
0.5
  1
#10 - 32 x 1/4
100
AcDbAttributeDefinition
  3

  2
N
 70
     8
280
     0
  0
ATTDEF
  5
99
330
87
100
AcDbEntity
  8
AM_6
100
AcDbText
 10
40.68875169220892
 20
28.68875169220892
 30
0.0
 40
0.5
  1
13.7
100
AcDbAttributeDefinition
  3

  2
W
 70
     8
280
     0
  0
ATTDEF
  5
9A
330
87
100
AcDbEntity
  8
AM_6
100
AcDbText
 10
40.68875169220892
 20
28.18875169220892
 30
0.0
 40
0.5
  1
29.0
100
AcDbAttributeDefinition
  3

  2
X
 70
     8
280
     0
  0
ATTDEF
  5
9B
330
87
100
AcDbEntity
  8
AM_6
100
AcDbText
 10
40.68875169220892
 20
27.68875169220892
 30
0.0
 40
0.5
  1
27.4
100
AcDbAttributeDefinition
  3

  2
Y
 70
     8
280
     0
  0
ATTDEF
  5
9C
330
87
100
AcDbEntity
  8
AM_6
100
AcDbText
 10
40.68875169220892
 20
27.18875169220892
 30
0.0
 40
0.5
  1
baldor
100
AcDbAttributeDefinition
  3

  2
COMPANY
 70
     8
280
     0
  0
CIRCLE
  5
9F
330
87
100
AcDbEntity
  8
AM_9
100
AcDbCircle
 10
0.0000000000000018
 20
0.0
 30
0.0
 40
23.37779677351632
  0
CIRCLE
  5
A0
330
87
100
AcDbEntity
  8
AM_9
100
AcDbCircle
 10
0.0000000000000018
 20
0.0
 30
0.0
 40
34.09
  0
CIRCLE
  5
A1
330
87
100
AcDbEntity
  8
AM_9
100
AcDbCircle
 10
0.0000000000000018
 20
0.0
 30
0.0
 40
34.98704431704321
  0
CIRCLE
  5
A2
330
87
100
AcDbEntity
  8
AM_9
100
AcDbCircle
 10
0.0000000000000018
 20
0.0
 30
0.0
 40
24.7281746031746
  0
CIRCLE
  5
A3
330
87
100
AcDbEntity
  8
AM_9
100
AcDbCircle
 10
0.0000000000000018
 20
0.0
 30
0.0
 40
26.88888888888889
  0
CIRCLE
  5
A4
330
87
100
AcDbEntity
  8
AM_9
100
AcDbCircle
 10
0.0000000000000018
 20
0.0
 30
0.0
 40
22.56746031746032
  0
CIRCLE
  5
A5
330
87
100
AcDbEntity
  8
AM_9
100
AcDbCircle
 10
0.0000000000000018
 20
0.0
 30
0.0
 40
26.12488888888889
  0
CIRCLE
  5
A7
330
87
100
AcDbEntity
  8
AM_4
100
AcDbCircle
 10
0.0000000000000018
 20
0.0
 30
0.0
 40
35.50014590996116
  0
CIRCLE
  5
A8
330
87
100
AcDbEntity
  8
AM_4
100
AcDbCircle
 10
0.0000000000000018
 20
0.0
 30
0.0
 40
35.68875169220892
  0
CIRCLE
  5
A9
330
87
100
AcDbEntity
  8
AM_4
100
AcDbCircle
 10
0.0000000000000018
 20
0.0
 30
0.0
 40
35.1780443170432
  0
CIRCLE
  5
AA
330
87
100
AcDbEntity
  8
AM_4
100
AcDbCircle
 10
0.0000000000000018
 20
0.0
 30
0.0
 40
35.17167258467195
  0
CIRCLE
  5
AB
330
87
100
AcDbEntity
  8
AM_4
100
AcDbCircle
 10
0.0000000000000018
 20
0.0
 30
0.0
 40
34.28614400981682
  0
CIRCLE
  5
AC
330
87
100
AcDbEntity
  8
AM_4
100
AcDbCircle
 10
0.0000000000000018
 20
0.0
 30
0.0
 40
33.57487805166848
  0
ENDBLK
  5
8A
330
87
100
AcDbEntity
  8
0
100
AcDbBlockEnd
  0
BLOCK
  5
AF
330
AD
100
AcDbEntity
  8
0
100
AcDbBlockBegin
  2
3_129946_0_in_129348_0
 70
     2
 10
0.0
 20
0.0
 30
0.0
  3
3_129946_0_in_129348_0
  1

  0
ATTDEF
  5
B1
330
AD
100
AcDbEntity
  8
AM_6
100
AcDbText
 10
34.03825063601457
 20
29.14999954463376
 30
0.0
 40
0.5
  1
Grip Tight Normal Duty Adapter and Nut Metric Bore
100
AcDbAttributeDefinition
  3

  2
NN
 70
     8
280
     0
  0
ATTDEF
  5
B2
330
AD
100
AcDbEntity
  8
AM_6
100
AcDbText
 10
34.03825063601457
 20
28.64999954463376
 30
0.0
 40
0.5
  1
GT and GTM Adapter & Lock Nut Assemblies
100
AcDbAttributeDefinition
  3

  2
NT
 70
     8
280
     0
  0
ATTDEF
  5
B3
330
AD
100
AcDbEntity
  8
AM_6
100
AcDbText
 10
34.03825063601457
 20
28.14999954463376
 30
0.0
 40
0.5
  1
129946
100
AcDbAttributeDefinition
  3

  2
NB
 70
     8
280
     0
  0
ATTDEF
  5
B4
330
AD
100
AcDbEntity
  8
AM_6
100
AcDbText
 10
34.03825063601457
 20
27.64999954463376
 30
0.0
 40
0.5
  1
$PN.
100
AcDbAttributeDefinition
  3

  2
NBSYN
 70
     8
280
     0
  0
ATTDEF
  5
B5
330
AD
100
AcDbEntity
  8
AM_6
100
AcDbText
 10
34.03825063601457
 20
27.14999954463376
 30
0.0
 40
0.5
  1
129946
100
AcDbAttributeDefinition
  3

  2
LINA
 70
     8
280
     0
  0
ATTDEF
  5
B6
330
AD
100
AcDbEntity
  8
AM_6
100
AcDbText
 10
34.03825063601457
 20
26.64999954463376
 30
0.0
 40
0.5
  1
207
100
AcDbAttributeDefinition
  3

  2
SERIES
 70
     8
280
     0
  0
ATTDEF
  5
B7
330
AD
100
AcDbEntity
  8
AM_6
100
AcDbText
 10
34.03825063601457
 20
26.14999954463376
 30
0.0
 40
0.5
  1
35
100
AcDbAttributeDefinition
  3

  2
SS
 70
     8
280
     0
  0
ATTDEF
  5
B8
330
AD
100
AcDbEntity
  8
AM_6
100
AcDbText
 10
34.03825063601457
 20
25.64999954463376
 30
0.0
 40
0.5
  1
129946
100
AcDbAttributeDefinition
  3

  2
PN
 70
     8
280
     0
  0
ATTDEF
  5
B9
330
AD
100
AcDbEntity
  8
AM_6
100
AcDbText
 10
34.03825063601457
 20
25.14999954463376
 30
0.0
 40
0.5
  1
AN-GT-07-35M
100
AcDbAttributeDefinition
  3

  2
DESCRIPTION
 70
     8
280
     0
  0
ATTDEF
  5
BA
330
AD
100
AcDbEntity
  8
AM_6
100
AcDbText
 10
34.03825063601457
 20
24.64999954463376
 30
0.0
 40
0.5
  1
41.3
100
AcDbAttributeDefinition
  3

  2
A
 70
     8
280
     0
  0
ATTDEF
  5
BB
330
AD
100
AcDbEntity
  8
AM_6
100
AcDbText
 10
34.03825063601457
 20
24.14999954463376
 30
0.0
 40
0.5
  1
19.0
100
AcDbAttributeDefinition
  3

  2
C
 70
     8
280
     0
  0
ATTDEF
  5
BC
330
AD
100
AcDbEntity
  8
AM_6
100
AcDbText
 10
34.03825063601457
 20
23.64999954463376
 30
0.0
 40
0.5
  1
72.0
100
AcDbAttributeDefinition
  3

  2
D
 70
     8
280
     0
  0
ATTDEF
  5
BD
330
AD
100
AcDbEntity
  8
AM_6
100
AcDbText
 10
34.03825063601457
 20
23.14999954463376
 30
0.0
 40
0.5
  1
5.1
100
AcDbAttributeDefinition
  3

  2
J
 70
     8
280
     0
  0
ATTDEF
  5
BE
330
AD
100
AcDbEntity
  8
AM_6
100
AcDbText
 10
34.03825063601457
 20
22.64999954463376
 30
0.0
 40
0.5
  1
58.3
100
AcDbAttributeDefinition
  3

  2
L
 70
     8
280
     0
  0
ATTDEF
  5
BF
330
AD
100
AcDbEntity
  8
AM_6
100
AcDbText
 10
34.03825063601457
 20
22.14999954463376
 30
0.0
 40
0.5
  1
10 - 32 x 1/4
100
AcDbAttributeDefinition
  3

  2
N
 70
     8
280
     0
  0
ATTDEF
  5
C0
330
AD
100
AcDbEntity
  8
AM_6
100
AcDbText
 10
34.03825063601457
 20
21.64999954463376
 30
0.0
 40
0.5
  1
14.3
100
AcDbAttributeDefinition
  3

  2
W
 70
     8
280
     0
  0
ATTDEF
  5
C1
330
AD
100
AcDbEntity
  8
AM_6
100
AcDbText
 10
34.03825063601457
 20
21.14999954463376
 30
0.0
 40
0.5
  1
26.6
100
AcDbAttributeDefinition
  3

  2
X
 70
     8
280
     0
  0
ATTDEF
  5
C2
330
AD
100
AcDbEntity
  8
AM_6
100
AcDbText
 10
34.03825063601457
 20
20.64999954463376
 30
0.0
 40
0.5
  1
27.0
100
AcDbAttributeDefinition
  3

  2
Y
 70
     8
280
     0
  0
ATTDEF
  5
C3
330
AD
100
AcDbEntity
  8
AM_6
100
AcDbText
 10
34.03825063601457
 20
20.14999954463376
 30
0.0
 40
0.5
  1
baldor
100
AcDbAttributeDefinition
  3

  2
COMPANY
 70
     8
280
     0
  0
LINE
  5
C4
330
AD
100
AcDbEntity
  8
AM_9
100
AcDbLine
 10
1.250000000000002
 20
21.74702349792272
 30
0.0
 11
1.250000000000002
 21
22.55992362129873
 31
0.0
  0
LINE
  5
C5
330
AD
100
AcDbEntity
  8
AM_9
100
AcDbLine
 10
-1.249999999999998
 20
21.74702349792272
 30
0.0
 11
-1.249999999999998
 21
22.55992362129873
 31
0.0
  0
ARC
  5
C6
330
AD
100
AcDbEntity
  8
AM_9
100
AcDbCircle
 10
0.0000000000000018
 20
-0.0000000000000026
 30
0.0
 40
22.59452707623757
100
AcDbArc
 50
93.1714011257879
 51
86.82859887421209
  0
CIRCLE
  5
C7
330
AD
100
AcDbEntity
  8
AM_9
100
AcDbCircle
 10
0.0000000000000018
 20
0.0
 30
0.0
 40
23.82896825396826
  0
CIRCLE
  5
C8
330
AD
100
AcDbEntity
  8
AM_9
100
AcDbCircle
 10
0.0000000000000018
 20
0.0
 30
0.0
 40
26.20261111111112
  0
LINE
  5
C9
330
AD
100
AcDbEntity
  8
AM_9
100
AcDbLine
 10
-28.7182
 20
-1.981200000000003
 30
0.0
 11
-22.29429999999999
 21
-1.981200000000003
 31
0.0
  0
LINE
  5
CA
330
AD
100
AcDbEntity
  8
AM_9
100
AcDbLine
 10
-22.29429999999999
 20
1.981200000000003
 30
0.0
 11
-28.7182
 21
1.981200000000003
 31
0.0
  0
LINE
  5
CB
330
AD
100
AcDbEntity
  8
AM_9
100
AcDbLine
 10
-22.29429999999999
 20
-1.981200000000003
 30
0.0
 11
-21.86249999999999
 21
-2.413000000000002
 31
0.0
  0
LINE
  5
CC
330
AD
100
AcDbEntity
  8
AM_9
100
AcDbLine
 10
-21.86249999999999
 20
2.413000000000002
 30
0.0
 11
-22.29429999999999
 21
1.981200000000003
 31
0.0
  0
LINE
  5
CD
330
AD
100
AcDbEntity
  8
AM_9
100
AcDbLine
 10
-21.86249999999999
 20
2.413000000000002
 30
0.0
 11
-21.86249999999999
 21
-2.413000000000002
 31
0.0
  0
LINE
  5
CE
330
AD
100
AcDbEntity
  8
AM_9
100
AcDbLine
 10
-22.29429999999999
 20
1.981200000000003
 30
0.0
 11
-22.29429999999999
 21
-1.981200000000003
 31
0.0
  0
LINE
  5
CF
330
AD
100
AcDbEntity
  8
AM_9
100
AcDbLine
 10
-28.7182
 20
1.981200000000003
 30
0.0
 11
-29.04347991784208
 21
2.306479917842087
 31
0.0
  0
LINE
  5
D0
330
AD
100
AcDbEntity
  8
AM_9
100
AcDbLine
 10
-29.05708748063478
 20
-2.32008748063479
 30
0.0
 11
-28.7182
 21
-1.981200000000003
 31
0.0
  0
LINE
  5
D1
330
AD
100
AcDbEntity
  8
AM_9
100
AcDbLine
 10
-28.7182
 20
1.981200000000003
 30
0.0
 11
-28.7182
 21
-1.981200000000003
 31
0.0
  0
LWPOLYLINE
  5
D2
330
AD
100
AcDbEntity
  8
AM_9
100
AcDbPolyline
 90
        5
 70
     0
 43
0.0
 10
-29.12110424376965
 20
1.297608424564725
 10
-29.10332445403995
 20
1.648940788166949
 10
-29.07508426048463
 20
2.088534233791511
 10
-29.0586483330925
 20
2.305961199513286
 10
-29.05749162832486
 20
2.320491385424851
  0
LINE
  5
D3
330
AD
100
AcDbEntity
  8
AM_9
100
AcDbLine
 10
-29.12270858646702
 20
1.261088651808586
 30
0.0
 11
-29.12110424376965
 21
1.297608424564725
 31
0.0
  0
LINE
  5
D4
330
AD
100
AcDbEntity
  8
AM_9
100
AcDbLine
 10
-29.12010562987949
 20
-1.319828816423172
 30
0.0
 11
-29.12301028704417
 21
-1.254101997733805
 31
0.0
  0
LWPOLYLINE
  5
D5
330
AD
100
AcDbEntity
  8
AM_9
100
AcDbPolyline
 90
        5
 70
     0
 43
0.0
 10
-29.05749161047718
 20
-2.320491608915862
 10
-29.0681765794559
 20
-2.182569665685731
 10
-29.0957426759776
 20
-1.777711487642511
 10
-29.11150552239977
 20
-1.497580121158211
 10
-29.12010562987949
 20
-1.319828816423172
  0
LINE
  5
D7
330
AD
100
AcDbEntity
  8
AM_5
100
AcDbLine
 10
-29.04995578309888
 20
-2.413000000000002
 30
0.0
 11
-21.86249999999999
 21
-2.413000000000002
 31
0.0
  0
LINE
  5
D8
330
AD
100
AcDbEntity
  8
AM_5
100
AcDbLine
 10
-29.04995578309888
 20
2.413000000000002
 30
0.0
 11
-21.86249999999999
 21
2.413000000000002
 31
0.0
  0
LWPOLYLINE
  5
D9
330
AD
100
AcDbEntity
  8
AM_4
100
AcDbPolyline
 90
        6
 70
     0
 43
0.0
 10
-29.12301028704417
 20
-1.254101997733805
 10
-29.12688933401354
 20
-1.160524762393428
 10
-29.146930212415
 20
-0.4230356871589381
 10
-29.14804820852866
 20
0.3373212612477762
 10
-29.13120919191984
 20
1.046494632860368
 10
-29.12270858646702
 20
1.261088651808586
  0
LINE
  5
DA
330
AD
100
AcDbEntity
  8
AM_4
100
AcDbLine
 10
-12.31076053835696
 20
-26.42286273224824
 30
0.0
 11
-11.39496531478332
 21
-24.83665887568982
 31
0.0
  0
LINE
  5
DB
330
AD
100
AcDbEntity
  8
AM_4
100
AcDbLine
 10
27.2066601888673
 20
-2.55
 30
0.0
 11
29.03825063601456
 21
-2.55
 31
0.0
  0
ARC
  5
DC
330
AD
100
AcDbEntity
  8
AM_4
100
AcDbCircle
 10
0.0000000000000051
 20
-0.0000000000000107
 30
0.0
 40
29.15
100
AcDbArc
 50
245.0185669342487
 51
354.9814330657513
  0
LINE
  5
DD
330
AD
100
AcDbEntity
  8
AM_4
100
AcDbLine
 10
-11.39496531478334
 20
24.83665887568981
 30
0.0
 11
-12.31076053835697
 21
26.42286273224824
 31
0.0
  0
LINE
  5
DE
330
AD
100
AcDbEntity
  8
AM_4
100
AcDbLine
 10
29.03825063601456
 20
2.55
 30
0.0
 11
27.2066601888673
 21
2.55
 31
0.0
  0
ARC
  5
DF
330
AD
100
AcDbEntity
  8
AM_4
100
AcDbCircle
 10
-0.0000000000000036
 20
-0.0000000000000071
 30
0.0
 40
29.15000000000001
100
AcDbArc
 50
5.018566934248583
 51
114.9814330657513
  0
LINE
  5
E0
330
AD
100
AcDbEntity
  8
AM_4
100
AcDbLine
 10
-15.81169487408396
 20
-22.28665887568982
 30
0.0
 11
-16.72749009765759
 21
-23.87286273224825
 31
0.0
  0
LINE
  5
E1
330
AD
100
AcDbEntity
  8
AM_4
100
AcDbLine
 10
-16.72749009765761
 20
23.87286273224823
 30
0.0
 11
-15.81169487408397
 21
22.28665887568981
 31
0.0
  0
ARC
  5
E2
330
AD
100
AcDbEntity
  8
AM_4
100
AcDbCircle
 10
0.0000000000000213
 20
-0.0000000000000071
 30
0.0
 40
29.15000000000002
100
AcDbArc
 50
125.0185669342487
 51
177.5396067756863
  0
LWPOLYLINE
  5
E3
330
AD
100
AcDbEntity
  8
AM_4
100
AcDbPolyline
 90
        6
 70
     0
 43
0.0
 10
-29.12312765260487
 20
1.2513735373905
 10
-29.01003180747597
 20
0.6978970583711956
 10
-28.96047970389442
 20
0.1050568059768659
 10
-28.98072382011045
 20
-0.4536078380895887
 10
-29.06697589853431
 20
-1.015668821680698
 10
-29.12312765260488
 20
-1.251373537390496
  0
ARC
  5
E4
330
AD
100
AcDbEntity
  8
AM_4
100
AcDbCircle
 10
0.0000000000000071
 20
0.0000000000000027
 30
0.0
 40
29.15000000000001
100
AcDbArc
 50
182.4603932243133
 51
234.9814330657514
  0
LINE
  5
E5
330
AD
100
AcDbEntity
  8
AM_4
100
AcDbLine
 10
1.250000000000002
 20
17.45530005471118
 30
0.0
 11
1.250000000000002
 21
21.7468253968254
 31
0.0
  0
LINE
  5
E6
330
AD
100
AcDbEntity
  8
AM_4
100
AcDbLine
 10
-1.249999999999998
 20
17.45530005471118
 30
0.0
 11
-1.249999999999999
 21
21.7468253968254
 31
0.0
  0
LINE
  5
E7
330
AD
100
AcDbEntity
  8
AM_4
100
AcDbLine
 10
-1.249999999999999
 20
21.7468253968254
 30
0.0
 11
1.250000000000002
 21
21.7468253968254
 31
0.0
  0
LINE
  5
E8
330
AD
100
AcDbEntity
  8
AM_4
100
AcDbLine
 10
27.2066601888673
 20
2.55
 30
0.0
 11
27.2066601888673
 21
-2.55
 31
0.0
  0
ARC
  5
E9
330
AD
100
AcDbEntity
  8
AM_4
100
AcDbCircle
 10
-0.0000000000000036
 20
-0.0000000000000089
 30
0.0
 40
28.39
100
AcDbArc
 50
5.15327257979972
 51
114.8467274202003
  0
LINE
  5
EA
330
AD
100
AcDbEntity
  8
AM_4
100
AcDbLine
 10
-15.81169487408397
 20
22.28665887568981
 30
0.0
 11
-11.39496531478334
 21
24.83665887568981
 31
0.0
  0
ARC
  5
EB
330
AD
100
AcDbEntity
  8
AM_4
100
AcDbCircle
 10
0.0000000000000107
 20
0.0000000000000018
 30
0.0
 40
28.39
100
AcDbArc
 50
125.1532725797998
 51
234.8467274202002
  0
LINE
  5
EC
330
AD
100
AcDbEntity
  8
AM_4
100
AcDbLine
 10
-11.39496531478332
 20
-24.83665887568982
 30
0.0
 11
-15.81169487408396
 21
-22.28665887568982
 31
0.0
  0
ARC
  5
ED
330
AD
100
AcDbEntity
  8
AM_4
100
AcDbCircle
 10
0.0000000000000013
 20
0.0
 30
0.0
 40
28.39
100
AcDbArc
 50
245.1532725797997
 51
354.8467274202002
  0
ARC
  5
EE
330
AD
100
AcDbEntity
  8
AM_4
100
AcDbCircle
 10
0.0000000000000018
 20
0.0000000000000021
 30
0.0
 40
17.5
100
AcDbArc
 50
94.09604375815232
 51
85.90395624184767
  0
ARC
  5
EF
330
AD
100
AcDbEntity
  8
AM_4
100
AcDbCircle
 10
0.0000000000000018
 20
-0.0000000000000006
 30
0.0
 40
21.7468253968254
100
AcDbArc
 50
93.29515776953829
 51
86.70484223046172
  0
ENDBLK
  5
B0
330
AD
100
AcDbEntity
  8
0
100
AcDbBlockEnd
  0
BLOCK
  5
F2
330
F0
100
AcDbEntity
  8
0
100
AcDbBlockBegin
  2
4_F2B_GTEZ_07_PCR_0_in_129348_0
 70
     2
 10
0.0
 20
0.0
 30
0.0
  3
4_F2B_GTEZ_07_PCR_0_in_129348_0
  1

  0
ATTDEF
  5
F4
330
F0
100
AcDbEntity
  8
AM_6
100
AcDbText
 10
52.05000000000001
 20
80.15000000000002
 30
0.0
 40
0.5
  1
F2B-GTEZ-PCR-B
100
AcDbAttributeDefinition
  3

  2
NN
 70
     8
280
     0
  0
ATTDEF
  5
F5
330
F0
100
AcDbEntity
  8
AM_6
100
AcDbText
 10
52.05000000000001
 20
79.65000000000002
 30
0.0
 40
0.5
  1
GTEZ Normal Duty Polymer Housed 2 Bolt Flange Bearings
100
AcDbAttributeDefinition
  3

  2
NT
 70
     8
280
     0
  0
ATTDEF
  5
F6
330
F0
100
AcDbEntity
  8
AM_6
100
AcDbText
 10
52.05000000000001
 20
79.15000000000002
 30
0.0
 40
0.5
  1
F2B-GTEZ-07-PCR
100
AcDbAttributeDefinition
  3

  2
NB
 70
     8
280
     0
  0
ATTDEF
  5
F7
330
F0
100
AcDbEntity
  8
AM_6
100
AcDbText
 10
52.05000000000001
 20
78.65000000000002
 30
0.0
 40
0.5
  1
$PN.$LUBE.
100
AcDbAttributeDefinition
  3

  2
NBSYN
 70
     8
280
     0
  0
ATTDEF
  5
F8
330
F0
100
AcDbEntity
  8
AM_6
100
AcDbText
 10
52.05000000000001
 20
78.15000000000002
 30
0.0
 40
0.5
  1
F2B-GTEZ-07-PCR
100
AcDbAttributeDefinition
  3

  2
LINA
 70
     8
280
     0
  0
ATTDEF
  5
F9
330
F0
100
AcDbEntity
  8
AM_6
100
AcDbText
 10
52.05000000000001
 20
77.65000000000002
 30
0.0
 40
0.5
  1
207
100
AcDbAttributeDefinition
  3

  2
SERIES
 70
     8
280
     0
  0
ATTDEF
  5
FA
330
F0
100
AcDbEntity
  8
AM_6
100
AcDbText
 10
52.05000000000001
 20
77.15000000000002
 30
0.0
 40
0.5
  1
35
100
AcDbAttributeDefinition
  3

  2
SS
 70
     8
280
     0
  0
ATTDEF
  5
FB
330
F0
100
AcDbEntity
  8
AM_6
100
AcDbText
 10
52.05000000000001
 20
76.65000000000002
 30
0.0
 40
0.5
  1
F2B-GTEZ-07-PCR
100
AcDbAttributeDefinition
  3

  2
PN
 70
     8
280
     0
  0
ATTDEF
  5
FC
330
F0
100
AcDbEntity
  8
AM_6
100
AcDbText
 10
52.05000000000001
 20
76.15000000000002
 30
0.0
 40
0.5
  1
F2B-GTEZ-07-PCR
100
AcDbAttributeDefinition
  3

  2
DESCRIPTION
 70
     8
280
     0
  0
ATTDEF
  5
FD
330
F0
100
AcDbEntity
  8
AM_6
100
AcDbText
 10
52.05000000000001
 20
75.65000000000002
 30
0.0
 40
0.5
  1
1.00
100
AcDbAttributeDefinition
  3

  2
WEIGHT
 70
     8
280
     0
  0
ATTDEF
  5
FE
330
F0
100
AcDbEntity
  8
AM_6
100
AcDbText
 10
52.05000000000001
 20
75.15000000000002
 30
0.0
 40
0.5
  1
41.3
100
AcDbAttributeDefinition
  3

  2
A
 70
     8
280
     0
  0
ATTDEF
  5
FF
330
F0
100
AcDbEntity
  8
AM_6
100
AcDbText
 10
52.05000000000001
 20
74.65000000000002
 30
0.0
 40
0.5
  1
160.3
100
AcDbAttributeDefinition
  3

  2
B
 70
     8
280
     0
  0
ATTDEF
  5
100
330
F0
100
AcDbEntity
  8
AM_6
100
AcDbText
 10
52.05000000000001
 20
74.15000000000002
 30
0.0
 40
0.5
  1
46.8
100
AcDbAttributeDefinition
  3

  2
C
 70
     8
280
     0
  0
ATTDEF
  5
101
330
F0
100
AcDbEntity
  8
AM_6
100
AcDbText
 10
52.05000000000001
 20
73.65000000000002
 30
0.0
 40
0.5
  1
130.2
100
AcDbAttributeDefinition
  3

  2
D
 70
     8
280
     0
  0
ATTDEF
  5
102
330
F0
100
AcDbEntity
  8
AM_6
100
AcDbText
 10
52.05000000000001
 20
73.15000000000002
 30
0.0
 40
0.5
  1
M12
100
AcDbAttributeDefinition
  3

  2
F
 70
     8
280
     0
  0
ATTDEF
  5
103
330
F0
100
AcDbEntity
  8
AM_6
100
AcDbText
 10
52.05000000000001
 20
72.65000000000002
 30
0.0
 40
0.5
  1
15.9
100
AcDbAttributeDefinition
  3

  2
H
 70
     8
280
     0
  0
ATTDEF
  5
104
330
F0
100
AcDbEntity
  8
AM_6
100
AcDbText
 10
52.05000000000001
 20
72.15000000000002
 30
0.0
 40
0.5
  1
13.9
100
AcDbAttributeDefinition
  3

  2
J
 70
     8
280
     0
  0
ATTDEF
  5
105
330
F0
100
AcDbEntity
  8
AM_6
100
AcDbText
 10
52.05000000000001
 20
71.65000000000002
 30
0.0
 40
0.5
  1
58.3
100
AcDbAttributeDefinition
  3

  2
L
 70
     8
280
     0
  0
ATTDEF
  5
106
330
F0
100
AcDbEntity
  8
AM_6
100
AcDbText
 10
52.05000000000001
 20
71.15000000000002
 30
0.0
 40
0.5
  1
94.1
100
AcDbAttributeDefinition
  3

  2
M
 70
     8
280
     0
  0
ATTDEF
  5
107
330
F0
100
AcDbEntity
  8
AM_6
100
AcDbText
 10
52.05000000000001
 20
70.65000000000002
 30
0.0
 40
0.5
  1
46.4
100
AcDbAttributeDefinition
  3

  2
Z
 70
     8
280
     0
  0
ATTDEF
  5
108
330
F0
100
AcDbEntity
  8
AM_6
100
AcDbText
 10
52.05000000000001
 20
70.15000000000002
 30
0.0
 40
0.5
  1
Infotext
100
AcDbAttributeDefinition
  3

  2
INFO
 70
     8
280
     0
  0
ATTDEF
  5
109
330
F0
100
AcDbEntity
  8
AM_6
100
AcDbText
 10
52.05000000000001
 20
69.65000000000002
 30
0.0
 40
0.5
  1
baldor
100
AcDbAttributeDefinition
  3

  2
COMPANY
 70
     8
280
     0
  0
ARC
  5
10A
330
F0
100
AcDbEntity
  8
AM_9
100
AcDbCircle
 10
21.00999999968863
 20
16.10169230308858
 30
0.0
 40
26.04000000031137
100
AcDbArc
 50
0.0
 51
0.5099214084443019
  0
ARC
  5
10B
330
F0
100
AcDbEntity
  8
AM_9
100
AcDbCircle
 10
-21.01000000049012
 20
16.10169230309184
 30
0.0
 40
26.03999999950989
100
AcDbArc
 50
179.4900785915478
 51
180.0
  0
ARC
  5
10C
330
F0
100
AcDbEntity
  8
AM_9
100
AcDbCircle
 10
-21.00999999969582
 20
-16.10169230308848
 30
0.0
 40
26.04000000030418
100
AcDbArc
 50
180.0
 51
180.5099214084443
  0
ARC
  5
10D
330
F0
100
AcDbEntity
  8
AM_9
100
AcDbCircle
 10
21.01000000046137
 20
-16.10169230309177
 30
0.0
 40
26.03999999953863
100
AcDbArc
 50
359.4900785915478
 51
0.0000008537736463
  0
LINE
  5
110
330
F0
100
AcDbEntity
  8
AM_7
100
AcDbLine
 10
-6.720000000000001
 20
-65.1
 30
0.0
 11
6.720000000000001
 21
-65.1
 31
0.0
  0
LINE
  5
111
330
F0
100
AcDbEntity
  8
AM_7
100
AcDbLine
 10
0.0
 20
-71.82
 30
0.0
 11
0.0
 21
-58.38
 31
0.0
  0
LINE
  5
112
330
F0
100
AcDbEntity
  8
AM_7
100
AcDbLine
 10
-6.720000000000001
 20
65.1
 30
0.0
 11
6.720000000000001
 21
65.1
 31
0.0
  0
LINE
  5
113
330
F0
100
AcDbEntity
  8
AM_7
100
AcDbLine
 10
0.0
 20
58.38
 30
0.0
 11
0.0
 21
71.82
 31
0.0
  0
LINE
  5
114
330
F0
100
AcDbEntity
  8
AM_7
100
AcDbLine
 10
-37.80000000000001
 20
0.0
 30
0.0
 11
37.80000000000001
 21
0.0
 31
0.0
  0
LINE
  5
115
330
F0
100
AcDbEntity
  8
AM_7
100
AcDbLine
 10
0.0
 20
-37.80000000000001
 30
0.0
 11
0.0
 21
37.80000000000001
 31
0.0
  0
LINE
  5
116
330
F0
100
AcDbEntity
  8
AM_7
100
AcDbLine
 10
28.22125945717994
 20
33.26063351200701
 30
0.0
 11
37.87885773950176
 21
42.91823179432883
 31
0.0
  0
ARC
  5
117
330
F0
100
AcDbEntity
  8
AM_4
100
AcDbCircle
 10
21.00999999999956
 20
16.10169230309021
 30
0.0
 40
26.04000000000044
100
AcDbArc
 50
0.5099214084471609
 51
25.99999999999982
  0
LINE
  5
118
330
F0
100
AcDbEntity
  8
AM_4
100
AcDbLine
 10
44.4145969656303
 20
27.51687696547791
 30
0.0
 11
18.74370762369738
 21
80.15000000000002
 31
0.0
  0
ARC
  5
119
330
F0
100
AcDbEntity
  8
AM_4
100
AcDbCircle
 10
21.00999999999988
 20
-16.10169230309033
 30
0.0
 40
26.04000000000012
100
AcDbArc
 50
334.0000000000001
 51
359.4900785915528
  0
LINE
  5
11A
330
F0
100
AcDbEntity
  8
AM_4
100
AcDbLine
 10
18.74370762369737
 20
-80.15000000000002
 30
0.0
 11
44.41459696563031
 21
-27.51687696547793
 31
0.0
  0
LINE
  5
11B
330
F0
100
AcDbEntity
  8
AM_4
100
AcDbLine
 10
-18.74370762369738
 20
-80.15000000000002
 30
0.0
 11
18.74370762369737
 21
-80.15000000000002
 31
0.0
  0
LINE
  5
11C
330
F0
100
AcDbEntity
  8
AM_4
100
AcDbLine
 10
-44.41459696563031
 20
-27.51687696547791
 30
0.0
 11
-18.74370762369738
 21
-80.15000000000002
 31
0.0
  0
ARC
  5
11D
330
F0
100
AcDbEntity
  8
AM_4
100
AcDbCircle
 10
-21.00999999999936
 20
-16.10169230309019
 30
0.0
 40
26.04000000000064
100
AcDbArc
 50
180.5099214084464
 51
205.9999999999997
  0
LINE
  5
11E
330
F0
100
AcDbEntity
  8
AM_4
100
AcDbLine
 10
18.74370762369738
 20
80.15000000000002
 30
0.0
 11
-18.74370762369738
 21
80.15000000000002
 31
0.0
  0
ARC
  5
11F
330
F0
100
AcDbEntity
  8
AM_4
100
AcDbCircle
 10
-21.0100000000003
 20
16.10169230309042
 30
0.0
 40
26.03999999999969
100
AcDbArc
 50
153.9999999999999
 51
179.490078591555
  0
LINE
  5
120
330
F0
100
AcDbEntity
  8
AM_4
100
AcDbLine
 10
-18.74370762369738
 20
80.15000000000002
 30
0.0
 11
-44.41459696563031
 21
27.51687696547792
 31
0.0
  0
LINE
  5
121
330
F0
100
AcDbEntity
  8
AM_4
100
AcDbLine
 10
14.11499999999999
 20
-80.15000000000002
 30
0.0
 11
14.11499999999999
 21
-49.4025
 31
0.0
  0
LINE
  5
122
330
F0
100
AcDbEntity
  8
AM_4
100
AcDbLine
 10
-14.11500000000002
 20
-49.4025
 30
0.0
 11
-14.11500000000002
 21
-80.15000000000002
 31
0.0
  0
CIRCLE
  5
123
330
F0
100
AcDbEntity
  8
AM_4
100
AcDbCircle
 10
0.0
 20
-65.1
 30
0.0
 40
6.4
  0
ARC
  5
124
330
F0
100
AcDbEntity
  8
AM_4
100
AcDbCircle
 10
16.46749999999999
 20
-49.40250000000002
 30
0.0
 40
2.352500000000006
100
AcDbArc
 50
90.0
 51
180.0
  0
ARC
  5
125
330
F0
100
AcDbEntity
  8
AM_4
100
AcDbCircle
 10
-16.46750000000002
 20
-49.4025
 30
0.0
 40
2.352499999999999
100
AcDbArc
 50
0.0
 51
90.0
  0
LINE
  5
126
330
F0
100
AcDbEntity
  8
AM_4
100
AcDbLine
 10
-14.115
 20
80.15000000000002
 30
0.0
 11
-14.115
 21
49.40249999999999
 31
0.0
  0
CIRCLE
  5
127
330
F0
100
AcDbEntity
  8
AM_4
100
AcDbCircle
 10
0.0
 20
65.1
 30
0.0
 40
6.4
  0
ARC
  5
128
330
F0
100
AcDbEntity
  8
AM_4
100
AcDbCircle
 10
-16.46749999999998
 20
49.40249999999999
 30
0.0
 40
2.352499999999978
100
AcDbArc
 50
270.0
 51
0.0
  0
ARC
  5
129
330
F0
100
AcDbEntity
  8
AM_4
100
AcDbCircle
 10
16.46750000000001
 20
49.40250000000002
 30
0.0
 40
2.352500000000006
100
AcDbArc
 50
180.0
 51
270.0
  0
LINE
  5
12A
330
F0
100
AcDbEntity
  8
AM_4
100
AcDbLine
 10
14.115
 20
49.40250000000002
 30
0.0
 11
14.115
 21
80.15000000000002
 31
0.0
  0
LINE
  5
12B
330
F0
100
AcDbEntity
  8
AM_4
100
AcDbLine
 10
35.6044354435175
 20
42.99350075997597
 30
0.0
 11
37.9541265636348
 21
40.64380963985867
 31
0.0
  0
ARC
  5
12C
330
F0
100
AcDbEntity
  8
AM_4
100
AcDbCircle
 10
37.60057402166241
 20
40.29025681485807
 30
0.0
 40
0.4999990000000002
100
AcDbArc
 50
336.8011625213605
 51
45.00000000000059
  0
ARC
  5
12D
330
F0
100
AcDbEntity
  8
AM_4
100
AcDbCircle
 10
35.25088276003101
 20
42.63994807648946
 30
0.0
 40
0.4999990000000129
100
AcDbArc
 50
45.00000000000172
 51
113.1988374786396
  0
LINE
  5
12E
330
F0
100
AcDbEntity
  8
AM_4
100
AcDbLine
 10
35.05392152374709
 20
43.09951882338544
 30
0.0
 11
38.06014476855837
 21
40.09329557857416
 31
0.0
  0
LINE
  5
12F
330
F0
100
AcDbEntity
  8
AM_4
100
AcDbLine
 10
35.05392152374709
 20
43.09951882338544
 30
0.0
 11
33.72202499057446
 21
42.52869922803957
 31
0.0
  0
LINE
  5
130
330
F0
100
AcDbEntity
  8
AM_4
100
AcDbLine
 10
37.48932517321251
 20
38.76139904540153
 30
0.0
 11
38.06014476855837
 21
40.09329557857416
 31
0.0
  0
LINE
  5
131
330
F0
100
AcDbEntity
  8
AM_4
100
AcDbLine
 10
33.72202499057446
 20
42.52869922803957
 30
0.0
 11
37.48932517321251
 21
38.76139904540153
 31
0.0
  0
ARC
  5
132
330
F0
100
AcDbEntity
  8
AM_4
100
AcDbCircle
 10
37.02975442631653
 20
38.95836028168547
 30
0.0
 40
0.4999990000000305
100
AcDbArc
 50
269.1573690776583
 51
336.8011625213574
  0
ARC
  5
133
330
F0
100
AcDbEntity
  8
AM_4
100
AcDbCircle
 10
33.91898622685838
 20
42.06912848114361
 30
0.0
 40
0.4999989999999965
100
AcDbArc
 50
113.1988374786406
 51
180.842630922344
  0
LINE
  5
134
330
F0
100
AcDbEntity
  8
AM_4
100
AcDbLine
 10
34.87009347223631
 20
35.94968369455434
 30
0.0
 11
35.22364615572278
 21
36.30323637804082
 31
0.0
  0
LINE
  5
135
330
F0
100
AcDbEntity
  8
AM_4
100
AcDbLine
 10
31.26386232321376
 20
40.26302021054985
 30
0.0
 11
30.91030963972727
 21
39.90946752706337
 31
0.0
  0
LINE
  5
136
330
F0
100
AcDbEntity
  8
AM_4
100
AcDbLine
 10
33.41904129741405
 20
42.06177541893139
 30
0.0
 11
37.02240136410433
 21
38.45841535224112
 31
0.0
  0
LINE
  5
137
330
F0
100
AcDbEntity
  8
AM_4
100
AcDbLine
 10
31.26386232321375
 20
40.26302021054986
 30
0.0
 11
35.22364615572279
 21
36.30323637804081
 31
0.0
  0
ARC
  5
138
330
F0
100
AcDbEntity
  8
AM_4
100
AcDbCircle
 10
36.99583832662942
 20
36.65235747962603
 30
0.0
 40
1.80625320323448
100
AcDbArc
 50
89.15736907765564
 51
191.1445377081345
  0
ARC
  5
139
330
F0
100
AcDbEntity
  8
AM_4
100
AcDbCircle
 10
31.61298342479898
 20
42.03521238145647
 30
0.0
 40
1.806253203234463
100
AcDbArc
 50
258.8554622918649
 51
0.8426309223444078
  0
LINE
  5
13A
330
F0
100
AcDbEntity
  8
AM_4
100
AcDbLine
 10
32.44225488884098
 20
33.52184511115901
 30
0.0
 11
32.74875757232747
 21
33.8283477946455
 31
0.0
  0
LINE
  5
13B
330
F0
100
AcDbEntity
  8
AM_4
100
AcDbLine
 10
28.78897373981843
 20
37.78813162715454
 30
0.0
 11
28.48247105633194
 21
37.48162894366805
 31
0.0
  0
LINE
  5
13C
330
F0
100
AcDbEntity
  8
AM_4
100
AcDbLine
 10
32.51910748175818
 20
34.29249113039143
 30
0.0
 11
34.40595013649038
 21
36.17933378512363
 31
0.0
  0
LINE
  5
13D
330
F0
100
AcDbEntity
  8
AM_4
100
AcDbLine
 10
34.15210268485508
 20
32.65949592729451
 30
0.0
 11
36.03894533958728
 21
34.54633858202673
 31
0.0
  0
LWPOLYLINE
  5
13E
330
F0
100
AcDbEntity
  8
AM_4
100
AcDbPolyline
 90
        6
 70
     0
 43
0.0
 10
32.51910748175818
 20
34.29249113039143
 10
32.83519674318583
 20
33.80587253004808
 10
33.20816212931
 20
33.36898849249697
 10
33.22860004696062
 20
33.34855057484636
 10
33.66345970943257
 20
32.97707947867563
 10
34.15210268485508
 20
32.65949592729451
  0
LWPOLYLINE
  5
13F
330
F0
100
AcDbEntity
  8
AM_4
100
AcDbPolyline
 90
        6
 70
     0
 43
0.0
 10
29.25311707556437
 20
37.55848153658523
 10
30.1344775091148
 20
36.48267503519872
 10
30.74845036583737
 20
35.82870025596961
 10
30.78932620114252
 20
35.78782442066446
 10
31.62956078039175
 20
35.01192302703242
 10
32.51910748175818
 20
34.29249113039143
  0
LINE
  5
140
330
F0
100
AcDbEntity
  8
AM_4
100
AcDbLine
 10
27.94044560239458
 20
38.63665976457839
 30
0.0
 11
33.59728570975134
 21
32.97981965722163
 31
0.0
  0
LINE
  5
141
330
F0
100
AcDbEntity
  8
AM_4
100
AcDbLine
 10
33.59728570975134
 20
32.97981965722163
 30
0.0
 11
34.15210268485508
 21
32.65949592729451
 31
0.0
  0
LINE
  5
142
330
F0
100
AcDbEntity
  8
AM_4
100
AcDbLine
 10
27.62012187246746
 20
39.19147673968214
 30
0.0
 11
27.94044560239458
 21
38.6366597645784
 31
0.0
  0
LINE
  5
143
330
F0
100
AcDbEntity
  8
AM_4
100
AcDbLine
 10
27.62012187246746
 20
39.19147673968214
 30
0.0
 11
29.50696452719966
 21
41.07831939441434
 31
0.0
  0
LWPOLYLINE
  5
144
330
F0
100
AcDbEntity
  8
AM_4
100
AcDbPolyline
 90
        6
 70
     0
 43
0.0
 10
27.62012187246746
 20
39.19147673968214
 10
27.93621113389424
 20
38.70485813933997
 10
28.30917652001722
 20
38.26797410178977
 10
28.32961443767199
 20
38.247536184135
 10
28.76447410014306
 20
37.87606508796546
 10
29.25311707556437
 20
37.55848153658523
  0
LINE
  5
145
330
F0
100
AcDbEntity
  8
AM_4
100
AcDbLine
 10
29.25311707556437
 20
37.55848153658523
 30
0.0
 11
31.13995973029657
 21
39.44532419131744
 31
0.0
  0
LINE
  5
146
330
F0
100
AcDbEntity
  8
AM_4
100
AcDbLine
 10
30.06178150230341
 20
40.75799566448723
 30
0.0
 11
35.71862160966015
 21
35.10115555713048
 31
0.0
  0
LWPOLYLINE
  5
147
330
F0
100
AcDbEntity
  8
AM_4
100
AcDbPolyline
 90
        5
 70
     0
 43
0.0
 10
36.03894533958728
 20
34.54633858202673
 10
35.72074993896175
 20
35.03499299869205
 10
35.34753289542264
 20
35.47221521823122
 10
34.90356932359376
 20
35.85443171023717
 10
34.40595013649038
 20
36.17933378512363
  0
LWPOLYLINE
  5
148
330
F0
100
AcDbEntity
  8
AM_4
100
AcDbPolyline
 90
        5
 70
     0
 43
0.0
 10
31.13995973029657
 20
39.44532419131744
 10
30.82176432967104
 20
39.93397860798275
 10
30.44854728613193
 20
40.37120082752193
 10
30.00458371430305
 20
40.7534173195279
 10
29.50696452719966
 20
41.07831939441434
  0
LWPOLYLINE
  5
149
330
F0
100
AcDbEntity
  8
AM_4
100
AcDbPolyline
 90
        6
 70
     0
 43
0.0
 10
34.40595013649038
 20
36.17933378512363
 10
33.74124893292576
 20
37.00517016845324
 10
33.02845473000593
 20
37.78948294515458
 10
32.24920536548212
 20
38.53355658614152
 10
31.42304146985819
 20
39.22556943049497
 10
31.13995973029657
 20
39.44532419131744
  0
LINE
  5
14A
330
F0
100
AcDbEntity
  8
AM_4
100
AcDbLine
 10
30.0617815023034
 20
40.75799566448723
 30
0.0
 11
29.50696452719966
 21
41.07831939441435
 31
0.0
  0
LINE
  5
14B
330
F0
100
AcDbEntity
  8
AM_4
100
AcDbLine
 10
36.03894533958727
 20
34.54633858202673
 30
0.0
 11
35.71862160966015
 21
35.10115555713048
 31
0.0
  0
LINE
  5
14C
330
F0
100
AcDbEntity
  8
AM_4
100
AcDbLine
 10
-8.35772534700066
 20
44.34502840308025
 30
0.0
 11
-8.35772534700066
 21
41.75497145976018
 31
0.0
  0
LINE
  5
14D
330
F0
100
AcDbEntity
  8
AM_4
100
AcDbLine
 10
-6.95829245117983
 20
44.34502840308025
 30
0.0
 11
-8.35772534700066
 21
44.34502840308025
 31
0.0
  0
LINE
  5
14E
330
F0
100
AcDbEntity
  8
AM_4
100
AcDbLine
 10
-6.64730748514057
 20
44.27102677053999
 30
0.0
 11
-6.95829245117983
 21
44.34502840308025
 31
0.0
  0
LINE
  5
14F
330
F0
100
AcDbEntity
  8
AM_4
100
AcDbLine
 10
-6.414068213241251
 20
44.12302351054029
 30
0.0
 11
-6.64730748514057
 21
44.27102677053999
 31
0.0
  0
LINE
  5
150
330
F0
100
AcDbEntity
  8
AM_4
100
AcDbLine
 10
-6.25857573022017
 20
43.90101861800034
 30
0.0
 11
-6.414068213241251
 21
44.12302351054029
 31
0.0
  0
LINE
  5
151
330
F0
100
AcDbEntity
  8
AM_4
100
AcDbLine
 10
-6.18082948744046
 20
43.60501216150027
 30
0.0
 11
-6.25857573022017
 21
43.90101861800034
 31
0.0
  0
LINE
  5
152
330
F0
100
AcDbEntity
  8
AM_4
100
AcDbLine
 10
-6.18082948744046
 20
42.4949877673799
 30
0.0
 11
-6.18082948744046
 21
43.60501216150027
 31
0.0
  0
LINE
  5
153
330
F0
100
AcDbEntity
  8
AM_4
100
AcDbLine
 10
-6.25857573022017
 20
42.1989812448401
 30
0.0
 11
-6.18082948744046
 21
42.4949877673799
 31
0.0
  0
LINE
  5
154
330
F0
100
AcDbEntity
  8
AM_4
100
AcDbLine
 10
-6.958292451179834
 20
41.75497145976018
 30
0.0
 11
-6.64730748514057
 21
41.82897309230044
 31
0.0
  0
LINE
  5
155
330
F0
100
AcDbEntity
  8
AM_4
100
AcDbLine
 10
-8.35772534700066
 20
41.75497145976018
 30
0.0
 11
-6.958292451179834
 21
41.75497145976018
 31
0.0
  0
LINE
  5
156
330
F0
100
AcDbEntity
  8
AM_4
100
AcDbLine
 10
-6.64730748514057
 20
41.82897309230044
 30
0.0
 11
-6.414068213241251
 21
41.97697642088028
 31
0.0
  0
LINE
  5
157
330
F0
100
AcDbEntity
  8
AM_4
100
AcDbLine
 10
-6.414068213241251
 20
41.97697642088028
 30
0.0
 11
-6.25857573022017
 21
42.1989812448401
 31
0.0
  0
LINE
  5
158
330
F0
100
AcDbEntity
  8
AM_4
100
AcDbLine
 10
-2.44900797726041
 20
43.60501216150027
 30
0.0
 11
-2.52675422004006
 21
43.90101861800034
 31
0.0
  0
LINE
  5
159
330
F0
100
AcDbEntity
  8
AM_4
100
AcDbLine
 10
-2.44900797726041
 20
42.4949877673799
 30
0.0
 11
-2.44900797726041
 21
43.60501216150027
 31
0.0
  0
LINE
  5
15A
330
F0
100
AcDbEntity
  8
AM_4
100
AcDbLine
 10
-2.52675422004006
 20
42.1989812448401
 30
0.0
 11
-2.44900797726041
 21
42.4949877673799
 31
0.0
  0
LINE
  5
15B
330
F0
100
AcDbEntity
  8
AM_4
100
AcDbLine
 10
-2.68224670306114
 20
41.97697642088028
 30
0.0
 11
-2.52675422004006
 21
42.1989812448401
 31
0.0
  0
LINE
  5
15C
330
F0
100
AcDbEntity
  8
AM_4
100
AcDbLine
 10
-2.915485700639921
 20
41.82897309230044
 30
0.0
 11
-2.68224670306114
 21
41.97697642088028
 31
0.0
  0
LINE
  5
15D
330
F0
100
AcDbEntity
  8
AM_4
100
AcDbLine
 10
-3.22647066668065
 20
41.75497145976018
 30
0.0
 11
-2.915485700639921
 21
41.82897309230044
 31
0.0
  0
LINE
  5
15E
330
F0
100
AcDbEntity
  8
AM_4
100
AcDbLine
 10
-3.84844114740037
 20
41.75497145976018
 30
0.0
 11
-3.22647066668065
 21
41.75497145976018
 31
0.0
  0
LINE
  5
15F
330
F0
100
AcDbEntity
  8
AM_4
100
AcDbLine
 10
-4.1594261134411
 20
41.82897309230044
 30
0.0
 11
-3.84844114740037
 21
41.75497145976018
 31
0.0
  0
LINE
  5
160
330
F0
100
AcDbEntity
  8
AM_4
100
AcDbLine
 10
-4.3926648367007
 20
41.97697642088028
 30
0.0
 11
-4.1594261134411
 21
41.82897309230044
 31
0.0
  0
LINE
  5
161
330
F0
100
AcDbEntity
  8
AM_4
100
AcDbLine
 10
-4.5481578683615
 20
42.1989812448401
 30
0.0
 11
-4.3926648367007
 21
41.97697642088028
 31
0.0
  0
LINE
  5
162
330
F0
100
AcDbEntity
  8
AM_4
100
AcDbLine
 10
-4.625904108601447
 20
42.4949877673799
 30
0.0
 11
-4.5481578683615
 21
42.1989812448401
 31
0.0
  0
LINE
  5
163
330
F0
100
AcDbEntity
  8
AM_4
100
AcDbLine
 10
-4.62590410860145
 20
43.60501216150027
 30
0.0
 11
-4.625904108601447
 21
42.4949877673799
 31
0.0
  0
LINE
  5
164
330
F0
100
AcDbEntity
  8
AM_4
100
AcDbLine
 10
-4.3926648367007
 20
44.12302351054029
 30
0.0
 11
-4.5481578683615
 21
43.90101861800034
 31
0.0
  0
LINE
  5
165
330
F0
100
AcDbEntity
  8
AM_4
100
AcDbLine
 10
-4.5481578683615
 20
43.90101861800034
 30
0.0
 11
-4.62590410860145
 21
43.60501216150027
 31
0.0
  0
LINE
  5
166
330
F0
100
AcDbEntity
  8
AM_4
100
AcDbLine
 10
-2.52675422004006
 20
43.90101861800034
 30
0.0
 11
-2.68224670306114
 21
44.12302351054029
 31
0.0
  0
LINE
  5
167
330
F0
100
AcDbEntity
  8
AM_4
100
AcDbLine
 10
-2.68224670306114
 20
44.12302351054029
 30
0.0
 11
-2.915485700639921
 21
44.27102677053999
 31
0.0
  0
LINE
  5
168
330
F0
100
AcDbEntity
  8
AM_4
100
AcDbLine
 10
-2.915485700639921
 20
44.27102677053999
 30
0.0
 11
-3.22647066668065
 21
44.34502840308025
 31
0.0
  0
LINE
  5
169
330
F0
100
AcDbEntity
  8
AM_4
100
AcDbLine
 10
-3.22647066668065
 20
44.34502840308025
 30
0.0
 11
-3.84844114740037
 21
44.34502840308025
 31
0.0
  0
LINE
  5
16A
330
F0
100
AcDbEntity
  8
AM_4
100
AcDbLine
 10
-3.84844114740037
 20
44.34502840308025
 30
0.0
 11
-4.1594261134411
 21
44.27102677053999
 31
0.0
  0
LINE
  5
16B
330
F0
100
AcDbEntity
  8
AM_4
100
AcDbLine
 10
-4.1594261134411
 20
44.27102677053999
 30
0.0
 11
-4.3926648367007
 21
44.12302351054029
 31
0.0
  0
LINE
  5
16C
330
F0
100
AcDbEntity
  8
AM_4
100
AcDbLine
 10
1.74929152807863
 20
42.4949877673799
 30
0.0
 11
1.74929152807863
 21
43.60501216150027
 31
0.0
  0
LINE
  5
16D
330
F0
100
AcDbEntity
  8
AM_4
100
AcDbLine
 10
1.67154528783862
 20
42.12497961484024
 30
0.0
 11
1.74929152807863
 21
42.4949877673799
 31
0.0
  0
LINE
  5
16E
330
F0
100
AcDbEntity
  8
AM_4
100
AcDbLine
 10
-18.91409999999999
 20
-47.05
 30
0.0
 11
18.91409999999999
 21
-47.05
 31
0.0
  0
LINE
  5
16F
330
F0
100
AcDbEntity
  8
AM_4
100
AcDbLine
 10
1.51605266766018
 20
44.27102677053999
 30
0.0
 11
1.20506756445917
 21
44.56703329562021
 31
0.0
  0
LINE
  5
170
330
F0
100
AcDbEntity
  8
AM_4
100
AcDbLine
 10
1.20506756445917
 20
44.56703329562021
 30
0.0
 11
0.894082392679422
 21
44.7150365556199
 31
0.0
  0
LINE
  5
171
330
F0
100
AcDbEntity
  8
AM_4
100
AcDbLine
 10
1.74929152807863
 20
43.60501216150027
 30
0.0
 11
1.67154528783862
 21
43.97502024800019
 31
0.0
  0
LINE
  5
172
330
F0
100
AcDbEntity
  8
AM_4
100
AcDbLine
 10
1.67154528783862
 20
43.97502024800019
 30
0.0
 11
1.51605266766018
 21
44.27102677053999
 31
0.0
  0
LINE
  5
173
330
F0
100
AcDbEntity
  8
AM_4
100
AcDbLine
 10
3.61520242159952
 20
44.34502840308025
 30
0.0
 11
4.31491886823864
 21
44.34502840308025
 31
0.0
  0
LINE
  5
174
330
F0
100
AcDbEntity
  8
AM_4
100
AcDbLine
 10
4.31491886823864
 20
44.34502840308025
 30
0.0
 11
4.62590410859849
 21
44.27102677053999
 31
0.0
  0
LINE
  5
175
330
F0
100
AcDbEntity
  8
AM_4
100
AcDbLine
 10
4.62590410859849
 20
44.27102677053999
 30
0.0
 11
4.85914283439928
 21
44.12302351054029
 31
0.0
  0
LINE
  5
176
330
F0
100
AcDbEntity
  8
AM_4
100
AcDbLine
 10
4.85914283439928
 20
44.12302351054029
 30
0.0
 11
4.93688907463922
 21
43.90101861800034
 31
0.0
  0
LINE
  5
177
330
F0
100
AcDbEntity
  8
AM_4
100
AcDbLine
 10
4.93688907463922
 20
43.90101861800034
 30
0.0
 11
5.40336707233928
 21
43.90101861800034
 31
0.0
  0
LINE
  5
178
330
F0
100
AcDbEntity
  8
AM_4
100
AcDbLine
 10
0.894082392679422
 20
44.7150365556199
 30
0.0
 11
0.5053509628790489
 21
44.78903818816016
 31
0.0
  0
LINE
  5
179
330
F0
100
AcDbEntity
  8
AM_4
100
AcDbLine
 10
5.01463531741888
 20
44.56703329562021
 30
0.0
 11
4.70365035137962
 21
44.7150365556199
 31
0.0
  0
LINE
  5
17A
330
F0
100
AcDbEntity
  8
AM_4
100
AcDbLine
 10
4.70365035137962
 20
44.7150365556199
 30
0.0
 11
4.31491886823864
 21
44.78903818816016
 31
0.0
  0
LINE
  5
17B
330
F0
100
AcDbEntity
  8
AM_4
100
AcDbLine
 10
-6.95829245117983
 20
44.78903818816016
 30
0.0
 11
-8.82420334215959
 21
44.78903818816016
 31
0.0
  0
LINE
  5
17C
330
F0
100
AcDbEntity
  8
AM_4
100
AcDbLine
 10
-8.82420334215959
 20
44.78903818816016
 30
0.0
 11
-8.82420334215959
 21
41.31096181183984
 31
0.0
  0
LINE
  5
17D
330
F0
100
AcDbEntity
  8
AM_4
100
AcDbLine
 10
-8.82420334215959
 20
41.31096181183984
 30
0.0
 11
-6.95829245117983
 21
41.31096181183984
 31
0.0
  0
LINE
  5
17E
330
F0
100
AcDbEntity
  8
AM_4
100
AcDbLine
 10
-6.95829245117983
 20
41.31096181183984
 30
0.0
 11
-6.56956124236086
 21
41.38496344183968
 31
0.0
  0
LINE
  5
17F
330
F0
100
AcDbEntity
  8
AM_4
100
AcDbLine
 10
5.40336707233928
 20
43.90101861800034
 30
0.0
 11
5.32562082955962
 21
44.27102677053999
 31
0.0
  0
LINE
  5
180
330
F0
100
AcDbEntity
  8
AM_4
100
AcDbLine
 10
5.32562082955962
 20
44.27102677053999
 30
0.0
 11
5.01463531741888
 21
44.56703329562021
 31
0.0
  0
LINE
  5
181
330
F0
100
AcDbEntity
  8
AM_4
100
AcDbLine
 10
3.07097845544035
 20
44.12302351054029
 30
0.0
 11
3.30421718123966
 21
44.27102677053999
 31
0.0
  0
LINE
  5
182
330
F0
100
AcDbEntity
  8
AM_4
100
AcDbLine
 10
3.30421718123966
 20
44.27102677053999
 30
0.0
 11
3.61520242159952
 21
44.34502840308025
 31
0.0
  0
LINE
  5
183
330
F0
100
AcDbEntity
  8
AM_4
100
AcDbLine
 10
1.51605266766018
 20
41.82897309230044
 30
0.0
 11
1.67154528783862
 21
42.12497961484024
 31
0.0
  0
LINE
  5
184
330
F0
100
AcDbEntity
  8
AM_4
100
AcDbLine
 10
-5.71435203838155
 20
43.60501216150027
 30
0.0
 11
-5.79209828115978
 21
43.97502024800019
 31
0.0
  0
LINE
  5
185
330
F0
100
AcDbEntity
  8
AM_4
100
AcDbLine
 10
-5.79209828115978
 20
43.97502024800019
 30
0.0
 11
-5.94759076418086
 21
44.27102677053999
 31
0.0
  0
LINE
  5
186
330
F0
100
AcDbEntity
  8
AM_4
100
AcDbLine
 10
-5.94759076418086
 20
44.27102677053999
 30
0.0
 11
-6.25857573022017
 21
44.56703329562021
 31
0.0
  0
LINE
  5
187
330
F0
100
AcDbEntity
  8
AM_4
100
AcDbLine
 10
-6.25857573022017
 20
44.56703329562021
 30
0.0
 11
-6.569561242360862
 21
44.71503655561989
 31
0.0
  0
LINE
  5
188
330
F0
100
AcDbEntity
  8
AM_4
100
AcDbLine
 10
-47.05
 20
16.21756970895113
 30
0.0
 11
-47.05
 21
-16.21756970895116
 31
0.0
  0
LINE
  5
189
330
F0
100
AcDbEntity
  8
AM_4
100
AcDbLine
 10
47.05000000000001
 20
-16.21756970895118
 30
0.0
 11
47.05
 21
16.21756970895114
 31
0.0
  0
ARC
  5
18A
330
F0
100
AcDbEntity
  8
AM_4
100
AcDbCircle
 10
-40.54
 20
-16.21756970895115
 30
0.0
 40
6.510000000000005
100
AcDbArc
 50
180.0
 51
224.9999999999999
  0
LINE
  5
18B
330
F0
100
AcDbEntity
  8
AM_4
100
AcDbLine
 10
-45.14326514552443
 20
-20.82083485447557
 30
0.0
 11
-18.91409999999999
 21
-47.05
 31
0.0
  0
LINE
  5
18C
330
F0
100
AcDbEntity
  8
AM_4
100
AcDbLine
 10
0.5053509628790489
 20
44.78903818816016
 30
0.0
 11
-1.36055991285969
 21
44.78903818816016
 31
0.0
  0
LINE
  5
18D
330
F0
100
AcDbEntity
  8
AM_4
100
AcDbLine
 10
-5.01463531742041
 20
43.97502024800019
 30
0.0
 11
-5.09238155766042
 21
43.60501216150027
 31
0.0
  0
LINE
  5
18E
330
F0
100
AcDbEntity
  8
AM_4
100
AcDbLine
 10
-5.09238155766042
 20
42.4949877673799
 30
0.0
 11
-5.01463531742041
 21
42.12497961484024
 31
0.0
  0
LINE
  5
18F
330
F0
100
AcDbEntity
  8
AM_4
100
AcDbLine
 10
-5.01463531742041
 20
42.12497961484024
 30
0.0
 11
-4.85914283440076
 21
41.82897309230044
 31
0.0
  0
LINE
  5
190
330
F0
100
AcDbEntity
  8
AM_4
100
AcDbLine
 10
18.91409999999999
 20
-47.05
 30
0.0
 11
45.14326514552442
 21
-20.82083485447561
 31
0.0
  0
ARC
  5
191
330
F0
100
AcDbEntity
  8
AM_4
100
AcDbCircle
 10
40.53999999999998
 20
-16.21756970895116
 30
0.0
 40
6.510000000000036
100
AcDbArc
 50
314.9999999999999
 51
0.0
  0
LINE
  5
192
330
F0
100
AcDbEntity
  8
AM_4
100
AcDbLine
 10
2.44900811441914
 20
42.12497961484024
 30
0.0
 11
2.60450073459907
 21
41.82897309230044
 31
0.0
  0
ARC
  5
193
330
F0
100
AcDbEntity
  8
AM_4
100
AcDbCircle
 10
40.53999999999989
 20
16.2175697089511
 30
0.0
 40
6.510000000000119
100
AcDbArc
 50
0.0
 51
44.99999999999953
  0
LINE
  5
194
330
F0
100
AcDbEntity
  8
AM_4
100
AcDbLine
 10
45.14326514552443
 20
20.82083485447557
 30
0.0
 11
18.91409999999999
 21
47.05
 31
0.0
  0
LINE
  5
195
330
F0
100
AcDbEntity
  8
AM_4
100
AcDbLine
 10
3.22647094099966
 20
41.38496344183968
 30
0.0
 11
3.61520242159952
 21
41.31096181183984
 31
0.0
  0
LINE
  5
196
330
F0
100
AcDbEntity
  8
AM_4
100
AcDbLine
 10
3.61520242159952
 20
41.31096181183984
 30
0.0
 11
4.31491886823864
 21
41.31096181183984
 31
0.0
  0
LINE
  5
197
330
F0
100
AcDbEntity
  8
AM_4
100
AcDbLine
 10
4.31491886823864
 20
41.31096181183984
 30
0.0
 11
4.70365035137962
 21
41.38496344183968
 31
0.0
  0
LINE
  5
198
330
F0
100
AcDbEntity
  8
AM_4
100
AcDbLine
 10
4.70365035137962
 20
41.38496344183968
 30
0.0
 11
5.01463531741888
 21
41.53296670437979
 31
0.0
  0
ARC
  5
199
330
F0
100
AcDbEntity
  8
AM_4
100
AcDbCircle
 10
-40.53999999999989
 20
16.21756970895111
 30
0.0
 40
6.510000000000109
100
AcDbArc
 50
135.0000000000006
 51
180.0
  0
LINE
  5
19A
330
F0
100
AcDbEntity
  8
AM_4
100
AcDbLine
 10
-18.91409999999999
 20
47.05
 30
0.0
 11
-45.14326514552443
 21
20.82083485447557
 31
0.0
  0
LINE
  5
19B
330
F0
100
AcDbEntity
  8
AM_4
100
AcDbLine
 10
18.91409999999999
 20
47.05
 30
0.0
 11
-18.91409999999999
 21
47.05
 31
0.0
  0
LINE
  5
19C
330
F0
100
AcDbEntity
  8
AM_4
100
AcDbLine
 10
5.40336707233928
 20
43.23500402673984
 30
0.0
 11
4.23717262799869
 21
43.23500402673984
 31
0.0
  0
LINE
  5
19D
330
F0
100
AcDbEntity
  8
AM_4
100
AcDbLine
 10
4.23717262799869
 20
43.23500402673984
 30
0.0
 11
4.23717262799869
 21
42.79099427468016
 31
0.0
  0
LINE
  5
19E
330
F0
100
AcDbEntity
  8
AM_4
100
AcDbLine
 10
4.23717262799869
 20
42.79099427468016
 30
0.0
 11
4.93688907463922
 21
42.79099427468016
 31
0.0
  0
LINE
  5
19F
330
F0
100
AcDbEntity
  8
AM_4
100
AcDbLine
 10
4.93688907463922
 20
42.79099427468016
 30
0.0
 11
4.93688907463922
 21
42.1989812448401
 31
0.0
  0
LINE
  5
1A0
330
F0
100
AcDbEntity
  8
AM_4
100
AcDbLine
 10
4.93688907463922
 20
42.1989812448401
 30
0.0
 11
4.85914283439928
 21
41.97697642088028
 31
0.0
  0
LINE
  5
1A1
330
F0
100
AcDbEntity
  8
AM_4
100
AcDbLine
 10
4.85914283439928
 20
41.97697642088028
 30
0.0
 11
4.62590410859849
 21
41.82897309230044
 31
0.0
  0
LINE
  5
1A2
330
F0
100
AcDbEntity
  8
AM_4
100
AcDbLine
 10
6.025337004419321
 20
44.78903818816016
 30
0.0
 11
6.02533700441932
 21
41.31096181183984
 31
0.0
  0
LINE
  5
1A3
330
F0
100
AcDbEntity
  8
AM_4
100
AcDbLine
 10
8.824203342159539
 20
44.78903818816016
 30
0.0
 11
6.025337004419321
 21
44.78903818816016
 31
0.0
  0
LINE
  5
1A4
330
F0
100
AcDbEntity
  8
AM_4
100
AcDbLine
 10
8.82420334215954
 20
44.34502840308025
 30
0.0
 11
8.824203342159539
 21
44.78903818816016
 31
0.0
  0
LINE
  5
1A5
330
F0
100
AcDbEntity
  8
AM_4
100
AcDbLine
 10
6.49181499957973
 20
44.34502840308025
 30
0.0
 11
8.82420334215954
 21
44.34502840308025
 31
0.0
  0
LINE
  5
1A6
330
F0
100
AcDbEntity
  8
AM_4
100
AcDbLine
 10
6.49181499957973
 20
43.3830072689596
 30
0.0
 11
6.49181499957973
 21
44.34502840308025
 31
0.0
  0
LINE
  5
1A7
330
F0
100
AcDbEntity
  8
AM_4
100
AcDbLine
 10
8.51321837612022
 20
43.3830072689596
 30
0.0
 11
6.49181499957973
 21
43.3830072689596
 31
0.0
  0
LINE
  5
1A8
330
F0
100
AcDbEntity
  8
AM_4
100
AcDbLine
 10
8.51321837612022
 20
42.93899751943958
 30
0.0
 11
8.51321837612022
 21
43.3830072689596
 31
0.0
  0
LINE
  5
1A9
330
F0
100
AcDbEntity
  8
AM_4
100
AcDbLine
 10
6.49181499957973
 20
42.93899751943958
 30
0.0
 11
8.51321837612022
 21
42.93899751943958
 31
0.0
  0
LINE
  5
1AA
330
F0
100
AcDbEntity
  8
AM_4
100
AcDbLine
 10
6.49181499957973
 20
41.75497145976018
 30
0.0
 11
6.49181499957973
 21
42.93899751943958
 31
0.0
  0
LINE
  5
1AB
330
F0
100
AcDbEntity
  8
AM_4
100
AcDbLine
 10
8.82420334215954
 20
41.75497145976018
 30
0.0
 11
6.49181499957973
 21
41.75497145976018
 31
0.0
  0
LINE
  5
1AC
330
F0
100
AcDbEntity
  8
AM_4
100
AcDbLine
 10
8.82420334215954
 20
41.31096181183984
 30
0.0
 11
8.82420334215954
 21
41.75497145976018
 31
0.0
  0
LINE
  5
1AD
330
F0
100
AcDbEntity
  8
AM_4
100
AcDbLine
 10
6.02533700441932
 20
41.31096181183984
 30
0.0
 11
8.82420334215954
 21
41.31096181183984
 31
0.0
  0
LINE
  5
1AE
330
F0
100
AcDbEntity
  8
AM_4
100
AcDbLine
 10
2.44900811441914
 20
43.97502024800019
 30
0.0
 11
2.37126187163949
 21
43.60501216150027
 31
0.0
  0
LINE
  5
1AF
330
F0
100
AcDbEntity
  8
AM_4
100
AcDbLine
 10
2.604500734599079
 20
44.27102677053998
 30
0.0
 11
2.44900811441914
 21
43.97502024800019
 31
0.0
  0
LINE
  5
1B0
330
F0
100
AcDbEntity
  8
AM_4
100
AcDbLine
 10
2.91548570063981
 20
44.56703329562021
 30
0.0
 11
2.604500734599079
 21
44.27102677053998
 31
0.0
  0
LINE
  5
1B1
330
F0
100
AcDbEntity
  8
AM_4
100
AcDbLine
 10
3.22647094099966
 20
44.7150365556199
 30
0.0
 11
2.91548570063981
 21
44.56703329562021
 31
0.0
  0
LINE
  5
1B2
330
F0
100
AcDbEntity
  8
AM_4
100
AcDbLine
 10
3.61520242159952
 20
44.78903818816016
 30
0.0
 11
3.22647094099966
 21
44.7150365556199
 31
0.0
  0
LINE
  5
1B3
330
F0
100
AcDbEntity
  8
AM_4
100
AcDbLine
 10
4.31491886823864
 20
44.78903818816016
 30
0.0
 11
3.61520242159952
 21
44.78903818816016
 31
0.0
  0
LINE
  5
1B4
330
F0
100
AcDbEntity
  8
AM_4
100
AcDbLine
 10
2.91548570063981
 20
43.90101861800034
 30
0.0
 11
3.07097845544035
 21
44.12302351054029
 31
0.0
  0
LINE
  5
1B5
330
F0
100
AcDbEntity
  8
AM_4
100
AcDbLine
 10
2.83773945785873
 20
43.60501216150027
 30
0.0
 11
2.91548570063981
 21
43.90101861800034
 31
0.0
  0
LINE
  5
1B6
330
F0
100
AcDbEntity
  8
AM_4
100
AcDbLine
 10
2.83773945785873
 20
42.4949877673799
 30
0.0
 11
2.83773945785873
 21
43.60501216150027
 31
0.0
  0
LINE
  5
1B7
330
F0
100
AcDbEntity
  8
AM_4
100
AcDbLine
 10
2.91548570063981
 20
42.1989812448401
 30
0.0
 11
2.83773945785873
 21
42.4949877673799
 31
0.0
  0
LINE
  5
1B8
330
F0
100
AcDbEntity
  8
AM_4
100
AcDbLine
 10
3.07097845544035
 20
41.97697642088028
 30
0.0
 11
2.91548570063981
 21
42.1989812448401
 31
0.0
  0
LINE
  5
1B9
330
F0
100
AcDbEntity
  8
AM_4
100
AcDbLine
 10
3.30421718123966
 20
41.82897309230044
 30
0.0
 11
3.07097845544035
 21
41.97697642088028
 31
0.0
  0
LINE
  5
1BA
330
F0
100
AcDbEntity
  8
AM_4
100
AcDbLine
 10
3.61520242159952
 20
41.75497145976018
 30
0.0
 11
3.30421718123966
 21
41.82897309230044
 31
0.0
  0
LINE
  5
1BB
330
F0
100
AcDbEntity
  8
AM_4
100
AcDbLine
 10
4.31491886823864
 20
41.75497145976018
 30
0.0
 11
3.61520242159952
 21
41.75497145976018
 31
0.0
  0
LINE
  5
1BC
330
F0
100
AcDbEntity
  8
AM_4
100
AcDbLine
 10
4.62590410859849
 20
41.82897309230044
 30
0.0
 11
4.31491886823864
 21
41.75497145976018
 31
0.0
  0
LINE
  5
1BD
330
F0
100
AcDbEntity
  8
AM_4
100
AcDbLine
 10
5.40336707233928
 20
42.12497961484024
 30
0.0
 11
5.40336707233928
 21
43.23500402673984
 31
0.0
  0
LINE
  5
1BE
330
F0
100
AcDbEntity
  8
AM_4
100
AcDbLine
 10
5.32562082955962
 20
41.82897309230044
 30
0.0
 11
5.40336707233928
 21
42.12497961484024
 31
0.0
  0
LINE
  5
1BF
330
F0
100
AcDbEntity
  8
AM_4
100
AcDbLine
 10
5.01463531741888
 20
41.53296670437979
 30
0.0
 11
5.32562082955962
 21
41.82897309230044
 31
0.0
  0
LINE
  5
1C0
330
F0
100
AcDbEntity
  8
AM_4
100
AcDbLine
 10
2.91548570063981
 20
41.53296670437979
 30
0.0
 11
3.22647094099966
 21
41.38496344183968
 31
0.0
  0
LINE
  5
1C1
330
F0
100
AcDbEntity
  8
AM_4
100
AcDbLine
 10
2.60450073459907
 20
41.82897309230044
 30
0.0
 11
2.91548570063981
 21
41.53296670437979
 31
0.0
  0
LINE
  5
1C2
330
F0
100
AcDbEntity
  8
AM_4
100
AcDbLine
 10
2.37126187163949
 20
42.4949877673799
 30
0.0
 11
2.44900811441914
 21
42.12497961484024
 31
0.0
  0
LINE
  5
1C3
330
F0
100
AcDbEntity
  8
AM_4
100
AcDbLine
 10
2.37126187163949
 20
43.60501216150027
 30
0.0
 11
2.37126187163949
 21
42.4949877673799
 31
0.0
  0
LINE
  5
1C4
330
F0
100
AcDbEntity
  8
AM_4
100
AcDbLine
 10
-1.36055991285969
 20
44.78903818816016
 30
0.0
 11
-1.36055991285969
 21
41.31096181183984
 31
0.0
  0
LINE
  5
1C5
330
F0
100
AcDbEntity
  8
AM_4
100
AcDbLine
 10
1.20506756445917
 20
41.53296670437979
 30
0.0
 11
1.51605266766018
 21
41.82897309230044
 31
0.0
  0
LINE
  5
1C6
330
F0
100
AcDbEntity
  8
AM_4
100
AcDbLine
 10
0.894082392679422
 20
41.38496344183968
 30
0.0
 11
1.20506756445917
 21
41.53296670437979
 31
0.0
  0
LINE
  5
1C7
330
F0
100
AcDbEntity
  8
AM_4
100
AcDbLine
 10
0.5053509628790489
 20
41.31096181183984
 30
0.0
 11
0.894082392679422
 21
41.38496344183968
 31
0.0
  0
LINE
  5
1C8
330
F0
100
AcDbEntity
  8
AM_4
100
AcDbLine
 10
-1.36055991285969
 20
41.31096181183984
 30
0.0
 11
0.5053509628790489
 21
41.31096181183984
 31
0.0
  0
LINE
  5
1C9
330
F0
100
AcDbEntity
  8
AM_4
100
AcDbLine
 10
-4.859142834400767
 20
44.27102677053999
 30
0.0
 11
-5.01463531742041
 21
43.97502024800019
 31
0.0
  0
LINE
  5
1CA
330
F0
100
AcDbEntity
  8
AM_4
100
AcDbLine
 10
-4.5481578683615
 20
44.56703329562021
 30
0.0
 11
-4.859142834400767
 21
44.27102677053999
 31
0.0
  0
LINE
  5
1CB
330
F0
100
AcDbEntity
  8
AM_4
100
AcDbLine
 10
-4.23717235368105
 20
44.7150365556199
 30
0.0
 11
-4.5481578683615
 21
44.56703329562021
 31
0.0
  0
LINE
  5
1CC
330
F0
100
AcDbEntity
  8
AM_4
100
AcDbLine
 10
-3.84844114740037
 20
44.78903818816016
 30
0.0
 11
-4.23717235368105
 21
44.7150365556199
 31
0.0
  0
LINE
  5
1CD
330
F0
100
AcDbEntity
  8
AM_4
100
AcDbLine
 10
-3.22647066668065
 20
44.78903818816016
 30
0.0
 11
-3.84844114740037
 21
44.78903818816016
 31
0.0
  0
LINE
  5
1CE
330
F0
100
AcDbEntity
  8
AM_4
100
AcDbLine
 10
-2.8377391860808
 20
44.7150365556199
 30
0.0
 11
-3.22647066668065
 21
44.78903818816016
 31
0.0
  0
LINE
  5
1CF
330
F0
100
AcDbEntity
  8
AM_4
100
AcDbLine
 10
-2.52675422004006
 20
44.56703329562021
 30
0.0
 11
-2.8377391860808
 21
44.7150365556199
 31
0.0
  0
LINE
  5
1D0
330
F0
100
AcDbEntity
  8
AM_4
100
AcDbLine
 10
-2.21576897968021
 20
44.27102677053999
 30
0.0
 11
-2.52675422004006
 21
44.56703329562021
 31
0.0
  0
LINE
  5
1D1
330
F0
100
AcDbEntity
  8
AM_4
100
AcDbLine
 10
-2.06027649666055
 20
43.97502024800019
 30
0.0
 11
-2.21576897968021
 21
44.27102677053999
 31
0.0
  0
LINE
  5
1D2
330
F0
100
AcDbEntity
  8
AM_4
100
AcDbLine
 10
-1.9825302538809
 20
43.60501216150027
 30
0.0
 11
-2.06027649666055
 21
43.97502024800019
 31
0.0
  0
LINE
  5
1D3
330
F0
100
AcDbEntity
  8
AM_4
100
AcDbLine
 10
-1.9825302538809
 20
42.4949877673799
 30
0.0
 11
-1.9825302538809
 21
43.60501216150027
 31
0.0
  0
LINE
  5
1D4
330
F0
100
AcDbEntity
  8
AM_4
100
AcDbLine
 10
-2.06027649666055
 20
42.12497961484024
 30
0.0
 11
-1.9825302538809
 21
42.4949877673799
 31
0.0
  0
LINE
  5
1D5
330
F0
100
AcDbEntity
  8
AM_4
100
AcDbLine
 10
-2.21576897968021
 20
41.82897309230044
 30
0.0
 11
-2.06027649666055
 21
42.12497961484024
 31
0.0
  0
LINE
  5
1D6
330
F0
100
AcDbEntity
  8
AM_4
100
AcDbLine
 10
-2.52675422004006
 20
41.53296670437979
 30
0.0
 11
-2.21576897968021
 21
41.82897309230044
 31
0.0
  0
LINE
  5
1D7
330
F0
100
AcDbEntity
  8
AM_4
100
AcDbLine
 10
-2.8377391860808
 20
41.38496344183968
 30
0.0
 11
-2.52675422004006
 21
41.53296670437979
 31
0.0
  0
LINE
  5
1D8
330
F0
100
AcDbEntity
  8
AM_4
100
AcDbLine
 10
-3.22647066668065
 20
41.31096181183984
 30
0.0
 11
-2.8377391860808
 21
41.38496344183968
 31
0.0
  0
LINE
  5
1D9
330
F0
100
AcDbEntity
  8
AM_4
100
AcDbLine
 10
-3.84844114740037
 20
41.31096181183984
 30
0.0
 11
-3.22647066668065
 21
41.31096181183984
 31
0.0
  0
LINE
  5
1DA
330
F0
100
AcDbEntity
  8
AM_4
100
AcDbLine
 10
-4.23717235368105
 20
41.38496344183968
 30
0.0
 11
-3.84844114740037
 21
41.31096181183984
 31
0.0
  0
LINE
  5
1DB
330
F0
100
AcDbEntity
  8
AM_4
100
AcDbLine
 10
-4.5481578683615
 20
41.53296670437979
 30
0.0
 11
-4.23717235368105
 21
41.38496344183968
 31
0.0
  0
LINE
  5
1DC
330
F0
100
AcDbEntity
  8
AM_4
100
AcDbLine
 10
-4.85914283440076
 20
41.82897309230044
 30
0.0
 11
-4.5481578683615
 21
41.53296670437979
 31
0.0
  0
LINE
  5
1DD
330
F0
100
AcDbEntity
  8
AM_4
100
AcDbLine
 10
-5.09238155766042
 20
43.60501216150027
 30
0.0
 11
-5.09238155766042
 21
42.4949877673799
 31
0.0
  0
LINE
  5
1DE
330
F0
100
AcDbEntity
  8
AM_4
100
AcDbLine
 10
-6.569561242360862
 20
44.71503655561989
 30
0.0
 11
-6.95829245117983
 21
44.78903818816016
 31
0.0
  0
LINE
  5
1DF
330
F0
100
AcDbEntity
  8
AM_4
100
AcDbLine
 10
-5.71435203838155
 20
42.4949877673799
 30
0.0
 11
-5.71435203838155
 21
43.60501216150027
 31
0.0
  0
LINE
  5
1E0
330
F0
100
AcDbEntity
  8
AM_4
100
AcDbLine
 10
-5.79209828115978
 20
42.12497961484024
 30
0.0
 11
-5.71435203838155
 21
42.4949877673799
 31
0.0
  0
LINE
  5
1E1
330
F0
100
AcDbEntity
  8
AM_4
100
AcDbLine
 10
-5.94759076418086
 20
41.82897309230044
 30
0.0
 11
-5.79209828115978
 21
42.12497961484024
 31
0.0
  0
LINE
  5
1E2
330
F0
100
AcDbEntity
  8
AM_4
100
AcDbLine
 10
-6.25857573022017
 20
41.53296670437979
 30
0.0
 11
-5.94759076418086
 21
41.82897309230044
 31
0.0
  0
LINE
  5
1E3
330
F0
100
AcDbEntity
  8
AM_4
100
AcDbLine
 10
-6.56956124236086
 20
41.38496344183968
 30
0.0
 11
-6.25857573022017
 21
41.53296670437979
 31
0.0
  0
CIRCLE
  5
1E4
330
F0
100
AcDbEntity
  8
AM_4
100
AcDbCircle
 10
0.0
 20
0.0
 30
0.0
 40
36.00000000000001
  0
LINE
  5
1E5
330
F0
100
AcDbEntity
  8
AM_4
100
AcDbLine
 10
0.81633611687954
 20
44.27102677053999
 30
0.0
 11
0.5053509628790489
 21
44.34502840308025
 31
0.0
  0
LINE
  5
1E6
330
F0
100
AcDbEntity
  8
AM_4
100
AcDbLine
 10
0.5053509628790489
 20
44.34502840308025
 30
0.0
 11
-0.894082189481651
 21
44.34502840308025
 31
0.0
  0
LINE
  5
1E7
330
F0
100
AcDbEntity
  8
AM_4
100
AcDbLine
 10
-0.894082189481651
 20
44.34502840308025
 30
0.0
 11
-0.894082189481651
 21
41.75497145976018
 31
0.0
  0
LINE
  5
1E8
330
F0
100
AcDbEntity
  8
AM_4
100
AcDbLine
 10
-0.894082189481651
 20
41.75497145976018
 30
0.0
 11
0.5053509628790489
 21
41.75497145976018
 31
0.0
  0
LINE
  5
1E9
330
F0
100
AcDbEntity
  8
AM_4
100
AcDbLine
 10
0.5053509628790489
 20
41.75497145976018
 30
0.0
 11
0.8163361168795401
 21
41.82897309230044
 31
0.0
  0
LINE
  5
1EA
330
F0
100
AcDbEntity
  8
AM_4
100
AcDbLine
 10
0.8163361168795401
 20
41.82897309230044
 30
0.0
 11
1.04957494427924
 21
41.97697642088028
 31
0.0
  0
LINE
  5
1EB
330
F0
100
AcDbEntity
  8
AM_4
100
AcDbLine
 10
1.04957494427924
 20
41.97697642088028
 30
0.0
 11
1.20506756445917
 21
42.1989812448401
 31
0.0
  0
LINE
  5
1EC
330
F0
100
AcDbEntity
  8
AM_4
100
AcDbLine
 10
1.20506756445917
 20
42.1989812448401
 30
0.0
 11
1.28281380723882
 21
42.4949877673799
 31
0.0
  0
LINE
  5
1ED
330
F0
100
AcDbEntity
  8
AM_4
100
AcDbLine
 10
1.28281380723882
 20
42.4949877673799
 30
0.0
 11
1.28281380723882
 21
43.60501216150027
 31
0.0
  0
LINE
  5
1EE
330
F0
100
AcDbEntity
  8
AM_4
100
AcDbLine
 10
1.28281380723882
 20
43.60501216150027
 30
0.0
 11
1.20506756445917
 21
43.90101861800034
 31
0.0
  0
LINE
  5
1EF
330
F0
100
AcDbEntity
  8
AM_4
100
AcDbLine
 10
1.20506756445917
 20
43.90101861800034
 30
0.0
 11
1.04957494427924
 21
44.12302351054029
 31
0.0
  0
LINE
  5
1F0
330
F0
100
AcDbEntity
  8
AM_4
100
AcDbLine
 10
1.04957494427924
 20
44.12302351054029
 30
0.0
 11
0.81633611687954
 21
44.27102677053999
 31
0.0
  0
ENDBLK
  5
F3
330
F0
100
AcDbEntity
  8
0
100
AcDbBlockEnd
  0
ENDSEC
  0
SECTION
  2
ENTITIES
  0
INSERT
  5
6F
330
1F
100
AcDbEntity
  8
0
100
AcDbBlockReference
  2
1_129348_0
 10
0.0
 20
0.0
 30
0.0
  0
POINT
  5
1F2
330
1F
100
AcDbEntity
  8
ConnectionPoints
100
AcDbPoint
 10
0.0000000000000018
 20
0.0
 30
19.8
  0
POINT
  5
1F3
330
1F
100
AcDbEntity
  8
ConnectionPoints
100
AcDbPoint
 10
0.0000000000000018
 20
0.0
 30
5.5
  0
POINT
  5
1F4
330
1F
100
AcDbEntity
  8
ConnectionPoints
100
AcDbPoint
 10
0.0
 20
0.0
 30
5.5
  0
ENDSEC
  0
SECTION
  2
OBJECTS
  0
DICTIONARY
  5
C
330
0
100
AcDbDictionary
281
     1
  3
ACAD_DETAILVIEWSTYLE
350
1FC
  3
ACAD_GROUP
350
D
  3
ACAD_LAYOUT
350
1A
  3
ACAD_MATERIAL
350
43
  3
ACAD_MLEADERSTYLE
350
6B
  3
ACAD_MLINESTYLE
350
17
  3
ACAD_PLOTSETTINGS
350
19
  3
ACAD_PLOTSTYLENAME
350
E
  3
ACAD_SCALELIST
350
47
  3
ACAD_SECTIONVIEWSTYLE
350
1FD
  3
ACAD_TABLESTYLE
350
69
  3
ACAD_VISUALSTYLE
350
2A
  3
ACDB_RECOMPOSE_DATA
350
1F9
  3
AcDbVariableDictionary
350
1F5
  0
SUN
  5
6D
330
29
100
AcDbSun
 90
        1
290
     0
 63
     7
421
 16777215
 40
1.0
291
     1
 91
  2455826
 92
 54000000
292
     0
 70
     2
 71
   256
280
     1
  0
DICTIONARY
  5
1FC
102
{ACAD_REACTORS
330
C
102
}
330
C
100
AcDbDictionary
281
     1
  0
DICTIONARY
  5
D
102
{ACAD_REACTORS
330
C
102
}
330
C
100
AcDbDictionary
281
     1
  0
DICTIONARY
  5
1A
102
{ACAD_REACTORS
330
C
102
}
330
C
100
AcDbDictionary
281
     1
  3
Layout1
350
1E
  3
Layout2
350
26
  3
Model
350
22
  0
DICTIONARY
  5
43
102
{ACAD_REACTORS
330
C
102
}
330
C
100
AcDbDictionary
281
     1
  3
ByBlock
350
45
  3
ByLayer
350
44
  3
Global
350
46
  0
DICTIONARY
  5
6B
102
{ACAD_REACTORS
330
C
102
}
330
C
100
AcDbDictionary
281
     1
  3
Standard
350
6C
  0
DICTIONARY
  5
17
102
{ACAD_REACTORS
330
C
102
}
330
C
100
AcDbDictionary
281
     1
  3
Standard
350
18
  0
DICTIONARY
  5
19
102
{ACAD_REACTORS
330
C
102
}
330
C
100
AcDbDictionary
281
     1
  0
ACDBDICTIONARYWDFLT
  5
E
102
{ACAD_REACTORS
330
C
102
}
330
C
100
AcDbDictionary
281
     1
  3
Normal
350
F
100
AcDbDictionaryWithDefault
340
F
  0
DICTIONARY
  5
47
102
{ACAD_REACTORS
330
C
102
}
330
C
100
AcDbDictionary
281
     1
  3
A0
350
48
  3
A1
350
49
  3
A2
350
4A
  3
A3
350
4B
  3
A4
350
4C
  3
A5
350
4D
  3
A6
350
4E
  3
A7
350
4F
  3
A8
350
50
  3
A9
350
51
  3
B0
350
52
  3
B1
350
53
  3
B2
350
54
  3
B3
350
55
  3
B4
350
56
  3
B5
350
57
  3
B6
350
58
  3
B7
350
59
  3
B8
350
5A
  3
B9
350
5B
  3
C0
350
5C
  3
C1
350
5D
  3
C2
350
5E
  3
C3
350
5F
  3
C4
350
60
  3
C5
350
61
  3
C6
350
62
  3
C7
350
63
  3
C8
350
64
  3
C9
350
65
  3
D0
350
66
  3
D1
350
67
  3
D2
350
68
  0
DICTIONARY
  5
1FD
102
{ACAD_REACTORS
330
C
102
}
330
C
100
AcDbDictionary
281
     1
  0
DICTIONARY
  5
69
102
{ACAD_REACTORS
330
C
102
}
330
C
100
AcDbDictionary
281
     1
  3
Standard
350
6A
  0
DICTIONARY
  5
2A
102
{ACAD_REACTORS
330
C
102
}
330
C
100
AcDbDictionary
281
     1
  3
2dWireframe
350
2F
  3
Basic
350
32
  3
Brighten
350
36
  3
ColorChange
350
3A
  3
Conceptual
350
34
  3
Dim
350
35
  3
EdgeColorOff
350
3D
  3
Facepattern
350
39
  3
Flat
350
2B
  3
FlatWithEdges
350
2C
  3
Gouraud
350
2D
  3
GouraudWithEdges
350
2E
  3
Hidden
350
31
  3
JitterOff
350
3B
  3
Linepattern
350
38
  3
OverhangOff
350
3C
  3
Realistic
350
33
  3
Shaded
350
42
  3
Shaded with edges
350
41
  3
Shades of Gray
350
3E
  3
Sketchy
350
3F
  3
Thicken
350
37
  3
Wireframe
350
30
  3
X-Ray
350
40
  0
XRECORD
  5
1F9
102
{ACAD_REACTORS
330
C
102
}
330
C
100
AcDbXrecord
280
     1
 90
        1
330
6A
  0
DICTIONARY
  5
1F5
102
{ACAD_REACTORS
330
C
102
}
330
C
100
AcDbDictionary
281
     1
  3
CANNOSCALE
350
1F6
  3
CMLEADERSTYLE
350
1FB
  3
CTABLESTYLE
350
1FA
  0
LAYOUT
  5
1E
102
{ACAD_REACTORS
330
1A
102
}
330
1A
100
AcDbPlotSettings
  1

  2
none_device
  4

  6

 40
0.0
 41
0.0
 42
0.0
 43
0.0
 44
0.0
 45
0.0
 46
0.0
 47
0.0
 48
0.0
 49
0.0
140
0.0
141
0.0
142
1.0
143
1.0
 70
   688
 72
     1
 73
     0
 74
     5
  7

 75
    16
 76
     0
 77
     2
 78
   300
147
1.0
148
0.0
149
0.0
100
AcDbLayout
  1
Layout1
 70
     1
 71
     1
 10
0.0
 20
0.0
 11
420.0
 21
297.0
 12
0.0
 22
0.0
 32
0.0
 14
1.000000000000000E+20
 24
1.000000000000000E+20
 34
1.000000000000000E+20
 15
-1.000000000000000E+20
 25
-1.000000000000000E+20
 35
-1.000000000000000E+20
146
0.0
 13
0.0
 23
0.0
 33
0.0
 16
1.0
 26
0.0
 36
0.0
 17
0.0
 27
1.0
 37
0.0
 76
     0
330
1B
  0
LAYOUT
  5
26
102
{ACAD_REACTORS
330
1A
102
}
330
1A
100
AcDbPlotSettings
  1

  2
none_device
  4

  6

 40
0.0
 41
0.0
 42
0.0
 43
0.0
 44
0.0
 45
0.0
 46
0.0
 47
0.0
 48
0.0
 49
0.0
140
0.0
141
0.0
142
1.0
143
1.0
 70
   688
 72
     1
 73
     0
 74
     5
  7

 75
    16
 76
     0
 77
     2
 78
   300
147
1.0
148
0.0
149
0.0
100
AcDbLayout
  1
Layout2
 70
     1
 71
     2
 10
0.0
 20
0.0
 11
0.0
 21
0.0
 12
0.0
 22
0.0
 32
0.0
 14
0.0
 24
0.0
 34
0.0
 15
0.0
 25
0.0
 35
0.0
146
0.0
 13
0.0
 23
0.0
 33
0.0
 16
1.0
 26
0.0
 36
0.0
 17
0.0
 27
1.0
 37
0.0
 76
     0
330
23
  0
LAYOUT
  5
22
102
{ACAD_REACTORS
330
1A
102
}
330
1A
100
AcDbPlotSettings
  1

  2
none_device
  4
Letter_(8.50_x_11.00_Inches)
  6

 40
6.35
 41
6.35
 42
6.35000508
 43
6.35000508
 44
215.9
 45
279.4
 46
0.0
 47
0.0
 48
0.0
 49
0.0
140
0.0
141
0.0
142
1.0
143
1.0
 70
  1712
 72
     1
 73
     0
 74
     0
  7

 75
     0
 76
     0
 77
     2
 78
   300
147
1.0
148
0.0
149
0.0
100
AcDbLayout
  1
Model
 70
     1
 71
     0
 10
0.0
 20
0.0
 11
420.0
 21
297.0
 12
0.0
 22
0.0
 32
0.0
 14
1.000000000000000E+20
 24
1.000000000000000E+20
 34
1.000000000000000E+20
 15
-1.000000000000000E+20
 25
-1.000000000000000E+20
 35
-1.000000000000000E+20
146
0.0
 13
0.0
 23
0.0
 33
0.0
 16
1.0
 26
0.0
 36
0.0
 17
0.0
 27
1.0
 37
0.0
 76
     0
330
1F
331
29
  0
MATERIAL
  5
45
102
{ACAD_REACTORS
330
43
102
}
330
43
100
AcDbMaterial
  1
ByBlock
 72
     1
 94
      127
  0
MATERIAL
  5
44
102
{ACAD_REACTORS
330
43
102
}
330
43
100
AcDbMaterial
  1
ByLayer
 72
     1
 94
      127
  0
MATERIAL
  5
46
102
{ACAD_REACTORS
330
43
102
}
330
43
100
AcDbMaterial
  1
Global
 72
     1
 94
      127
  0
MLEADERSTYLE
  5
6C
102
{ACAD_REACTORS
330
6B
102
}
330
6B
100
AcDbMLeaderStyle
179
     2
170
     2
171
     1
172
     0
 90
        2
 40
0.0
 41
0.0
173
     1
 91
-1056964608
340
14
 92
       -2
290
     1
 42
2.0
291
     1
 43
8.0
  3
Standard
341
0
 44
4.0
300

342
11
174
     1
178
     6
175
     1
176
     0
 93
-1056964608
 45
4.0
292
     0
297
     0
 46
4.0
343
0
 94
-1056964608
 47
1.0
 49
1.0
140
1.0
293
     1
141
0.0
294
     1
177
     0
142
1.0
295
     0
296
     0
143
3.75
271
     0
272
     9
273
     9
298
     0
  0
MLINESTYLE
  5
18
102
{ACAD_REACTORS
330
17
102
}
330
17
100
AcDbMlineStyle
  2
Standard
 70
     0
  3

 62
   256
 51
90.0
 52
90.0
 71
     2
 49
0.5
 62
   256
  6
BYLAYER
 49
-0.5
 62
   256
  6
BYLAYER
  0
ACDBPLACEHOLDER
  5
F
102
{ACAD_REACTORS
330
E
102
}
330
E
  0
SCALE
  5
48
102
{ACAD_REACTORS
330
47
102
}
330
47
100
AcDbScale
 70
     0
300
1:1
140
1.0
141
1.0
290
     1
  0
SCALE
  5
49
102
{ACAD_REACTORS
330
47
102
}
330
47
100
AcDbScale
 70
     0
300
1:2
140
1.0
141
2.0
290
     0
  0
SCALE
  5
4A
102
{ACAD_REACTORS
330
47
102
}
330
47
100
AcDbScale
 70
     0
300
1:4
140
1.0
141
4.0
290
     0
  0
SCALE
  5
4B
102
{ACAD_REACTORS
330
47
102
}
330
47
100
AcDbScale
 70
     0
300
1:5
140
1.0
141
5.0
290
     0
  0
SCALE
  5
4C
102
{ACAD_REACTORS
330
47
102
}
330
47
100
AcDbScale
 70
     0
300
1:8
140
1.0
141
8.0
290
     0
  0
SCALE
  5
4D
102
{ACAD_REACTORS
330
47
102
}
330
47
100
AcDbScale
 70
     0
300
1:10
140
1.0
141
10.0
290
     0
  0
SCALE
  5
4E
102
{ACAD_REACTORS
330
47
102
}
330
47
100
AcDbScale
 70
     0
300
1:16
140
1.0
141
16.0
290
     0
  0
SCALE
  5
4F
102
{ACAD_REACTORS
330
47
102
}
330
47
100
AcDbScale
 70
     0
300
1:20
140
1.0
141
20.0
290
     0
  0
SCALE
  5
50
102
{ACAD_REACTORS
330
47
102
}
330
47
100
AcDbScale
 70
     0
300
1:30
140
1.0
141
30.0
290
     0
  0
SCALE
  5
51
102
{ACAD_REACTORS
330
47
102
}
330
47
100
AcDbScale
 70
     0
300
1:40
140
1.0
141
40.0
290
     0
  0
SCALE
  5
52
102
{ACAD_REACTORS
330
47
102
}
330
47
100
AcDbScale
 70
     0
300
1:50
140
1.0
141
50.0
290
     0
  0
SCALE
  5
53
102
{ACAD_REACTORS
330
47
102
}
330
47
100
AcDbScale
 70
     0
300
1:100
140
1.0
141
100.0
290
     0
  0
SCALE
  5
54
102
{ACAD_REACTORS
330
47
102
}
330
47
100
AcDbScale
 70
     0
300
2:1
140
2.0
141
1.0
290
     0
  0
SCALE
  5
55
102
{ACAD_REACTORS
330
47
102
}
330
47
100
AcDbScale
 70
     0
300
4:1
140
4.0
141
1.0
290
     0
  0
SCALE
  5
56
102
{ACAD_REACTORS
330
47
102
}
330
47
100
AcDbScale
 70
     0
300
8:1
140
8.0
141
1.0
290
     0
  0
SCALE
  5
57
102
{ACAD_REACTORS
330
47
102
}
330
47
100
AcDbScale
 70
     0
300
10:1
140
10.0
141
1.0
290
     0
  0
SCALE
  5
58
102
{ACAD_REACTORS
330
47
102
}
330
47
100
AcDbScale
 70
     0
300
100:1
140
100.0
141
1.0
290
     0
  0
SCALE
  5
59
102
{ACAD_REACTORS
330
47
102
}
330
47
100
AcDbScale
 70
     0
300
1/128" = 1'-0"
140
0.0078125
141
12.0
290
     0
  0
SCALE
  5
5A
102
{ACAD_REACTORS
330
47
102
}
330
47
100
AcDbScale
 70
     0
300
1/64" = 1'-0"
140
0.015625
141
12.0
290
     0
  0
SCALE
  5
5B
102
{ACAD_REACTORS
330
47
102
}
330
47
100
AcDbScale
 70
     0
300
1/32" = 1'-0"
140
0.03125
141
12.0
290
     0
  0
SCALE
  5
5C
102
{ACAD_REACTORS
330
47
102
}
330
47
100
AcDbScale
 70
     0
300
1/16" = 1'-0"
140
0.0625
141
12.0
290
     0
  0
SCALE
  5
5D
102
{ACAD_REACTORS
330
47
102
}
330
47
100
AcDbScale
 70
     0
300
3/32" = 1'-0"
140
0.09375
141
12.0
290
     0
  0
SCALE
  5
5E
102
{ACAD_REACTORS
330
47
102
}
330
47
100
AcDbScale
 70
     0
300
1/8" = 1'-0"
140
0.125
141
12.0
290
     0
  0
SCALE
  5
5F
102
{ACAD_REACTORS
330
47
102
}
330
47
100
AcDbScale
 70
     0
300
3/16" = 1'-0"
140
0.1875
141
12.0
290
     0
  0
SCALE
  5
60
102
{ACAD_REACTORS
330
47
102
}
330
47
100
AcDbScale
 70
     0
300
1/4" = 1'-0"
140
0.25
141
12.0
290
     0
  0
SCALE
  5
61
102
{ACAD_REACTORS
330
47
102
}
330
47
100
AcDbScale
 70
     0
300
3/8" = 1'-0"
140
0.375
141
12.0
290
     0
  0
SCALE
  5
62
102
{ACAD_REACTORS
330
47
102
}
330
47
100
AcDbScale
 70
     0
300
1/2" = 1'-0"
140
0.5
141
12.0
290
     0
  0
SCALE
  5
63
102
{ACAD_REACTORS
330
47
102
}
330
47
100
AcDbScale
 70
     0
300
3/4" = 1'-0"
140
0.75
141
12.0
290
     0
  0
SCALE
  5
64
102
{ACAD_REACTORS
330
47
102
}
330
47
100
AcDbScale
 70
     0
300
1" = 1'-0"
140
1.0
141
12.0
290
     0
  0
SCALE
  5
65
102
{ACAD_REACTORS
330
47
102
}
330
47
100
AcDbScale
 70
     0
300
1-1/2" = 1'-0"
140
1.5
141
12.0
290
     0
  0
SCALE
  5
66
102
{ACAD_REACTORS
330
47
102
}
330
47
100
AcDbScale
 70
     0
300
3" = 1'-0"
140
3.0
141
12.0
290
     0
  0
SCALE
  5
67
102
{ACAD_REACTORS
330
47
102
}
330
47
100
AcDbScale
 70
     0
300
6" = 1'-0"
140
6.0
141
12.0
290
     0
  0
SCALE
  5
68
102
{ACAD_REACTORS
330
47
102
}
330
47
100
AcDbScale
 70
     0
300
1'-0" = 1'-0"
140
12.0
141
12.0
290
     0
  0
TABLESTYLE
  5
6A
102
{ACAD_REACTORS
330
69
102
}
102
{ACAD_XDICTIONARY
360
1F7
102
}
330
69
100
AcDbTableStyle
  3
Standard
 70
     0
 71
     0
 40
0.06
 41
0.06
280
     0
281
     0
  7
Standard
140
4.5
170
     2
 62
     0
 63
   257
283
     0
 90
        4
 91
        0
  1

274
    -2
284
     1
 64
     0
275
    -2
285
     1
 65
     0
276
    -2
286
     1
 66
     0
277
    -2
287
     1
 67
     0
278
    -2
288
     1
 68
     0
279
    -2
289
     1
 69
     0
  7
Standard
140
6.0
170
     5
 62
     0
 63
   257
283
     0
 90
        4
 91
        0
  1

274
    -2
284
     1
 64
     0
275
    -2
285
     1
 65
     0
276
    -2
286
     1
 66
     0
277
    -2
287
     1
 67
     0
278
    -2
288
     1
 68
     0
279
    -2
289
     1
 69
     0
  7
Standard
140
4.5
170
     5
 62
     0
 63
   257
283
     0
 90
        4
 91
        0
  1

274
    -2
284
     1
 64
     0
275
    -2
285
     1
 65
     0
276
    -2
286
     1
 66
     0
277
    -2
287
     1
 67
     0
278
    -2
288
     1
 68
     0
279
    -2
289
     1
 69
     0
  0
VISUALSTYLE
  5
2F
102
{ACAD_REACTORS
330
2A
102
}
330
2A
100
AcDbVisualStyle
  2
2dWireframe
 70
     4
177
     3
291
     0
 70
    58
 90
        0
176
     1
 90
        2
176
     1
 90
        0
176
     1
 90
        0
176
     1
 40
0.6
176
     1
 40
30.0
176
     1
 62
     7
420
 16777215
176
     1
 90
        1
176
     1
 90
        4
176
     1
 62
     7
176
     1
 62
   257
176
     1
 90
        1
176
     1
 90
        1
176
     1
 40
1.0
176
     1
 90
        0
176
     1
 62
   257
176
     1
 40
1.0
176
     1
 90
        1
176
     1
 90
        6
176
     1
 90
        2
176
     1
 62
     7
176
     1
 90
        5
176
     1
 90
        0
176
     1
 90
        0
176
     1
290
     0
176
     1
 90
        1
176
     1
 40
0.0
176
     1
 90
        0
176
     1
290
     1
176
     1
290
     1
176
     1
290
     0
176
     1
290
     0
176
     1
290
     0
176
     1
290
     0
176
     1
290
     0
176
     1
290
     0
176
     1
290
     0
176
     1
 90
       50
176
     1
 40
0.0
176
     1
 40
1.0
176
     1
 90
        0
176
     1
 62
    18
420
        0
176
     1
 90
       50
176
     1
 90
        3
176
     1
 62
     5
420
      255
176
     1
290
     0
176
     1
 90
       50
176
     1
 90
       50
176
     1
 90
       50
176
     1
290
     0
176
     1
 90
       50
176
     1
 62
   256
176
     0
 40
1.0
176
     0
 90
        2
176
     1
  1
strokes_ogs.tif
176
     1
290
     0
176
     1
 40
1.0
176
     1
 40
1.0
176
     1
  0
VISUALSTYLE
  5
32
102
{ACAD_REACTORS
330
2A
102
}
330
2A
100
AcDbVisualStyle
  2
Basic
 70
     7
177
     3
291
     1
 70
    58
 90
        1
176
     1
 90
        0
176
     1
 90
        1
176
     1
 90
        0
176
     1
 40
0.6
176
     1
 40
30.0
176
     1
 62
     7
420
 16777215
176
     1
 90
        0
176
     1
 90
        4
176
     1
 62
     7
176
     1
 62
   257
176
     1
 90
        1
176
     1
 90
        1
176
     1
 40
1.0
176
     1
 90
        8
176
     1
 62
     7
176
     1
 40
1.0
176
     1
 90
        1
176
     1
 90
        6
176
     1
 90
        2
176
     1
 62
     7
176
     1
 90
        5
176
     1
 90
        0
176
     1
 90
        0
176
     1
290
     0
176
     1
 90
        1
176
     1
 40
0.0
176
     1
 90
        0
176
     1
290
     0
176
     1
290
     1
176
     1
290
     1
176
     1
290
     0
176
     1
290
     0
176
     1
290
     0
176
     1
290
     0
176
     1
290
     0
176
     1
290
     0
176
     1
 90
       50
176
     1
 40
0.0
176
     1
 40
1.0
176
     1
 90
        0
176
     1
 62
    18
420
        0
176
     1
 90
       50
176
     1
 90
        3
176
     1
 62
     5
420
      255
176
     1
290
     0
176
     1
 90
       50
176
     1
 90
       50
176
     1
 90
       50
176
     1
290
     0
176
     1
 90
       50
176
     1
 62
   256
176
     0
 40
1.0
176
     0
 90
        2
176
     1
  1
strokes_ogs.tif
176
     1
290
     0
176
     1
 40
1.0
176
     1
 40
1.0
176
     1
  0
VISUALSTYLE
  5
36
102
{ACAD_REACTORS
330
2A
102
}
330
2A
100
AcDbVisualStyle
  2
Brighten
 70
    12
177
     3
291
     1
 70
    58
 90
        2
176
     1
 90
        2
176
     1
 90
        0
176
     1
 90
        0
176
     1
 40
0.6
176
     1
 40
30.0
176
     1
 62
     7
420
 16777215
176
     1
 90
        1
176
     1
 90
        4
176
     1
 62
     7
176
     1
 62
   257
176
     1
 90
        1
176
     1
 90
        1
176
     1
 40
1.0
176
     1
 90
        8
176
     1
 62
     7
176
     1
 40
1.0
176
     1
 90
        1
176
     1
 90
        6
176
     1
 90
        2
176
     1
 62
     7
176
     1
 90
        5
176
     1
 90
        0
176
     1
 90
        0
176
     1
290
     0
176
     1
 90
        1
176
     1
 40
50.0
176
     1
 90
        0
176
     1
290
     0
176
     1
290
     1
176
     1
290
     1
176
     1
290
     0
176
     1
290
     0
176
     1
290
     0
176
     1
290
     0
176
     1
290
     0
176
     1
290
     0
176
     1
 90
       50
176
     1
 40
0.0
176
     1
 40
1.0
176
     1
 90
        0
176
     1
 62
    18
420
        0
176
     1
 90
       50
176
     1
 90
        3
176
     1
 62
     5
420
      255
176
     1
290
     0
176
     1
 90
       50
176
     1
 90
       50
176
     1
 90
       50
176
     1
290
     0
176
     1
 90
       50
176
     1
 62
   256
176
     0
 40
1.0
176
     0
 90
        2
176
     1
  1
strokes_ogs.tif
176
     1
290
     0
176
     1
 40
1.0
176
     1
 40
1.0
176
     1
  0
VISUALSTYLE
  5
3A
102
{ACAD_REACTORS
330
2A
102
}
330
2A
100
AcDbVisualStyle
  2
ColorChange
 70
    16
177
     3
291
     1
 70
    58
 90
        2
176
     1
 90
        2
176
     1
 90
        3
176
     1
 90
        0
176
     1
 40
0.6
176
     1
 40
30.0
176
     1
 62
     8
420
  8421504
176
     1
 90
        1
176
     1
 90
        4
176
     1
 62
     7
176
     1
 62
   257
176
     1
 90
        1
176
     1
 90
        1
176
     1
 40
1.0
176
     1
 90
        8
176
     1
 62
     8
420
  8421504
176
     1
 40
1.0
176
     1
 90
        1
176
     1
 90
        6
176
     1
 90
        2
176
     1
 62
     7
176
     1
 90
        5
176
     1
 90
        0
176
     1
 90
        0
176
     1
290
     0
176
     1
 90
        1
176
     1
 40
0.0
176
     1
 90
        0
176
     1
290
     0
176
     1
290
     1
176
     1
290
     1
176
     1
290
     0
176
     1
290
     0
176
     1
290
     0
176
     1
290
     0
176
     1
290
     0
176
     1
290
     0
176
     1
 90
       50
176
     1
 40
0.0
176
     1
 40
1.0
176
     1
 90
        0
176
     1
 62
    18
420
        0
176
     1
 90
       50
176
     1
 90
        3
176
     1
 62
     5
420
      255
176
     1
290
     0
176
     1
 90
       50
176
     1
 90
       50
176
     1
 90
       50
176
     1
290
     0
176
     1
 90
       50
176
     1
 62
   256
176
     0
 40
1.0
176
     0
 90
        2
176
     1
  1
strokes_ogs.tif
176
     1
290
     0
176
     1
 40
1.0
176
     1
 40
1.0
176
     1
  0
VISUALSTYLE
  5
34
102
{ACAD_REACTORS
330
2A
102
}
330
2A
100
AcDbVisualStyle
  2
Conceptual
 70
     9
177
     3
291
     0
 70
    58
 90
        3
176
     1
 90
        2
176
     1
 90
        0
176
     1
 90
        0
176
     1
 40
0.6
176
     1
 40
30.0
176
     1
 62
     7
420
 16777215
176
     1
 90
        2
176
     1
 90
        2
176
     1
 62
     7
176
     1
 62
   257
176
     1
 90
        1
176
     1
 90
        1
176
     1
 40
179.0
176
     1
 90
        8
176
     1
 62
     7
176
     1
 40
1.0
176
     1
 90
        1
176
     1
 90
        6
176
     1
 90
        2
176
     1
 62
     7
176
     1
 90
        3
176
     1
 90
        0
176
     1
 90
        0
176
     1
290
     0
176
     1
 90
        1
176
     1
 40
0.0
176
     1
 90
        0
176
     1
290
     0
176
     1
290
     1
176
     1
290
     1
176
     1
290
     0
176
     1
290
     0
176
     1
290
     0
176
     1
290
     0
176
     1
290
     0
176
     1
290
     0
176
     1
 90
       50
176
     1
 40
0.0
176
     1
 40
1.0
176
     1
 90
        0
176
     1
 62
    18
420
        0
176
     1
 90
       50
176
     1
 90
        3
176
     1
 62
     5
420
      255
176
     1
290
     0
176
     1
 90
       50
176
     1
 90
       50
176
     1
 90
       50
176
     1
290
     0
176
     1
 90
       50
176
     1
 62
   256
176
     0
 40
1.0
176
     0
 90
        2
176
     1
  1
strokes_ogs.tif
176
     1
290
     0
176
     1
 40
1.0
176
     1
 40
1.0
176
     1
  0
VISUALSTYLE
  5
35
102
{ACAD_REACTORS
330
2A
102
}
330
2A
100
AcDbVisualStyle
  2
Dim
 70
    11
177
     3
291
     1
 70
    58
 90
        2
176
     1
 90
        2
176
     1
 90
        0
176
     1
 90
        0
176
     1
 40
0.6
176
     1
 40
30.0
176
     1
 62
     7
420
 16777215
176
     1
 90
        1
176
     1
 90
        4
176
     1
 62
     7
176
     1
 62
   257
176
     1
 90
        1
176
     1
 90
        1
176
     1
 40
1.0
176
     1
 90
        8
176
     1
 62
     7
176
     1
 40
1.0
176
     1
 90
        1
176
     1
 90
        6
176
     1
 90
        2
176
     1
 62
     7
176
     1
 90
        5
176
     1
 90
        0
176
     1
 90
        0
176
     1
290
     0
176
     1
 90
        1
176
     1
 40
-50.0
176
     1
 90
        0
176
     1
290
     0
176
     1
290
     1
176
     1
290
     1
176
     1
290
     0
176
     1
290
     0
176
     1
290
     0
176
     1
290
     0
176
     1
290
     0
176
     1
290
     0
176
     1
 90
       50
176
     1
 40
0.0
176
     1
 40
1.0
176
     1
 90
        0
176
     1
 62
    18
420
        0
176
     1
 90
       50
176
     1
 90
        3
176
     1
 62
     5
420
      255
176
     1
290
     0
176
     1
 90
       50
176
     1
 90
       50
176
     1
 90
       50
176
     1
290
     0
176
     1
 90
       50
176
     1
 62
   256
176
     0
 40
1.0
176
     0
 90
        2
176
     1
  1
strokes_ogs.tif
176
     1
290
     0
176
     1
 40
1.0
176
     1
 40
1.0
176
     1
  0
VISUALSTYLE
  5
3D
102
{ACAD_REACTORS
330
2A
102
}
330
2A
100
AcDbVisualStyle
  2
EdgeColorOff
 70
    22
177
     3
291
     1
 70
    58
 90
        2
176
     0
 90
        2
176
     0
 90
        0
176
     0
 90
        0
176
     0
 40
0.6
176
     0
 40
30.0
176
     0
 62
     7
420
 16777215
176
     0
 90
        1
176
     0
 90
        4
176
     0
 62
     7
176
     0
 62
   257
176
     0
 90
        1
176
     0
 90
        1
176
     0
 40
1.0
176
     0
 90
        8
176
     2
 62
     7
176
     0
 40
1.0
176
     0
 90
        1
176
     0
 90
        6
176
     0
 90
        2
176
     0
 62
     7
176
     0
 90
        5
176
     0
 90
        0
176
     0
 90
        0
176
     0
290
     0
176
     0
 90
        1
176
     0
 40
0.0
176
     0
 90
        0
176
     0
290
     0
176
     0
290
     1
176
     0
290
     1
176
     0
290
     0
176
     0
290
     0
176
     0
290
     0
176
     0
290
     0
176
     0
290
     0
176
     0
290
     0
176
     0
 90
       50
176
     0
 40
0.0
176
     0
 40
1.0
176
     0
 90
        0
176
     0
 62
    18
420
        0
176
     0
 90
       50
176
     0
 90
        3
176
     0
 62
     5
420
      255
176
     0
290
     0
176
     0
 90
       50
176
     0
 90
       50
176
     0
 90
       50
176
     0
290
     0
176
     0
 90
       50
176
     0
 62
   256
176
     0
 40
1.0
176
     0
 90
        2
176
     0
  1
strokes_ogs.tif
176
     0
290
     0
176
     0
 40
1.0
176
     0
 40
1.0
176
     0
  0
VISUALSTYLE
  5
39
102
{ACAD_REACTORS
330
2A
102
}
330
2A
100
AcDbVisualStyle
  2
Facepattern
 70
    15
177
     3
291
     1
 70
    58
 90
        2
176
     1
 90
        2
176
     1
 90
        0
176
     1
 90
        0
176
     1
 40
0.6
176
     1
 40
30.0
176
     1
 62
     7
420
 16777215
176
     1
 90
        1
176
     1
 90
        4
176
     1
 62
     7
176
     1
 62
   257
176
     1
 90
        1
176
     1
 90
        1
176
     1
 40
1.0
176
     1
 90
        8
176
     1
 62
     7
176
     1
 40
1.0
176
     1
 90
        1
176
     1
 90
        6
176
     1
 90
        2
176
     1
 62
     7
176
     1
 90
        5
176
     1
 90
        0
176
     1
 90
        0
176
     1
290
     0
176
     1
 90
        1
176
     1
 40
0.0
176
     1
 90
        0
176
     1
290
     0
176
     1
290
     1
176
     1
290
     1
176
     1
290
     0
176
     1
290
     0
176
     1
290
     0
176
     1
290
     0
176
     1
290
     0
176
     1
290
     0
176
     1
 90
       50
176
     1
 40
0.0
176
     1
 40
1.0
176
     1
 90
        0
176
     1
 62
    18
420
        0
176
     1
 90
       50
176
     1
 90
        3
176
     1
 62
     5
420
      255
176
     1
290
     0
176
     1
 90
       50
176
     1
 90
       50
176
     1
 90
       50
176
     1
290
     0
176
     1
 90
       50
176
     1
 62
   256
176
     0
 40
1.0
176
     0
 90
        2
176
     1
  1
strokes_ogs.tif
176
     1
290
     0
176
     1
 40
1.0
176
     1
 40
1.0
176
     1
  0
VISUALSTYLE
  5
2B
102
{ACAD_REACTORS
330
2A
102
}
330
2A
100
AcDbVisualStyle
  2
Flat
 70
     0
177
     3
291
     1
 70
    58
 90
        2
176
     1
 90
        1
176
     1
 90
        1
176
     1
 90
        2
176
     1
 40
0.6
176
     1
 40
30.0
176
     1
 62
     7
420
 16777215
176
     1
 90
        0
176
     1
 90
        0
176
     1
 62
     7
176
     1
 62
   257
176
     1
 90
        1
176
     1
 90
        1
176
     1
 40
1.0
176
     1
 90
        8
176
     1
 62
     7
176
     1
 40
1.0
176
     1
 90
        1
176
     1
 90
        6
176
     1
 90
        2
176
     1
 62
     7
176
     1
 90
        5
176
     1
 90
        0
176
     1
 90
        0
176
     1
290
     0
176
     1
 90
       13
176
     1
 40
0.0
176
     1
 90
        0
176
     1
290
     0
176
     1
290
     1
176
     1
290
     1
176
     1
290
     0
176
     1
290
     0
176
     1
290
     0
176
     1
290
     0
176
     1
290
     0
176
     1
290
     0
176
     1
 90
       50
176
     1
 40
0.0
176
     1
 40
1.0
176
     1
 90
        0
176
     1
 62
    18
420
        0
176
     1
 90
       50
176
     1
 90
        3
176
     1
 62
     5
420
      255
176
     1
290
     0
176
     1
 90
       50
176
     1
 90
       50
176
     1
 90
       50
176
     1
290
     0
176
     1
 90
       50
176
     1
 62
   256
176
     0
 40
1.0
176
     0
 90
        2
176
     1
  1
strokes_ogs.tif
176
     1
290
     0
176
     1
 40
1.0
176
     1
 40
1.0
176
     1
  0
VISUALSTYLE
  5
2C
102
{ACAD_REACTORS
330
2A
102
}
330
2A
100
AcDbVisualStyle
  2
FlatWithEdges
 70
     1
177
     3
291
     1
 70
    58
 90
        2
176
     1
 90
        1
176
     1
 90
        1
176
     1
 90
        2
176
     1
 40
0.6
176
     1
 40
30.0
176
     1
 62
     7
420
 16777215
176
     1
 90
        1
176
     1
 90
        0
176
     1
 62
     7
176
     1
 62
   257
176
     1
 90
        1
176
     1
 90
        1
176
     1
 40
1.0
176
     1
 90
        0
176
     1
 62
   257
176
     1
 40
1.0
176
     1
 90
        1
176
     1
 90
        6
176
     1
 90
        2
176
     1
 62
     7
176
     1
 90
        5
176
     1
 90
        0
176
     1
 90
        0
176
     1
290
     0
176
     1
 90
       13
176
     1
 40
0.0
176
     1
 90
        0
176
     1
290
     0
176
     1
290
     1
176
     1
290
     1
176
     1
290
     0
176
     1
290
     0
176
     1
290
     0
176
     1
290
     0
176
     1
290
     0
176
     1
290
     0
176
     1
 90
       50
176
     1
 40
0.0
176
     1
 40
1.0
176
     1
 90
        0
176
     1
 62
    18
420
        0
176
     1
 90
       50
176
     1
 90
        3
176
     1
 62
     5
420
      255
176
     1
290
     0
176
     1
 90
       50
176
     1
 90
       50
176
     1
 90
       50
176
     1
290
     0
176
     1
 90
       50
176
     1
 62
   256
176
     0
 40
1.0
176
     0
 90
        2
176
     1
  1
strokes_ogs.tif
176
     1
290
     0
176
     1
 40
1.0
176
     1
 40
1.0
176
     1
  0
VISUALSTYLE
  5
2D
102
{ACAD_REACTORS
330
2A
102
}
330
2A
100
AcDbVisualStyle
  2
Gouraud
 70
     2
177
     3
291
     1
 70
    58
 90
        2
176
     1
 90
        2
176
     1
 90
        1
176
     1
 90
        2
176
     1
 40
0.6
176
     1
 40
30.0
176
     1
 62
     7
420
 16777215
176
     1
 90
        0
176
     1
 90
        0
176
     1
 62
     7
176
     1
 62
   257
176
     1
 90
        1
176
     1
 90
        1
176
     1
 40
1.0
176
     1
 90
        0
176
     1
 62
     7
176
     1
 40
1.0
176
     1
 90
        1
176
     1
 90
        6
176
     1
 90
        2
176
     1
 62
     7
176
     1
 90
        5
176
     1
 90
        0
176
     1
 90
        0
176
     1
290
     0
176
     1
 90
       13
176
     1
 40
0.0
176
     1
 90
        0
176
     1
290
     0
176
     1
290
     1
176
     1
290
     1
176
     1
290
     0
176
     1
290
     0
176
     1
290
     0
176
     1
290
     0
176
     1
290
     0
176
     1
290
     0
176
     1
 90
       50
176
     1
 40
0.0
176
     1
 40
1.0
176
     1
 90
        0
176
     1
 62
    18
420
        0
176
     1
 90
       50
176
     1
 90
        3
176
     1
 62
     5
420
      255
176
     1
290
     0
176
     1
 90
       50
176
     1
 90
       50
176
     1
 90
       50
176
     1
290
     0
176
     1
 90
       50
176
     1
 62
   256
176
     0
 40
1.0
176
     0
 90
        2
176
     1
  1
strokes_ogs.tif
176
     1
290
     0
176
     1
 40
1.0
176
     1
 40
1.0
176
     1
  0
VISUALSTYLE
  5
2E
102
{ACAD_REACTORS
330
2A
102
}
330
2A
100
AcDbVisualStyle
  2
GouraudWithEdges
 70
     3
177
     3
291
     1
 70
    58
 90
        2
176
     1
 90
        2
176
     1
 90
        1
176
     1
 90
        2
176
     1
 40
0.6
176
     1
 40
30.0
176
     1
 62
     7
420
 16777215
176
     1
 90
        1
176
     1
 90
        0
176
     1
 62
     7
176
     1
 62
   257
176
     1
 90
        1
176
     1
 90
        1
176
     1
 40
1.0
176
     1
 90
        0
176
     1
 62
   257
176
     1
 40
1.0
176
     1
 90
        1
176
     1
 90
        6
176
     1
 90
        2
176
     1
 62
     7
176
     1
 90
        5
176
     1
 90
        0
176
     1
 90
        0
176
     1
290
     0
176
     1
 90
       13
176
     1
 40
0.0
176
     1
 90
        0
176
     1
290
     0
176
     1
290
     1
176
     1
290
     1
176
     1
290
     0
176
     1
290
     0
176
     1
290
     0
176
     1
290
     0
176
     1
290
     0
176
     1
290
     0
176
     1
 90
       50
176
     1
 40
0.0
176
     1
 40
1.0
176
     1
 90
        0
176
     1
 62
    18
420
        0
176
     1
 90
       50
176
     1
 90
        3
176
     1
 62
     5
420
      255
176
     1
290
     0
176
     1
 90
       50
176
     1
 90
       50
176
     1
 90
       50
176
     1
290
     0
176
     1
 90
       50
176
     1
 62
   256
176
     0
 40
1.0
176
     0
 90
        2
176
     1
  1
strokes_ogs.tif
176
     1
290
     0
176
     1
 40
1.0
176
     1
 40
1.0
176
     1
  0
VISUALSTYLE
  5
31
102
{ACAD_REACTORS
330
2A
102
}
330
2A
100
AcDbVisualStyle
  2
Hidden
 70
     6
177
     3
291
     0
 70
    58
 90
        1
176
     1
 90
        2
176
     1
 90
        2
176
     1
 90
        0
176
     1
 40
0.6
176
     1
 40
30.0
176
     1
 62
     7
420
 16777215
176
     1
 90
        2
176
     1
 90
        2
176
     1
 62
     7
176
     1
 62
   257
176
     1
 90
        2
176
     1
 90
        1
176
     1
 40
40.0
176
     1
 90
        0
176
     1
 62
   257
176
     1
 40
1.0
176
     1
 90
        1
176
     1
 90
        6
176
     1
 90
        2
176
     1
 62
     7
176
     1
 90
        3
176
     1
 90
        0
176
     1
 90
        0
176
     1
290
     0
176
     1
 90
        1
176
     1
 40
0.0
176
     1
 90
        0
176
     1
290
     0
176
     1
290
     1
176
     1
290
     1
176
     1
290
     0
176
     1
290
     0
176
     1
290
     0
176
     1
290
     0
176
     1
290
     0
176
     1
290
     0
176
     1
 90
       50
176
     1
 40
0.0
176
     1
 40
1.0
176
     1
 90
        0
176
     1
 62
    18
420
        0
176
     1
 90
       50
176
     1
 90
        3
176
     1
 62
     5
420
      255
176
     1
290
     0
176
     1
 90
       50
176
     1
 90
       50
176
     1
 90
       50
176
     1
290
     0
176
     1
 90
       50
176
     1
 62
   256
176
     0
 40
1.0
176
     0
 90
        2
176
     1
  1
strokes_ogs.tif
176
     1
290
     0
176
     1
 40
1.0
176
     1
 40
1.0
176
     1
  0
VISUALSTYLE
  5
3B
102
{ACAD_REACTORS
330
2A
102
}
330
2A
100
AcDbVisualStyle
  2
JitterOff
 70
    20
177
     3
291
     1
 70
    58
 90
        2
176
     0
 90
        2
176
     0
 90
        0
176
     0
 90
        0
176
     0
 40
0.6
176
     0
 40
30.0
176
     0
 62
     7
420
 16777215
176
     0
 90
        1
176
     0
 90
        4
176
     0
 62
     7
176
     0
 62
   257
176
     0
 90
        1
176
     0
 90
        1
176
     0
 40
1.0
176
     0
 90
       10
176
     2
 62
     7
176
     0
 40
1.0
176
     0
 90
        1
176
     0
 90
        6
176
     0
 90
        2
176
     0
 62
     7
176
     0
 90
        5
176
     0
 90
        0
176
     0
 90
        0
176
     0
290
     0
176
     0
 90
        1
176
     0
 40
0.0
176
     0
 90
        0
176
     0
290
     0
176
     0
290
     1
176
     0
290
     1
176
     0
290
     0
176
     0
290
     0
176
     0
290
     0
176
     0
290
     0
176
     0
290
     0
176
     0
290
     0
176
     0
 90
       50
176
     0
 40
0.0
176
     0
 40
1.0
176
     0
 90
        0
176
     0
 62
    18
420
        0
176
     0
 90
       50
176
     0
 90
        3
176
     0
 62
     5
420
      255
176
     0
290
     0
176
     0
 90
       50
176
     0
 90
       50
176
     0
 90
       50
176
     0
290
     0
176
     0
 90
       50
176
     0
 62
   256
176
     0
 40
1.0
176
     0
 90
        2
176
     0
  1
strokes_ogs.tif
176
     0
290
     0
176
     0
 40
1.0
176
     0
 40
1.0
176
     0
  0
VISUALSTYLE
  5
38
102
{ACAD_REACTORS
330
2A
102
}
330
2A
100
AcDbVisualStyle
  2
Linepattern
 70
    14
177
     3
291
     1
 70
    58
 90
        2
176
     1
 90
        2
176
     1
 90
        0
176
     1
 90
        0
176
     1
 40
0.6
176
     1
 40
30.0
176
     1
 62
     7
420
 16777215
176
     1
 90
        1
176
     1
 90
        4
176
     1
 62
     7
176
     1
 62
   257
176
     1
 90
        7
176
     1
 90
        7
176
     1
 40
1.0
176
     1
 90
        8
176
     1
 62
     7
176
     1
 40
1.0
176
     1
 90
        1
176
     1
 90
        6
176
     1
 90
        2
176
     1
 62
     7
176
     1
 90
        5
176
     1
 90
        0
176
     1
 90
        0
176
     1
290
     0
176
     1
 90
        1
176
     1
 40
0.0
176
     1
 90
        0
176
     1
290
     0
176
     1
290
     1
176
     1
290
     1
176
     1
290
     0
176
     1
290
     0
176
     1
290
     0
176
     1
290
     0
176
     1
290
     0
176
     1
290
     0
176
     1
 90
       50
176
     1
 40
0.0
176
     1
 40
1.0
176
     1
 90
        0
176
     1
 62
    18
420
        0
176
     1
 90
       50
176
     1
 90
        3
176
     1
 62
     5
420
      255
176
     1
290
     0
176
     1
 90
       50
176
     1
 90
       50
176
     1
 90
       50
176
     1
290
     0
176
     1
 90
       50
176
     1
 62
   256
176
     0
 40
1.0
176
     0
 90
        2
176
     1
  1
strokes_ogs.tif
176
     1
290
     0
176
     1
 40
1.0
176
     1
 40
1.0
176
     1
  0
VISUALSTYLE
  5
3C
102
{ACAD_REACTORS
330
2A
102
}
330
2A
100
AcDbVisualStyle
  2
OverhangOff
 70
    21
177
     3
291
     1
 70
    58
 90
        2
176
     0
 90
        2
176
     0
 90
        0
176
     0
 90
        0
176
     0
 40
0.6
176
     0
 40
30.0
176
     0
 62
     7
420
 16777215
176
     0
 90
        1
176
     0
 90
        4
176
     0
 62
     7
176
     0
 62
   257
176
     0
 90
        1
176
     0
 90
        1
176
     0
 40
1.0
176
     0
 90
        9
176
     2
 62
     7
176
     0
 40
1.0
176
     0
 90
        1
176
     0
 90
        6
176
     0
 90
        2
176
     0
 62
     7
176
     0
 90
        5
176
     0
 90
        0
176
     0
 90
        0
176
     0
290
     0
176
     0
 90
        1
176
     0
 40
0.0
176
     0
 90
        0
176
     0
290
     0
176
     0
290
     1
176
     0
290
     1
176
     0
290
     0
176
     0
290
     0
176
     0
290
     0
176
     0
290
     0
176
     0
290
     0
176
     0
290
     0
176
     0
 90
       50
176
     0
 40
0.0
176
     0
 40
1.0
176
     0
 90
        0
176
     0
 62
    18
420
        0
176
     0
 90
       50
176
     0
 90
        3
176
     0
 62
     5
420
      255
176
     0
290
     0
176
     0
 90
       50
176
     0
 90
       50
176
     0
 90
       50
176
     0
290
     0
176
     0
 90
       50
176
     0
 62
   256
176
     0
 40
1.0
176
     0
 90
        2
176
     0
  1
strokes_ogs.tif
176
     0
290
     0
176
     0
 40
1.0
176
     0
 40
1.0
176
     0
  0
VISUALSTYLE
  5
33
102
{ACAD_REACTORS
330
2A
102
}
330
2A
100
AcDbVisualStyle
  2
Realistic
 70
     8
177
     3
291
     0
 70
    58
 90
        2
176
     1
 90
        3
176
     1
 90
        0
176
     1
 90
        2
176
     1
 40
0.6
176
     1
 40
30.0
176
     1
 62
     7
420
 16777215
176
     1
 90
        0
176
     1
 90
        0
176
     1
 62
     7
176
     1
 62
   257
176
     1
 90
        1
176
     1
 90
        1
176
     1
 40
1.0
176
     1
 90
        8
176
     1
 62
   257
176
     1
 40
1.0
176
     1
 90
        1
176
     1
 90
        6
176
     1
 90
        2
176
     1
 62
     7
176
     1
 90
        3
176
     1
 90
        0
176
     1
 90
        0
176
     1
290
     0
176
     1
 90
       13
176
     1
 40
0.0
176
     1
 90
        0
176
     1
290
     0
176
     1
290
     1
176
     1
290
     1
176
     1
290
     0
176
     1
290
     0
176
     1
290
     0
176
     1
290
     0
176
     1
290
     0
176
     1
290
     0
176
     1
 90
       50
176
     1
 40
0.0
176
     1
 40
1.0
176
     1
 90
        0
176
     1
 62
    18
420
        0
176
     1
 90
       50
176
     1
 90
        3
176
     1
 62
     5
420
      255
176
     1
290
     0
176
     1
 90
       50
176
     1
 90
       50
176
     1
 90
       50
176
     1
290
     0
176
     1
 90
       50
176
     1
 62
   256
176
     0
 40
1.0
176
     0
 90
        2
176
     1
  1
strokes_ogs.tif
176
     1
290
     0
176
     1
 40
1.0
176
     1
 40
1.0
176
     1
  0
VISUALSTYLE
  5
42
102
{ACAD_REACTORS
330
2A
102
}
330
2A
100
AcDbVisualStyle
  2
Shaded
 70
    27
177
     3
291
     0
 70
    58
 90
        2
176
     1
 90
        2
176
     1
 90
        1
176
     1
 90
        2
176
     1
 40
0.6
176
     1
 40
30.0
176
     1
 62
     7
420
 16777215
176
     1
 90
        0
176
     1
 90
        4
176
     1
 62
     7
176
     1
 62
   257
176
     1
 90
        1
176
     1
 90
        1
176
     1
 40
1.0
176
     1
 90
        8
176
     1
 62
   257
176
     1
 40
1.0
176
     1
 90
        1
176
     1
 90
        6
176
     1
 90
        2
176
     1
 62
     8
420
  7895160
176
     1
 90
        3
176
     1
 90
        0
176
     1
 90
        0
176
     1
290
     0
176
     1
 90
        5
176
     1
 40
0.0
176
     1
 90
        0
176
     1
290
     0
176
     1
290
     1
176
     1
290
     1
176
     1
290
     0
176
     1
290
     0
176
     1
290
     0
176
     1
290
     0
176
     1
290
     0
176
     1
290
     0
176
     1
 90
       50
176
     1
 40
0.0
176
     1
 40
1.0
176
     1
 90
        0
176
     1
 62
    18
420
        0
176
     1
 90
       50
176
     1
 90
        3
176
     1
 62
     5
420
      255
176
     1
290
     0
176
     1
 90
       50
176
     1
 90
       50
176
     1
 90
       50
176
     1
290
     0
176
     1
 90
       50
176
     1
 62
   256
176
     0
 40
1.0
176
     0
 90
        2
176
     1
  1
strokes_ogs.tif
176
     1
290
     0
176
     1
 40
1.0
176
     1
 40
1.0
176
     1
  0
VISUALSTYLE
  5
41
102
{ACAD_REACTORS
330
2A
102
}
330
2A
100
AcDbVisualStyle
  2
Shaded with edges
 70
    26
177
     3
291
     0
 70
    58
 90
        2
176
     1
 90
        2
176
     1
 90
        1
176
     1
 90
        2
176
     1
 40
0.6
176
     1
 40
30.0
176
     1
 62
     7
420
 16777215
176
     1
 90
        1
176
     1
 90
       10
176
     1
 62
     7
176
     1
 62
   257
176
     1
 90
        2
176
     1
 90
        1
176
     1
 40
1.0
176
     1
 90
        8
176
     1
 62
   257
176
     1
 40
1.0
176
     1
 90
        1
176
     1
 90
        6
176
     1
 90
        2
176
     1
 62
     7
176
     1
 90
        3
176
     1
 90
        0
176
     1
 90
        0
176
     1
290
     0
176
     1
 90
        5
176
     1
 40
0.0
176
     1
 90
        0
176
     1
290
     0
176
     1
290
     1
176
     1
290
     1
176
     1
290
     0
176
     1
290
     0
176
     1
290
     0
176
     1
290
     0
176
     1
290
     0
176
     1
290
     0
176
     1
 90
       50
176
     1
 40
0.0
176
     1
 40
1.0
176
     1
 90
        0
176
     1
 62
    18
420
        0
176
     1
 90
       50
176
     1
 90
        3
176
     1
 62
     5
420
      255
176
     1
290
     0
176
     1
 90
       50
176
     1
 90
       50
176
     1
 90
       50
176
     1
290
     0
176
     1
 90
       50
176
     1
 62
   256
176
     0
 40
1.0
176
     0
 90
        2
176
     1
  1
strokes_ogs.tif
176
     1
290
     0
176
     1
 40
1.0
176
     1
 40
1.0
176
     1
  0
VISUALSTYLE
  5
3E
102
{ACAD_REACTORS
330
2A
102
}
330
2A
100
AcDbVisualStyle
  2
Shades of Gray
 70
    23
177
     3
291
     0
 70
    58
 90
        2
176
     1
 90
        2
176
     1
 90
        3
176
     1
 90
        0
176
     1
 40
0.6
176
     1
 40
30.0
176
     1
 62
     7
420
 16777215
176
     1
 90
        2
176
     1
 90
        2
176
     1
 62
     7
176
     1
 62
     7
176
     1
 90
        1
176
     1
 90
        1
176
     1
 40
40.0
176
     1
 90
        8
176
     1
 62
     7
176
     1
 40
1.0
176
     1
 90
        1
176
     1
 90
        6
176
     1
 90
        2
176
     1
 62
     7
176
     1
 90
        3
176
     1
 90
        0
176
     1
 90
        0
176
     1
290
     0
176
     1
 90
        1
176
     1
 40
0.0
176
     1
 90
        0
176
     1
290
     0
176
     1
290
     1
176
     1
290
     1
176
     1
290
     0
176
     1
290
     0
176
     1
290
     0
176
     1
290
     0
176
     1
290
     0
176
     1
290
     0
176
     1
 90
       50
176
     1
 40
0.0
176
     1
 40
1.0
176
     1
 90
        0
176
     1
 62
    18
420
        0
176
     1
 90
       50
176
     1
 90
        3
176
     1
 62
     5
420
      255
176
     1
290
     0
176
     1
 90
       50
176
     1
 90
       50
176
     1
 90
       50
176
     1
290
     0
176
     1
 90
       50
176
     1
 62
   256
176
     0
 40
1.0
176
     0
 90
        2
176
     1
  1
strokes_ogs.tif
176
     1
290
     0
176
     1
 40
1.0
176
     1
 40
1.0
176
     1
  0
VISUALSTYLE
  5
3F
102
{ACAD_REACTORS
330
2A
102
}
330
2A
100
AcDbVisualStyle
  2
Sketchy
 70
    24
177
     3
291
     0
 70
    58
 90
        1
176
     1
 90
        2
176
     1
 90
        2
176
     1
 90
        0
176
     1
 40
0.6
176
     1
 40
30.0
176
     1
 62
     7
420
 16777215
176
     1
 90
        2
176
     1
 90
        2
176
     1
 62
     7
176
     1
 62
     7
176
     1
 90
        1
176
     1
 90
        1
176
     1
 40
40.0
176
     1
 90
       11
176
     1
 62
     7
176
     1
 40
1.0
176
     1
 90
        1
176
     1
 90
        6
176
     1
 90
        2
176
     1
 62
     7
176
     1
 90
        6
176
     1
 90
        0
176
     1
 90
        0
176
     1
290
     0
176
     1
 90
        1
176
     1
 40
0.0
176
     1
 90
        0
176
     1
290
     0
176
     1
290
     1
176
     1
290
     1
176
     1
290
     0
176
     1
290
     0
176
     1
290
     0
176
     1
290
     0
176
     1
290
     0
176
     1
290
     0
176
     1
 90
       50
176
     1
 40
0.0
176
     1
 40
1.0
176
     1
 90
        0
176
     1
 62
    18
420
        0
176
     1
 90
       50
176
     1
 90
        3
176
     1
 62
     5
420
      255
176
     1
290
     0
176
     1
 90
       50
176
     1
 90
       50
176
     1
 90
       50
176
     1
290
     0
176
     1
 90
       50
176
     1
 62
   256
176
     0
 40
1.0
176
     0
 90
        2
176
     1
  1
strokes_ogs.tif
176
     1
290
     0
176
     1
 40
1.0
176
     1
 40
1.0
176
     1
  0
VISUALSTYLE
  5
37
102
{ACAD_REACTORS
330
2A
102
}
330
2A
100
AcDbVisualStyle
  2
Thicken
 70
    13
177
     3
291
     1
 70
    58
 90
        2
176
     1
 90
        2
176
     1
 90
        0
176
     1
 90
        0
176
     1
 40
0.6
176
     1
 40
30.0
176
     1
 62
     7
420
 16777215
176
     1
 90
        1
176
     1
 90
        4
176
     1
 62
     7
176
     1
 62
   257
176
     1
 90
        1
176
     1
 90
        1
176
     1
 40
1.0
176
     1
 90
       12
176
     1
 62
     7
176
     1
 40
1.0
176
     1
 90
        1
176
     1
 90
        6
176
     1
 90
        2
176
     1
 62
     7
176
     1
 90
        5
176
     1
 90
        0
176
     1
 90
        0
176
     1
290
     0
176
     1
 90
        1
176
     1
 40
0.0
176
     1
 90
        0
176
     1
290
     0
176
     1
290
     1
176
     1
290
     1
176
     1
290
     0
176
     1
290
     0
176
     1
290
     0
176
     1
290
     0
176
     1
290
     0
176
     1
290
     0
176
     1
 90
       50
176
     1
 40
0.0
176
     1
 40
1.0
176
     1
 90
        0
176
     1
 62
    18
420
        0
176
     1
 90
       50
176
     1
 90
        3
176
     1
 62
     5
420
      255
176
     1
290
     0
176
     1
 90
       50
176
     1
 90
       50
176
     1
 90
       50
176
     1
290
     0
176
     1
 90
       50
176
     1
 62
   256
176
     0
 40
1.0
176
     0
 90
        2
176
     1
  1
strokes_ogs.tif
176
     1
290
     0
176
     1
 40
1.0
176
     1
 40
1.0
176
     1
  0
VISUALSTYLE
  5
30
102
{ACAD_REACTORS
330
2A
102
}
330
2A
100
AcDbVisualStyle
  2
Wireframe
 70
     5
177
     3
291
     0
 70
    58
 90
        0
176
     1
 90
        2
176
     1
 90
        0
176
     1
 90
        0
176
     1
 40
0.6
176
     1
 40
30.0
176
     1
 62
     7
420
 16777215
176
     1
 90
        1
176
     1
 90
        4
176
     1
 62
     7
176
     1
 62
   257
176
     1
 90
        1
176
     1
 90
        1
176
     1
 40
1.0
176
     1
 90
        0
176
     1
 62
   257
176
     1
 40
1.0
176
     1
 90
        1
176
     1
 90
        6
176
     1
 90
        2
176
     1
 62
     7
176
     1
 90
        3
176
     1
 90
        0
176
     1
 90
        0
176
     1
290
     0
176
     1
 90
        1
176
     1
 40
0.0
176
     1
 90
        0
176
     1
290
     0
176
     1
290
     1
176
     1
290
     1
176
     1
290
     0
176
     1
290
     0
176
     1
290
     0
176
     1
290
     0
176
     1
290
     0
176
     1
290
     0
176
     1
 90
       50
176
     1
 40
0.0
176
     1
 40
1.0
176
     1
 90
        0
176
     1
 62
    18
420
        0
176
     1
 90
       50
176
     1
 90
        3
176
     1
 62
     5
420
      255
176
     1
290
     0
176
     1
 90
       50
176
     1
 90
       50
176
     1
 90
       50
176
     1
290
     0
176
     1
 90
       50
176
     1
 62
   256
176
     0
 40
1.0
176
     0
 90
        2
176
     1
  1
strokes_ogs.tif
176
     1
290
     0
176
     1
 40
1.0
176
     1
 40
1.0
176
     1
  0
VISUALSTYLE
  5
40
102
{ACAD_REACTORS
330
2A
102
}
330
2A
100
AcDbVisualStyle
  2
X-Ray
 70
    25
177
     3
291
     0
 70
    58
 90
        2
176
     1
 90
        2
176
     1
 90
        1
176
     1
 90
        1
176
     1
 40
0.5
176
     1
 40
30.0
176
     1
 62
     7
420
 16777215
176
     1
 90
        1
176
     1
 90
        0
176
     1
 62
     7
176
     1
 62
   257
176
     1
 90
        1
176
     1
 90
        1
176
     1
 40
1.0
176
     1
 90
        8
176
     1
 62
     7
176
     1
 40
1.0
176
     1
 90
        1
176
     1
 90
        6
176
     1
 90
        2
176
     1
 62
     7
176
     1
 90
        3
176
     1
 90
        0
176
     1
 90
        0
176
     1
290
     0
176
     1
 90
       13
176
     1
 40
0.0
176
     1
 90
        0
176
     1
290
     0
176
     1
290
     1
176
     1
290
     1
176
     1
290
     0
176
     1
290
     0
176
     1
290
     0
176
     1
290
     0
176
     1
290
     0
176
     1
290
     0
176
     1
 90
       50
176
     1
 40
0.0
176
     1
 40
1.0
176
     1
 90
        0
176
     1
 62
    18
420
        0
176
     1
 90
       50
176
     1
 90
        3
176
     1
 62
     5
420
      255
176
     1
290
     0
176
     1
 90
       50
176
     1
 90
       50
176
     1
 90
       50
176
     1
290
     0
176
     1
 90
       50
176
     1
 62
   256
176
     0
 40
1.0
176
     0
 90
        2
176
     1
  1
strokes_ogs.tif
176
     1
290
     0
176
     1
 40
1.0
176
     1
 40
1.0
176
     1
  0
DICTIONARYVAR
  5
1F6
102
{ACAD_REACTORS
330
1F5
102
}
330
1F5
100
DictionaryVariables
280
     0
  1
1:1
  0
DICTIONARYVAR
  5
1FB
102
{ACAD_REACTORS
330
1F5
102
}
330
1F5
100
DictionaryVariables
280
     0
  1
Standard
  0
DICTIONARYVAR
  5
1FA
102
{ACAD_REACTORS
330
1F5
102
}
330
1F5
100
DictionaryVariables
280
     0
  1
Standard
  0
DICTIONARY
  5
1F7
330
6A
100
AcDbDictionary
280
     1
281
     1
  3
ACAD_ROUNDTRIP_2008_TABLESTYLE_CELLSTYLEMAP
360
1F8
  0
CELLSTYLEMAP
  5
1F8
102
{ACAD_REACTORS
330
1F7
102
}
330
1F7
100
AcDbCellStyleMap
 90
        3
300
CELLSTYLE
  1
TABLEFORMAT_BEGIN
 90
        5
170
     1
 91
        0
 92
    32768
 62
   257
 93
        1
300
CONTENTFORMAT
  1
CONTENTFORMAT_BEGIN
 90
        0
 91
        0
 92
        4
 93
        0
300

 40
0.0
140
1.0
 94
        5
 62
     0
340
11
144
6.0
309
CONTENTFORMAT_END
171
     1
301
MARGIN
  1
CELLMARGIN_BEGIN
 40
1.5
 40
1.5
 40
1.5
 40
1.5
 40
1.5
 40
1.5
309
CELLMARGIN_END
 94
        6
 95
        1
302
GRIDFORMAT
  1
GRIDFORMAT_BEGIN
 90
        0
 91
        1
 62
     0
 92
       -2
340
14
 93
        0
 40
0.045
309
GRIDFORMAT_END
 95
        2
302
GRIDFORMAT
  1
GRIDFORMAT_BEGIN
 90
        0
 91
        1
 62
     0
 92
       -2
340
14
 93
        0
 40
0.045
309
GRIDFORMAT_END
 95
        4
302
GRIDFORMAT
  1
GRIDFORMAT_BEGIN
 90
        0
 91
        1
 62
     0
 92
       -2
340
14
 93
        0
 40
0.045
309
GRIDFORMAT_END
 95
        8
302
GRIDFORMAT
  1
GRIDFORMAT_BEGIN
 90
        0
 91
        1
 62
     0
 92
       -2
340
14
 93
        0
 40
0.045
309
GRIDFORMAT_END
 95
       16
302
GRIDFORMAT
  1
GRIDFORMAT_BEGIN
 90
        0
 91
        1
 62
     0
 92
       -2
340
14
 93
        0
 40
0.045
309
GRIDFORMAT_END
 95
       32
302
GRIDFORMAT
  1
GRIDFORMAT_BEGIN
 90
        0
 91
        1
 62
     0
 92
       -2
340
14
 93
        0
 40
0.045
309
GRIDFORMAT_END
309
TABLEFORMAT_END
  1
CELLSTYLE_BEGIN
 90
        1
 91
        1
300
_TITLE
309
CELLSTYLE_END
300
CELLSTYLE
  1
TABLEFORMAT_BEGIN
 90
        5
170
     1
 91
        0
 92
        0
 62
   257
 93
        1
300
CONTENTFORMAT
  1
CONTENTFORMAT_BEGIN
 90
        0
 91
        0
 92
        4
 93
        0
300

 40
0.0
140
1.0
 94
        5
 62
     0
340
11
144
4.5
309
CONTENTFORMAT_END
171
     1
301
MARGIN
  1
CELLMARGIN_BEGIN
 40
1.5
 40
1.5
 40
1.5
 40
1.5
 40
1.5
 40
1.5
309
CELLMARGIN_END
 94
        6
 95
        1
302
GRIDFORMAT
  1
GRIDFORMAT_BEGIN
 90
        0
 91
        1
 62
     0
 92
       -2
340
14
 93
        0
 40
0.045
309
GRIDFORMAT_END
 95
        2
302
GRIDFORMAT
  1
GRIDFORMAT_BEGIN
 90
        0
 91
        1
 62
     0
 92
       -2
340
14
 93
        0
 40
0.045
309
GRIDFORMAT_END
 95
        4
302
GRIDFORMAT
  1
GRIDFORMAT_BEGIN
 90
        0
 91
        1
 62
     0
 92
       -2
340
14
 93
        0
 40
0.045
309
GRIDFORMAT_END
 95
        8
302
GRIDFORMAT
  1
GRIDFORMAT_BEGIN
 90
        0
 91
        1
 62
     0
 92
       -2
340
14
 93
        0
 40
0.045
309
GRIDFORMAT_END
 95
       16
302
GRIDFORMAT
  1
GRIDFORMAT_BEGIN
 90
        0
 91
        1
 62
     0
 92
       -2
340
14
 93
        0
 40
0.045
309
GRIDFORMAT_END
 95
       32
302
GRIDFORMAT
  1
GRIDFORMAT_BEGIN
 90
        0
 91
        1
 62
     0
 92
       -2
340
14
 93
        0
 40
0.045
309
GRIDFORMAT_END
309
TABLEFORMAT_END
  1
CELLSTYLE_BEGIN
 90
        2
 91
        1
300
_HEADER
309
CELLSTYLE_END
300
CELLSTYLE
  1
TABLEFORMAT_BEGIN
 90
        5
170
     1
 91
        0
 92
        0
 62
   257
 93
        1
300
CONTENTFORMAT
  1
CONTENTFORMAT_BEGIN
 90
        0
 91
        0
 92
        4
 93
        0
300

 40
0.0
140
1.0
 94
        2
 62
     0
340
11
144
4.5
309
CONTENTFORMAT_END
171
     1
301
MARGIN
  1
CELLMARGIN_BEGIN
 40
1.5
 40
1.5
 40
1.5
 40
1.5
 40
1.5
 40
1.5
309
CELLMARGIN_END
 94
        6
 95
        1
302
GRIDFORMAT
  1
GRIDFORMAT_BEGIN
 90
        0
 91
        1
 62
     0
 92
       -2
340
14
 93
        0
 40
0.045
309
GRIDFORMAT_END
 95
        2
302
GRIDFORMAT
  1
GRIDFORMAT_BEGIN
 90
        0
 91
        1
 62
     0
 92
       -2
340
14
 93
        0
 40
0.045
309
GRIDFORMAT_END
 95
        4
302
GRIDFORMAT
  1
GRIDFORMAT_BEGIN
 90
        0
 91
        1
 62
     0
 92
       -2
340
14
 93
        0
 40
0.045
309
GRIDFORMAT_END
 95
        8
302
GRIDFORMAT
  1
GRIDFORMAT_BEGIN
 90
        0
 91
        1
 62
     0
 92
       -2
340
14
 93
        0
 40
0.045
309
GRIDFORMAT_END
 95
       16
302
GRIDFORMAT
  1
GRIDFORMAT_BEGIN
 90
        0
 91
        1
 62
     0
 92
       -2
340
14
 93
        0
 40
0.045
309
GRIDFORMAT_END
 95
       32
302
GRIDFORMAT
  1
GRIDFORMAT_BEGIN
 90
        0
 91
        1
 62
     0
 92
       -2
340
14
 93
        0
 40
0.045
309
GRIDFORMAT_END
309
TABLEFORMAT_END
  1
CELLSTYLE_BEGIN
 90
        3
 91
        2
300
_DATA
309
CELLSTYLE_END
  0
ENDSEC
  0
EOF