0
SECTION
  2
HEADER
  9
$ACADVER
  1
AC1027
  9
$ACADMAINTVER
 70
     8
  9
$DWGCODEPAGE
  3
ANSI_1252
  9
$REQUIREDVERSIONS
160
                 0
  9
$COMMENTS
  1
File was created by Cadenas
  9
$CUSTOMPROPERTYTAG
  1
NN
  9
$CUSTOMPROPERTY
  1
Grip Tight Two-Bolt Flange - Polymer Housing, Corrosion Resistant Insert Inch Bore
  9
$CUSTOMPROPERTYTAG
  1
NT
  9
$CUSTOMPROPERTY
  1
GTEZ Normal Duty Polymer Housed 2 Bolt Flange Bearings
  9
$CUSTOMPROPERTYTAG
  1
NB
  9
$CUSTOMPROPERTY
  1
129347
  9
$CUSTOMPROPERTYTAG
  1
NBSYN
  9
$CUSTOMPROPERTY
  1
$PN.$LUBE.
  9
$CUSTOMPROPERTYTAG
  1
LINA
  9
$CUSTOMPROPERTY
  1
129347
  9
$CUSTOMPROPERTYTAG
  1
SERIES
  9
$CUSTOMPROPERTY
  1
207
  9
$CUSTOMPROPERTYTAG
  1
SS
  9
$CUSTOMPROPERTY
  1
1-7/16
  9
$CUSTOMPROPERTYTAG
  1
PN
  9
$CUSTOMPROPERTY
  1
129347
  9
$CUSTOMPROPERTYTAG
  1
DESCRIPTION
  9
$CUSTOMPROPERTY
  1
F2B-GTEZ-107-PCR
  9
$CUSTOMPROPERTYTAG
  1
A
  9
$CUSTOMPROPERTY
  1
1-5/8
  9
$CUSTOMPROPERTYTAG
  1
B
  9
$CUSTOMPROPERTY
  1
6-5/16
  9
$CUSTOMPROPERTYTAG
  1
C
  9
$CUSTOMPROPERTY
  1
1-27/32
  9
$CUSTOMPROPERTYTAG
  1
D
  9
$CUSTOMPROPERTY
  1
5-1/8
  9
$CUSTOMPROPERTYTAG
  1
F
  9
$CUSTOMPROPERTY
  1
1/2
  9
$CUSTOMPROPERTYTAG
  1
H
  9
$CUSTOMPROPERTY
  1
5/8
  9
$CUSTOMPROPERTYTAG
  1
J
  9
$CUSTOMPROPERTY
  1
35/64
  9
$CUSTOMPROPERTYTAG
  1
L
  9
$CUSTOMPROPERTY
  1
2-19/64
  9
$CUSTOMPROPERTYTAG
  1
M
  9
$CUSTOMPROPERTY
  1
3-45/64
  9
$CUSTOMPROPERTYTAG
  1
Z
  9
$CUSTOMPROPERTY
  1
1-53/64
  9
$CUSTOMPROPERTYTAG
  1
COMPANY
  9
$CUSTOMPROPERTY
  1
baldor
  9
$INSBASE
 10
0.0
 20
0.0
 30
0.0
  9
$EXTMIN
 10
1.000000000000000E+20
 20
1.000000000000000E+20
 30
1.000000000000000E+20
  9
$EXTMAX
 10
-1.000000000000000E+20
 20
-1.000000000000000E+20
 30
-1.000000000000000E+20
  9
$LIMMIN
 10
0.0
 20
0.0
  9
$LIMMAX
 10
12.0
 20
9.0
  9
$ORTHOMODE
 70
     0
  9
$REGENMODE
 70
     1
  9
$FILLMODE
 70
     1
  9
$QTEXTMODE
 70
     0
  9
$MIRRTEXT
 70
     1
  9
$LTSCALE
 40
1.0
  9
$ATTMODE
 70
     1
  9
$TEXTSIZE
 40
0.2
  9
$TRACEWID
 40
0.05
  9
$TEXTSTYLE
  7
Standard
  9
$CLAYER
  8
0
  9
$CELTYPE
  6
ByLayer
  9
$CECOLOR
 62
   256
  9
$CELTSCALE
 40
1.0
  9
$DISPSILH
 70
     0
  9
$DIMSCALE
 40
1.0
  9
$DIMASZ
 40
0.18
  9
$DIMEXO
 40
0.0625
  9
$DIMDLI
 40
0.38
  9
$DIMRND
 40
0.0
  9
$DIMDLE
 40
0.0
  9
$DIMEXE
 40
0.18
  9
$DIMTP
 40
0.0
  9
$DIMTM
 40
0.0
  9
$DIMTXT
 40
0.18
  9
$DIMCEN
 40
0.09
  9
$DIMTSZ
 40
0.0
  9
$DIMTOL
 70
     0
  9
$DIMLIM
 70
     0
  9
$DIMTIH
 70
     1
  9
$DIMTOH
 70
     1
  9
$DIMSE1
 70
     0
  9
$DIMSE2
 70
     0
  9
$DIMTAD
 70
     0
  9
$DIMZIN
 70
     0
  9
$DIMBLK
  1

  9
$DIMASO
 70
     1
  9
$DIMSHO
 70
     1
  9
$DIMPOST
  1

  9
$DIMAPOST
  1

  9
$DIMALT
 70
     0
  9
$DIMALTD
 70
     2
  9
$DIMALTF
 40
25.4
  9
$DIMLFAC
 40
1.0
  9
$DIMTOFL
 70
     0
  9
$DIMTVP
 40
0.0
  9
$DIMTIX
 70
     0
  9
$DIMSOXD
 70
     0
  9
$DIMSAH
 70
     0
  9
$DIMBLK1
  1

  9
$DIMBLK2
  1

  9
$DIMSTYLE
  2
Standard
  9
$DIMCLRD
 70
     0
  9
$DIMCLRE
 70
     0
  9
$DIMCLRT
 70
     0
  9
$DIMTFAC
 40
1.0
  9
$DIMGAP
 40
0.09
  9
$DIMJUST
 70
     0
  9
$DIMSD1
 70
     0
  9
$DIMSD2
 70
     0
  9
$DIMTOLJ
 70
     1
  9
$DIMTZIN
 70
     0
  9
$DIMALTZ
 70
     0
  9
$DIMALTTZ
 70
     0
  9
$DIMUPT
 70
     0
  9
$DIMDEC
 70
     4
  9
$DIMTDEC
 70
     4
  9
$DIMALTU
 70
     2
  9
$DIMALTTD
 70
     2
  9
$DIMTXSTY
  7
Standard
  9
$DIMAUNIT
 70
     0
  9
$DIMADEC
 70
     0
  9
$DIMALTRND
 40
0.0
  9
$DIMAZIN
 70
     0
  9
$DIMDSEP
 70
    46
  9
$DIMATFIT
 70
     3
  9
$DIMFRAC
 70
     0
  9
$DIMLDRBLK
  1

  9
$DIMLUNIT
 70
     2
  9
$DIMLWD
 70
    -2
  9
$DIMLWE
 70
    -2
  9
$DIMTMOVE
 70
     0
  9
$DIMFXL
 40
1.0
  9
$DIMFXLON
 70
     0
  9
$DIMJOGANG
 40
0.7853981633974483
  9
$DIMTFILL
 70
     0
  9
$DIMTFILLCLR
 70
     0
  9
$DIMARCSYM
 70
     0
  9
$DIMLTYPE
  6

  9
$DIMLTEX1
  6

  9
$DIMLTEX2
  6

  9
$DIMTXTDIRECTION
 70
     0
  9
$LUNITS
 70
     2
  9
$LUPREC
 70
     4
  9
$SKETCHINC
 40
0.1
  9
$FILLETRAD
 40
0.5
  9
$AUNITS
 70
     0
  9
$AUPREC
 70
     0
  9
$MENU
  1
.
  9
$ELEVATION
 40
0.0
  9
$PELEVATION
 40
0.0
  9
$THICKNESS
 40
0.0
  9
$LIMCHECK
 70
     0
  9
$CHAMFERA
 40
0.0
  9
$CHAMFERB
 40
0.0
  9
$CHAMFERC
 40
0.0
  9
$CHAMFERD
 40
0.0
  9
$SKPOLY
 70
     0
  9
$TDCREATE
 40
2458168.992380613
  9
$TDUCREATE
 40
2458168.950713947
  9
$TDUPDATE
 40
2458168.992380787
  9
$TDUUPDATE
 40
2458168.95071412
  9
$TDINDWG
 40
0.0000000116
  9
$TDUSRTIMER
 40
0.0000000116
  9
$USRTIMER
 70
     1
  9
$ANGBASE
 50
0.0
  9
$ANGDIR
 70
     0
  9
$PDMODE
 70
     0
  9
$PDSIZE
 40
0.0
  9
$PLINEWID
 40
0.0
  9
$SPLFRAME
 70
     0
  9
$SPLINETYPE
 70
     6
  9
$SPLINESEGS
 70
     8
  9
$HANDSEED
  5
1D0
  9
$SURFTAB1
 70
     6
  9
$SURFTAB2
 70
     6
  9
$SURFTYPE
 70
     6
  9
$SURFU
 70
     6
  9
$SURFV
 70
     6
  9
$UCSBASE
  2

  9
$UCSNAME
  2

  9
$UCSORG
 10
0.0
 20
0.0
 30
0.0
  9
$UCSXDIR
 10
1.0
 20
0.0
 30
0.0
  9
$UCSYDIR
 10
0.0
 20
1.0
 30
0.0
  9
$UCSORTHOREF
  2

  9
$UCSORTHOVIEW
 70
     0
  9
$UCSORGTOP
 10
0.0
 20
0.0
 30
0.0
  9
$UCSORGBOTTOM
 10
0.0
 20
0.0
 30
0.0
  9
$UCSORGLEFT
 10
0.0
 20
0.0
 30
0.0
  9
$UCSORGRIGHT
 10
0.0
 20
0.0
 30
0.0
  9
$UCSORGFRONT
 10
0.0
 20
0.0
 30
0.0
  9
$UCSORGBACK
 10
0.0
 20
0.0
 30
0.0
  9
$PUCSBASE
  2

  9
$PUCSNAME
  2

  9
$PUCSORG
 10
0.0
 20
0.0
 30
0.0
  9
$PUCSXDIR
 10
1.0
 20
0.0
 30
0.0
  9
$PUCSYDIR
 10
0.0
 20
1.0
 30
0.0
  9
$PUCSORTHOREF
  2

  9
$PUCSORTHOVIEW
 70
     0
  9
$PUCSORGTOP
 10
0.0
 20
0.0
 30
0.0
  9
$PUCSORGBOTTOM
 10
0.0
 20
0.0
 30
0.0
  9
$PUCSORGLEFT
 10
0.0
 20
0.0
 30
0.0
  9
$PUCSORGRIGHT
 10
0.0
 20
0.0
 30
0.0
  9
$PUCSORGFRONT
 10
0.0
 20
0.0
 30
0.0
  9
$PUCSORGBACK
 10
0.0
 20
0.0
 30
0.0
  9
$USERI1
 70
     0
  9
$USERI2
 70
     0
  9
$USERI3
 70
     0
  9
$USERI4
 70
     0
  9
$USERI5
 70
     0
  9
$USERR1
 40
0.0
  9
$USERR2
 40
0.0
  9
$USERR3
 40
0.0
  9
$USERR4
 40
0.0
  9
$USERR5
 40
0.0
  9
$WORLDVIEW
 70
     1
  9
$SHADEDGE
 70
     3
  9
$SHADEDIF
 70
    70
  9
$TILEMODE
 70
     1
  9
$MAXACTVP
 70
    64
  9
$PINSBASE
 10
0.0
 20
0.0
 30
0.0
  9
$PLIMCHECK
 70
     0
  9
$PEXTMIN
 10
1.000000000000000E+20
 20
1.000000000000000E+20
 30
1.000000000000000E+20
  9
$PEXTMAX
 10
-1.000000000000000E+20
 20
-1.000000000000000E+20
 30
-1.000000000000000E+20
  9
$PLIMMIN
 10
0.0
 20
0.0
  9
$PLIMMAX
 10
12.0
 20
9.0
  9
$UNITMODE
 70
     0
  9
$VISRETAIN
 70
     1
  9
$PLINEGEN
 70
     0
  9
$PSLTSCALE
 70
     1
  9
$TREEDEPTH
 70
  3020
  9
$CMLSTYLE
  2
Standard
  9
$CMLJUST
 70
     0
  9
$CMLSCALE
 40
1.0
  9
$PROXYGRAPHICS
 70
     1
  9
$MEASUREMENT
 70
     0
  9
$CELWEIGHT
370
    -1
  9
$ENDCAPS
280
     0
  9
$JOINSTYLE
280
     0
  9
$LWDISPLAY
290
     0
  9
$INSUNITS
 70
     1
  9
$HYPERLINKBASE
  1

  9
$STYLESHEET
  1

  9
$XEDIT
290
     1
  9
$CEPSNTYPE
380
     0
  9
$PSTYLEMODE
290
     1
  9
$FINGERPRINTGUID
  2
{3ACADDA2-3CFC-41B9-A6DD-76396D90E867}
  9
$VERSIONGUID
  2
{FAEB1C32-E019-11D5-929B-00C0DF256EC4}
  9
$EXTNAMES
290
     1
  9
$PSVPSCALE
 40
0.0
  9
$OLESTARTUP
290
     0
  9
$SORTENTS
280
   127
  9
$INDEXCTL
280
     0
  9
$HIDETEXT
280
     1
  9
$XCLIPFRAME
280
     2
  9
$HALOGAP
280
     0
  9
$OBSCOLOR
 70
   257
  9
$OBSLTYPE
280
     0
  9
$INTERSECTIONDISPLAY
280
     0
  9
$INTERSECTIONCOLOR
 70
   257
  9
$DIMASSOC
280
     2
  9
$PROJECTNAME
  1

  9
$CAMERADISPLAY
290
     0
  9
$LENSLENGTH
 40
50.0
  9
$CAMERAHEIGHT
 40
0.0
  9
$STEPSPERSEC
 40
2.0
  9
$STEPSIZE
 40
6.0
  9
$3DDWFPREC
 40
2.0
  9
$PSOLWIDTH
 40
0.25
  9
$PSOLHEIGHT
 40
4.0
  9
$LOFTANG1
 40
1.570796326794897
  9
$LOFTANG2
 40
1.570796326794897
  9
$LOFTMAG1
 40
0.0
  9
$LOFTMAG2
 40
0.0
  9
$LOFTPARAM
 70
     7
  9
$LOFTNORMALS
280
     1
  9
$LATITUDE
 40
37.795
  9
$LONGITUDE
 40
-122.394
  9
$NORTHDIRECTION
 40
0.0
  9
$TIMEZONE
 70
 -8000
  9
$LIGHTGLYPHDISPLAY
280
     1
  9
$TILEMODELIGHTSYNCH
280
     1
  9
$CMATERIAL
347
44
  9
$SOLIDHIST
280
     0
  9
$SHOWHIST
280
     1
  9
$DWFFRAME
280
     2
  9
$DGNFRAME
280
     2
  9
$REALWORLDSCALE
290
     1
  9
$INTERFERECOLOR
 62
   256
  9
$CSHADOW
280
     0
  9
$SHADOWPLANELOCATION
 40
0.0
  0
ENDSEC
  0
SECTION
  2
CLASSES
  0
CLASS
  1
ACDBDICTIONARYWDFLT
  2
AcDbDictionaryWithDefault
  3
ObjectDBX Classes
 90
        0
 91
        4
280
     0
281
     0
  0
CLASS
  1
VISUALSTYLE
  2
AcDbVisualStyle
  3
ObjectDBX Classes
 90
     4095
 91
        4
280
     0
281
     0
  0
CLASS
  1
MATERIAL
  2
AcDbMaterial
  3
ObjectDBX Classes
 90
     1153
 91
        4
280
     0
281
     0
  0
CLASS
  1
SCALE
  2
AcDbScale
  3
ObjectDBX Classes
 90
     1153
 91
        4
280
     0
281
     0
  0
CLASS
  1
TABLESTYLE
  2
AcDbTableStyle
  3
ObjectDBX Classes
 90
     4095
 91
        4
280
     0
281
     0
  0
CLASS
  1
MLEADERSTYLE
  2
AcDbMLeaderStyle
  3
ACDB_MLEADERSTYLE_CLASS
 90
     4095
 91
        4
280
     0
281
     0
  0
CLASS
  1
SUN
  2
AcDbSun
  3
SCENEOE
 90
     1153
 91
        4
280
     0
281
     0
  0
CLASS
  1
DICTIONARYVAR
  2
AcDbDictionaryVar
  3
ObjectDBX Classes
 90
        0
 91
        4
280
     0
281
     0
  0
CLASS
  1
CELLSTYLEMAP
  2
AcDbCellStyleMap
  3
ObjectDBX Classes
 90
     1152
 91
        4
280
     0
281
     0
  0
ENDSEC
  0
SECTION
  2
TABLES
  0
TABLE
  2
VPORT
  5
8
330
0
100
AcDbSymbolTable
 70
     1
  0
VPORT
  5
29
330
8
100
AcDbSymbolTableRecord
100
AcDbViewportTableRecord
  2
*Active
 70
     0
 10
0.0
 20
0.0
 11
1.0
 21
1.0
 12
0.0
 22
-0.9141875000000006
 13
0.0
 23
0.0
 14
0.5
 24
0.5
 15
0.5
 25
0.5
 16
0.0
 26
0.0
 36
1.0
 17
0.0
 27
0.0
 37
0.0
 40
2.062567499999999
 41
1.831241886629165
 42
50.0
 43
0.0
 44
0.0
 50
0.0
 51
0.0
 71
     0
 72
   100
 73
     1
 74
     3
 75
     0
 76
     0
 77
     0
 78
     0
281
     0
 65
     1
110
0.0
120
0.0
130
0.0
111
1.0
121
0.0
131
0.0
112
0.0
122
1.0
132
0.0
 79
     0
146
0.0
348
2F
 60
     3
 61
     5
292
     1
282
     1
141
0.0
142
0.0
 63
   250
361
6D
  0
ENDTAB
  0
TABLE
  2
LTYPE
  5
5
330
0
100
AcDbSymbolTable
 70
     3
  0
LTYPE
  5
14
330
5
100
AcDbSymbolTableRecord
100
AcDbLinetypeTableRecord
  2
ByBlock
 70
     0
  3

 72
    65
 73
     0
 40
0.0
  0
LTYPE
  5
15
330
5
100
AcDbSymbolTableRecord
100
AcDbLinetypeTableRecord
  2
ByLayer
 70
     0
  3

 72
    65
 73
     0
 40
0.0
  0
LTYPE
  5
16
330
5
100
AcDbSymbolTableRecord
100
AcDbLinetypeTableRecord
  2
Continuous
 70
     0
  3
Solid line
 72
    65
 73
     0
 40
0.0
  0
LTYPE
  5
9D
330
5
100
AcDbSymbolTableRecord
100
AcDbLinetypeTableRecord
  2
Dashed
 70
     0
  3

 72
    65
 73
     2
 40
2.0
 49
1.0
 74
     0
 49
-1.0
 74
     0
  0
LTYPE
  5
104
330
5
100
AcDbSymbolTableRecord
100
AcDbLinetypeTableRecord
  2
Center
 70
     0
  3

 72
    65
 73
     4
 40
1.5
 49
0.45
 74
     0
 49
-0.5
 74
     0
 49
0.05
 74
     0
 49
-0.5
 74
     0
  0
ENDTAB
  0
TABLE
  2
LAYER
  5
2
330
0
100
AcDbSymbolTable
 70
     7
  0
LAYER
  5
10
330
2
100
AcDbSymbolTableRecord
100
AcDbLayerTableRecord
  2
0
 70
     0
 62
     7
  6
Continuous
370
    -3
390
F
347
46
348
0
  0
LAYER
  5
72
330
2
100
AcDbSymbolTableRecord
100
AcDbLayerTableRecord
  2
AM_6
 70
     0
 62
    -2
  6
Continuous
370
    35
390
F
347
46
348
0
  0
LAYER
  5
9E
330
2
100
AcDbSymbolTableRecord
100
AcDbLayerTableRecord
  2
AM_9
 70
     0
 62
     6
  6
Dashed
370
    25
390
F
347
46
348
0
  0
LAYER
  5
CB
330
2
100
AcDbSymbolTableRecord
100
AcDbLayerTableRecord
  2
AM_4
 70
     0
 62
     7
  6
Continuous
370
    50
390
F
347
46
348
0
  0
LAYER
  5
101
330
2
100
AcDbSymbolTableRecord
100
AcDbLayerTableRecord
  2
AM_5
 70
     0
 62
     3
  6
Continuous
370
    25
390
F
347
46
348
0
  0
LAYER
  5
105
330
2
100
AcDbSymbolTableRecord
100
AcDbLayerTableRecord
  2
AM_7
 70
     0
 62
     7
  6
Center
370
    25
390
F
347
46
348
0
  0
LAYER
  5
1C3
330
2
100
AcDbSymbolTableRecord
100
AcDbLayerTableRecord
  2
ConnectionPoints
 70
     0
 62
     7
  6
Continuous
370
    50
390
F
347
46
348
0
  0
ENDTAB
  0
TABLE
  2
STYLE
  5
3
330
0
100
AcDbSymbolTable
 70
     1
  0
STYLE
  5
11
330
3
100
AcDbSymbolTableRecord
100
AcDbTextStyleTableRecord
  2
Standard
 70
     0
 40
0.0
 41
1.0
 50
0.0
 71
     0
 42
0.2
  3
txt
  4

  0
ENDTAB
  0
TABLE
  2
VIEW
  5
6
330
0
100
AcDbSymbolTable
 70
     0
  0
ENDTAB
  0
TABLE
  2
UCS
  5
7
330
0
100
AcDbSymbolTable
 70
     0
  0
ENDTAB
  0
TABLE
  2
APPID
  5
9
330
0
100
AcDbSymbolTable
 70
     1
  0
APPID
  5
12
330
9
100
AcDbSymbolTableRecord
100
AcDbRegAppTableRecord
  2
ACAD
 70
     0
  0
ENDTAB
  0
TABLE
  2
DIMSTYLE
  5
A
330
0
100
AcDbSymbolTable
 70
     1
100
AcDbDimStyleTable
  0
DIMSTYLE
105
27
330
A
100
AcDbSymbolTableRecord
100
AcDbDimStyleTableRecord
  2
Standard
 70
     0
178
     0
340
11
  0
ENDTAB
  0
TABLE
  2
BLOCK_RECORD
  5
1
330
0
100
AcDbSymbolTable
 70
     5
  0
BLOCK_RECORD
  5
1F
330
1
100
AcDbSymbolTableRecord
100
AcDbBlockTableRecord
  2
*Model_Space
340
22
 70
     0
280
     1
281
     0
  0
BLOCK_RECORD
  5
1B
330
1
100
AcDbSymbolTableRecord
100
AcDbBlockTableRecord
  2
*Paper_Space
340
1E
 70
     0
280
     1
281
     0
  0
BLOCK_RECORD
  5
23
330
1
100
AcDbSymbolTableRecord
100
AcDbBlockTableRecord
  2
*Paper_Space0
340
26
 70
     0
280
     1
281
     0
  0
BLOCK_RECORD
  5
6E
330
1
100
AcDbSymbolTableRecord
100
AcDbBlockTableRecord
  2
1_129347_4
340
0
102
{BLKREFS
331
6F
102
}
 70
     0
280
     1
281
     0
  0
BLOCK_RECORD
  5
87
330
1
100
AcDbSymbolTableRecord
100
AcDbBlockTableRecord
  2
2_INS_GT_07_CRI_0_in_129347_4
340
0
102
{BLKREFS
331
88
102
}
 70
     0
280
     1
281
     0
  0
BLOCK_RECORD
  5
CF
330
1
100
AcDbSymbolTableRecord
100
AcDbBlockTableRecord
  2
3_129974_0_in_129347_4
340
0
102
{BLKREFS
331
D0
102
}
 70
     0
280
     1
281
     0
  0
BLOCK_RECORD
  5
122
330
1
100
AcDbSymbolTableRecord
100
AcDbBlockTableRecord
  2
4_F2B_GREZ_07_PCR_II_0_in_129347_4
340
0
102
{BLKREFS
331
123
102
}
 70
     0
280
     1
281
     0
  0
ENDTAB
  0
ENDSEC
  0
SECTION
  2
BLOCKS
  0
BLOCK
  5
20
330
1F
100
AcDbEntity
  8
0
100
AcDbBlockBegin
  2
*Model_Space
 70
     0
 10
0.0
 20
0.0
 30
0.0
  3
*Model_Space
  1

  0
ENDBLK
  5
21
330
1F
100
AcDbEntity
  8
0
100
AcDbBlockEnd
  0
BLOCK
  5
1C
330
1B
100
AcDbEntity
 67
     1
  8
0
100
AcDbBlockBegin
  2
*Paper_Space
 70
     0
 10
0.0
 20
0.0
 30
0.0
  3
*Paper_Space
  1

  0
ENDBLK
  5
1D
330
1B
100
AcDbEntity
 67
     1
  8
0
100
AcDbBlockEnd
  0
BLOCK
  5
24
330
23
100
AcDbEntity
  8
0
100
AcDbBlockBegin
  2
*Paper_Space0
 70
     0
 10
0.0
 20
0.0
 30
0.0
  3
*Paper_Space0
  1

  0
ENDBLK
  5
25
330
23
100
AcDbEntity
  8
0
100
AcDbBlockEnd
  0
BLOCK
  5
70
330
6E
100
AcDbEntity
  8
0
100
AcDbBlockBegin
  2
1_129347_4
 70
     2
 10
0.0
 20
0.0
 30
0.0
  3
1_129347_4
  1

  0
ATTDEF
  5
73
330
6E
100
AcDbEntity
  8
AM_6
100
AcDbText
 10
6.8515
 20
0.0968749999999998
 30
0.0
 40
0.5
  1
Grip Tight Two-Bolt Flange - Polymer Housing, Corrosion Resistant Insert Inch Bore
100
AcDbAttributeDefinition
  3

  2
NN
 70
     8
280
     0
  0
ATTDEF
  5
74
330
6E
100
AcDbEntity
  8
AM_6
100
AcDbText
 10
6.8515
 20
-0.4031250000000002
 30
0.0
 40
0.5
  1
GTEZ Normal Duty Polymer Housed 2 Bolt Flange Bearings
100
AcDbAttributeDefinition
  3

  2
NT
 70
     8
280
     0
  0
ATTDEF
  5
75
330
6E
100
AcDbEntity
  8
AM_6
100
AcDbText
 10
6.8515
 20
-0.9031250000000002
 30
0.0
 40
0.5
  1
129347
100
AcDbAttributeDefinition
  3

  2
NB
 70
     8
280
     0
  0
ATTDEF
  5
76
330
6E
100
AcDbEntity
  8
AM_6
100
AcDbText
 10
6.8515
 20
-1.403125
 30
0.0
 40
0.5
  1
$PN.$LUBE.
100
AcDbAttributeDefinition
  3

  2
NBSYN
 70
     8
280
     0
  0
ATTDEF
  5
77
330
6E
100
AcDbEntity
  8
AM_6
100
AcDbText
 10
6.8515
 20
-1.903125
 30
0.0
 40
0.5
  1
129347
100
AcDbAttributeDefinition
  3

  2
LINA
 70
     8
280
     0
  0
ATTDEF
  5
78
330
6E
100
AcDbEntity
  8
AM_6
100
AcDbText
 10
6.8515
 20
-2.403125
 30
0.0
 40
0.5
  1
207
100
AcDbAttributeDefinition
  3

  2
SERIES
 70
     8
280
     0
  0
ATTDEF
  5
79
330
6E
100
AcDbEntity
  8
AM_6
100
AcDbText
 10
6.8515
 20
-2.903125
 30
0.0
 40
0.5
  1
1-7/16
100
AcDbAttributeDefinition
  3

  2
SS
 70
     8
280
     0
  0
ATTDEF
  5
7A
330
6E
100
AcDbEntity
  8
AM_6
100
AcDbText
 10
6.8515
 20
-3.403125
 30
0.0
 40
0.5
  1
129347
100
AcDbAttributeDefinition
  3

  2
PN
 70
     8
280
     0
  0
ATTDEF
  5
7B
330
6E
100
AcDbEntity
  8
AM_6
100
AcDbText
 10
6.8515
 20
-3.903125
 30
0.0
 40
0.5
  1
F2B-GTEZ-107-PCR
100
AcDbAttributeDefinition
  3

  2
DESCRIPTION
 70
     8
280
     0
  0
ATTDEF
  5
7C
330
6E
100
AcDbEntity
  8
AM_6
100
AcDbText
 10
6.8515
 20
-4.403125
 30
0.0
 40
0.5
  1
1-5/8
100
AcDbAttributeDefinition
  3

  2
A
 70
     8
280
     0
  0
ATTDEF
  5
7D
330
6E
100
AcDbEntity
  8
AM_6
100
AcDbText
 10
6.8515
 20
-4.903125
 30
0.0
 40
0.5
  1
6-5/16
100
AcDbAttributeDefinition
  3

  2
B
 70
     8
280
     0
  0
ATTDEF
  5
7E
330
6E
100
AcDbEntity
  8
AM_6
100
AcDbText
 10
6.8515
 20
-5.403125
 30
0.0
 40
0.5
  1
1-27/32
100
AcDbAttributeDefinition
  3

  2
C
 70
     8
280
     0
  0
ATTDEF
  5
7F
330
6E
100
AcDbEntity
  8
AM_6
100
AcDbText
 10
6.8515
 20
-5.903125
 30
0.0
 40
0.5
  1
5-1/8
100
AcDbAttributeDefinition
  3

  2
D
 70
     8
280
     0
  0
ATTDEF
  5
80
330
6E
100
AcDbEntity
  8
AM_6
100
AcDbText
 10
6.8515
 20
-6.403125
 30
0.0
 40
0.5
  1
1/2
100
AcDbAttributeDefinition
  3

  2
F
 70
     8
280
     0
  0
ATTDEF
  5
81
330
6E
100
AcDbEntity
  8
AM_6
100
AcDbText
 10
6.8515
 20
-6.903125
 30
0.0
 40
0.5
  1
5/8
100
AcDbAttributeDefinition
  3

  2
H
 70
     8
280
     0
  0
ATTDEF
  5
82
330
6E
100
AcDbEntity
  8
AM_6
100
AcDbText
 10
6.8515
 20
-7.403125
 30
0.0
 40
0.5
  1
35/64
100
AcDbAttributeDefinition
  3

  2
J
 70
     8
280
     0
  0
ATTDEF
  5
83
330
6E
100
AcDbEntity
  8
AM_6
100
AcDbText
 10
6.8515
 20
-7.903125
 30
0.0
 40
0.5
  1
2-19/64
100
AcDbAttributeDefinition
  3

  2
L
 70
     8
280
     0
  0
ATTDEF
  5
84
330
6E
100
AcDbEntity
  8
AM_6
100
AcDbText
 10
6.8515
 20
-8.403125
 30
0.0
 40
0.5
  1
3-45/64
100
AcDbAttributeDefinition
  3

  2
M
 70
     8
280
     0
  0
ATTDEF
  5
85
330
6E
100
AcDbEntity
  8
AM_6
100
AcDbText
 10
6.8515
 20
-8.903125
 30
0.0
 40
0.5
  1
1-53/64
100
AcDbAttributeDefinition
  3

  2
Z
 70
     8
280
     0
  0
ATTDEF
  5
86
330
6E
100
AcDbEntity
  8
AM_6
100
AcDbText
 10
6.8515
 20
-9.403125
 30
0.0
 40
0.5
  1
baldor
100
AcDbAttributeDefinition
  3

  2
COMPANY
 70
     8
280
     0
  0
INSERT
  5
88
330
6E
100
AcDbEntity
  8
0
100
AcDbBlockReference
  2
2_INS_GT_07_CRI_0_in_129347_4
 10
0.0
 20
0.0
 30
0.0
  0
INSERT
  5
D0
330
6E
100
AcDbEntity
  8
0
100
AcDbBlockReference
  2
3_129974_0_in_129347_4
 10
0.0
 20
0.0
 30
0.0
  0
INSERT
  5
123
330
6E
100
AcDbEntity
  8
0
100
AcDbBlockReference
  2
4_F2B_GREZ_07_PCR_II_0_in_129347_4
 10
0.0
 20
0.0
 30
0.0
  0
ENDBLK
  5
71
330
6E
100
AcDbEntity
  8
0
100
AcDbBlockEnd
  0
BLOCK
  5
89
330
87
100
AcDbEntity
  8
0
100
AcDbBlockBegin
  2
2_INS_GT_07_CRI_0_in_129347_4
 70
     2
 10
0.0
 20
0.0
 30
0.0
  3
2_INS_GT_07_CRI_0_in_129347_4
  1

  0
ATTDEF
  5
8B
330
87
100
AcDbEntity
  8
AM_6
100
AcDbText
 10
6.417270403970505
 20
-0.2752500000000003
 30
0.0
 40
0.5
  1
INS-GT-CR-I
100
AcDbAttributeDefinition
  3

  2
NN
 70
     8
280
     0
  0
ATTDEF
  5
8C
330
87
100
AcDbEntity
  8
AM_6
100
AcDbText
 10
6.417270403970505
 20
-0.7752500000000002
 30
0.0
 40
0.5
  1
GT Normal Duty Corrosion Resistant Bearing Inserts
100
AcDbAttributeDefinition
  3

  2
NT
 70
     8
280
     0
  0
ATTDEF
  5
8D
330
87
100
AcDbEntity
  8
AM_6
100
AcDbText
 10
6.417270403970505
 20
-1.27525
 30
0.0
 40
0.5
  1
INS-GT-07-CRI
100
AcDbAttributeDefinition
  3

  2
NB
 70
     8
280
     0
  0
ATTDEF
  5
8E
330
87
100
AcDbEntity
  8
AM_6
100
AcDbText
 10
6.417270403970505
 20
-1.77525
 30
0.0
 40
0.5
  1
$PN.I
100
AcDbAttributeDefinition
  3

  2
NBSYN
 70
     8
280
     0
  0
ATTDEF
  5
8F
330
87
100
AcDbEntity
  8
AM_6
100
AcDbText
 10
6.417270403970505
 20
-2.27525
 30
0.0
 40
0.5
  1
INS-GT-07-CR
100
AcDbAttributeDefinition
  3

  2
LINA
 70
     8
280
     0
  0
ATTDEF
  5
90
330
87
100
AcDbEntity
  8
AM_6
100
AcDbText
 10
6.417270403970505
 20
-2.77525
 30
0.0
 40
0.5
  1
207
100
AcDbAttributeDefinition
  3

  2
SERIES
 70
     8
280
     0
  0
ATTDEF
  5
91
330
87
100
AcDbEntity
  8
AM_6
100
AcDbText
 10
6.417270403970505
 20
-3.27525
 30
0.0
 40
0.5
  1
INS-GT-07-CR
100
AcDbAttributeDefinition
  3

  2
PN
 70
     8
280
     0
  0
ATTDEF
  5
92
330
87
100
AcDbEntity
  8
AM_6
100
AcDbText
 10
6.417270403970505
 20
-3.77525
 30
0.0
 40
0.5
  1
INS-GT-07-CR
100
AcDbAttributeDefinition
  3

  2
DESCRIPTION
 70
     8
280
     0
  0
ATTDEF
  5
93
330
87
100
AcDbEntity
  8
AM_6
100
AcDbText
 10
6.417270403970505
 20
-4.27525
 30
0.0
 40
0.5
  1
1-5/8
100
AcDbAttributeDefinition
  3

  2
A
 70
     8
280
     0
  0
ATTDEF
  5
94
330
87
100
AcDbEntity
  8
AM_6
100
AcDbText
 10
6.417270403970505
 20
-4.77525
 30
0.0
 40
0.5
  1
0.7480
100
AcDbAttributeDefinition
  3

  2
C
 70
     8
280
     0
  0
ATTDEF
  5
95
330
87
100
AcDbEntity
  8
AM_6
100
AcDbText
 10
6.417270403970505
 20
-5.27525
 30
0.0
 40
0.5
  1
2.8346
100
AcDbAttributeDefinition
  3

  2
D
 70
     8
280
     0
  0
ATTDEF
  5
96
330
87
100
AcDbEntity
  8
AM_6
100
AcDbText
 10
6.417270403970505
 20
-5.77525
 30
0.0
 40
0.5
  1
0.202
100
AcDbAttributeDefinition
  3

  2
J
 70
     8
280
     0
  0
ATTDEF
  5
97
330
87
100
AcDbEntity
  8
AM_6
100
AcDbText
 10
6.417270403970505
 20
-6.27525
 30
0.0
 40
0.5
  1
2-19/64
100
AcDbAttributeDefinition
  3

  2
L
 70
     8
280
     0
  0
ATTDEF
  5
98
330
87
100
AcDbEntity
  8
AM_6
100
AcDbText
 10
6.417270403970505
 20
-6.77525
 30
0.0
 40
0.5
  1
10 - 32 x 1/4
100
AcDbAttributeDefinition
  3

  2
N
 70
     8
280
     0
  0
ATTDEF
  5
99
330
87
100
AcDbEntity
  8
AM_6
100
AcDbText
 10
6.417270403970505
 20
-7.27525
 30
0.0
 40
0.5
  1
9/16
100
AcDbAttributeDefinition
  3

  2
W
 70
     8
280
     0
  0
ATTDEF
  5
9A
330
87
100
AcDbEntity
  8
AM_6
100
AcDbText
 10
6.417270403970505
 20
-7.77525
 30
0.0
 40
0.5
  1
1-3/64
100
AcDbAttributeDefinition
  3

  2
X
 70
     8
280
     0
  0
ATTDEF
  5
9B
330
87
100
AcDbEntity
  8
AM_6
100
AcDbText
 10
6.417270403970505
 20
-8.27525
 30
0.0
 40
0.5
  1
1-1/16
100
AcDbAttributeDefinition
  3

  2
Y
 70
     8
280
     0
  0
ATTDEF
  5
9C
330
87
100
AcDbEntity
  8
AM_6
100
AcDbText
 10
6.417270403970505
 20
-8.77525
 30
0.0
 40
0.5
  1
baldor
100
AcDbAttributeDefinition
  3

  2
COMPANY
 70
     8
280
     0
  0
LINE
  5
9F
330
87
100
AcDbEntity
  8
AM_9
100
AcDbLine
 10
0.8567707677083336
 20
-1.566655585233045
 30
0.0
 11
0.8567707677083336
 21
-1.174077460233043
 31
0.0
  0
LINE
  5
A0
330
87
100
AcDbEntity
  8
AM_9
100
AcDbLine
 10
-0.8567707677083333
 20
-1.174077460233043
 30
0.0
 11
-0.8567707677083333
 21
-1.566655585233045
 31
0.0
  0
LINE
  5
A1
330
87
100
AcDbEntity
  8
AM_9
100
AcDbLine
 10
-0.8567707677083333
 20
-1.174077460233043
 30
0.0
 11
0.8567707677083336
 21
-1.174077460233043
 31
0.0
  0
LINE
  5
A2
330
87
100
AcDbEntity
  8
AM_9
100
AcDbLine
 10
0.8567707677083336
 20
-1.174077460233043
 30
0.0
 11
0.8881585142599846
 21
-0.2752500000000003
 31
0.0
  0
LINE
  5
A3
330
87
100
AcDbEntity
  8
AM_9
100
AcDbLine
 10
-0.8881585142599843
 20
-0.2752500000000003
 30
0.0
 11
-0.8567707677083333
 21
-1.174077460233043
 31
0.0
  0
LINE
  5
A4
330
87
100
AcDbEntity
  8
AM_9
100
AcDbLine
 10
0.9388020505208334
 20
-1.435796210233045
 30
0.0
 11
0.9388020505208334
 21
-1.3049375
 31
0.0
  0
LINE
  5
A5
330
87
100
AcDbEntity
  8
AM_9
100
AcDbLine
 10
-0.9388020505208332
 20
-1.3049375
 30
0.0
 11
-0.9388020505208332
 21
-1.435796210233045
 31
0.0
  0
LINE
  5
A6
330
87
100
AcDbEntity
  8
AM_9
100
AcDbLine
 10
-0.9909133333333332
 20
-0.2752500000000003
 30
0.0
 11
0.9909133333333335
 21
-0.2752500000000003
 31
0.0
  0
LINE
  5
A7
330
87
100
AcDbEntity
  8
AM_9
100
AcDbLine
 10
-0.9909133333333332
 20
-0.2752500000000003
 30
0.0
 11
-1.020833333333333
 21
-0.3051700000000003
 31
0.0
  0
LINE
  5
A8
330
87
100
AcDbEntity
  8
AM_9
100
AcDbLine
 10
1.020833333333333
 20
-0.3051700000000003
 30
0.0
 11
0.9909133333333335
 21
-0.2752500000000003
 31
0.0
  0
LINE
  5
A9
330
87
100
AcDbEntity
  8
AM_9
100
AcDbLine
 10
0.9909133333333335
 20
-1.566655585233045
 30
0.0
 11
1.020833333333333
 21
-1.536735585233046
 31
0.0
  0
LINE
  5
AA
330
87
100
AcDbEntity
  8
AM_9
100
AcDbLine
 10
-1.020833333333333
 20
-1.536735585233046
 30
0.0
 11
-0.9909133333333332
 21
-1.566655585233045
 31
0.0
  0
LINE
  5
AB
330
87
100
AcDbEntity
  8
AM_9
100
AcDbLine
 10
-0.9909133333333332
 20
-1.566655585233045
 30
0.0
 11
0.9909133333333335
 21
-1.566655585233045
 31
0.0
  0
LINE
  5
AC
330
87
100
AcDbEntity
  8
AM_9
100
AcDbLine
 10
1.020833333333333
 20
-1.280999968712599
 30
0.0
 11
1.020833333333333
 21
-1.1555
 31
0.0
  0
LINE
  5
AD
330
87
100
AcDbEntity
  8
AM_9
100
AcDbLine
 10
-1.020833333333333
 20
-1.1555
 30
0.0
 11
-1.020833333333333
 21
-1.280999968712599
 31
0.0
  0
LINE
  5
AE
330
87
100
AcDbEntity
  8
AM_9
100
AcDbLine
 10
1.020833333333333
 20
-1.536735585233046
 30
0.0
 11
1.020833333333333
 21
-1.435796210233045
 31
0.0
  0
LINE
  5
AF
330
87
100
AcDbEntity
  8
AM_9
100
AcDbLine
 10
-1.020833333333333
 20
-1.435796210233045
 30
0.0
 11
-1.020833333333333
 21
-1.536735585233046
 31
0.0
  0
LINE
  5
B0
330
87
100
AcDbEntity
  8
AM_9
100
AcDbLine
 10
-1.020833333333333
 20
-1.536735585233046
 30
0.0
 11
1.020833333333333
 21
-1.536735585233046
 31
0.0
  0
LINE
  5
B1
330
87
100
AcDbEntity
  8
AM_9
100
AcDbLine
 10
-1.020833333333333
 20
-1.435796210233045
 30
0.0
 11
1.020833333333333
 21
-1.435796210233045
 31
0.0
  0
LINE
  5
B2
330
87
100
AcDbEntity
  8
AM_9
100
AcDbLine
 10
-1.020833333333333
 20
-0.3051700000000003
 30
0.0
 11
1.020833333333333
 21
-0.3051700000000003
 31
0.0
  0
LINE
  5
B3
330
87
100
AcDbEntity
  8
AM_9
100
AcDbLine
 10
1.020833333333333
 20
-0.4075000000000003
 30
0.0
 11
1.020833333333333
 21
-0.3051700000000003
 31
0.0
  0
LINE
  5
B4
330
87
100
AcDbEntity
  8
AM_9
100
AcDbLine
 10
-1.020833333333333
 20
-0.3051700000000003
 30
0.0
 11
-1.020833333333333
 21
-0.4075000000000003
 31
0.0
  0
LINE
  5
B5
330
87
100
AcDbEntity
  8
AM_9
100
AcDbLine
 10
1.3425
 20
-1.0239
 30
0.0
 11
1.3425
 21
-0.9431000000000003
 31
0.0
  0
LINE
  5
B6
330
87
100
AcDbEntity
  8
AM_9
100
AcDbLine
 10
-1.3425
 20
-0.9431000000000003
 30
0.0
 11
-1.3425
 21
-1.0239
 31
0.0
  0
LINE
  5
B7
330
87
100
AcDbEntity
  8
AM_9
100
AcDbLine
 10
-1.322326637389132
 20
-1.1555
 30
0.0
 11
1.322326637389132
 21
-1.1555
 31
0.0
  0
ARC
  5
B8
330
87
100
AcDbEntity
  8
AM_9
100
AcDbCircle
 10
1.322326637389133
 20
-1.12558
 30
0.0
 40
0.0299199999999995
100
AcDbArc
 50
270.0
 51
338.5875329531161
  0
ARC
  5
B9
330
87
100
AcDbEntity
  8
AM_9
100
AcDbCircle
 10
-1.322326637389133
 20
-1.12558
 30
0.0
 40
0.0299199999999996
100
AcDbArc
 50
201.4124670468839
 51
270.0
  0
LINE
  5
BA
330
87
100
AcDbEntity
  8
AM_9
100
AcDbLine
 10
-1.322326637389132
 20
-0.4075000000000003
 30
0.0
 11
1.322326637389132
 21
-0.4075000000000003
 31
0.0
  0
ARC
  5
BB
330
87
100
AcDbEntity
  8
AM_9
100
AcDbCircle
 10
1.322326637389132
 20
-0.4374200000000011
 30
0.0
 40
0.0299200000000008
100
AcDbArc
 50
21.41246704688535
 51
90.0
  0
ARC
  5
BC
330
87
100
AcDbEntity
  8
AM_9
100
AcDbCircle
 10
-1.322326637389132
 20
-0.4374200000000011
 30
0.0
 40
0.0299200000000008
100
AcDbArc
 50
90.0
 51
158.5875329531146
  0
LINE
  5
BD
330
87
100
AcDbEntity
  8
AM_9
100
AcDbLine
 10
-1.350181451274502
 20
-1.136503174603175
 30
0.0
 11
1.350181451274502
 21
-1.136503174603175
 31
0.0
  0
ARC
  5
BE
330
87
100
AcDbEntity
  8
AM_9
100
AcDbCircle
 10
0.4449000000000661
 20
-0.7815000000000254
 30
0.0
 40
0.9723999999999294
100
AcDbArc
 50
338.587532953116
 51
344.9913735011806
  0
ARC
  5
BF
330
87
100
AcDbEntity
  8
AM_9
100
AcDbCircle
 10
-0.4448999999998501
 20
-0.7814999999999542
 30
0.0
 40
0.9724000000001566
100
AcDbArc
 50
195.0086264988201
 51
201.4124670468834
  0
LINE
  5
C0
330
87
100
AcDbEntity
  8
AM_9
100
AcDbLine
 10
-1.376903536473977
 20
-1.0239
 30
0.0
 11
1.376903536473977
 21
-1.0239
 31
0.0
  0
ARC
  5
C1
330
87
100
AcDbEntity
  8
AM_9
100
AcDbCircle
 10
1.376903536473977
 20
-1.03138
 30
0.0
 40
0.0074800000000001
100
AcDbArc
 50
344.9913811387553
 51
90.0
  0
ARC
  5
C2
330
87
100
AcDbEntity
  8
AM_9
100
AcDbCircle
 10
-1.376903536473977
 20
-1.03138
 30
0.0
 40
0.0074799999999997
100
AcDbArc
 50
90.0
 51
195.0086188612447
  0
LINE
  5
C3
330
87
100
AcDbEntity
  8
AM_9
100
AcDbLine
 10
-1.384128370350267
 20
-1.033317053293024
 30
0.0
 11
1.384128370350267
 21
-1.033317053293024
 31
0.0
  0
LINE
  5
C4
330
87
100
AcDbEntity
  8
AM_9
100
AcDbLine
 10
-1.397432220977328
 20
-0.9431000000000003
 30
0.0
 11
1.397432220977328
 21
-0.9431000000000003
 31
0.0
  0
ARC
  5
C5
330
87
100
AcDbEntity
  8
AM_9
100
AcDbCircle
 10
1.397432220977327
 20
-0.9356200000000002
 30
0.0
 40
0.00748
100
AcDbArc
 50
270.0
 51
350.809176494718
  0
ARC
  5
C6
330
87
100
AcDbEntity
  8
AM_9
100
AcDbCircle
 10
-1.397432220977327
 20
-0.9356200000000002
 30
0.0
 40
0.0074800000000002
100
AcDbArc
 50
189.1908235052819
 51
270.0
  0
LINE
  5
C7
330
87
100
AcDbEntity
  8
AM_9
100
AcDbLine
 10
-1.350181451274502
 20
-0.4264968253968256
 30
0.0
 11
1.350181451274502
 21
-0.4264968253968256
 31
0.0
  0
ARC
  5
C8
330
87
100
AcDbEntity
  8
AM_9
100
AcDbCircle
 10
0.4448999999990352
 20
-0.7815000000001028
 30
0.0
 40
0.9724000000009362
100
AcDbArc
 50
350.8091764947343
 51
21.41246704686892
  0
ARC
  5
C9
330
87
100
AcDbEntity
  8
AM_9
100
AcDbCircle
 10
-0.4449000000000306
 20
-0.7814999999999962
 30
0.0
 40
0.9723999999999706
100
AcDbArc
 50
158.5875329531155
 51
189.1908235052812
  0
LINE
  5
CA
330
87
100
AcDbEntity
  8
AM_9
100
AcDbLine
 10
-1.404816191682578
 20
-0.936814728682171
 30
0.0
 11
1.404816191682578
 21
-0.936814728682171
 31
0.0
  0
LINE
  5
CC
330
87
100
AcDbEntity
  8
AM_4
100
AcDbLine
 10
1.020833333333333
 20
-1.304936835233046
 30
0.0
 11
1.020833333333333
 21
-1.280999968712599
 31
0.0
  0
LINE
  5
CD
330
87
100
AcDbEntity
  8
AM_4
100
AcDbLine
 10
-1.020833333333333
 20
-1.280999968712599
 30
0.0
 11
-1.020833333333333
 21
-1.304936835233046
 31
0.0
  0
LINE
  5
CE
330
87
100
AcDbEntity
  8
AM_4
100
AcDbLine
 10
-1.020833333333333
 20
-1.304936835233046
 30
0.0
 11
1.020833333333333
 21
-1.304936835233046
 31
0.0
  0
ENDBLK
  5
8A
330
87
100
AcDbEntity
  8
0
100
AcDbBlockEnd
  0
BLOCK
  5
D1
330
CF
100
AcDbEntity
  8
0
100
AcDbBlockBegin
  2
3_129974_0_in_129347_4
 70
     2
 10
0.0
 20
0.0
 30
0.0
  3
3_129974_0_in_129347_4
  1

  0
ATTDEF
  5
D3
330
CF
100
AcDbEntity
  8
AM_6
100
AcDbText
 10
6.143987627295965
 20
0.0968749999999998
 30
0.0
 40
0.5
  1
Grip Tight Adapter and Nut - Corrosion Resistant Inch Bore
100
AcDbAttributeDefinition
  3

  2
NN
 70
     8
280
     0
  0
ATTDEF
  5
D4
330
CF
100
AcDbEntity
  8
AM_6
100
AcDbText
 10
6.143987627295965
 20
-0.4031250000000002
 30
0.0
 40
0.5
  1
GT and GTM Adapter & Lock Nut Assemblies
100
AcDbAttributeDefinition
  3

  2
NT
 70
     8
280
     0
  0
ATTDEF
  5
D5
330
CF
100
AcDbEntity
  8
AM_6
100
AcDbText
 10
6.143987627295965
 20
-0.9031250000000002
 30
0.0
 40
0.5
  1
129974
100
AcDbAttributeDefinition
  3

  2
NB
 70
     8
280
     0
  0
ATTDEF
  5
D6
330
CF
100
AcDbEntity
  8
AM_6
100
AcDbText
 10
6.143987627295965
 20
-1.403125
 30
0.0
 40
0.5
  1
$PN.
100
AcDbAttributeDefinition
  3

  2
NBSYN
 70
     8
280
     0
  0
ATTDEF
  5
D7
330
CF
100
AcDbEntity
  8
AM_6
100
AcDbText
 10
6.143987627295965
 20
-1.903125
 30
0.0
 40
0.5
  1
129974
100
AcDbAttributeDefinition
  3

  2
LINA
 70
     8
280
     0
  0
ATTDEF
  5
D8
330
CF
100
AcDbEntity
  8
AM_6
100
AcDbText
 10
6.143987627295965
 20
-2.403125
 30
0.0
 40
0.5
  1
207
100
AcDbAttributeDefinition
  3

  2
SERIES
 70
     8
280
     0
  0
ATTDEF
  5
D9
330
CF
100
AcDbEntity
  8
AM_6
100
AcDbText
 10
6.143987627295965
 20
-2.903125
 30
0.0
 40
0.5
  1
1-7/16
100
AcDbAttributeDefinition
  3

  2
SS
 70
     8
280
     0
  0
ATTDEF
  5
DA
330
CF
100
AcDbEntity
  8
AM_6
100
AcDbText
 10
6.143987627295965
 20
-3.403125
 30
0.0
 40
0.5
  1
129974
100
AcDbAttributeDefinition
  3

  2
PN
 70
     8
280
     0
  0
ATTDEF
  5
DB
330
CF
100
AcDbEntity
  8
AM_6
100
AcDbText
 10
6.143987627295965
 20
-3.903125
 30
0.0
 40
0.5
  1
AN-GT-07-107-CR
100
AcDbAttributeDefinition
  3

  2
DESCRIPTION
 70
     8
280
     0
  0
ATTDEF
  5
DC
330
CF
100
AcDbEntity
  8
AM_6
100
AcDbText
 10
6.143987627295965
 20
-4.403125
 30
0.0
 40
0.5
  1
1-5/8
100
AcDbAttributeDefinition
  3

  2
A
 70
     8
280
     0
  0
ATTDEF
  5
DD
330
CF
100
AcDbEntity
  8
AM_6
100
AcDbText
 10
6.143987627295965
 20
-4.903125
 30
0.0
 40
0.5
  1
0.7480
100
AcDbAttributeDefinition
  3

  2
C
 70
     8
280
     0
  0
ATTDEF
  5
DE
330
CF
100
AcDbEntity
  8
AM_6
100
AcDbText
 10
6.143987627295965
 20
-5.403125
 30
0.0
 40
0.5
  1
2.8346
100
AcDbAttributeDefinition
  3

  2
D
 70
     8
280
     0
  0
ATTDEF
  5
DF
330
CF
100
AcDbEntity
  8
AM_6
100
AcDbText
 10
6.143987627295965
 20
-5.903125
 30
0.0
 40
0.5
  1
0.202
100
AcDbAttributeDefinition
  3

  2
J
 70
     8
280
     0
  0
ATTDEF
  5
E0
330
CF
100
AcDbEntity
  8
AM_6
100
AcDbText
 10
6.143987627295965
 20
-6.403125
 30
0.0
 40
0.5
  1
2-19/64
100
AcDbAttributeDefinition
  3

  2
L
 70
     8
280
     0
  0
ATTDEF
  5
E1
330
CF
100
AcDbEntity
  8
AM_6
100
AcDbText
 10
6.143987627295965
 20
-6.903125
 30
0.0
 40
0.5
  1
10 - 32 x 1/4
100
AcDbAttributeDefinition
  3

  2
N
 70
     8
280
     0
  0
ATTDEF
  5
E2
330
CF
100
AcDbEntity
  8
AM_6
100
AcDbText
 10
6.143987627295965
 20
-7.403125
 30
0.0
 40
0.5
  1
9/16
100
AcDbAttributeDefinition
  3

  2
W
 70
     8
280
     0
  0
ATTDEF
  5
E3
330
CF
100
AcDbEntity
  8
AM_6
100
AcDbText
 10
6.143987627295965
 20
-7.903125
 30
0.0
 40
0.5
  1
1-3/64
100
AcDbAttributeDefinition
  3

  2
X
 70
     8
280
     0
  0
ATTDEF
  5
E4
330
CF
100
AcDbEntity
  8
AM_6
100
AcDbText
 10
6.143987627295965
 20
-8.403125
 30
0.0
 40
0.5
  1
1-1/16
100
AcDbAttributeDefinition
  3

  2
Y
 70
     8
280
     0
  0
ATTDEF
  5
E5
330
CF
100
AcDbEntity
  8
AM_6
100
AcDbText
 10
6.143987627295965
 20
-8.903125
 30
0.0
 40
0.5
  1
baldor
100
AcDbAttributeDefinition
  3

  2
COMPANY
 70
     8
280
     0
  0
LINE
  5
E6
330
CF
100
AcDbEntity
  8
AM_9
100
AcDbLine
 10
-1.1314375
 20
-1.796583491660317
 30
0.0
 11
-0.878328125
 21
-1.796583491660317
 31
0.0
  0
LINE
  5
E7
330
CF
100
AcDbEntity
  8
AM_9
100
AcDbLine
 10
-0.878328125
 20
-1.640583491660317
 30
0.0
 11
-1.1314375
 21
-1.640583491660317
 31
0.0
  0
LINE
  5
E8
330
CF
100
AcDbEntity
  8
AM_9
100
AcDbLine
 10
-0.878328125
 20
-1.796583491660317
 30
0.0
 11
-0.8613281249999999
 21
-1.813583491660317
 31
0.0
  0
LINE
  5
E9
330
CF
100
AcDbEntity
  8
AM_9
100
AcDbLine
 10
-0.8613281249999999
 20
-1.623583491660317
 30
0.0
 11
-0.878328125
 21
-1.640583491660317
 31
0.0
  0
LINE
  5
EA
330
CF
100
AcDbEntity
  8
AM_9
100
AcDbLine
 10
-0.8613281249999999
 20
-1.623583491660317
 30
0.0
 11
-0.8613281249999999
 21
-1.813583491660317
 31
0.0
  0
LINE
  5
EB
330
CF
100
AcDbEntity
  8
AM_9
100
AcDbLine
 10
-0.878328125
 20
-1.640583491660317
 30
0.0
 11
-0.878328125
 21
-1.796583491660317
 31
0.0
  0
LINE
  5
EC
330
CF
100
AcDbEntity
  8
AM_9
100
AcDbLine
 10
-1.1314375
 20
-1.640583491660317
 30
0.0
 11
-1.148356101208709
 21
-1.623664890451608
 31
0.0
  0
LINE
  5
ED
330
CF
100
AcDbEntity
  8
AM_9
100
AcDbLine
 10
-1.140856633323558
 20
-1.806002624983875
 30
0.0
 11
-1.1314375
 21
-1.796583491660317
 31
0.0
  0
LINE
  5
EE
330
CF
100
AcDbEntity
  8
AM_9
100
AcDbLine
 10
-1.1314375
 20
-1.640583491660317
 30
0.0
 11
-1.1314375
 21
-1.796583491660317
 31
0.0
  0
LINE
  5
EF
330
CF
100
AcDbEntity
  8
AM_9
100
AcDbLine
 10
1.071874805530861
 20
-1.3049375
 30
0.0
 11
1.071874805530861
 21
-1.828375
 31
0.0
  0
LINE
  5
F0
330
CF
100
AcDbEntity
  8
AM_9
100
AcDbLine
 10
0.7187500000000001
 20
-1.844
 30
0.0
 11
0.7187500000000001
 21
-0.2190000000000002
 31
0.0
  0
LINE
  5
F1
330
CF
100
AcDbEntity
  8
AM_9
100
AcDbLine
 10
-0.7187499999999998
 20
-0.2190000000000002
 30
0.0
 11
-0.7187499999999998
 21
-1.844
 31
0.0
  0
LINE
  5
F2
330
CF
100
AcDbEntity
  8
AM_9
100
AcDbLine
 10
0.8567708333333335
 20
-1.566655585233045
 30
0.0
 11
0.8567708333333335
 21
-1.174078124999999
 31
0.0
  0
LINE
  5
F3
330
CF
100
AcDbEntity
  8
AM_9
100
AcDbLine
 10
-0.8567708333333333
 20
-1.174078124999999
 30
0.0
 11
-0.8567708333333333
 21
-1.566655585233045
 31
0.0
  0
LINE
  5
F4
330
CF
100
AcDbEntity
  8
AM_9
100
AcDbLine
 10
-0.0499999999999999
 20
-0.2190000000000002
 30
0.0
 11
-0.0499999999999999
 21
-1.828375
 31
0.0
  0
LINE
  5
F5
330
CF
100
AcDbEntity
  8
AM_9
100
AcDbLine
 10
0.0500000000000001
 20
-0.2190000000000002
 30
0.0
 11
0.0500000000000001
 21
-1.828375
 31
0.0
  0
LINE
  5
F6
330
CF
100
AcDbEntity
  8
AM_9
100
AcDbLine
 10
-0.8567708333333331
 20
-1.174078124999999
 30
0.0
 11
0.8567708333333334
 21
-1.174078124999999
 31
0.0
  0
LINE
  5
F7
330
CF
100
AcDbEntity
  8
AM_9
100
AcDbLine
 10
0.8567708333333334
 20
-1.174078124999999
 30
0.0
 11
0.8901228963830689
 21
-0.2190000000000003
 31
0.0
  0
LINE
  5
F8
330
CF
100
AcDbEntity
  8
AM_9
100
AcDbLine
 10
-0.8901228963830686
 20
-0.2190000000000003
 30
0.0
 11
-0.8567708333333331
 21
-1.174078124999999
 31
0.0
  0
LINE
  5
F9
330
CF
100
AcDbEntity
  8
AM_9
100
AcDbLine
 10
-0.8901228963830686
 20
-0.2190000000000003
 30
0.0
 11
0.8901228963830689
 21
-0.2190000000000003
 31
0.0
  0
LINE
  5
FA
330
CF
100
AcDbEntity
  8
AM_9
100
AcDbLine
 10
0.9388020833333333
 20
-1.435796875000001
 30
0.0
 11
0.9388020833333333
 21
-1.3049375
 31
0.0
  0
LINE
  5
FB
330
CF
100
AcDbEntity
  8
AM_9
100
AcDbLine
 10
-0.938802083333333
 20
-1.3049375
 30
0.0
 11
-0.938802083333333
 21
-1.435796875000001
 31
0.0
  0
LINE
  5
FC
330
CF
100
AcDbEntity
  8
AM_9
100
AcDbLine
 10
-0.4484688369832024
 20
-1.3049375
 30
0.0
 11
-0.4484688369832024
 21
-1.828375
 31
0.0
  0
LINE
  5
FD
330
CF
100
AcDbEntity
  8
AM_9
100
AcDbLine
 10
-1.020833333333333
 20
-1.56665625
 30
0.0
 11
1.020833333333333
 21
-1.56665625
 31
0.0
  0
LINE
  5
FE
330
CF
100
AcDbEntity
  8
AM_9
100
AcDbLine
 10
-1.020833333333333
 20
-1.435796875000001
 30
0.0
 11
1.020833333333333
 21
-1.435796875000001
 31
0.0
  0
LINE
  5
FF
330
CF
100
AcDbEntity
  8
AM_9
100
AcDbLine
 10
1.020833333333333
 20
-1.56665625
 30
0.0
 11
1.020833333333333
 21
-1.435796875000001
 31
0.0
  0
LINE
  5
100
330
CF
100
AcDbEntity
  8
AM_9
100
AcDbLine
 10
-1.020833333333333
 20
-1.435796875000001
 30
0.0
 11
-1.020833333333333
 21
-1.56665625
 31
0.0
  0
LINE
  5
102
330
CF
100
AcDbEntity
  8
AM_5
100
AcDbLine
 10
-1.133309008339683
 20
-1.813583491660317
 30
0.0
 11
-0.8613281249999999
 21
-1.813583491660317
 31
0.0
  0
LINE
  5
103
330
CF
100
AcDbEntity
  8
AM_5
100
AcDbLine
 10
-1.1484375
 20
-1.623583491660317
 30
0.0
 11
-0.8613281249999999
 21
-1.623583491660317
 31
0.0
  0
LINE
  5
106
330
CF
100
AcDbEntity
  8
AM_7
100
AcDbLine
 10
0.0000000000000001
 20
-1.92525
 30
0.0
 11
0.0
 21
0.0968749999999998
 31
0.0
  0
LINE
  5
107
330
CF
100
AcDbEntity
  8
AM_7
100
AcDbLine
 10
-0.8469726562499998
 20
-1.718583491660317
 30
0.0
 11
-1.16279296875
 21
-1.718583491660317
 31
0.0
  0
LINE
  5
108
330
CF
100
AcDbEntity
  8
AM_4
100
AcDbLine
 10
-0.0499999999999999
 20
-1.844
 30
0.0
 11
-0.0499999999999999
 21
-1.828375
 31
0.0
  0
LINE
  5
109
330
CF
100
AcDbEntity
  8
AM_4
100
AcDbLine
 10
0.0500000000000001
 20
-1.844
 30
0.0
 11
0.0500000000000001
 21
-1.828375
 31
0.0
  0
LINE
  5
10A
330
CF
100
AcDbEntity
  8
AM_4
100
AcDbLine
 10
0.8567708333333333
 20
-1.844
 30
0.0
 11
0.8567708333333333
 21
-1.828375
 31
0.0
  0
LINE
  5
10B
330
CF
100
AcDbEntity
  8
AM_4
100
AcDbLine
 10
-0.8567708333333329
 20
-1.828375
 30
0.0
 11
-0.8567708333333329
 21
-1.844
 31
0.0
  0
LINE
  5
10C
330
CF
100
AcDbEntity
  8
AM_4
100
AcDbLine
 10
-0.8567708333333329
 20
-1.844
 30
0.0
 11
0.8567708333333333
 21
-1.844
 31
0.0
  0
LINE
  5
10D
330
CF
100
AcDbEntity
  8
AM_4
100
AcDbLine
 10
-1.1484375
 20
-1.3348575
 30
0.0
 11
-1.1484375
 21
-1.623735045747374
 31
0.0
  0
LWPOLYLINE
  5
10E
330
CF
100
AcDbEntity
  8
AM_4
100
AcDbPolyline
 90
       17
 70
     0
 43
0.0
 10
-1.148437499999998
 20
-1.623583491660335
 10
-1.148361459032061
 20
-1.62458398537271
 10
-1.148111361355729
 20
-1.627951561901212
 10
-1.147700235991567
 20
-1.633774272317934
 10
-1.147186795356318
 20
-1.641656367617783
 10
-1.146603620382192
 20
-1.651717230703321
 10
-1.146021440895132
 20
-1.663554065924817
 10
-1.145492017330086
 20
-1.677143118573503
 10
-1.145084430539928
 20
-1.691959789136197
 10
-1.144843903647285
 20
-1.70790627573875
 10
-1.144810138162525
 20
-1.724107986047015
 10
-1.144994048037215
 20
-1.740612566150384
 10
-1.145285169246178
 20
-1.753302677061942
 10
-1.145690322055493
 20
-1.765575034464425
 10
-1.146174466487861
 20
-1.776956098042532
 10
-1.146709038717888
 20
-1.78737671811363
 10
-1.147372786500038
 20
-1.798455
  0
LINE
  5
10F
330
CF
100
AcDbEntity
  8
AM_4
100
AcDbLine
 10
-1.1185175
 20
-1.3049375
 30
0.0
 11
-1.1484375
 21
-1.3348575
 31
0.0
  0
LINE
  5
110
330
CF
100
AcDbEntity
  8
AM_4
100
AcDbLine
 10
-1.1484375
 20
-1.3348575
 30
0.0
 11
-0.6594623794302106
 21
-1.3348575
 31
0.0
  0
LINE
  5
111
330
CF
100
AcDbEntity
  8
AM_4
100
AcDbLine
 10
-0.6444426221363486
 20
-1.3049375
 30
0.0
 11
-0.6594623794302106
 21
-1.3348575
 31
0.0
  0
LINE
  5
112
330
CF
100
AcDbEntity
  8
AM_4
100
AcDbLine
 10
-0.6594623794302106
 20
-1.3348575
 30
0.0
 11
-0.6594623794302107
 21
-1.798455
 31
0.0
  0
LINE
  5
113
330
CF
100
AcDbEntity
  8
AM_4
100
AcDbLine
 10
-1.147372786500038
 20
-1.798455
 30
0.0
 11
-0.6594623794302107
 21
-1.798455
 31
0.0
  0
LINE
  5
114
330
CF
100
AcDbEntity
  8
AM_4
100
AcDbLine
 10
-1.147372786500038
 20
-1.798455
 30
0.0
 11
-1.140873254169867
 21
-1.806019245830129
 31
0.0
  0
LINE
  5
115
330
CF
100
AcDbEntity
  8
AM_4
100
AcDbLine
 10
-0.6594623794302107
 20
-1.798455
 30
0.0
 11
-0.6444426221363485
 21
-1.828375
 31
0.0
  0
LINE
  5
116
330
CF
100
AcDbEntity
  8
AM_4
100
AcDbLine
 10
-1.141091037726582
 20
-1.805801462273418
 30
0.0
 11
-1.1185175
 21
-1.828375
 31
0.0
  0
LINE
  5
117
330
CF
100
AcDbEntity
  8
AM_4
100
AcDbLine
 10
-0.6234059685476591
 20
-1.3049375
 30
0.0
 11
-0.6234059685476591
 21
-1.828375
 31
0.0
  0
LINE
  5
118
330
CF
100
AcDbEntity
  8
AM_4
100
AcDbLine
 10
1.143987627295964
 20
-1.3348575
 30
0.0
 11
1.143987627295964
 21
-1.798455
 31
0.0
  0
LINE
  5
119
330
CF
100
AcDbEntity
  8
AM_4
100
AcDbLine
 10
-0.4845252478657541
 20
-1.798455
 30
0.0
 11
-0.4845252478657542
 21
-1.3348575
 31
0.0
  0
LINE
  5
11A
330
CF
100
AcDbEntity
  8
AM_4
100
AcDbLine
 10
1.11394811270824
 20
-1.3049375
 30
0.0
 11
1.143987627295964
 21
-1.3348575
 31
0.0
  0
LINE
  5
11B
330
CF
100
AcDbEntity
  8
AM_4
100
AcDbLine
 10
-1.1185175
 20
-1.3049375
 30
0.0
 11
1.11394811270824
 21
-1.3049375
 31
0.0
  0
LINE
  5
11C
330
CF
100
AcDbEntity
  8
AM_4
100
AcDbLine
 10
-0.4845252478657542
 20
-1.3348575
 30
0.0
 11
-0.4695054905718921
 21
-1.3049375
 31
0.0
  0
LINE
  5
11D
330
CF
100
AcDbEntity
  8
AM_4
100
AcDbLine
 10
-0.4845252478657542
 20
-1.3348575
 30
0.0
 11
1.143987627295964
 21
-1.3348575
 31
0.0
  0
LINE
  5
11E
330
CF
100
AcDbEntity
  8
AM_4
100
AcDbLine
 10
1.143987627295964
 20
-1.798455
 30
0.0
 11
1.11394811270824
 21
-1.828375
 31
0.0
  0
LINE
  5
11F
330
CF
100
AcDbEntity
  8
AM_4
100
AcDbLine
 10
-0.4845252478657541
 20
-1.798455
 30
0.0
 11
1.143987627295964
 21
-1.798455
 31
0.0
  0
LINE
  5
120
330
CF
100
AcDbEntity
  8
AM_4
100
AcDbLine
 10
-0.4695054905718921
 20
-1.828375
 30
0.0
 11
-0.4845252478657541
 21
-1.798455
 31
0.0
  0
LINE
  5
121
330
CF
100
AcDbEntity
  8
AM_4
100
AcDbLine
 10
-1.1185175
 20
-1.828375
 30
0.0
 11
1.11394811270824
 21
-1.828375
 31
0.0
  0
ENDBLK
  5
D2
330
CF
100
AcDbEntity
  8
0
100
AcDbBlockEnd
  0
BLOCK
  5
124
330
122
100
AcDbEntity
  8
0
100
AcDbBlockBegin
  2
4_F2B_GREZ_07_PCR_II_0_in_129347_4
 70
     2
 10
0.0
 20
0.0
 30
0.0
  3
4_F2B_GREZ_07_PCR_II_0_in_129347_4
  1

  0
ATTDEF
  5
126
330
122
100
AcDbEntity
  8
AM_6
100
AcDbText
 10
6.8515
 20
0.0000000000000002
 30
0.0
 40
0.5
  1
F2B-GTEZ-PCR-B-I
100
AcDbAttributeDefinition
  3

  2
NN
 70
     8
280
     0
  0
ATTDEF
  5
127
330
122
100
AcDbEntity
  8
AM_6
100
AcDbText
 10
6.8515
 20
-0.4999999999999998
 30
0.0
 40
0.5
  1
GTEZ Normal Duty Polymer Housed 2 Bolt Flange Bearings
100
AcDbAttributeDefinition
  3

  2
NT
 70
     8
280
     0
  0
ATTDEF
  5
128
330
122
100
AcDbEntity
  8
AM_6
100
AcDbText
 10
6.8515
 20
-0.9999999999999998
 30
0.0
 40
0.5
  1
F2B-GREZ-07-PCR-II
100
AcDbAttributeDefinition
  3

  2
NB
 70
     8
280
     0
  0
ATTDEF
  5
129
330
122
100
AcDbEntity
  8
AM_6
100
AcDbText
 10
6.8515
 20
-1.5
 30
0.0
 40
0.5
  1
$PN.$LUBE.I
100
AcDbAttributeDefinition
  3

  2
NBSYN
 70
     8
280
     0
  0
ATTDEF
  5
12A
330
122
100
AcDbEntity
  8
AM_6
100
AcDbText
 10
6.8515
 20
-2.0
 30
0.0
 40
0.5
  1
F2B-GREZ-07-PCR-I
100
AcDbAttributeDefinition
  3

  2
LINA
 70
     8
280
     0
  0
ATTDEF
  5
12B
330
122
100
AcDbEntity
  8
AM_6
100
AcDbText
 10
6.8515
 20
-2.5
 30
0.0
 40
0.5
  1
207
100
AcDbAttributeDefinition
  3

  2
SERIES
 70
     8
280
     0
  0
ATTDEF
  5
12C
330
122
100
AcDbEntity
  8
AM_6
100
AcDbText
 10
6.8515
 20
-3.0
 30
0.0
 40
0.5
  1
1-1/4
100
AcDbAttributeDefinition
  3

  2
SS
 70
     8
280
     0
  0
ATTDEF
  5
12D
330
122
100
AcDbEntity
  8
AM_6
100
AcDbText
 10
6.8515
 20
-3.5
 30
0.0
 40
0.5
  1
F2B-GREZ-07-PCR-I
100
AcDbAttributeDefinition
  3

  2
PN
 70
     8
280
     0
  0
ATTDEF
  5
12E
330
122
100
AcDbEntity
  8
AM_6
100
AcDbText
 10
6.8515
 20
-4.0
 30
0.0
 40
0.5
  1
F2B-GREZ-07-PCR
100
AcDbAttributeDefinition
  3

  2
DESCRIPTION
 70
     8
280
     0
  0
ATTDEF
  5
12F
330
122
100
AcDbEntity
  8
AM_6
100
AcDbText
 10
6.8515
 20
-4.5
 30
0.0
 40
0.5
  1
2.18
100
AcDbAttributeDefinition
  3

  2
WEIGHT
 70
     8
280
     0
  0
ATTDEF
  5
130
330
122
100
AcDbEntity
  8
AM_6
100
AcDbText
 10
6.8515
 20
-5.0
 30
0.0
 40
0.5
  1
1-5/8
100
AcDbAttributeDefinition
  3

  2
A
 70
     8
280
     0
  0
ATTDEF
  5
131
330
122
100
AcDbEntity
  8
AM_6
100
AcDbText
 10
6.8515
 20
-5.5
 30
0.0
 40
0.5
  1
6-5/16
100
AcDbAttributeDefinition
  3

  2
B
 70
     8
280
     0
  0
ATTDEF
  5
132
330
122
100
AcDbEntity
  8
AM_6
100
AcDbText
 10
6.8515
 20
-6.0
 30
0.0
 40
0.5
  1
1-27/32
100
AcDbAttributeDefinition
  3

  2
C
 70
     8
280
     0
  0
ATTDEF
  5
133
330
122
100
AcDbEntity
  8
AM_6
100
AcDbText
 10
6.8515
 20
-6.5
 30
0.0
 40
0.5
  1
5-1/8
100
AcDbAttributeDefinition
  3

  2
D
 70
     8
280
     0
  0
ATTDEF
  5
134
330
122
100
AcDbEntity
  8
AM_6
100
AcDbText
 10
6.8515
 20
-7.0
 30
0.0
 40
0.5
  1
1/2
100
AcDbAttributeDefinition
  3

  2
F
 70
     8
280
     0
  0
ATTDEF
  5
135
330
122
100
AcDbEntity
  8
AM_6
100
AcDbText
 10
6.8515
 20
-7.5
 30
0.0
 40
0.5
  1
0.813
100
AcDbAttributeDefinition
  3

  2
FMAJ1
 70
     8
280
     0
  0
ATTDEF
  5
136
330
122
100
AcDbEntity
  8
AM_6
100
AcDbText
 10
6.8515
 20
-8.0
 30
0.0
 40
0.5
  1
0.516
100
AcDbAttributeDefinition
  3

  2
FMIN1
 70
     8
280
     0
  0
ATTDEF
  5
137
330
122
100
AcDbEntity
  8
AM_6
100
AcDbText
 10
6.8515
 20
-8.5
 30
0.0
 40
0.5
  1
5/8
100
AcDbAttributeDefinition
  3

  2
H
 70
     8
280
     0
  0
ATTDEF
  5
138
330
122
100
AcDbEntity
  8
AM_6
100
AcDbText
 10
6.8515
 20
-9.0
 30
0.0
 40
0.5
  1
35/64
100
AcDbAttributeDefinition
  3

  2
J
 70
     8
280
     0
  0
ATTDEF
  5
139
330
122
100
AcDbEntity
  8
AM_6
100
AcDbText
 10
6.8515
 20
-9.5
 30
0.0
 40
0.5
  1
2-19/64
100
AcDbAttributeDefinition
  3

  2
L
 70
     8
280
     0
  0
ATTDEF
  5
13A
330
122
100
AcDbEntity
  8
AM_6
100
AcDbText
 10
6.8515
 20
-10.0
 30
0.0
 40
0.5
  1
3-45/64
100
AcDbAttributeDefinition
  3

  2
M
 70
     8
280
     0
  0
ATTDEF
  5
13B
330
122
100
AcDbEntity
  8
AM_6
100
AcDbText
 10
6.8515
 20
-10.5
 30
0.0
 40
0.5
  1
1-53/64
100
AcDbAttributeDefinition
  3

  2
Z
 70
     8
280
     0
  0
ATTDEF
  5
13C
330
122
100
AcDbEntity
  8
AM_6
100
AcDbText
 10
6.8515
 20
-11.0
 30
0.0
 40
0.5
  1
Infotext
100
AcDbAttributeDefinition
  3

  2
INFO
 70
     8
280
     0
  0
ATTDEF
  5
13D
330
122
100
AcDbEntity
  8
AM_6
100
AcDbText
 10
6.8515
 20
-11.5
 30
0.0
 40
0.5
  1
baldor
100
AcDbAttributeDefinition
  3

  2
COMPANY
 70
     8
280
     0
  0
LINE
  5
13E
330
122
100
AcDbEntity
  8
AM_9
100
AcDbLine
 10
1.4173
 20
-1.281
 30
0.0
 11
1.4173
 21
0.0
 31
0.0
  0
LINE
  5
13F
330
122
100
AcDbEntity
  8
AM_9
100
AcDbLine
 10
-1.4173
 20
0.0
 30
0.0
 11
-1.4173
 21
-1.281
 31
0.0
  0
LWPOLYLINE
  5
140
330
122
100
AcDbEntity
  8
AM_9
100
AcDbPolyline
 90
        6
 70
     0
 43
0.0
 10
1.344013604169465
 20
-0.9529999999999997
 10
1.324854520071803
 20
-0.9142929351871449
 10
1.307653697330797
 20
-0.8752414798576159
 10
1.306852112134934
 20
-0.8732780051423833
 10
1.292226395432898
 20
-0.8343962414116178
 10
1.279722453139346
 20
-0.7955194849999998
  0
LINE
  5
141
330
122
100
AcDbEntity
  8
AM_9
100
AcDbLine
 10
1.344013604169465
 20
-0.9529999999999997
 30
0.0
 11
1.418298748302835
 21
-0.9529999999999997
 31
0.0
  0
LWPOLYLINE
  5
142
330
122
100
AcDbEntity
  8
AM_9
100
AcDbPolyline
 90
        6
 70
     0
 43
0.0
 10
1.279722453139346
 20
-1.110480515
 10
1.292167555119128
 20
-1.071773450187145
 10
1.306852112134934
 20
-1.032721994857616
 10
1.307653697330797
 20
-1.030758520142384
 10
1.324774807775371
 20
-0.9918767564116182
 10
1.344013604169465
 20
-0.9529999999999997
  0
LINE
  5
143
330
122
100
AcDbEntity
  8
AM_9
100
AcDbLine
 10
1.198747397316553
 20
-1.06323583
 30
0.0
 11
1.210815294304211
 21
-1.06323583
 31
0.0
  0
LINE
  5
144
330
122
100
AcDbEntity
  8
AM_9
100
AcDbLine
 10
1.210815294304211
 20
-0.8427641699999998
 30
0.0
 11
1.198747397316553
 21
-0.8427641699999998
 31
0.0
  0
ELLIPSE
  5
145
330
122
100
AcDbEntity
  8
AM_9
100
AcDbEllipse
 10
1.210815294304211
 20
-0.9529999999999997
 30
0.0
 11
9.642864610222465E-18
 21
0.15747993
 31
0.0
210
0.0
220
0.0
230
1.0
 40
0.7071067811865476
 41
0.0
 42
6.283185307179586
  0
ELLIPSE
  5
146
330
122
100
AcDbEntity
  8
AM_9
100
AcDbEllipse
 10
1.308251851035271
 20
-0.9529999999999998
 30
0.0
 11
-2.024999345412779E-17
 21
-0.1102358300000001
 31
0.0
210
0.0
220
0.0
230
1.0
 40
0.7071067811865458
 41
0.610165394697674
 42
2.532195116867547
  0
ELLIPSE
  5
147
330
122
100
AcDbEntity
  8
AM_9
100
AcDbEllipse
 10
1.294332454047614
 20
-0.953
 30
0.0
 11
-2.024999345412777E-17
 21
-0.11023583
 31
0.0
210
0.0
220
0.0
230
1.0
 40
0.7071067811865486
 41
0.0
 42
3.141592653589793
  0
ELLIPSE
  5
148
330
122
100
AcDbEntity
  8
AM_9
100
AcDbEllipse
 10
1.294332454047614
 20
-0.9529999999999997
 30
0.0
 11
-2.892859383066742E-17
 21
-0.1574799300000002
 31
0.0
210
0.0
220
0.0
230
1.0
 40
0.7071067811865442
 41
0.8500841250767932
 42
2.289835428860651
  0
LWPOLYLINE
  5
149
330
122
100
AcDbEntity
  8
AM_9
100
AcDbPolyline
 90
        4
 70
     0
 43
0.0
 10
1.418298748302835
 20
-0.9529999999999997
 10
1.40581512333654
 20
-0.9918181758827989
 10
1.391077785382925
 20
-1.030982934915361
 10
1.379959480969252
 20
-1.056977424557639
  0
LWPOLYLINE
  5
14A
330
122
100
AcDbEntity
  8
AM_9
100
AcDbPolyline
 90
        4
 70
     0
 43
0.0
 10
1.379942842204332
 20
-0.8489854424186214
 10
1.390459434081908
 20
-0.8735024199153613
 10
1.405491078495537
 20
-0.9132491820981167
 10
1.418298748302835
 20
-0.9529999999999997
  0
LWPOLYLINE
  5
14B
330
122
100
AcDbEntity
  8
AM_9
100
AcDbPolyline
 90
       48
 70
     0
 43
0.0
 10
1.328266723452418
 20
-0.8960279892622919
 10
1.328675328277873
 20
-0.8952758458836859
 10
1.332299724090323
 20
-0.8893212949568293
 10
1.33594170377791
 20
-0.8844339442880537
 10
1.339422950760525
 20
-0.8806269812430768
 10
1.342576478249164
 20
-0.8778508192183512
 10
1.345255553491743
 20
-0.8760017765946321
 10
1.34735220894396
 20
-0.8749247836259592
 10
1.348828699278721
 20
-0.8744203334281072
 10
1.349798879333042
 20
-0.874265644353611
 10
1.350918963271721
 20
-0.8743588576129883
 10
1.352257538994584
 20
-0.8747597584655026
 10
1.354231868959834
 20
-0.8756945667435183
 10
1.356748713449395
 20
-0.8773248353891149
 10
1.360045113483936
 20
-0.8800955305959035
 10
1.363611571862262
 20
-0.8838768343834159
 10
1.367294223923498
 20
-0.8886973191103343
 10
1.370943564832344
 20
-0.8945548694272761
 10
1.374411596151625
 20
-0.9014084164865028
 10
1.377554511483442
 20
-0.9091684804135634
 10
1.380249819903867
 20
-0.9177245011849384
 10
1.382393565239259
 20
-0.9269402550668341
 10
1.383902715455261
 20
-0.9366562714306055
 10
1.384718051115766
 20
-0.9466953866546707
 10
1.384806204545791
 20
-0.956868481388878
 10
1.384161019106717
 20
-0.966980244395062
 10
1.382805493475462
 20
-0.9768285876294309
 10
1.380791206582829
 20
-0.9862241210042527
 10
1.378197126699316
 20
-0.9949915812703825
 10
1.375128252210346
 20
-1.002975408191672
 10
1.371713170561388
 20
-1.010046601750576
 10
1.368100192299948
 20
-1.016109705697605
 10
1.364451747353701
 20
-1.021109415329187
 10
1.360945841764889
 20
-1.025027134256248
 10
1.357751001275033
 20
-1.027906374019662
 10
1.355016813911354
 20
-1.029845269185937
 10
1.35285637861585
 20
-1.030993786552717
 10
1.351317053675757
 20
-1.031547364775717
 10
1.3503083879659
 20
-1.031728635773196
 10
1.34928504146744
 20
-1.031675464500964
 10
1.348019028158417
 20
-1.031334482720182
 10
1.346138765053748
 20
-1.030495799205301
 10
1.343701203569578
 20
-1.02898471372763
 10
1.340810098148901
 20
-1.026671991294703
 10
1.337299992863479
 20
-1.023146488446877
 10
1.333632148156338
 20
-1.018582364792268
 10
1.329960756646589
 20
-1.012976992391873
 10
1.32806088693984
 20
-1.009586160851102
  0
ELLIPSE
  5
14C
330
122
100
AcDbEntity
  8
AM_9
100
AcDbEllipse
 10
1.386085206310126
 20
-0.9529999999999919
 30
0.0
 11
-1.842727313892343E-17
 21
-0.1003134027528221
 31
0.0
210
0.0
220
0.0
230
1.0
 40
0.7071067811865466
 41
4.512206727689261
 42
4.94140019380428
  0
ELLIPSE
  5
14D
330
122
100
AcDbEntity
  8
AM_9
100
AcDbEllipse
 10
1.386085206310179
 20
-0.9529999999999996
 30
0.0
 11
-1.842727313893709E-17
 21
-0.1003134027528965
 31
0.0
210
0.0
220
0.0
230
1.0
 40
0.707106781186549
 41
5.206378129888563
 42
10.53585308946802
  0
ELLIPSE
  5
14E
330
122
100
AcDbEntity
  8
AM_9
100
AcDbEllipse
 10
1.401240865615708
 20
-0.9529999999999997
 30
0.0
 11
-1.926564871224236E-17
 21
-0.1048773068047367
 31
0.0
210
0.0
220
0.0
230
1.0
 40
0.7071067811865465
 41
0.4115113864807682
 42
2.718023328768639
  0
ELLIPSE
  5
14F
330
122
100
AcDbEntity
  8
AM_9
100
AcDbEllipse
 10
1.438695909510206
 20
-0.9530000000008457
 30
0.0
 11
-1.537356674958078E-17
 21
-0.08368979943324317
 31
0.0
210
0.0
220
0.0
230
1.0
 40
0.7071067811753672
 41
-3.588138680308135
 42
-3.568105320262315
  0
ELLIPSE
  5
150
330
122
100
AcDbEntity
  8
AM_9
100
AcDbEllipse
 10
1.438695909508273
 20
-0.9529999999999996
 30
0.0
 11
-1.537356674940920E-17
 21
-0.08368979943230914
 31
0.0
210
0.0
220
0.0
230
1.0
 40
0.7071067811865515
 41
0.4308696220474975
 42
2.664952260207754
  0
LINE
  5
151
330
122
100
AcDbEntity
  8
AM_9
100
AcDbLine
 10
0.16681783
 20
-1.20225984
 30
0.0
 11
0.16681783
 21
-1.281
 31
0.0
  0
LINE
  5
152
330
122
100
AcDbEntity
  8
AM_9
100
AcDbLine
 10
0.33516609
 20
-1.20225984
 30
0.0
 11
0.33516609
 21
-1.281
 31
0.0
  0
LINE
  5
153
330
122
100
AcDbEntity
  8
AM_9
100
AcDbLine
 10
0.06886975
 20
-1.20225984
 30
0.0
 11
0.06886975
 21
-1.281
 31
0.0
  0
LINE
  5
154
330
122
100
AcDbEntity
  8
AM_9
100
AcDbLine
 10
0.09335677
 20
-1.20225984
 30
0.0
 11
0.09335677
 21
-1.281
 31
0.0
  0
LINE
  5
155
330
122
100
AcDbEntity
  8
AM_9
100
AcDbLine
 10
-0.2004874629000166
 20
-1.20225984
 30
0.0
 11
-0.2004874629000166
 21
-1.281
 31
0.0
  0
LINE
  5
156
330
122
100
AcDbEntity
  8
AM_9
100
AcDbLine
 10
-0.2249744897000611
 20
-1.20225984
 30
0.0
 11
-0.2249744897000611
 21
-1.281
 31
0.0
  0
LINE
  5
157
330
122
100
AcDbEntity
  8
AM_9
100
AcDbLine
 10
-0.0780523722000355
 20
-1.20225984
 30
0.0
 11
-0.0780523722000355
 21
-1.281
 31
0.0
  0
LINE
  5
158
330
122
100
AcDbEntity
  8
AM_9
100
AcDbLine
 10
0.11172203
 20
-1.20225984
 30
0.0
 11
0.11172203
 21
-1.281
 31
0.0
  0
LINE
  5
159
330
122
100
AcDbEntity
  8
AM_9
100
AcDbLine
 10
-0.0964176369000162
 20
-1.20225984
 30
0.0
 11
-0.0964176369000162
 21
-1.281
 31
0.0
  0
LINE
  5
15A
330
122
100
AcDbEntity
  8
AM_9
100
AcDbLine
 10
0.05050448
 20
-1.20225984
 30
0.0
 11
0.05050448
 21
-1.281
 31
0.0
  0
LINE
  5
15B
330
122
100
AcDbEntity
  8
AM_9
100
AcDbLine
 10
0.21273099
 20
-1.20225984
 30
0.0
 11
0.21273099
 21
-1.281
 31
0.0
  0
LINE
  5
15C
330
122
100
AcDbEntity
  8
AM_9
100
AcDbLine
 10
-0.1821222090000572
 20
-1.20225984
 30
0.0
 11
-0.1821222090000572
 21
-1.281
 31
0.0
  0
LINE
  5
15D
330
122
100
AcDbEntity
  8
AM_9
100
AcDbLine
 10
-0.2433397436000182
 20
-1.20225984
 30
0.0
 11
-0.2433397436000182
 21
-1.281
 31
0.0
  0
LINE
  5
15E
330
122
100
AcDbEntity
  8
AM_9
100
AcDbLine
 10
0.09641765
 20
-1.20225984
 30
0.0
 11
0.09641765
 21
-1.281
 31
0.0
  0
LINE
  5
15F
330
122
100
AcDbEntity
  8
AM_9
100
AcDbLine
 10
-0.2280353653999914
 20
-1.20225984
 30
0.0
 11
-0.2280353653999914
 21
-1.281
 31
0.0
  0
LINE
  5
160
330
122
100
AcDbEntity
  8
AM_9
100
AcDbLine
 10
0.06580887
 20
-1.20225984
 30
0.0
 11
0.06580887
 21
-1.281
 31
0.0
  0
LINE
  5
161
330
122
100
AcDbEntity
  8
AM_9
100
AcDbLine
 10
-0.1974265873000162
 20
-1.20225984
 30
0.0
 11
-0.1974265873000162
 21
-1.281
 31
0.0
  0
LINE
  5
162
330
122
100
AcDbEntity
  8
AM_9
100
AcDbLine
 10
-0.0811132479000217
 20
-1.20225984
 30
0.0
 11
-0.0811132479000217
 21
-1.281
 31
0.0
  0
LINE
  5
163
330
122
100
AcDbEntity
  8
AM_9
100
AcDbLine
 10
0.19436572
 20
-1.20225984
 30
0.0
 11
0.19436572
 21
-1.281
 31
0.0
  0
LINE
  5
164
330
122
100
AcDbEntity
  8
AM_9
100
AcDbLine
 10
-0.1729395605000277
 20
-1.20225984
 30
0.0
 11
-0.1729395605000277
 21
-1.281
 31
0.0
  0
LINE
  5
165
330
122
100
AcDbEntity
  8
AM_9
100
AcDbLine
 10
-0.19130483600003
 20
-1.20225984
 30
0.0
 11
-0.19130483600003
 21
-1.280999968712599
 31
0.0
  0
LINE
  5
166
330
122
100
AcDbEntity
  8
AM_9
100
AcDbLine
 10
0.04132185
 20
-1.20225984
 30
0.0
 11
0.04132185
 21
-1.281
 31
0.0
  0
LINE
  5
167
330
122
100
AcDbEntity
  8
AM_9
100
AcDbLine
 10
-0.2525223706000493
 20
-1.20225984
 30
0.0
 11
-0.2525223706000493
 21
-1.281
 31
0.0
  0
LINE
  5
168
330
122
100
AcDbEntity
  8
AM_9
100
AcDbLine
 10
0.12090467
 20
-1.20225984
 30
0.0
 11
0.12090467
 21
-1.281
 31
0.0
  0
LINE
  5
169
330
122
100
AcDbEntity
  8
AM_9
100
AcDbLine
 10
0.19130484
 20
-1.20225984
 30
0.0
 11
0.19130484
 21
-1.281
 31
0.0
  0
LINE
  5
16A
330
122
100
AcDbEntity
  8
AM_9
100
AcDbLine
 10
-0.234157116700034
 20
-1.20225984
 30
0.0
 11
-0.234157116700034
 21
-1.281
 31
0.0
  0
LINE
  5
16B
330
122
100
AcDbEntity
  8
AM_9
100
AcDbLine
 10
-0.1056002639000449
 20
-1.20225984
 30
0.0
 11
-0.1056002639000449
 21
-1.281
 31
0.0
  0
LINE
  5
16C
330
122
100
AcDbEntity
  8
AM_9
100
AcDbLine
 10
0.20967012
 20
-1.20225984
 30
0.0
 11
0.20967012
 21
-1.281
 31
0.0
  0
LINE
  5
16D
330
122
100
AcDbEntity
  8
AM_9
100
AcDbLine
 10
0.1025394
 20
-1.20225984
 30
0.0
 11
0.1025394000000001
 21
-1.280999968712599
 31
0.0
  0
LINE
  5
16E
330
122
100
AcDbEntity
  8
AM_9
100
AcDbLine
 10
-0.0872349992000083
 20
-1.20225984
 30
0.0
 11
-0.0872349992000083
 21
-1.281
 31
0.0
  0
LINE
  5
16F
330
122
100
AcDbEntity
  8
AM_9
100
AcDbLine
 10
0.05968711
 20
-1.20225984
 30
0.0
 11
0.05968711
 21
-1.281
 31
0.0
  0
LINE
  5
170
330
122
100
AcDbEntity
  8
AM_9
100
AcDbLine
 10
-0.2617050191000226
 20
-1.20225984
 30
0.0
 11
-0.2617050191000226
 21
-1.281
 31
0.0
  0
LINE
  5
171
330
122
100
AcDbEntity
  8
AM_9
100
AcDbLine
 10
0.03213922
 20
-1.20225984
 30
0.0
 11
0.03213922
 21
-1.281
 31
0.0
  0
LINE
  5
172
330
122
100
AcDbEntity
  8
AM_9
100
AcDbLine
 10
0.25558328
 20
-1.20225984
 30
0.0
 11
0.25558328
 21
-1.281
 31
0.0
  0
LINE
  5
173
330
122
100
AcDbEntity
  8
AM_9
100
AcDbLine
 10
0.18212221
 20
-1.20225984
 30
0.0
 11
0.18212221
 21
-1.281
 31
0.0
  0
LINE
  5
174
330
122
100
AcDbEntity
  8
AM_9
100
AcDbLine
 10
-0.3290443050000261
 20
-1.20225984
 30
0.0
 11
-0.3290443050000261
 21
-1.281
 31
0.0
  0
LINE
  5
175
330
122
100
AcDbEntity
  8
AM_9
100
AcDbLine
 10
-0.035200086200065
 20
-1.20225984
 30
0.0
 11
-0.035200086200065
 21
-1.281
 31
0.0
  0
LINE
  5
176
330
122
100
AcDbEntity
  8
AM_9
100
AcDbLine
 10
-0.1637569336000434
 20
-1.20225984
 30
0.0
 11
-0.1637569336000434
 21
-1.281
 31
0.0
  0
LINE
  5
177
330
122
100
AcDbEntity
  8
AM_9
100
AcDbLine
 10
-0.1147829015999969
 20
-1.20225984
 30
0.0
 11
-0.1147829015999969
 21
-1.281
 31
0.0
  0
LINE
  5
178
330
122
100
AcDbEntity
  8
AM_9
100
AcDbLine
 10
0.13008729
 20
-1.20225984
 30
0.0
 11
0.13008729
 21
-1.281
 31
0.0
  0
LINE
  5
179
330
122
100
AcDbEntity
  8
AM_9
100
AcDbLine
 10
-0.2464006193000068
 20
-1.20225984
 30
0.0
 11
-0.2464006193000068
 21
-1.281
 31
0.0
  0
LINE
  5
17A
330
122
100
AcDbEntity
  8
AM_9
100
AcDbLine
 10
0.11478291
 20
-1.20225984
 30
0.0
 11
0.11478291
 21
-1.281
 31
0.0
  0
LINE
  5
17B
330
122
100
AcDbEntity
  8
AM_9
100
AcDbLine
 10
0.19742659
 20
-1.20225984
 30
0.0
 11
0.19742659
 21
-1.281
 31
0.0
  0
LINE
  5
17C
330
122
100
AcDbEntity
  8
AM_9
100
AcDbLine
 10
0.04744361
 20
-1.20225984
 30
0.0
 11
0.04744361
 21
-1.281
 31
0.0
  0
LINE
  5
17D
330
122
100
AcDbEntity
  8
AM_9
100
AcDbLine
 10
-0.1790613334000591
 20
-1.20225984
 30
0.0
 11
-0.1790613334000591
 21
-1.281
 31
0.0
  0
LINE
  5
17E
330
122
100
AcDbEntity
  8
AM_9
100
AcDbLine
 10
-0.0994785126000024
 20
-1.20225984
 30
0.0
 11
-0.0994785126000024
 21
-1.281
 31
0.0
  0
LINE
  5
17F
330
122
100
AcDbEntity
  8
AM_9
100
AcDbLine
 10
0.12702642
 20
-1.20225984
 30
0.0
 11
0.12702642
 21
-1.281
 31
0.0
  0
LINE
  5
180
330
122
100
AcDbEntity
  8
AM_9
100
AcDbLine
 10
-0.258644143400034
 20
-1.20225984
 30
0.0
 11
-0.2586441434000339
 21
-1.280999968712599
 31
0.0
  0
LINE
  5
181
330
122
100
AcDbEntity
  8
AM_9
100
AcDbLine
 10
0.18518309
 20
-1.20225984
 30
0.0
 11
0.18518309
 21
-1.281
 31
0.0
  0
LINE
  5
182
330
122
100
AcDbEntity
  8
AM_9
100
AcDbLine
 10
0.0352001
 20
-1.20225984
 30
0.0
 11
0.0352001
 21
-1.281
 31
0.0
  0
LINE
  5
183
330
122
100
AcDbEntity
  8
AM_9
100
AcDbLine
 10
-0.1117220152000316
 20
-1.20225984
 30
0.0
 11
-0.1117220152000316
 21
-1.281
 31
0.0
  0
LINE
  5
184
330
122
100
AcDbEntity
  8
AM_9
100
AcDbLine
 10
-0.1668178092000414
 20
-1.20225984
 30
0.0
 11
-0.1668178092000414
 21
-1.281
 31
0.0
  0
LINE
  5
185
330
122
100
AcDbEntity
  8
AM_9
100
AcDbLine
 10
-0.0535653508999878
 20
-1.20225984
 30
0.0
 11
-0.0535653508999878
 21
-1.281
 31
0.0
  0
LINE
  5
186
330
122
100
AcDbEntity
  8
AM_9
100
AcDbLine
 10
-0.2739485216999935
 20
-1.20225984
 30
0.0
 11
-0.2739485216999935
 21
-1.281
 31
0.0
  0
LINE
  5
187
330
122
100
AcDbEntity
  8
AM_9
100
AcDbLine
 10
0.34740959
 20
-1.20225984
 30
0.0
 11
0.237218
 21
-1.20225984
 31
0.0
  0
LINE
  5
188
330
122
100
AcDbEntity
  8
AM_9
100
AcDbLine
 10
-0.2249744897000611
 20
-1.20225984
 30
0.0
 11
-0.347409580399984
 21
-1.20225984
 31
0.0
  0
LINE
  5
189
330
122
100
AcDbEntity
  8
AM_9
100
AcDbLine
 10
-0.347409580399984
 20
-1.20225984
 30
0.0
 11
-0.347409580399984
 21
-1.281
 31
0.0
  0
LINE
  5
18A
330
122
100
AcDbEntity
  8
AM_9
100
AcDbLine
 10
0.21273099
 20
-1.20225984
 30
0.0
 11
0.09335677
 21
-1.20225984
 31
0.0
  0
LINE
  5
18B
330
122
100
AcDbEntity
  8
AM_9
100
AcDbLine
 10
0.34740959
 20
-1.20225984
 30
0.0
 11
0.34740959
 21
-1.280999968712599
 31
0.0
  0
LINE
  5
18C
330
122
100
AcDbEntity
  8
AM_9
100
AcDbLine
 10
0.237218
 20
-1.20225984
 30
0.0
 11
0.237218
 21
-1.281
 31
0.0
  0
LINE
  5
18D
330
122
100
AcDbEntity
  8
AM_9
100
AcDbLine
 10
0.06886975
 20
-1.20225984
 30
0.0
 11
-0.0535653508999878
 21
-1.20225984
 31
0.0
  0
LINE
  5
18E
330
122
100
AcDbEntity
  8
AM_9
100
AcDbLine
 10
0.01989571
 20
-1.20225984
 30
0.0
 11
0.0198957099999999
 21
-1.280999968712599
 31
0.0
  0
LINE
  5
18F
330
122
100
AcDbEntity
  8
AM_9
100
AcDbLine
 10
0.14233081
 20
-1.20225984
 30
0.0
 11
0.14233081
 21
-1.281
 31
0.0
  0
LINE
  5
190
330
122
100
AcDbEntity
  8
AM_9
100
AcDbLine
 10
0.1698787
 20
-1.20225984
 30
0.0
 11
0.1698787
 21
-1.281
 31
0.0
  0
LINE
  5
191
330
122
100
AcDbEntity
  8
AM_9
100
AcDbLine
 10
-0.1515134310000146
 20
-1.20225984
 30
0.0
 11
-0.1515134310000146
 21
-1.281
 31
0.0
  0
LINE
  5
192
330
122
100
AcDbEntity
  8
AM_9
100
AcDbLine
 10
-0.1270264042000257
 20
-1.20225984
 30
0.0
 11
-0.1270264042000257
 21
-1.281
 31
0.0
  0
LINE
  5
193
330
122
100
AcDbEntity
  8
AM_9
100
AcDbLine
 10
-0.0780523722000355
 20
-1.20225984
 30
0.0
 11
-0.2004874629000166
 21
-1.20225984
 31
0.0
  0
LINE
  5
194
330
122
100
AcDbEntity
  8
AM_9
100
AcDbLine
 10
0.258
 20
-0.6249999999999999
 30
0.0
 11
0.258
 21
0.0000000000000002
 31
0.0
  0
LINE
  5
195
330
122
100
AcDbEntity
  8
AM_9
100
AcDbLine
 10
-0.258
 20
0.0000000000000002
 30
0.0
 11
-0.258
 21
-0.6249999999999999
 31
0.0
  0
ELLIPSE
  5
196
330
122
100
AcDbEntity
  8
AM_9
100
AcDbEllipse
 10
1.21081529430421
 20
-0.9530000000000001
 30
0.0
 11
-2.024999345412767E-17
 21
-0.1102358299999995
 31
0.0
210
0.0
220
0.0
230
1.0
 40
0.7071067811865501
 41
0.0
 42
6.283185307179586
  0
ELLIPSE
  5
197
330
122
100
AcDbEntity
  8
AM_9
100
AcDbEllipse
 10
1.198747397316554
 20
-0.9529999999999997
 30
0.0
 11
6.749997818042584E-18
 21
0.1102358299999999
 31
0.0
210
0.0
220
0.0
230
1.0
 40
0.7071067811865472
 41
0.0
 42
6.283185307179586
  0
LINE
  5
198
330
122
100
AcDbEntity
  8
AM_4
100
AcDbLine
 10
1.8515
 20
-1.280999968712599
 30
0.0
 11
1.8515
 21
0.0
 31
0.0
  0
LINE
  5
199
330
122
100
AcDbEntity
  8
AM_4
100
AcDbLine
 10
1.8515
 20
-1.280999968712599
 30
0.0
 11
-1.8515
 21
-1.280999968712599
 31
0.0
  0
LINE
  5
19A
330
122
100
AcDbEntity
  8
AM_4
100
AcDbLine
 10
-1.8515
 20
-1.280999968712599
 30
0.0
 11
-1.8515
 21
0.0
 31
0.0
  0
LINE
  5
19B
330
122
100
AcDbEntity
  8
AM_4
100
AcDbLine
 10
1.8515
 20
0.0
 30
0.0
 11
-1.8515
 21
0.0
 31
0.0
  0
LINE
  5
19C
330
122
100
AcDbEntity
  8
AM_4
100
AcDbLine
 10
1.294332454047613
 20
-1.06323583
 30
0.0
 11
1.30825185103527
 21
-1.06323583
 31
0.0
  0
LINE
  5
19D
330
122
100
AcDbEntity
  8
AM_4
100
AcDbLine
 10
1.30825185103527
 20
-0.8427641699999997
 30
0.0
 11
1.294332454047613
 21
-0.8427641699999997
 31
0.0
  0
ELLIPSE
  5
19E
330
122
100
AcDbEntity
  8
AM_4
100
AcDbEllipse
 10
1.308251851035268
 20
-0.9529999999999981
 30
0.0
 11
-2.024999345412812E-17
 21
-0.1102358300000019
 31
0.0
210
0.0
220
0.0
230
1.0
 40
0.7071067811865546
 41
2.532195116867515
 42
6.893350701877276
  0
ELLIPSE
  5
19F
330
122
100
AcDbEntity
  8
AM_4
100
AcDbEllipse
 10
1.294332454047613
 20
-0.9529999999999994
 30
0.0
 11
-2.024999345412771E-17
 21
-0.1102358299999997
 31
0.0
210
0.0
220
0.0
230
1.0
 40
0.7071067811865467
 41
3.141592653589793
 42
6.283185307179586
  0
LWPOLYLINE
  5
1A0
330
122
100
AcDbEntity
  8
AM_4
100
AcDbPolyline
 90
        6
 70
     0
 43
0.0
 10
1.086849000048989
 20
-0.9529999999999997
 10
1.099294102028756
 20
-0.9917070648128098
 10
1.113978659044541
 20
-1.030758520142293
 10
1.114780244240478
 20
-1.032721994857706
 10
1.131901354685036
 20
-1.071603758588427
 10
1.151140151079108
 20
-1.110480515
  0
LINE
  5
1A1
330
122
100
AcDbEntity
  8
AM_4
100
AcDbLine
 10
1.151140151079108
 20
-1.110480515
 30
0.0
 11
1.354007597272716
 21
-1.110480515
 31
0.0
  0
LINE
  5
1A2
330
122
100
AcDbEntity
  8
AM_4
100
AcDbLine
 10
1.151140151079108
 20
-0.7955194849999998
 30
0.0
 11
1.354007597272716
 21
-0.7955194849999998
 31
0.0
  0
LWPOLYLINE
  5
1A3
330
122
100
AcDbEntity
  8
AM_4
100
AcDbPolyline
 90
        6
 70
     0
 43
0.0
 10
1.151140151079108
 20
-0.7955194849999998
 10
1.131981066981468
 20
-0.83422654981281
 10
1.114780244240478
 20
-0.8732780051422933
 10
1.113978659044541
 20
-0.8752414798577066
 10
1.099352942342526
 20
-0.914123243588427
 10
1.086849000048989
 20
-0.9529999999999997
  0
LINE
  5
1A4
330
122
100
AcDbEntity
  8
AM_4
100
AcDbLine
 10
1.086849000048989
 20
-0.9529999999999997
 30
0.0
 11
1.16113414418236
 21
-0.9529999999999997
 31
0.0
  0
ELLIPSE
  5
1A5
330
122
100
AcDbEntity
  8
AM_4
100
AcDbEllipse
 10
1.294332454047614
 20
-0.953
 30
0.0
 11
-2.892859383066742E-17
 21
-0.1574799300000002
 31
0.0
210
0.0
220
0.0
230
1.0
 40
0.7071067811865485
 41
2.289835428860655
 42
7.133269432256377
  0
LWPOLYLINE
  5
1A6
330
122
100
AcDbEntity
  8
AM_4
100
AcDbPolyline
 90
        3
 70
     0
 43
0.0
 10
1.379959480969252
 20
-1.056977424557639
 10
1.373656334371386
 20
-1.070729697098117
 10
1.354007597272716
 20
-1.110480515
  0
LWPOLYLINE
  5
1A7
330
122
100
AcDbEntity
  8
AM_4
100
AcDbPolyline
 90
        3
 70
     0
 43
0.0
 10
1.354007597272716
 20
-0.7955194849999998
 10
1.373218880192578
 20
-0.8343376608827989
 10
1.379942842204332
 20
-0.8489854424186214
  0
LWPOLYLINE
  5
1A8
330
122
100
AcDbEntity
  8
AM_4
100
AcDbPolyline
 90
        5
 70
     0
 43
0.0
 10
1.16113414418236
 20
-0.9529999999999997
 10
1.180345427102222
 20
-0.9141818241172006
 10
1.197585980991552
 20
-0.8750170650846381
 10
1.212617625405181
 20
-0.8352703029018828
 10
1.225425295212479
 20
-0.7955194849999998
  0
LWPOLYLINE
  5
1A9
330
122
100
AcDbEntity
  8
AM_4
100
AcDbPolyline
 90
        5
 70
     0
 43
0.0
 10
1.225425295212479
 20
-1.110480515
 10
1.212941670246184
 20
-1.071662339117201
 10
1.198204332292568
 20
-1.032497580084638
 10
1.18078288128103
 20
-0.992750817901883
 10
1.16113414418236
 20
-0.9529999999999997
  0
LWPOLYLINE
  5
1AA
330
122
100
AcDbEntity
  8
AM_4
100
AcDbPolyline
 90
        3
 70
     0
 43
0.0
 10
1.425937750362154
 20
-1.051924489948157
 10
1.429691484078601
 20
-1.049854364686529
 10
1.432214344324161
 20
-1.048294243217487
  0
LWPOLYLINE
  5
1AB
330
122
100
AcDbEntity
  8
AM_4
100
AcDbPolyline
 90
       19
 70
     0
 43
0.0
 10
1.315150790222022
 20
-0.9529999999999997
 10
1.315301474067826
 20
-0.9595420959745138
 10
1.316356104873789
 20
-0.9714386270602128
 10
1.318412873631325
 20
-0.9831275836891842
 10
1.32145812862376
 20
-0.994465803117497
 10
1.325471258517138
 20
-1.005315509501358
 10
1.330423380356327
 20
-1.015538802734267
 10
1.336273062269445
 20
-1.024994231775182
 10
1.342959869342808
 20
-1.033537033734393
 10
1.350400754141149
 20
-1.041027399748813
 10
1.358484950330068
 20
-1.047337356946448
 10
1.367076132586516
 20
-1.052363787239168
 10
1.376022944662502
 20
-1.056039811832543
 10
1.385174104061141
 20
-1.058337852321792
 10
1.39439103919477
 20
-1.059262794413026
 10
1.403553739798267
 20
-1.058839743136143
 10
1.412554137720149
 20
-1.057103781003019
 10
1.42129256424849
 20
-1.054096182251845
 10
1.424559016753656
 20
-1.052612844677502
  0
LWPOLYLINE
  5
1AC
330
122
100
AcDbEntity
  8
AM_4
100
AcDbPolyline
 90
       20
 70
     0
 43
0.0
 10
1.431827731378192
 20
-0.8574575296133701
 10
1.431546641563227
 20
-0.857279159811072
 10
1.422851862170365
 20
-0.8525864395547554
 10
1.413839960338179
 20
-0.849254609656536
 10
1.40465998853771
 20
-0.8473021519512581
 10
1.395446128655948
 20
-0.8467178919381443
 10
1.386313639894249
 20
-0.8474736278150129
 10
1.377371282206329
 20
-0.8495319920821328
 10
1.368710779081773
 20
-0.8528522196245035
 10
1.360408948346263
 20
-0.8573977439104045
 10
1.35254492965224
 20
-0.8631315026789541
 10
1.345205409894439
 20
-0.8700063672502988
 10
1.338484109807384
 20
-0.8779547686354642
 10
1.332475518189008
 20
-0.8868828188583042
 10
1.327266144298962
 20
-0.8966719240456353
 10
1.322927770059123
 20
-0.9071861605784801
 10
1.319515224738373
 20
-0.9182800545603034
 10
1.317067299595799
 20
-0.9298039680259655
 10
1.315608161560451
 20
-0.9416137360032283
 10
1.315150790222022
 20
-0.9529999999999997
  0
ELLIPSE
  5
1AD
330
122
100
AcDbEntity
  8
AM_4
100
AcDbEllipse
 10
1.401240865615708
 20
-0.953
 30
0.0
 11
-1.926564871224232E-17
 21
-0.1048773068047365
 31
0.0
210
0.0
220
0.0
230
1.0
 40
0.70710678118655
 41
2.730081267109023
 42
6.694696693660357
  0
LINE
  5
1AE
330
122
100
AcDbEntity
  8
AM_4
100
AcDbLine
 10
1.462366663273175
 20
-0.87629684907761
 30
0.0
 11
1.430904276470324
 21
-0.8568781315435693
 31
0.0
  0
LINE
  5
1AF
330
122
100
AcDbEntity
  8
AM_4
100
AcDbLine
 10
1.430904276470324
 20
-1.04912186845643
 30
0.0
 11
1.462366663273175
 21
-1.02970315092239
 31
0.0
  0
ELLIPSE
  5
1B0
330
122
100
AcDbEntity
  8
AM_4
100
AcDbEllipse
 10
1.438695909510625
 20
-0.9530000000074064
 30
0.0
 11
-1.537356674791780E-17
 21
-0.0836897994241903
 31
0.0
210
0.0
220
0.0
230
1.0
 40
0.7071067811865479
 41
0.411511386479738
 42
0.430869622048348
  0
ELLIPSE
  5
1B1
330
122
100
AcDbEntity
  8
AM_4
100
AcDbEllipse
 10
1.438695909508273
 20
-0.9529999999999995
 30
0.0
 11
-1.537356674940922E-17
 21
-0.08368979943230925
 31
0.0
210
0.0
220
0.0
230
1.0
 40
0.7071067811865479
 41
2.730081267109024
 42
6.694696693660353
  0
ELLIPSE
  5
1B2
330
122
100
AcDbEntity
  8
AM_4
100
AcDbEllipse
 10
1.44744582798291
 20
-0.9529999999999997
 30
0.0
 11
4.005372943323071E-18
 21
0.0654127042362217
 31
0.0
210
0.0
220
0.0
230
1.0
 40
0.7071067811865483
 41
0.0
 42
6.283185307179586
  0
LWPOLYLINE
  5
1B3
330
122
100
AcDbEntity
  8
AM_4
100
AcDbPolyline
 90
       19
 70
     0
 43
0.0
 10
1.463589322251243
 20
-1.028928272209586
 10
1.467586522319291
 20
-1.026098179992662
 10
1.474316068500642
 20
-1.020162475265875
 10
1.480438832977043
 20
-1.01315026092155
 10
1.485851687466562
 20
-1.00515270860871
 10
1.490455382463695
 20
-0.9962957883131256
 10
1.494166715802369
 20
-0.9867323739501196
 10
1.496924366938414
 20
-0.9766297881019294
 10
1.49868860608716
 20
-0.9661588678397253
 10
1.499437758322448
 20
-0.9554810524046199
 10
1.499161458587233
 20
-0.9447546232463969
 10
1.49785839727112
 20
-0.934136363345428
 10
1.495535638798181
 20
-0.9237828821559138
 10
1.492207539668743
 20
-0.9138476259500242
 10
1.487896995244335
 20
-0.9044858081387713
 10
1.482641523393077
 20
-0.8958599843968453
 10
1.476505472784338
 20
-0.8881426592964939
 10
1.469587238776678
 20
-0.8815020926400625
 10
1.46332057457959
 20
-0.876897903132111
  0
LINE
  5
1B4
330
122
100
AcDbEntity
  8
AM_4
100
AcDbLine
 10
1.776446262786827
 20
-0.56249996875
 30
0.0
 11
1.776446262786827
 21
-1.280999968712599
 31
0.0
  0
LINE
  5
1B5
330
122
100
AcDbEntity
  8
AM_4
100
AcDbLine
 10
-1.776446262786827
 20
-0.56249996875
 30
0.0
 11
-1.776446262786827
 21
-1.280999968712599
 31
0.0
  0
LINE
  5
1B6
330
122
100
AcDbEntity
  8
AM_4
100
AcDbLine
 10
-0.7443033702999997
 20
-0.5624999687499999
 30
0.0
 11
-0.7443033702999997
 21
-1.280999968712599
 31
0.0
  0
LINE
  5
1B7
330
122
100
AcDbEntity
  8
AM_4
100
AcDbLine
 10
0.7443033702999997
 20
-0.5624999687499999
 30
0.0
 11
0.7443033702999998
 21
-1.280999968712599
 31
0.0
  0
LINE
  5
1B8
330
122
100
AcDbEntity
  8
AM_4
100
AcDbLine
 10
0.6480246296999995
 20
-0.5624999687499999
 30
0.0
 11
0.6480246296999995
 21
-0.6249999999999999
 31
0.0
  0
LINE
  5
1B9
330
122
100
AcDbEntity
  8
AM_4
100
AcDbLine
 10
-0.6480246297000003
 20
-0.6249999999999999
 30
0.0
 11
0.6480246296999995
 21
-0.6249999999999999
 31
0.0
  0
LINE
  5
1BA
330
122
100
AcDbEntity
  8
AM_4
100
AcDbLine
 10
-0.6480246297000003
 20
-0.5624999687499999
 30
0.0
 11
-0.6480246297000003
 21
-0.6249999999999999
 31
0.0
  0
LINE
  5
1BB
330
122
100
AcDbEntity
  8
AM_4
100
AcDbLine
 10
-0.5554498148500006
 20
-0.5624999687499999
 30
0.0
 11
-1.851458781080231
 21
-0.56249996875
 31
0.0
  0
LINE
  5
1BC
330
122
100
AcDbEntity
  8
AM_4
100
AcDbLine
 10
-0.5554498148500006
 20
-0.5624999687499999
 30
0.0
 11
-0.5554498148500006
 21
-0.6249999999999999
 31
0.0
  0
LINE
  5
1BD
330
122
100
AcDbEntity
  8
AM_4
100
AcDbLine
 10
0.55544981485
 20
-0.5624999687499999
 30
0.0
 11
0.55544981485
 21
-0.6249999999999999
 31
0.0
  0
LINE
  5
1BE
330
122
100
AcDbEntity
  8
AM_4
100
AcDbLine
 10
1.851458781080231
 20
-0.56249996875
 30
0.0
 11
0.55544981485
 21
-0.5624999687499999
 31
0.0
  0
LINE
  5
1BF
330
122
100
AcDbEntity
  8
AM_4
100
AcDbLine
 10
-0.7363994756070273
 20
-0.5624999687499999
 30
0.0
 11
-0.7363994756070273
 21
0.0000000000000002
 31
0.0
  0
LINE
  5
1C0
330
122
100
AcDbEntity
  8
AM_4
100
AcDbLine
 10
-1.747763845588595
 20
-0.56249996875
 30
0.0
 11
-1.747763845588595
 21
0.0000000000000001
 31
0.0
  0
LINE
  5
1C1
330
122
100
AcDbEntity
  8
AM_4
100
AcDbLine
 10
1.747763845588595
 20
-0.56249996875
 30
0.0
 11
1.747763845588595
 21
0.0000000000000001
 31
0.0
  0
LINE
  5
1C2
330
122
100
AcDbEntity
  8
AM_4
100
AcDbLine
 10
0.7363994756070268
 20
-0.5624999687499999
 30
0.0
 11
0.7363994756070268
 21
0.0000000000000002
 31
0.0
  0
ENDBLK
  5
125
330
122
100
AcDbEntity
  8
0
100
AcDbBlockEnd
  0
ENDSEC
  0
SECTION
  2
ENTITIES
  0
INSERT
  5
6F
330
1F
100
AcDbEntity
  8
0
100
AcDbBlockReference
  2
1_129347_4
 10
0.0
 20
0.0
 30
0.0
  0
POINT
  5
1C4
330
1F
100
AcDbEntity
  8
ConnectionPoints
100
AcDbPoint
 10
0.0000000000000001
 20
-0.7815000000000003
 30
0.0
  0
POINT
  5
1C5
330
1F
100
AcDbEntity
  8
ConnectionPoints
100
AcDbPoint
 10
0.0000000000000001
 20
-0.2190000000000003
 30
0.0
  0
POINT
  5
1C6
330
1F
100
AcDbEntity
  8
ConnectionPoints
100
AcDbPoint
 10
0.0
 20
-0.2190000000000003
 30
0.0
  0
ENDSEC
  0
SECTION
  2
OBJECTS
  0
DICTIONARY
  5
C
330
0
100
AcDbDictionary
281
     1
  3
ACAD_DETAILVIEWSTYLE
350
1CE
  3
ACAD_GROUP
350
D
  3
ACAD_LAYOUT
350
1A
  3
ACAD_MATERIAL
350
43
  3
ACAD_MLEADERSTYLE
350
6B
  3
ACAD_MLINESTYLE
350
17
  3
ACAD_PLOTSETTINGS
350
19
  3
ACAD_PLOTSTYLENAME
350
E
  3
ACAD_SCALELIST
350
47
  3
ACAD_SECTIONVIEWSTYLE
350
1CF
  3
ACAD_TABLESTYLE
350
69
  3
ACAD_VISUALSTYLE
350
2A
  3
ACDB_RECOMPOSE_DATA
350
1CB
  3
AcDbVariableDictionary
350
1C7
  0
SUN
  5
6D
330
29
100
AcDbSun
 90
        1
290
     0
 63
     7
421
 16777215
 40
1.0
291
     1
 91
  2455826
 92
 54000000
292
     0
 70
     2
 71
   256
280
     1
  0
DICTIONARY
  5
1CE
102
{ACAD_REACTORS
330
C
102
}
330
C
100
AcDbDictionary
281
     1
  0
DICTIONARY
  5
D
102
{ACAD_REACTORS
330
C
102
}
330
C
100
AcDbDictionary
281
     1
  0
DICTIONARY
  5
1A
102
{ACAD_REACTORS
330
C
102
}
330
C
100
AcDbDictionary
281
     1
  3
Layout1
350
1E
  3
Layout2
350
26
  3
Model
350
22
  0
DICTIONARY
  5
43
102
{ACAD_REACTORS
330
C
102
}
330
C
100
AcDbDictionary
281
     1
  3
ByBlock
350
45
  3
ByLayer
350
44
  3
Global
350
46
  0
DICTIONARY
  5
6B
102
{ACAD_REACTORS
330
C
102
}
330
C
100
AcDbDictionary
281
     1
  3
Standard
350
6C
  0
DICTIONARY
  5
17
102
{ACAD_REACTORS
330
C
102
}
330
C
100
AcDbDictionary
281
     1
  3
Standard
350
18
  0
DICTIONARY
  5
19
102
{ACAD_REACTORS
330
C
102
}
330
C
100
AcDbDictionary
281
     1
  0
ACDBDICTIONARYWDFLT
  5
E
102
{ACAD_REACTORS
330
C
102
}
330
C
100
AcDbDictionary
281
     1
  3
Normal
350
F
100
AcDbDictionaryWithDefault
340
F
  0
DICTIONARY
  5
47
102
{ACAD_REACTORS
330
C
102
}
330
C
100
AcDbDictionary
281
     1
  3
A0
350
48
  3
A1
350
49
  3
A2
350
4A
  3
A3
350
4B
  3
A4
350
4C
  3
A5
350
4D
  3
A6
350
4E
  3
A7
350
4F
  3
A8
350
50
  3
A9
350
51
  3
B0
350
52
  3
B1
350
53
  3
B2
350
54
  3
B3
350
55
  3
B4
350
56
  3
B5
350
57
  3
B6
350
58
  3
B7
350
59
  3
B8
350
5A
  3
B9
350
5B
  3
C0
350
5C
  3
C1
350
5D
  3
C2
350
5E
  3
C3
350
5F
  3
C4
350
60
  3
C5
350
61
  3
C6
350
62
  3
C7
350
63
  3
C8
350
64
  3
C9
350
65
  3
D0
350
66
  3
D1
350
67
  3
D2
350
68
  0
DICTIONARY
  5
1CF
102
{ACAD_REACTORS
330
C
102
}
330
C
100
AcDbDictionary
281
     1
  0
DICTIONARY
  5
69
102
{ACAD_REACTORS
330
C
102
}
330
C
100
AcDbDictionary
281
     1
  3
Standard
350
6A
  0
DICTIONARY
  5
2A
102
{ACAD_REACTORS
330
C
102
}
330
C
100
AcDbDictionary
281
     1
  3
2dWireframe
350
2F
  3
Basic
350
32
  3
Brighten
350
36
  3
ColorChange
350
3A
  3
Conceptual
350
34
  3
Dim
350
35
  3
EdgeColorOff
350
3D
  3
Facepattern
350
39
  3
Flat
350
2B
  3
FlatWithEdges
350
2C
  3
Gouraud
350
2D
  3
GouraudWithEdges
350
2E
  3
Hidden
350
31
  3
JitterOff
350
3B
  3
Linepattern
350
38
  3
OverhangOff
350
3C
  3
Realistic
350
33
  3
Shaded
350
42
  3
Shaded with edges
350
41
  3
Shades of Gray
350
3E
  3
Sketchy
350
3F
  3
Thicken
350
37
  3
Wireframe
350
30
  3
X-Ray
350
40
  0
XRECORD
  5
1CB
102
{ACAD_REACTORS
330
C
102
}
330
C
100
AcDbXrecord
280
     1
 90
        1
330
6A
  0
DICTIONARY
  5
1C7
102
{ACAD_REACTORS
330
C
102
}
330
C
100
AcDbDictionary
281
     1
  3
CANNOSCALE
350
1C8
  3
CMLEADERSTYLE
350
1CD
  3
CTABLESTYLE
350
1CC
  0
LAYOUT
  5
1E
102
{ACAD_REACTORS
330
1A
102
}
330
1A
100
AcDbPlotSettings
  1

  2
none_device
  4

  6

 40
0.0
 41
0.0
 42
0.0
 43
0.0
 44
0.0
 45
0.0
 46
0.0
 47
0.0
 48
0.0
 49
0.0
140
0.0
141
0.0
142
1.0
143
1.0
 70
   688
 72
     0
 73
     0
 74
     5
  7

 75
    16
 76
     0
 77
     2
 78
   300
147
1.0
148
0.0
149
0.0
100
AcDbLayout
  1
Layout1
 70
     1
 71
     1
 10
0.0
 20
0.0
 11
12.0
 21
9.0
 12
0.0
 22
0.0
 32
0.0
 14
1.000000000000000E+20
 24
1.000000000000000E+20
 34
1.000000000000000E+20
 15
-1.000000000000000E+20
 25
-1.000000000000000E+20
 35
-1.000000000000000E+20
146
0.0
 13
0.0
 23
0.0
 33
0.0
 16
1.0
 26
0.0
 36
0.0
 17
0.0
 27
1.0
 37
0.0
 76
     0
330
1B
  0
LAYOUT
  5
26
102
{ACAD_REACTORS
330
1A
102
}
330
1A
100
AcDbPlotSettings
  1

  2
none_device
  4

  6

 40
0.0
 41
0.0
 42
0.0
 43
0.0
 44
0.0
 45
0.0
 46
0.0
 47
0.0
 48
0.0
 49
0.0
140
0.0
141
0.0
142
1.0
143
1.0
 70
   688
 72
     0
 73
     0
 74
     5
  7

 75
    16
 76
     0
 77
     2
 78
   300
147
1.0
148
0.0
149
0.0
100
AcDbLayout
  1
Layout2
 70
     1
 71
     2
 10
0.0
 20
0.0
 11
0.0
 21
0.0
 12
0.0
 22
0.0
 32
0.0
 14
0.0
 24
0.0
 34
0.0
 15
0.0
 25
0.0
 35
0.0
146
0.0
 13
0.0
 23
0.0
 33
0.0
 16
1.0
 26
0.0
 36
0.0
 17
0.0
 27
1.0
 37
0.0
 76
     0
330
23
  0
LAYOUT
  5
22
102
{ACAD_REACTORS
330
1A
102
}
330
1A
100
AcDbPlotSettings
  1

  2
none_device
  4
Letter_(8.50_x_11.00_Inches)
  6

 40
6.35
 41
6.35
 42
6.35000508
 43
6.35000508
 44
215.9
 45
279.4
 46
0.0
 47
0.0
 48
0.0
 49
0.0
140
0.0
141
0.0
142
1.0
143
1.0
 70
  1712
 72
     0
 73
     0
 74
     0
  7

 75
     0
 76
     0
 77
     2
 78
   300
147
1.0
148
0.0
149
0.0
100
AcDbLayout
  1
Model
 70
     1
 71
     0
 10
0.0
 20
0.0
 11
12.0
 21
9.0
 12
0.0
 22
0.0
 32
0.0
 14
1.000000000000000E+20
 24
1.000000000000000E+20
 34
1.000000000000000E+20
 15
-1.000000000000000E+20
 25
-1.000000000000000E+20
 35
-1.000000000000000E+20
146
0.0
 13
0.0
 23
0.0
 33
0.0
 16
1.0
 26
0.0
 36
0.0
 17
0.0
 27
1.0
 37
0.0
 76
     0
330
1F
331
29
  0
MATERIAL
  5
45
102
{ACAD_REACTORS
330
43
102
}
330
43
100
AcDbMaterial
  1
ByBlock
 72
     1
 94
      127
  0
MATERIAL
  5
44
102
{ACAD_REACTORS
330
43
102
}
330
43
100
AcDbMaterial
  1
ByLayer
 72
     1
 94
      127
  0
MATERIAL
  5
46
102
{ACAD_REACTORS
330
43
102
}
330
43
100
AcDbMaterial
  1
Global
 72
     1
 94
      127
  0
MLEADERSTYLE
  5
6C
102
{ACAD_REACTORS
330
6B
102
}
330
6B
100
AcDbMLeaderStyle
179
     2
170
     2
171
     1
172
     0
 90
        2
 40
0.0
 41
0.0
173
     1
 91
-1056964608
340
14
 92
       -2
290
     1
 42
0.09
291
     1
 43
0.36
  3
Standard
341
0
 44
0.18
300

342
11
174
     1
178
     6
175
     1
176
     0
 93
-1056964608
 45
0.18
292
     0
297
     0
 46
0.18
343
0
 94
-1056964608
 47
1.0
 49
1.0
140
1.0
293
     1
141
0.0
294
     1
177
     0
142
1.0
295
     0
296
     0
143
0.125
271
     0
272
     9
273
     9
298
     0
  0
MLINESTYLE
  5
18
102
{ACAD_REACTORS
330
17
102
}
330
17
100
AcDbMlineStyle
  2
Standard
 70
     0
  3

 62
   256
 51
90.0
 52
90.0
 71
     2
 49
0.5
 62
   256
  6
BYLAYER
 49
-0.5
 62
   256
  6
BYLAYER
  0
ACDBPLACEHOLDER
  5
F
102
{ACAD_REACTORS
330
E
102
}
330
E
  0
SCALE
  5
48
102
{ACAD_REACTORS
330
47
102
}
330
47
100
AcDbScale
 70
     0
300
1:1
140
1.0
141
1.0
290
     1
  0
SCALE
  5
49
102
{ACAD_REACTORS
330
47
102
}
330
47
100
AcDbScale
 70
     0
300
1:2
140
1.0
141
2.0
290
     0
  0
SCALE
  5
4A
102
{ACAD_REACTORS
330
47
102
}
330
47
100
AcDbScale
 70
     0
300
1:4
140
1.0
141
4.0
290
     0
  0
SCALE
  5
4B
102
{ACAD_REACTORS
330
47
102
}
330
47
100
AcDbScale
 70
     0
300
1:5
140
1.0
141
5.0
290
     0
  0
SCALE
  5
4C
102
{ACAD_REACTORS
330
47
102
}
330
47
100
AcDbScale
 70
     0
300
1:8
140
1.0
141
8.0
290
     0
  0
SCALE
  5
4D
102
{ACAD_REACTORS
330
47
102
}
330
47
100
AcDbScale
 70
     0
300
1:10
140
1.0
141
10.0
290
     0
  0
SCALE
  5
4E
102
{ACAD_REACTORS
330
47
102
}
330
47
100
AcDbScale
 70
     0
300
1:16
140
1.0
141
16.0
290
     0
  0
SCALE
  5
4F
102
{ACAD_REACTORS
330
47
102
}
330
47
100
AcDbScale
 70
     0
300
1:20
140
1.0
141
20.0
290
     0
  0
SCALE
  5
50
102
{ACAD_REACTORS
330
47
102
}
330
47
100
AcDbScale
 70
     0
300
1:30
140
1.0
141
30.0
290
     0
  0
SCALE
  5
51
102
{ACAD_REACTORS
330
47
102
}
330
47
100
AcDbScale
 70
     0
300
1:40
140
1.0
141
40.0
290
     0
  0
SCALE
  5
52
102
{ACAD_REACTORS
330
47
102
}
330
47
100
AcDbScale
 70
     0
300
1:50
140
1.0
141
50.0
290
     0
  0
SCALE
  5
53
102
{ACAD_REACTORS
330
47
102
}
330
47
100
AcDbScale
 70
     0
300
1:100
140
1.0
141
100.0
290
     0
  0
SCALE
  5
54
102
{ACAD_REACTORS
330
47
102
}
330
47
100
AcDbScale
 70
     0
300
2:1
140
2.0
141
1.0
290
     0
  0
SCALE
  5
55
102
{ACAD_REACTORS
330
47
102
}
330
47
100
AcDbScale
 70
     0
300
4:1
140
4.0
141
1.0
290
     0
  0
SCALE
  5
56
102
{ACAD_REACTORS
330
47
102
}
330
47
100
AcDbScale
 70
     0
300
8:1
140
8.0
141
1.0
290
     0
  0
SCALE
  5
57
102
{ACAD_REACTORS
330
47
102
}
330
47
100
AcDbScale
 70
     0
300
10:1
140
10.0
141
1.0
290
     0
  0
SCALE
  5
58
102
{ACAD_REACTORS
330
47
102
}
330
47
100
AcDbScale
 70
     0
300
100:1
140
100.0
141
1.0
290
     0
  0
SCALE
  5
59
102
{ACAD_REACTORS
330
47
102
}
330
47
100
AcDbScale
 70
     0
300
1/128" = 1'-0"
140
0.0078125
141
12.0
290
     0
  0
SCALE
  5
5A
102
{ACAD_REACTORS
330
47
102
}
330
47
100
AcDbScale
 70
     0
300
1/64" = 1'-0"
140
0.015625
141
12.0
290
     0
  0
SCALE
  5
5B
102
{ACAD_REACTORS
330
47
102
}
330
47
100
AcDbScale
 70
     0
300
1/32" = 1'-0"
140
0.03125
141
12.0
290
     0
  0
SCALE
  5
5C
102
{ACAD_REACTORS
330
47
102
}
330
47
100
AcDbScale
 70
     0
300
1/16" = 1'-0"
140
0.0625
141
12.0
290
     0
  0
SCALE
  5
5D
102
{ACAD_REACTORS
330
47
102
}
330
47
100
AcDbScale
 70
     0
300
3/32" = 1'-0"
140
0.09375
141
12.0
290
     0
  0
SCALE
  5
5E
102
{ACAD_REACTORS
330
47
102
}
330
47
100
AcDbScale
 70
     0
300
1/8" = 1'-0"
140
0.125
141
12.0
290
     0
  0
SCALE
  5
5F
102
{ACAD_REACTORS
330
47
102
}
330
47
100
AcDbScale
 70
     0
300
3/16" = 1'-0"
140
0.1875
141
12.0
290
     0
  0
SCALE
  5
60
102
{ACAD_REACTORS
330
47
102
}
330
47
100
AcDbScale
 70
     0
300
1/4" = 1'-0"
140
0.25
141
12.0
290
     0
  0
SCALE
  5
61
102
{ACAD_REACTORS
330
47
102
}
330
47
100
AcDbScale
 70
     0
300
3/8" = 1'-0"
140
0.375
141
12.0
290
     0
  0
SCALE
  5
62
102
{ACAD_REACTORS
330
47
102
}
330
47
100
AcDbScale
 70
     0
300
1/2" = 1'-0"
140
0.5
141
12.0
290
     0
  0
SCALE
  5
63
102
{ACAD_REACTORS
330
47
102
}
330
47
100
AcDbScale
 70
     0
300
3/4" = 1'-0"
140
0.75
141
12.0
290
     0
  0
SCALE
  5
64
102
{ACAD_REACTORS
330
47
102
}
330
47
100
AcDbScale
 70
     0
300
1" = 1'-0"
140
1.0
141
12.0
290
     0
  0
SCALE
  5
65
102
{ACAD_REACTORS
330
47
102
}
330
47
100
AcDbScale
 70
     0
300
1-1/2" = 1'-0"
140
1.5
141
12.0
290
     0
  0
SCALE
  5
66
102
{ACAD_REACTORS
330
47
102
}
330
47
100
AcDbScale
 70
     0
300
3" = 1'-0"
140
3.0
141
12.0
290
     0
  0
SCALE
  5
67
102
{ACAD_REACTORS
330
47
102
}
330
47
100
AcDbScale
 70
     0
300
6" = 1'-0"
140
6.0
141
12.0
290
     0
  0
SCALE
  5
68
102
{ACAD_REACTORS
330
47
102
}
330
47
100
AcDbScale
 70
     0
300
1'-0" = 1'-0"
140
12.0
141
12.0
290
     0
  0
TABLESTYLE
  5
6A
102
{ACAD_REACTORS
330
69
102
}
102
{ACAD_XDICTIONARY
360
1C9
102
}
330
69
100
AcDbTableStyle
  3
Standard
 70
     0
 71
     0
 40
0.06
 41
0.06
280
     0
281
     0
  7
Standard
140
0.18
170
     2
 62
     0
 63
   257
283
     0
 90
        4
 91
        0
  1

274
    -2
284
     1
 64
     0
275
    -2
285
     1
 65
     0
276
    -2
286
     1
 66
     0
277
    -2
287
     1
 67
     0
278
    -2
288
     1
 68
     0
279
    -2
289
     1
 69
     0
  7
Standard
140
0.25
170
     5
 62
     0
 63
   257
283
     0
 90
        4
 91
        0
  1

274
    -2
284
     1
 64
     0
275
    -2
285
     1
 65
     0
276
    -2
286
     1
 66
     0
277
    -2
287
     1
 67
     0
278
    -2
288
     1
 68
     0
279
    -2
289
     1
 69
     0
  7
Standard
140
0.18
170
     5
 62
     0
 63
   257
283
     0
 90
        4
 91
        0
  1

274
    -2
284
     1
 64
     0
275
    -2
285
     1
 65
     0
276
    -2
286
     1
 66
     0
277
    -2
287
     1
 67
     0
278
    -2
288
     1
 68
     0
279
    -2
289
     1
 69
     0
  0
VISUALSTYLE
  5
2F
102
{ACAD_REACTORS
330
2A
102
}
330
2A
100
AcDbVisualStyle
  2
2dWireframe
 70
     4
177
     3
291
     0
 70
    58
 90
        0
176
     1
 90
        2
176
     1
 90
        0
176
     1
 90
        0
176
     1
 40
0.6
176
     1
 40
30.0
176
     1
 62
     7
420
 16777215
176
     1
 90
        1
176
     1
 90
        4
176
     1
 62
     7
176
     1
 62
   257
176
     1
 90
        1
176
     1
 90
        1
176
     1
 40
1.0
176
     1
 90
        0
176
     1
 62
   257
176
     1
 40
1.0
176
     1
 90
        1
176
     1
 90
        6
176
     1
 90
        2
176
     1
 62
     7
176
     1
 90
        5
176
     1
 90
        0
176
     1
 90
        0
176
     1
290
     0
176
     1
 90
        1
176
     1
 40
0.0
176
     1
 90
        0
176
     1
290
     1
176
     1
290
     1
176
     1
290
     0
176
     1
290
     0
176
     1
290
     0
176
     1
290
     0
176
     1
290
     0
176
     1
290
     0
176
     1
290
     0
176
     1
 90
       50
176
     1
 40
0.0
176
     1
 40
1.0
176
     1
 90
        0
176
     1
 62
    18
420
        0
176
     1
 90
       50
176
     1
 90
        3
176
     1
 62
     5
420
      255
176
     1
290
     0
176
     1
 90
       50
176
     1
 90
       50
176
     1
 90
       50
176
     1
290
     0
176
     1
 90
       50
176
     1
 62
   256
176
     0
 40
1.0
176
     0
 90
        2
176
     1
  1
strokes_ogs.tif
176
     1
290
     0
176
     1
 40
1.0
176
     1
 40
1.0
176
     1
  0
VISUALSTYLE
  5
32
102
{ACAD_REACTORS
330
2A
102
}
330
2A
100
AcDbVisualStyle
  2
Basic
 70
     7
177
     3
291
     1
 70
    58
 90
        1
176
     1
 90
        0
176
     1
 90
        1
176
     1
 90
        0
176
     1
 40
0.6
176
     1
 40
30.0
176
     1
 62
     7
420
 16777215
176
     1
 90
        0
176
     1
 90
        4
176
     1
 62
     7
176
     1
 62
   257
176
     1
 90
        1
176
     1
 90
        1
176
     1
 40
1.0
176
     1
 90
        8
176
     1
 62
     7
176
     1
 40
1.0
176
     1
 90
        1
176
     1
 90
        6
176
     1
 90
        2
176
     1
 62
     7
176
     1
 90
        5
176
     1
 90
        0
176
     1
 90
        0
176
     1
290
     0
176
     1
 90
        1
176
     1
 40
0.0
176
     1
 90
        0
176
     1
290
     0
176
     1
290
     1
176
     1
290
     1
176
     1
290
     0
176
     1
290
     0
176
     1
290
     0
176
     1
290
     0
176
     1
290
     0
176
     1
290
     0
176
     1
 90
       50
176
     1
 40
0.0
176
     1
 40
1.0
176
     1
 90
        0
176
     1
 62
    18
420
        0
176
     1
 90
       50
176
     1
 90
        3
176
     1
 62
     5
420
      255
176
     1
290
     0
176
     1
 90
       50
176
     1
 90
       50
176
     1
 90
       50
176
     1
290
     0
176
     1
 90
       50
176
     1
 62
   256
176
     0
 40
1.0
176
     0
 90
        2
176
     1
  1
strokes_ogs.tif
176
     1
290
     0
176
     1
 40
1.0
176
     1
 40
1.0
176
     1
  0
VISUALSTYLE
  5
36
102
{ACAD_REACTORS
330
2A
102
}
330
2A
100
AcDbVisualStyle
  2
Brighten
 70
    12
177
     3
291
     1
 70
    58
 90
        2
176
     1
 90
        2
176
     1
 90
        0
176
     1
 90
        0
176
     1
 40
0.6
176
     1
 40
30.0
176
     1
 62
     7
420
 16777215
176
     1
 90
        1
176
     1
 90
        4
176
     1
 62
     7
176
     1
 62
   257
176
     1
 90
        1
176
     1
 90
        1
176
     1
 40
1.0
176
     1
 90
        8
176
     1
 62
     7
176
     1
 40
1.0
176
     1
 90
        1
176
     1
 90
        6
176
     1
 90
        2
176
     1
 62
     7
176
     1
 90
        5
176
     1
 90
        0
176
     1
 90
        0
176
     1
290
     0
176
     1
 90
        1
176
     1
 40
50.0
176
     1
 90
        0
176
     1
290
     0
176
     1
290
     1
176
     1
290
     1
176
     1
290
     0
176
     1
290
     0
176
     1
290
     0
176
     1
290
     0
176
     1
290
     0
176
     1
290
     0
176
     1
 90
       50
176
     1
 40
0.0
176
     1
 40
1.0
176
     1
 90
        0
176
     1
 62
    18
420
        0
176
     1
 90
       50
176
     1
 90
        3
176
     1
 62
     5
420
      255
176
     1
290
     0
176
     1
 90
       50
176
     1
 90
       50
176
     1
 90
       50
176
     1
290
     0
176
     1
 90
       50
176
     1
 62
   256
176
     0
 40
1.0
176
     0
 90
        2
176
     1
  1
strokes_ogs.tif
176
     1
290
     0
176
     1
 40
1.0
176
     1
 40
1.0
176
     1
  0
VISUALSTYLE
  5
3A
102
{ACAD_REACTORS
330
2A
102
}
330
2A
100
AcDbVisualStyle
  2
ColorChange
 70
    16
177
     3
291
     1
 70
    58
 90
        2
176
     1
 90
        2
176
     1
 90
        3
176
     1
 90
        0
176
     1
 40
0.6
176
     1
 40
30.0
176
     1
 62
     8
420
  8421504
176
     1
 90
        1
176
     1
 90
        4
176
     1
 62
     7
176
     1
 62
   257
176
     1
 90
        1
176
     1
 90
        1
176
     1
 40
1.0
176
     1
 90
        8
176
     1
 62
     8
420
  8421504
176
     1
 40
1.0
176
     1
 90
        1
176
     1
 90
        6
176
     1
 90
        2
176
     1
 62
     7
176
     1
 90
        5
176
     1
 90
        0
176
     1
 90
        0
176
     1
290
     0
176
     1
 90
        1
176
     1
 40
0.0
176
     1
 90
        0
176
     1
290
     0
176
     1
290
     1
176
     1
290
     1
176
     1
290
     0
176
     1
290
     0
176
     1
290
     0
176
     1
290
     0
176
     1
290
     0
176
     1
290
     0
176
     1
 90
       50
176
     1
 40
0.0
176
     1
 40
1.0
176
     1
 90
        0
176
     1
 62
    18
420
        0
176
     1
 90
       50
176
     1
 90
        3
176
     1
 62
     5
420
      255
176
     1
290
     0
176
     1
 90
       50
176
     1
 90
       50
176
     1
 90
       50
176
     1
290
     0
176
     1
 90
       50
176
     1
 62
   256
176
     0
 40
1.0
176
     0
 90
        2
176
     1
  1
strokes_ogs.tif
176
     1
290
     0
176
     1
 40
1.0
176
     1
 40
1.0
176
     1
  0
VISUALSTYLE
  5
34
102
{ACAD_REACTORS
330
2A
102
}
330
2A
100
AcDbVisualStyle
  2
Conceptual
 70
     9
177
     3
291
     0
 70
    58
 90
        3
176
     1
 90
        2
176
     1
 90
        0
176
     1
 90
        0
176
     1
 40
0.6
176
     1
 40
30.0
176
     1
 62
     7
420
 16777215
176
     1
 90
        2
176
     1
 90
        2
176
     1
 62
     7
176
     1
 62
   257
176
     1
 90
        1
176
     1
 90
        1
176
     1
 40
179.0
176
     1
 90
        8
176
     1
 62
     7
176
     1
 40
1.0
176
     1
 90
        1
176
     1
 90
        6
176
     1
 90
        2
176
     1
 62
     7
176
     1
 90
        3
176
     1
 90
        0
176
     1
 90
        0
176
     1
290
     0
176
     1
 90
        1
176
     1
 40
0.0
176
     1
 90
        0
176
     1
290
     0
176
     1
290
     1
176
     1
290
     1
176
     1
290
     0
176
     1
290
     0
176
     1
290
     0
176
     1
290
     0
176
     1
290
     0
176
     1
290
     0
176
     1
 90
       50
176
     1
 40
0.0
176
     1
 40
1.0
176
     1
 90
        0
176
     1
 62
    18
420
        0
176
     1
 90
       50
176
     1
 90
        3
176
     1
 62
     5
420
      255
176
     1
290
     0
176
     1
 90
       50
176
     1
 90
       50
176
     1
 90
       50
176
     1
290
     0
176
     1
 90
       50
176
     1
 62
   256
176
     0
 40
1.0
176
     0
 90
        2
176
     1
  1
strokes_ogs.tif
176
     1
290
     0
176
     1
 40
1.0
176
     1
 40
1.0
176
     1
  0
VISUALSTYLE
  5
35
102
{ACAD_REACTORS
330
2A
102
}
330
2A
100
AcDbVisualStyle
  2
Dim
 70
    11
177
     3
291
     1
 70
    58
 90
        2
176
     1
 90
        2
176
     1
 90
        0
176
     1
 90
        0
176
     1
 40
0.6
176
     1
 40
30.0
176
     1
 62
     7
420
 16777215
176
     1
 90
        1
176
     1
 90
        4
176
     1
 62
     7
176
     1
 62
   257
176
     1
 90
        1
176
     1
 90
        1
176
     1
 40
1.0
176
     1
 90
        8
176
     1
 62
     7
176
     1
 40
1.0
176
     1
 90
        1
176
     1
 90
        6
176
     1
 90
        2
176
     1
 62
     7
176
     1
 90
        5
176
     1
 90
        0
176
     1
 90
        0
176
     1
290
     0
176
     1
 90
        1
176
     1
 40
-50.0
176
     1
 90
        0
176
     1
290
     0
176
     1
290
     1
176
     1
290
     1
176
     1
290
     0
176
     1
290
     0
176
     1
290
     0
176
     1
290
     0
176
     1
290
     0
176
     1
290
     0
176
     1
 90
       50
176
     1
 40
0.0
176
     1
 40
1.0
176
     1
 90
        0
176
     1
 62
    18
420
        0
176
     1
 90
       50
176
     1
 90
        3
176
     1
 62
     5
420
      255
176
     1
290
     0
176
     1
 90
       50
176
     1
 90
       50
176
     1
 90
       50
176
     1
290
     0
176
     1
 90
       50
176
     1
 62
   256
176
     0
 40
1.0
176
     0
 90
        2
176
     1
  1
strokes_ogs.tif
176
     1
290
     0
176
     1
 40
1.0
176
     1
 40
1.0
176
     1
  0
VISUALSTYLE
  5
3D
102
{ACAD_REACTORS
330
2A
102
}
330
2A
100
AcDbVisualStyle
  2
EdgeColorOff
 70
    22
177
     3
291
     1
 70
    58
 90
        2
176
     0
 90
        2
176
     0
 90
        0
176
     0
 90
        0
176
     0
 40
0.6
176
     0
 40
30.0
176
     0
 62
     7
420
 16777215
176
     0
 90
        1
176
     0
 90
        4
176
     0
 62
     7
176
     0
 62
   257
176
     0
 90
        1
176
     0
 90
        1
176
     0
 40
1.0
176
     0
 90
        8
176
     2
 62
     7
176
     0
 40
1.0
176
     0
 90
        1
176
     0
 90
        6
176
     0
 90
        2
176
     0
 62
     7
176
     0
 90
        5
176
     0
 90
        0
176
     0
 90
        0
176
     0
290
     0
176
     0
 90
        1
176
     0
 40
0.0
176
     0
 90
        0
176
     0
290
     0
176
     0
290
     1
176
     0
290
     1
176
     0
290
     0
176
     0
290
     0
176
     0
290
     0
176
     0
290
     0
176
     0
290
     0
176
     0
290
     0
176
     0
 90
       50
176
     0
 40
0.0
176
     0
 40
1.0
176
     0
 90
        0
176
     0
 62
    18
420
        0
176
     0
 90
       50
176
     0
 90
        3
176
     0
 62
     5
420
      255
176
     0
290
     0
176
     0
 90
       50
176
     0
 90
       50
176
     0
 90
       50
176
     0
290
     0
176
     0
 90
       50
176
     0
 62
   256
176
     0
 40
1.0
176
     0
 90
        2
176
     0
  1
strokes_ogs.tif
176
     0
290
     0
176
     0
 40
1.0
176
     0
 40
1.0
176
     0
  0
VISUALSTYLE
  5
39
102
{ACAD_REACTORS
330
2A
102
}
330
2A
100
AcDbVisualStyle
  2
Facepattern
 70
    15
177
     3
291
     1
 70
    58
 90
        2
176
     1
 90
        2
176
     1
 90
        0
176
     1
 90
        0
176
     1
 40
0.6
176
     1
 40
30.0
176
     1
 62
     7
420
 16777215
176
     1
 90
        1
176
     1
 90
        4
176
     1
 62
     7
176
     1
 62
   257
176
     1
 90
        1
176
     1
 90
        1
176
     1
 40
1.0
176
     1
 90
        8
176
     1
 62
     7
176
     1
 40
1.0
176
     1
 90
        1
176
     1
 90
        6
176
     1
 90
        2
176
     1
 62
     7
176
     1
 90
        5
176
     1
 90
        0
176
     1
 90
        0
176
     1
290
     0
176
     1
 90
        1
176
     1
 40
0.0
176
     1
 90
        0
176
     1
290
     0
176
     1
290
     1
176
     1
290
     1
176
     1
290
     0
176
     1
290
     0
176
     1
290
     0
176
     1
290
     0
176
     1
290
     0
176
     1
290
     0
176
     1
 90
       50
176
     1
 40
0.0
176
     1
 40
1.0
176
     1
 90
        0
176
     1
 62
    18
420
        0
176
     1
 90
       50
176
     1
 90
        3
176
     1
 62
     5
420
      255
176
     1
290
     0
176
     1
 90
       50
176
     1
 90
       50
176
     1
 90
       50
176
     1
290
     0
176
     1
 90
       50
176
     1
 62
   256
176
     0
 40
1.0
176
     0
 90
        2
176
     1
  1
strokes_ogs.tif
176
     1
290
     0
176
     1
 40
1.0
176
     1
 40
1.0
176
     1
  0
VISUALSTYLE
  5
2B
102
{ACAD_REACTORS
330
2A
102
}
330
2A
100
AcDbVisualStyle
  2
Flat
 70
     0
177
     3
291
     1
 70
    58
 90
        2
176
     1
 90
        1
176
     1
 90
        1
176
     1
 90
        2
176
     1
 40
0.6
176
     1
 40
30.0
176
     1
 62
     7
420
 16777215
176
     1
 90
        0
176
     1
 90
        0
176
     1
 62
     7
176
     1
 62
   257
176
     1
 90
        1
176
     1
 90
        1
176
     1
 40
1.0
176
     1
 90
        8
176
     1
 62
     7
176
     1
 40
1.0
176
     1
 90
        1
176
     1
 90
        6
176
     1
 90
        2
176
     1
 62
     7
176
     1
 90
        5
176
     1
 90
        0
176
     1
 90
        0
176
     1
290
     0
176
     1
 90
       13
176
     1
 40
0.0
176
     1
 90
        0
176
     1
290
     0
176
     1
290
     1
176
     1
290
     1
176
     1
290
     0
176
     1
290
     0
176
     1
290
     0
176
     1
290
     0
176
     1
290
     0
176
     1
290
     0
176
     1
 90
       50
176
     1
 40
0.0
176
     1
 40
1.0
176
     1
 90
        0
176
     1
 62
    18
420
        0
176
     1
 90
       50
176
     1
 90
        3
176
     1
 62
     5
420
      255
176
     1
290
     0
176
     1
 90
       50
176
     1
 90
       50
176
     1
 90
       50
176
     1
290
     0
176
     1
 90
       50
176
     1
 62
   256
176
     0
 40
1.0
176
     0
 90
        2
176
     1
  1
strokes_ogs.tif
176
     1
290
     0
176
     1
 40
1.0
176
     1
 40
1.0
176
     1
  0
VISUALSTYLE
  5
2C
102
{ACAD_REACTORS
330
2A
102
}
330
2A
100
AcDbVisualStyle
  2
FlatWithEdges
 70
     1
177
     3
291
     1
 70
    58
 90
        2
176
     1
 90
        1
176
     1
 90
        1
176
     1
 90
        2
176
     1
 40
0.6
176
     1
 40
30.0
176
     1
 62
     7
420
 16777215
176
     1
 90
        1
176
     1
 90
        0
176
     1
 62
     7
176
     1
 62
   257
176
     1
 90
        1
176
     1
 90
        1
176
     1
 40
1.0
176
     1
 90
        0
176
     1
 62
   257
176
     1
 40
1.0
176
     1
 90
        1
176
     1
 90
        6
176
     1
 90
        2
176
     1
 62
     7
176
     1
 90
        5
176
     1
 90
        0
176
     1
 90
        0
176
     1
290
     0
176
     1
 90
       13
176
     1
 40
0.0
176
     1
 90
        0
176
     1
290
     0
176
     1
290
     1
176
     1
290
     1
176
     1
290
     0
176
     1
290
     0
176
     1
290
     0
176
     1
290
     0
176
     1
290
     0
176
     1
290
     0
176
     1
 90
       50
176
     1
 40
0.0
176
     1
 40
1.0
176
     1
 90
        0
176
     1
 62
    18
420
        0
176
     1
 90
       50
176
     1
 90
        3
176
     1
 62
     5
420
      255
176
     1
290
     0
176
     1
 90
       50
176
     1
 90
       50
176
     1
 90
       50
176
     1
290
     0
176
     1
 90
       50
176
     1
 62
   256
176
     0
 40
1.0
176
     0
 90
        2
176
     1
  1
strokes_ogs.tif
176
     1
290
     0
176
     1
 40
1.0
176
     1
 40
1.0
176
     1
  0
VISUALSTYLE
  5
2D
102
{ACAD_REACTORS
330
2A
102
}
330
2A
100
AcDbVisualStyle
  2
Gouraud
 70
     2
177
     3
291
     1
 70
    58
 90
        2
176
     1
 90
        2
176
     1
 90
        1
176
     1
 90
        2
176
     1
 40
0.6
176
     1
 40
30.0
176
     1
 62
     7
420
 16777215
176
     1
 90
        0
176
     1
 90
        0
176
     1
 62
     7
176
     1
 62
   257
176
     1
 90
        1
176
     1
 90
        1
176
     1
 40
1.0
176
     1
 90
        0
176
     1
 62
     7
176
     1
 40
1.0
176
     1
 90
        1
176
     1
 90
        6
176
     1
 90
        2
176
     1
 62
     7
176
     1
 90
        5
176
     1
 90
        0
176
     1
 90
        0
176
     1
290
     0
176
     1
 90
       13
176
     1
 40
0.0
176
     1
 90
        0
176
     1
290
     0
176
     1
290
     1
176
     1
290
     1
176
     1
290
     0
176
     1
290
     0
176
     1
290
     0
176
     1
290
     0
176
     1
290
     0
176
     1
290
     0
176
     1
 90
       50
176
     1
 40
0.0
176
     1
 40
1.0
176
     1
 90
        0
176
     1
 62
    18
420
        0
176
     1
 90
       50
176
     1
 90
        3
176
     1
 62
     5
420
      255
176
     1
290
     0
176
     1
 90
       50
176
     1
 90
       50
176
     1
 90
       50
176
     1
290
     0
176
     1
 90
       50
176
     1
 62
   256
176
     0
 40
1.0
176
     0
 90
        2
176
     1
  1
strokes_ogs.tif
176
     1
290
     0
176
     1
 40
1.0
176
     1
 40
1.0
176
     1
  0
VISUALSTYLE
  5
2E
102
{ACAD_REACTORS
330
2A
102
}
330
2A
100
AcDbVisualStyle
  2
GouraudWithEdges
 70
     3
177
     3
291
     1
 70
    58
 90
        2
176
     1
 90
        2
176
     1
 90
        1
176
     1
 90
        2
176
     1
 40
0.6
176
     1
 40
30.0
176
     1
 62
     7
420
 16777215
176
     1
 90
        1
176
     1
 90
        0
176
     1
 62
     7
176
     1
 62
   257
176
     1
 90
        1
176
     1
 90
        1
176
     1
 40
1.0
176
     1
 90
        0
176
     1
 62
   257
176
     1
 40
1.0
176
     1
 90
        1
176
     1
 90
        6
176
     1
 90
        2
176
     1
 62
     7
176
     1
 90
        5
176
     1
 90
        0
176
     1
 90
        0
176
     1
290
     0
176
     1
 90
       13
176
     1
 40
0.0
176
     1
 90
        0
176
     1
290
     0
176
     1
290
     1
176
     1
290
     1
176
     1
290
     0
176
     1
290
     0
176
     1
290
     0
176
     1
290
     0
176
     1
290
     0
176
     1
290
     0
176
     1
 90
       50
176
     1
 40
0.0
176
     1
 40
1.0
176
     1
 90
        0
176
     1
 62
    18
420
        0
176
     1
 90
       50
176
     1
 90
        3
176
     1
 62
     5
420
      255
176
     1
290
     0
176
     1
 90
       50
176
     1
 90
       50
176
     1
 90
       50
176
     1
290
     0
176
     1
 90
       50
176
     1
 62
   256
176
     0
 40
1.0
176
     0
 90
        2
176
     1
  1
strokes_ogs.tif
176
     1
290
     0
176
     1
 40
1.0
176
     1
 40
1.0
176
     1
  0
VISUALSTYLE
  5
31
102
{ACAD_REACTORS
330
2A
102
}
330
2A
100
AcDbVisualStyle
  2
Hidden
 70
     6
177
     3
291
     0
 70
    58
 90
        1
176
     1
 90
        2
176
     1
 90
        2
176
     1
 90
        0
176
     1
 40
0.6
176
     1
 40
30.0
176
     1
 62
     7
420
 16777215
176
     1
 90
        2
176
     1
 90
        2
176
     1
 62
     7
176
     1
 62
   257
176
     1
 90
        2
176
     1
 90
        1
176
     1
 40
40.0
176
     1
 90
        0
176
     1
 62
   257
176
     1
 40
1.0
176
     1
 90
        1
176
     1
 90
        6
176
     1
 90
        2
176
     1
 62
     7
176
     1
 90
        3
176
     1
 90
        0
176
     1
 90
        0
176
     1
290
     0
176
     1
 90
        1
176
     1
 40
0.0
176
     1
 90
        0
176
     1
290
     0
176
     1
290
     1
176
     1
290
     1
176
     1
290
     0
176
     1
290
     0
176
     1
290
     0
176
     1
290
     0
176
     1
290
     0
176
     1
290
     0
176
     1
 90
       50
176
     1
 40
0.0
176
     1
 40
1.0
176
     1
 90
        0
176
     1
 62
    18
420
        0
176
     1
 90
       50
176
     1
 90
        3
176
     1
 62
     5
420
      255
176
     1
290
     0
176
     1
 90
       50
176
     1
 90
       50
176
     1
 90
       50
176
     1
290
     0
176
     1
 90
       50
176
     1
 62
   256
176
     0
 40
1.0
176
     0
 90
        2
176
     1
  1
strokes_ogs.tif
176
     1
290
     0
176
     1
 40
1.0
176
     1
 40
1.0
176
     1
  0
VISUALSTYLE
  5
3B
102
{ACAD_REACTORS
330
2A
102
}
330
2A
100
AcDbVisualStyle
  2
JitterOff
 70
    20
177
     3
291
     1
 70
    58
 90
        2
176
     0
 90
        2
176
     0
 90
        0
176
     0
 90
        0
176
     0
 40
0.6
176
     0
 40
30.0
176
     0
 62
     7
420
 16777215
176
     0
 90
        1
176
     0
 90
        4
176
     0
 62
     7
176
     0
 62
   257
176
     0
 90
        1
176
     0
 90
        1
176
     0
 40
1.0
176
     0
 90
       10
176
     2
 62
     7
176
     0
 40
1.0
176
     0
 90
        1
176
     0
 90
        6
176
     0
 90
        2
176
     0
 62
     7
176
     0
 90
        5
176
     0
 90
        0
176
     0
 90
        0
176
     0
290
     0
176
     0
 90
        1
176
     0
 40
0.0
176
     0
 90
        0
176
     0
290
     0
176
     0
290
     1
176
     0
290
     1
176
     0
290
     0
176
     0
290
     0
176
     0
290
     0
176
     0
290
     0
176
     0
290
     0
176
     0
290
     0
176
     0
 90
       50
176
     0
 40
0.0
176
     0
 40
1.0
176
     0
 90
        0
176
     0
 62
    18
420
        0
176
     0
 90
       50
176
     0
 90
        3
176
     0
 62
     5
420
      255
176
     0
290
     0
176
     0
 90
       50
176
     0
 90
       50
176
     0
 90
       50
176
     0
290
     0
176
     0
 90
       50
176
     0
 62
   256
176
     0
 40
1.0
176
     0
 90
        2
176
     0
  1
strokes_ogs.tif
176
     0
290
     0
176
     0
 40
1.0
176
     0
 40
1.0
176
     0
  0
VISUALSTYLE
  5
38
102
{ACAD_REACTORS
330
2A
102
}
330
2A
100
AcDbVisualStyle
  2
Linepattern
 70
    14
177
     3
291
     1
 70
    58
 90
        2
176
     1
 90
        2
176
     1
 90
        0
176
     1
 90
        0
176
     1
 40
0.6
176
     1
 40
30.0
176
     1
 62
     7
420
 16777215
176
     1
 90
        1
176
     1
 90
        4
176
     1
 62
     7
176
     1
 62
   257
176
     1
 90
        7
176
     1
 90
        7
176
     1
 40
1.0
176
     1
 90
        8
176
     1
 62
     7
176
     1
 40
1.0
176
     1
 90
        1
176
     1
 90
        6
176
     1
 90
        2
176
     1
 62
     7
176
     1
 90
        5
176
     1
 90
        0
176
     1
 90
        0
176
     1
290
     0
176
     1
 90
        1
176
     1
 40
0.0
176
     1
 90
        0
176
     1
290
     0
176
     1
290
     1
176
     1
290
     1
176
     1
290
     0
176
     1
290
     0
176
     1
290
     0
176
     1
290
     0
176
     1
290
     0
176
     1
290
     0
176
     1
 90
       50
176
     1
 40
0.0
176
     1
 40
1.0
176
     1
 90
        0
176
     1
 62
    18
420
        0
176
     1
 90
       50
176
     1
 90
        3
176
     1
 62
     5
420
      255
176
     1
290
     0
176
     1
 90
       50
176
     1
 90
       50
176
     1
 90
       50
176
     1
290
     0
176
     1
 90
       50
176
     1
 62
   256
176
     0
 40
1.0
176
     0
 90
        2
176
     1
  1
strokes_ogs.tif
176
     1
290
     0
176
     1
 40
1.0
176
     1
 40
1.0
176
     1
  0
VISUALSTYLE
  5
3C
102
{ACAD_REACTORS
330
2A
102
}
330
2A
100
AcDbVisualStyle
  2
OverhangOff
 70
    21
177
     3
291
     1
 70
    58
 90
        2
176
     0
 90
        2
176
     0
 90
        0
176
     0
 90
        0
176
     0
 40
0.6
176
     0
 40
30.0
176
     0
 62
     7
420
 16777215
176
     0
 90
        1
176
     0
 90
        4
176
     0
 62
     7
176
     0
 62
   257
176
     0
 90
        1
176
     0
 90
        1
176
     0
 40
1.0
176
     0
 90
        9
176
     2
 62
     7
176
     0
 40
1.0
176
     0
 90
        1
176
     0
 90
        6
176
     0
 90
        2
176
     0
 62
     7
176
     0
 90
        5
176
     0
 90
        0
176
     0
 90
        0
176
     0
290
     0
176
     0
 90
        1
176
     0
 40
0.0
176
     0
 90
        0
176
     0
290
     0
176
     0
290
     1
176
     0
290
     1
176
     0
290
     0
176
     0
290
     0
176
     0
290
     0
176
     0
290
     0
176
     0
290
     0
176
     0
290
     0
176
     0
 90
       50
176
     0
 40
0.0
176
     0
 40
1.0
176
     0
 90
        0
176
     0
 62
    18
420
        0
176
     0
 90
       50
176
     0
 90
        3
176
     0
 62
     5
420
      255
176
     0
290
     0
176
     0
 90
       50
176
     0
 90
       50
176
     0
 90
       50
176
     0
290
     0
176
     0
 90
       50
176
     0
 62
   256
176
     0
 40
1.0
176
     0
 90
        2
176
     0
  1
strokes_ogs.tif
176
     0
290
     0
176
     0
 40
1.0
176
     0
 40
1.0
176
     0
  0
VISUALSTYLE
  5
33
102
{ACAD_REACTORS
330
2A
102
}
330
2A
100
AcDbVisualStyle
  2
Realistic
 70
     8
177
     3
291
     0
 70
    58
 90
        2
176
     1
 90
        3
176
     1
 90
        0
176
     1
 90
        2
176
     1
 40
0.6
176
     1
 40
30.0
176
     1
 62
     7
420
 16777215
176
     1
 90
        0
176
     1
 90
        0
176
     1
 62
     7
176
     1
 62
   257
176
     1
 90
        1
176
     1
 90
        1
176
     1
 40
1.0
176
     1
 90
        8
176
     1
 62
   257
176
     1
 40
1.0
176
     1
 90
        1
176
     1
 90
        6
176
     1
 90
        2
176
     1
 62
     7
176
     1
 90
        3
176
     1
 90
        0
176
     1
 90
        0
176
     1
290
     0
176
     1
 90
       13
176
     1
 40
0.0
176
     1
 90
        0
176
     1
290
     0
176
     1
290
     1
176
     1
290
     1
176
     1
290
     0
176
     1
290
     0
176
     1
290
     0
176
     1
290
     0
176
     1
290
     0
176
     1
290
     0
176
     1
 90
       50
176
     1
 40
0.0
176
     1
 40
1.0
176
     1
 90
        0
176
     1
 62
    18
420
        0
176
     1
 90
       50
176
     1
 90
        3
176
     1
 62
     5
420
      255
176
     1
290
     0
176
     1
 90
       50
176
     1
 90
       50
176
     1
 90
       50
176
     1
290
     0
176
     1
 90
       50
176
     1
 62
   256
176
     0
 40
1.0
176
     0
 90
        2
176
     1
  1
strokes_ogs.tif
176
     1
290
     0
176
     1
 40
1.0
176
     1
 40
1.0
176
     1
  0
VISUALSTYLE
  5
42
102
{ACAD_REACTORS
330
2A
102
}
330
2A
100
AcDbVisualStyle
  2
Shaded
 70
    27
177
     3
291
     0
 70
    58
 90
        2
176
     1
 90
        2
176
     1
 90
        1
176
     1
 90
        2
176
     1
 40
0.6
176
     1
 40
30.0
176
     1
 62
     7
420
 16777215
176
     1
 90
        0
176
     1
 90
        4
176
     1
 62
     7
176
     1
 62
   257
176
     1
 90
        1
176
     1
 90
        1
176
     1
 40
1.0
176
     1
 90
        8
176
     1
 62
   257
176
     1
 40
1.0
176
     1
 90
        1
176
     1
 90
        6
176
     1
 90
        2
176
     1
 62
     8
420
  7895160
176
     1
 90
        3
176
     1
 90
        0
176
     1
 90
        0
176
     1
290
     0
176
     1
 90
        5
176
     1
 40
0.0
176
     1
 90
        0
176
     1
290
     0
176
     1
290
     1
176
     1
290
     1
176
     1
290
     0
176
     1
290
     0
176
     1
290
     0
176
     1
290
     0
176
     1
290
     0
176
     1
290
     0
176
     1
 90
       50
176
     1
 40
0.0
176
     1
 40
1.0
176
     1
 90
        0
176
     1
 62
    18
420
        0
176
     1
 90
       50
176
     1
 90
        3
176
     1
 62
     5
420
      255
176
     1
290
     0
176
     1
 90
       50
176
     1
 90
       50
176
     1
 90
       50
176
     1
290
     0
176
     1
 90
       50
176
     1
 62
   256
176
     0
 40
1.0
176
     0
 90
        2
176
     1
  1
strokes_ogs.tif
176
     1
290
     0
176
     1
 40
1.0
176
     1
 40
1.0
176
     1
  0
VISUALSTYLE
  5
41
102
{ACAD_REACTORS
330
2A
102
}
330
2A
100
AcDbVisualStyle
  2
Shaded with edges
 70
    26
177
     3
291
     0
 70
    58
 90
        2
176
     1
 90
        2
176
     1
 90
        1
176
     1
 90
        2
176
     1
 40
0.6
176
     1
 40
30.0
176
     1
 62
     7
420
 16777215
176
     1
 90
        1
176
     1
 90
       10
176
     1
 62
     7
176
     1
 62
   257
176
     1
 90
        2
176
     1
 90
        1
176
     1
 40
1.0
176
     1
 90
        8
176
     1
 62
   257
176
     1
 40
1.0
176
     1
 90
        1
176
     1
 90
        6
176
     1
 90
        2
176
     1
 62
     7
176
     1
 90
        3
176
     1
 90
        0
176
     1
 90
        0
176
     1
290
     0
176
     1
 90
        5
176
     1
 40
0.0
176
     1
 90
        0
176
     1
290
     0
176
     1
290
     1
176
     1
290
     1
176
     1
290
     0
176
     1
290
     0
176
     1
290
     0
176
     1
290
     0
176
     1
290
     0
176
     1
290
     0
176
     1
 90
       50
176
     1
 40
0.0
176
     1
 40
1.0
176
     1
 90
        0
176
     1
 62
    18
420
        0
176
     1
 90
       50
176
     1
 90
        3
176
     1
 62
     5
420
      255
176
     1
290
     0
176
     1
 90
       50
176
     1
 90
       50
176
     1
 90
       50
176
     1
290
     0
176
     1
 90
       50
176
     1
 62
   256
176
     0
 40
1.0
176
     0
 90
        2
176
     1
  1
strokes_ogs.tif
176
     1
290
     0
176
     1
 40
1.0
176
     1
 40
1.0
176
     1
  0
VISUALSTYLE
  5
3E
102
{ACAD_REACTORS
330
2A
102
}
330
2A
100
AcDbVisualStyle
  2
Shades of Gray
 70
    23
177
     3
291
     0
 70
    58
 90
        2
176
     1
 90
        2
176
     1
 90
        3
176
     1
 90
        0
176
     1
 40
0.6
176
     1
 40
30.0
176
     1
 62
     7
420
 16777215
176
     1
 90
        2
176
     1
 90
        2
176
     1
 62
     7
176
     1
 62
     7
176
     1
 90
        1
176
     1
 90
        1
176
     1
 40
40.0
176
     1
 90
        8
176
     1
 62
     7
176
     1
 40
1.0
176
     1
 90
        1
176
     1
 90
        6
176
     1
 90
        2
176
     1
 62
     7
176
     1
 90
        3
176
     1
 90
        0
176
     1
 90
        0
176
     1
290
     0
176
     1
 90
        1
176
     1
 40
0.0
176
     1
 90
        0
176
     1
290
     0
176
     1
290
     1
176
     1
290
     1
176
     1
290
     0
176
     1
290
     0
176
     1
290
     0
176
     1
290
     0
176
     1
290
     0
176
     1
290
     0
176
     1
 90
       50
176
     1
 40
0.0
176
     1
 40
1.0
176
     1
 90
        0
176
     1
 62
    18
420
        0
176
     1
 90
       50
176
     1
 90
        3
176
     1
 62
     5
420
      255
176
     1
290
     0
176
     1
 90
       50
176
     1
 90
       50
176
     1
 90
       50
176
     1
290
     0
176
     1
 90
       50
176
     1
 62
   256
176
     0
 40
1.0
176
     0
 90
        2
176
     1
  1
strokes_ogs.tif
176
     1
290
     0
176
     1
 40
1.0
176
     1
 40
1.0
176
     1
  0
VISUALSTYLE
  5
3F
102
{ACAD_REACTORS
330
2A
102
}
330
2A
100
AcDbVisualStyle
  2
Sketchy
 70
    24
177
     3
291
     0
 70
    58
 90
        1
176
     1
 90
        2
176
     1
 90
        2
176
     1
 90
        0
176
     1
 40
0.6
176
     1
 40
30.0
176
     1
 62
     7
420
 16777215
176
     1
 90
        2
176
     1
 90
        2
176
     1
 62
     7
176
     1
 62
     7
176
     1
 90
        1
176
     1
 90
        1
176
     1
 40
40.0
176
     1
 90
       11
176
     1
 62
     7
176
     1
 40
1.0
176
     1
 90
        1
176
     1
 90
        6
176
     1
 90
        2
176
     1
 62
     7
176
     1
 90
        6
176
     1
 90
        0
176
     1
 90
        0
176
     1
290
     0
176
     1
 90
        1
176
     1
 40
0.0
176
     1
 90
        0
176
     1
290
     0
176
     1
290
     1
176
     1
290
     1
176
     1
290
     0
176
     1
290
     0
176
     1
290
     0
176
     1
290
     0
176
     1
290
     0
176
     1
290
     0
176
     1
 90
       50
176
     1
 40
0.0
176
     1
 40
1.0
176
     1
 90
        0
176
     1
 62
    18
420
        0
176
     1
 90
       50
176
     1
 90
        3
176
     1
 62
     5
420
      255
176
     1
290
     0
176
     1
 90
       50
176
     1
 90
       50
176
     1
 90
       50
176
     1
290
     0
176
     1
 90
       50
176
     1
 62
   256
176
     0
 40
1.0
176
     0
 90
        2
176
     1
  1
strokes_ogs.tif
176
     1
290
     0
176
     1
 40
1.0
176
     1
 40
1.0
176
     1
  0
VISUALSTYLE
  5
37
102
{ACAD_REACTORS
330
2A
102
}
330
2A
100
AcDbVisualStyle
  2
Thicken
 70
    13
177
     3
291
     1
 70
    58
 90
        2
176
     1
 90
        2
176
     1
 90
        0
176
     1
 90
        0
176
     1
 40
0.6
176
     1
 40
30.0
176
     1
 62
     7
420
 16777215
176
     1
 90
        1
176
     1
 90
        4
176
     1
 62
     7
176
     1
 62
   257
176
     1
 90
        1
176
     1
 90
        1
176
     1
 40
1.0
176
     1
 90
       12
176
     1
 62
     7
176
     1
 40
1.0
176
     1
 90
        1
176
     1
 90
        6
176
     1
 90
        2
176
     1
 62
     7
176
     1
 90
        5
176
     1
 90
        0
176
     1
 90
        0
176
     1
290
     0
176
     1
 90
        1
176
     1
 40
0.0
176
     1
 90
        0
176
     1
290
     0
176
     1
290
     1
176
     1
290
     1
176
     1
290
     0
176
     1
290
     0
176
     1
290
     0
176
     1
290
     0
176
     1
290
     0
176
     1
290
     0
176
     1
 90
       50
176
     1
 40
0.0
176
     1
 40
1.0
176
     1
 90
        0
176
     1
 62
    18
420
        0
176
     1
 90
       50
176
     1
 90
        3
176
     1
 62
     5
420
      255
176
     1
290
     0
176
     1
 90
       50
176
     1
 90
       50
176
     1
 90
       50
176
     1
290
     0
176
     1
 90
       50
176
     1
 62
   256
176
     0
 40
1.0
176
     0
 90
        2
176
     1
  1
strokes_ogs.tif
176
     1
290
     0
176
     1
 40
1.0
176
     1
 40
1.0
176
     1
  0
VISUALSTYLE
  5
30
102
{ACAD_REACTORS
330
2A
102
}
330
2A
100
AcDbVisualStyle
  2
Wireframe
 70
     5
177
     3
291
     0
 70
    58
 90
        0
176
     1
 90
        2
176
     1
 90
        0
176
     1
 90
        0
176
     1
 40
0.6
176
     1
 40
30.0
176
     1
 62
     7
420
 16777215
176
     1
 90
        1
176
     1
 90
        4
176
     1
 62
     7
176
     1
 62
   257
176
     1
 90
        1
176
     1
 90
        1
176
     1
 40
1.0
176
     1
 90
        0
176
     1
 62
   257
176
     1
 40
1.0
176
     1
 90
        1
176
     1
 90
        6
176
     1
 90
        2
176
     1
 62
     7
176
     1
 90
        3
176
     1
 90
        0
176
     1
 90
        0
176
     1
290
     0
176
     1
 90
        1
176
     1
 40
0.0
176
     1
 90
        0
176
     1
290
     0
176
     1
290
     1
176
     1
290
     1
176
     1
290
     0
176
     1
290
     0
176
     1
290
     0
176
     1
290
     0
176
     1
290
     0
176
     1
290
     0
176
     1
 90
       50
176
     1
 40
0.0
176
     1
 40
1.0
176
     1
 90
        0
176
     1
 62
    18
420
        0
176
     1
 90
       50
176
     1
 90
        3
176
     1
 62
     5
420
      255
176
     1
290
     0
176
     1
 90
       50
176
     1
 90
       50
176
     1
 90
       50
176
     1
290
     0
176
     1
 90
       50
176
     1
 62
   256
176
     0
 40
1.0
176
     0
 90
        2
176
     1
  1
strokes_ogs.tif
176
     1
290
     0
176
     1
 40
1.0
176
     1
 40
1.0
176
     1
  0
VISUALSTYLE
  5
40
102
{ACAD_REACTORS
330
2A
102
}
330
2A
100
AcDbVisualStyle
  2
X-Ray
 70
    25
177
     3
291
     0
 70
    58
 90
        2
176
     1
 90
        2
176
     1
 90
        1
176
     1
 90
        1
176
     1
 40
0.5
176
     1
 40
30.0
176
     1
 62
     7
420
 16777215
176
     1
 90
        1
176
     1
 90
        0
176
     1
 62
     7
176
     1
 62
   257
176
     1
 90
        1
176
     1
 90
        1
176
     1
 40
1.0
176
     1
 90
        8
176
     1
 62
     7
176
     1
 40
1.0
176
     1
 90
        1
176
     1
 90
        6
176
     1
 90
        2
176
     1
 62
     7
176
     1
 90
        3
176
     1
 90
        0
176
     1
 90
        0
176
     1
290
     0
176
     1
 90
       13
176
     1
 40
0.0
176
     1
 90
        0
176
     1
290
     0
176
     1
290
     1
176
     1
290
     1
176
     1
290
     0
176
     1
290
     0
176
     1
290
     0
176
     1
290
     0
176
     1
290
     0
176
     1
290
     0
176
     1
 90
       50
176
     1
 40
0.0
176
     1
 40
1.0
176
     1
 90
        0
176
     1
 62
    18
420
        0
176
     1
 90
       50
176
     1
 90
        3
176
     1
 62
     5
420
      255
176
     1
290
     0
176
     1
 90
       50
176
     1
 90
       50
176
     1
 90
       50
176
     1
290
     0
176
     1
 90
       50
176
     1
 62
   256
176
     0
 40
1.0
176
     0
 90
        2
176
     1
  1
strokes_ogs.tif
176
     1
290
     0
176
     1
 40
1.0
176
     1
 40
1.0
176
     1
  0
DICTIONARYVAR
  5
1C8
102
{ACAD_REACTORS
330
1C7
102
}
330
1C7
100
DictionaryVariables
280
     0
  1
1:1
  0
DICTIONARYVAR
  5
1CD
102
{ACAD_REACTORS
330
1C7
102
}
330
1C7
100
DictionaryVariables
280
     0
  1
Standard
  0
DICTIONARYVAR
  5
1CC
102
{ACAD_REACTORS
330
1C7
102
}
330
1C7
100
DictionaryVariables
280
     0
  1
Standard
  0
DICTIONARY
  5
1C9
330
6A
100
AcDbDictionary
280
     1
281
     1
  3
ACAD_ROUNDTRIP_2008_TABLESTYLE_CELLSTYLEMAP
360
1CA
  0
CELLSTYLEMAP
  5
1CA
102
{ACAD_REACTORS
330
1C9
102
}
330
1C9
100
AcDbCellStyleMap
 90
        3
300
CELLSTYLE
  1
TABLEFORMAT_BEGIN
 90
        5
170
     1
 91
        0
 92
    32768
 62
   257
 93
        1
300
CONTENTFORMAT
  1
CONTENTFORMAT_BEGIN
 90
        0
 91
        0
 92
        4
 93
        0
300

 40
0.0
140
1.0
 94
        5
 62
     0
340
11
144
0.25
309
CONTENTFORMAT_END
171
     1
301
MARGIN
  1
CELLMARGIN_BEGIN
 40
0.06
 40
0.06
 40
0.06
 40
0.06
 40
0.06
 40
0.06
309
CELLMARGIN_END
 94
        6
 95
        1
302
GRIDFORMAT
  1
GRIDFORMAT_BEGIN
 90
        0
 91
        1
 62
     0
 92
       -2
340
14
 93
        0
 40
0.045
309
GRIDFORMAT_END
 95
        2
302
GRIDFORMAT
  1
GRIDFORMAT_BEGIN
 90
        0
 91
        1
 62
     0
 92
       -2
340
14
 93
        0
 40
0.045
309
GRIDFORMAT_END
 95
        4
302
GRIDFORMAT
  1
GRIDFORMAT_BEGIN
 90
        0
 91
        1
 62
     0
 92
       -2
340
14
 93
        0
 40
0.045
309
GRIDFORMAT_END
 95
        8
302
GRIDFORMAT
  1
GRIDFORMAT_BEGIN
 90
        0
 91
        1
 62
     0
 92
       -2
340
14
 93
        0
 40
0.045
309
GRIDFORMAT_END
 95
       16
302
GRIDFORMAT
  1
GRIDFORMAT_BEGIN
 90
        0
 91
        1
 62
     0
 92
       -2
340
14
 93
        0
 40
0.045
309
GRIDFORMAT_END
 95
       32
302
GRIDFORMAT
  1
GRIDFORMAT_BEGIN
 90
        0
 91
        1
 62
     0
 92
       -2
340
14
 93
        0
 40
0.045
309
GRIDFORMAT_END
309
TABLEFORMAT_END
  1
CELLSTYLE_BEGIN
 90
        1
 91
        1
300
_TITLE
309
CELLSTYLE_END
300
CELLSTYLE
  1
TABLEFORMAT_BEGIN
 90
        5
170
     1
 91
        0
 92
        0
 62
   257
 93
        1
300
CONTENTFORMAT
  1
CONTENTFORMAT_BEGIN
 90
        0
 91
        0
 92
        4
 93
        0
300

 40
0.0
140
1.0
 94
        5
 62
     0
340
11
144
0.18
309
CONTENTFORMAT_END
171
     1
301
MARGIN
  1
CELLMARGIN_BEGIN
 40
0.06
 40
0.06
 40
0.06
 40
0.06
 40
0.06
 40
0.06
309
CELLMARGIN_END
 94
        6
 95
        1
302
GRIDFORMAT
  1
GRIDFORMAT_BEGIN
 90
        0
 91
        1
 62
     0
 92
       -2
340
14
 93
        0
 40
0.045
309
GRIDFORMAT_END
 95
        2
302
GRIDFORMAT
  1
GRIDFORMAT_BEGIN
 90
        0
 91
        1
 62
     0
 92
       -2
340
14
 93
        0
 40
0.045
309
GRIDFORMAT_END
 95
        4
302
GRIDFORMAT
  1
GRIDFORMAT_BEGIN
 90
        0
 91
        1
 62
     0
 92
       -2
340
14
 93
        0
 40
0.045
309
GRIDFORMAT_END
 95
        8
302
GRIDFORMAT
  1
GRIDFORMAT_BEGIN
 90
        0
 91
        1
 62
     0
 92
       -2
340
14
 93
        0
 40
0.045
309
GRIDFORMAT_END
 95
       16
302
GRIDFORMAT
  1
GRIDFORMAT_BEGIN
 90
        0
 91
        1
 62
     0
 92
       -2
340
14
 93
        0
 40
0.045
309
GRIDFORMAT_END
 95
       32
302
GRIDFORMAT
  1
GRIDFORMAT_BEGIN
 90
        0
 91
        1
 62
     0
 92
       -2
340
14
 93
        0
 40
0.045
309
GRIDFORMAT_END
309
TABLEFORMAT_END
  1
CELLSTYLE_BEGIN
 90
        2
 91
        1
300
_HEADER
309
CELLSTYLE_END
300
CELLSTYLE
  1
TABLEFORMAT_BEGIN
 90
        5
170
     1
 91
        0
 92
        0
 62
   257
 93
        1
300
CONTENTFORMAT
  1
CONTENTFORMAT_BEGIN
 90
        0
 91
        0
 92
        4
 93
        0
300

 40
0.0
140
1.0
 94
        2
 62
     0
340
11
144
0.18
309
CONTENTFORMAT_END
171
     1
301
MARGIN
  1
CELLMARGIN_BEGIN
 40
0.06
 40
0.06
 40
0.06
 40
0.06
 40
0.06
 40
0.06
309
CELLMARGIN_END
 94
        6
 95
        1
302
GRIDFORMAT
  1
GRIDFORMAT_BEGIN
 90
        0
 91
        1
 62
     0
 92
       -2
340
14
 93
        0
 40
0.045
309
GRIDFORMAT_END
 95
        2
302
GRIDFORMAT
  1
GRIDFORMAT_BEGIN
 90
        0
 91
        1
 62
     0
 92
       -2
340
14
 93
        0
 40
0.045
309
GRIDFORMAT_END
 95
        4
302
GRIDFORMAT
  1
GRIDFORMAT_BEGIN
 90
        0
 91
        1
 62
     0
 92
       -2
340
14
 93
        0
 40
0.045
309
GRIDFORMAT_END
 95
        8
302
GRIDFORMAT
  1
GRIDFORMAT_BEGIN
 90
        0
 91
        1
 62
     0
 92
       -2
340
14
 93
        0
 40
0.045
309
GRIDFORMAT_END
 95
       16
302
GRIDFORMAT
  1
GRIDFORMAT_BEGIN
 90
        0
 91
        1
 62
     0
 92
       -2
340
14
 93
        0
 40
0.045
309
GRIDFORMAT_END
 95
       32
302
GRIDFORMAT
  1
GRIDFORMAT_BEGIN
 90
        0
 91
        1
 62
     0
 92
       -2
340
14
 93
        0
 40
0.045
309
GRIDFORMAT_END
309
TABLEFORMAT_END
  1
CELLSTYLE_BEGIN
 90
        3
 91
        2
300
_DATA
309
CELLSTYLE_END
  0
ENDSEC
  0
EOF