0
SECTION
  2
HEADER
  9
$ACADVER
  1
AC1027
  9
$ACADMAINTVER
 70
     8
  9
$DWGCODEPAGE
  3
ANSI_1252
  9
$REQUIREDVERSIONS
160
                 0
  9
$COMMENTS
  1
File was created by Cadenas
  9
$CUSTOMPROPERTYTAG
  1
NN
  9
$CUSTOMPROPERTY
  1
Grip Tight Two-Bolt Flange - Polymer Housing, Corrosion Resistant Insert Inch Bore
  9
$CUSTOMPROPERTYTAG
  1
NT
  9
$CUSTOMPROPERTY
  1
GTEZ Normal Duty Polymer Housed 2 Bolt Flange Bearings
  9
$CUSTOMPROPERTYTAG
  1
NB
  9
$CUSTOMPROPERTY
  1
129347
  9
$CUSTOMPROPERTYTAG
  1
NBSYN
  9
$CUSTOMPROPERTY
  1
$PN.$LUBE.
  9
$CUSTOMPROPERTYTAG
  1
LINA
  9
$CUSTOMPROPERTY
  1
129347
  9
$CUSTOMPROPERTYTAG
  1
SERIES
  9
$CUSTOMPROPERTY
  1
207
  9
$CUSTOMPROPERTYTAG
  1
SS
  9
$CUSTOMPROPERTY
  1
1-7/16
  9
$CUSTOMPROPERTYTAG
  1
PN
  9
$CUSTOMPROPERTY
  1
129347
  9
$CUSTOMPROPERTYTAG
  1
DESCRIPTION
  9
$CUSTOMPROPERTY
  1
F2B-GTEZ-107-PCR
  9
$CUSTOMPROPERTYTAG
  1
A
  9
$CUSTOMPROPERTY
  1
1-5/8
  9
$CUSTOMPROPERTYTAG
  1
B
  9
$CUSTOMPROPERTY
  1
6-5/16
  9
$CUSTOMPROPERTYTAG
  1
C
  9
$CUSTOMPROPERTY
  1
1-27/32
  9
$CUSTOMPROPERTYTAG
  1
D
  9
$CUSTOMPROPERTY
  1
5-1/8
  9
$CUSTOMPROPERTYTAG
  1
F
  9
$CUSTOMPROPERTY
  1
1/2
  9
$CUSTOMPROPERTYTAG
  1
H
  9
$CUSTOMPROPERTY
  1
5/8
  9
$CUSTOMPROPERTYTAG
  1
J
  9
$CUSTOMPROPERTY
  1
35/64
  9
$CUSTOMPROPERTYTAG
  1
L
  9
$CUSTOMPROPERTY
  1
2-19/64
  9
$CUSTOMPROPERTYTAG
  1
M
  9
$CUSTOMPROPERTY
  1
3-45/64
  9
$CUSTOMPROPERTYTAG
  1
Z
  9
$CUSTOMPROPERTY
  1
1-53/64
  9
$CUSTOMPROPERTYTAG
  1
COMPANY
  9
$CUSTOMPROPERTY
  1
baldor
  9
$INSBASE
 10
0.0
 20
0.0
 30
0.0
  9
$EXTMIN
 10
1.000000000000000E+20
 20
1.000000000000000E+20
 30
1.000000000000000E+20
  9
$EXTMAX
 10
-1.000000000000000E+20
 20
-1.000000000000000E+20
 30
-1.000000000000000E+20
  9
$LIMMIN
 10
0.0
 20
0.0
  9
$LIMMAX
 10
12.0
 20
9.0
  9
$ORTHOMODE
 70
     0
  9
$REGENMODE
 70
     1
  9
$FILLMODE
 70
     1
  9
$QTEXTMODE
 70
     0
  9
$MIRRTEXT
 70
     1
  9
$LTSCALE
 40
1.0
  9
$ATTMODE
 70
     1
  9
$TEXTSIZE
 40
0.2
  9
$TRACEWID
 40
0.05
  9
$TEXTSTYLE
  7
Standard
  9
$CLAYER
  8
0
  9
$CELTYPE
  6
ByLayer
  9
$CECOLOR
 62
   256
  9
$CELTSCALE
 40
1.0
  9
$DISPSILH
 70
     0
  9
$DIMSCALE
 40
1.0
  9
$DIMASZ
 40
0.18
  9
$DIMEXO
 40
0.0625
  9
$DIMDLI
 40
0.38
  9
$DIMRND
 40
0.0
  9
$DIMDLE
 40
0.0
  9
$DIMEXE
 40
0.18
  9
$DIMTP
 40
0.0
  9
$DIMTM
 40
0.0
  9
$DIMTXT
 40
0.18
  9
$DIMCEN
 40
0.09
  9
$DIMTSZ
 40
0.0
  9
$DIMTOL
 70
     0
  9
$DIMLIM
 70
     0
  9
$DIMTIH
 70
     1
  9
$DIMTOH
 70
     1
  9
$DIMSE1
 70
     0
  9
$DIMSE2
 70
     0
  9
$DIMTAD
 70
     0
  9
$DIMZIN
 70
     0
  9
$DIMBLK
  1

  9
$DIMASO
 70
     1
  9
$DIMSHO
 70
     1
  9
$DIMPOST
  1

  9
$DIMAPOST
  1

  9
$DIMALT
 70
     0
  9
$DIMALTD
 70
     2
  9
$DIMALTF
 40
25.4
  9
$DIMLFAC
 40
1.0
  9
$DIMTOFL
 70
     0
  9
$DIMTVP
 40
0.0
  9
$DIMTIX
 70
     0
  9
$DIMSOXD
 70
     0
  9
$DIMSAH
 70
     0
  9
$DIMBLK1
  1

  9
$DIMBLK2
  1

  9
$DIMSTYLE
  2
Standard
  9
$DIMCLRD
 70
     0
  9
$DIMCLRE
 70
     0
  9
$DIMCLRT
 70
     0
  9
$DIMTFAC
 40
1.0
  9
$DIMGAP
 40
0.09
  9
$DIMJUST
 70
     0
  9
$DIMSD1
 70
     0
  9
$DIMSD2
 70
     0
  9
$DIMTOLJ
 70
     1
  9
$DIMTZIN
 70
     0
  9
$DIMALTZ
 70
     0
  9
$DIMALTTZ
 70
     0
  9
$DIMUPT
 70
     0
  9
$DIMDEC
 70
     4
  9
$DIMTDEC
 70
     4
  9
$DIMALTU
 70
     2
  9
$DIMALTTD
 70
     2
  9
$DIMTXSTY
  7
Standard
  9
$DIMAUNIT
 70
     0
  9
$DIMADEC
 70
     0
  9
$DIMALTRND
 40
0.0
  9
$DIMAZIN
 70
     0
  9
$DIMDSEP
 70
    46
  9
$DIMATFIT
 70
     3
  9
$DIMFRAC
 70
     0
  9
$DIMLDRBLK
  1

  9
$DIMLUNIT
 70
     2
  9
$DIMLWD
 70
    -2
  9
$DIMLWE
 70
    -2
  9
$DIMTMOVE
 70
     0
  9
$DIMFXL
 40
1.0
  9
$DIMFXLON
 70
     0
  9
$DIMJOGANG
 40
0.7853981633974483
  9
$DIMTFILL
 70
     0
  9
$DIMTFILLCLR
 70
     0
  9
$DIMARCSYM
 70
     0
  9
$DIMLTYPE
  6

  9
$DIMLTEX1
  6

  9
$DIMLTEX2
  6

  9
$DIMTXTDIRECTION
 70
     0
  9
$LUNITS
 70
     2
  9
$LUPREC
 70
     4
  9
$SKETCHINC
 40
0.1
  9
$FILLETRAD
 40
0.5
  9
$AUNITS
 70
     0
  9
$AUPREC
 70
     0
  9
$MENU
  1
.
  9
$ELEVATION
 40
0.0
  9
$PELEVATION
 40
0.0
  9
$THICKNESS
 40
0.0
  9
$LIMCHECK
 70
     0
  9
$CHAMFERA
 40
0.0
  9
$CHAMFERB
 40
0.0
  9
$CHAMFERC
 40
0.0
  9
$CHAMFERD
 40
0.0
  9
$SKPOLY
 70
     0
  9
$TDCREATE
 40
2458168.992370301
  9
$TDUCREATE
 40
2458168.950703634
  9
$TDUPDATE
 40
2458168.992370486
  9
$TDUUPDATE
 40
2458168.950703819
  9
$TDINDWG
 40
0.0000000116
  9
$TDUSRTIMER
 40
0.0000000116
  9
$USRTIMER
 70
     1
  9
$ANGBASE
 50
0.0
  9
$ANGDIR
 70
     0
  9
$PDMODE
 70
     0
  9
$PDSIZE
 40
0.0
  9
$PLINEWID
 40
0.0
  9
$SPLFRAME
 70
     0
  9
$SPLINETYPE
 70
     6
  9
$SPLINESEGS
 70
     8
  9
$HANDSEED
  5
1FD
  9
$SURFTAB1
 70
     6
  9
$SURFTAB2
 70
     6
  9
$SURFTYPE
 70
     6
  9
$SURFU
 70
     6
  9
$SURFV
 70
     6
  9
$UCSBASE
  2

  9
$UCSNAME
  2

  9
$UCSORG
 10
0.0
 20
0.0
 30
0.0
  9
$UCSXDIR
 10
1.0
 20
0.0
 30
0.0
  9
$UCSYDIR
 10
0.0
 20
1.0
 30
0.0
  9
$UCSORTHOREF
  2

  9
$UCSORTHOVIEW
 70
     0
  9
$UCSORGTOP
 10
0.0
 20
0.0
 30
0.0
  9
$UCSORGBOTTOM
 10
0.0
 20
0.0
 30
0.0
  9
$UCSORGLEFT
 10
0.0
 20
0.0
 30
0.0
  9
$UCSORGRIGHT
 10
0.0
 20
0.0
 30
0.0
  9
$UCSORGFRONT
 10
0.0
 20
0.0
 30
0.0
  9
$UCSORGBACK
 10
0.0
 20
0.0
 30
0.0
  9
$PUCSBASE
  2

  9
$PUCSNAME
  2

  9
$PUCSORG
 10
0.0
 20
0.0
 30
0.0
  9
$PUCSXDIR
 10
1.0
 20
0.0
 30
0.0
  9
$PUCSYDIR
 10
0.0
 20
1.0
 30
0.0
  9
$PUCSORTHOREF
  2

  9
$PUCSORTHOVIEW
 70
     0
  9
$PUCSORGTOP
 10
0.0
 20
0.0
 30
0.0
  9
$PUCSORGBOTTOM
 10
0.0
 20
0.0
 30
0.0
  9
$PUCSORGLEFT
 10
0.0
 20
0.0
 30
0.0
  9
$PUCSORGRIGHT
 10
0.0
 20
0.0
 30
0.0
  9
$PUCSORGFRONT
 10
0.0
 20
0.0
 30
0.0
  9
$PUCSORGBACK
 10
0.0
 20
0.0
 30
0.0
  9
$USERI1
 70
     0
  9
$USERI2
 70
     0
  9
$USERI3
 70
     0
  9
$USERI4
 70
     0
  9
$USERI5
 70
     0
  9
$USERR1
 40
0.0
  9
$USERR2
 40
0.0
  9
$USERR3
 40
0.0
  9
$USERR4
 40
0.0
  9
$USERR5
 40
0.0
  9
$WORLDVIEW
 70
     1
  9
$SHADEDGE
 70
     3
  9
$SHADEDIF
 70
    70
  9
$TILEMODE
 70
     1
  9
$MAXACTVP
 70
    64
  9
$PINSBASE
 10
0.0
 20
0.0
 30
0.0
  9
$PLIMCHECK
 70
     0
  9
$PEXTMIN
 10
1.000000000000000E+20
 20
1.000000000000000E+20
 30
1.000000000000000E+20
  9
$PEXTMAX
 10
-1.000000000000000E+20
 20
-1.000000000000000E+20
 30
-1.000000000000000E+20
  9
$PLIMMIN
 10
0.0
 20
0.0
  9
$PLIMMAX
 10
12.0
 20
9.0
  9
$UNITMODE
 70
     0
  9
$VISRETAIN
 70
     1
  9
$PLINEGEN
 70
     0
  9
$PSLTSCALE
 70
     1
  9
$TREEDEPTH
 70
  3020
  9
$CMLSTYLE
  2
Standard
  9
$CMLJUST
 70
     0
  9
$CMLSCALE
 40
1.0
  9
$PROXYGRAPHICS
 70
     1
  9
$MEASUREMENT
 70
     0
  9
$CELWEIGHT
370
    -1
  9
$ENDCAPS
280
     0
  9
$JOINSTYLE
280
     0
  9
$LWDISPLAY
290
     0
  9
$INSUNITS
 70
     1
  9
$HYPERLINKBASE
  1

  9
$STYLESHEET
  1

  9
$XEDIT
290
     1
  9
$CEPSNTYPE
380
     0
  9
$PSTYLEMODE
290
     1
  9
$FINGERPRINTGUID
  2
{6009F273-7340-4521-8912-8F64D51F780A}
  9
$VERSIONGUID
  2
{FAEB1C32-E019-11D5-929B-00C0DF256EC4}
  9
$EXTNAMES
290
     1
  9
$PSVPSCALE
 40
0.0
  9
$OLESTARTUP
290
     0
  9
$SORTENTS
280
   127
  9
$INDEXCTL
280
     0
  9
$HIDETEXT
280
     1
  9
$XCLIPFRAME
280
     2
  9
$HALOGAP
280
     0
  9
$OBSCOLOR
 70
   257
  9
$OBSLTYPE
280
     0
  9
$INTERSECTIONDISPLAY
280
     0
  9
$INTERSECTIONCOLOR
 70
   257
  9
$DIMASSOC
280
     2
  9
$PROJECTNAME
  1

  9
$CAMERADISPLAY
290
     0
  9
$LENSLENGTH
 40
50.0
  9
$CAMERAHEIGHT
 40
0.0
  9
$STEPSPERSEC
 40
2.0
  9
$STEPSIZE
 40
6.0
  9
$3DDWFPREC
 40
2.0
  9
$PSOLWIDTH
 40
0.25
  9
$PSOLHEIGHT
 40
4.0
  9
$LOFTANG1
 40
1.570796326794897
  9
$LOFTANG2
 40
1.570796326794897
  9
$LOFTMAG1
 40
0.0
  9
$LOFTMAG2
 40
0.0
  9
$LOFTPARAM
 70
     7
  9
$LOFTNORMALS
280
     1
  9
$LATITUDE
 40
37.795
  9
$LONGITUDE
 40
-122.394
  9
$NORTHDIRECTION
 40
0.0
  9
$TIMEZONE
 70
 -8000
  9
$LIGHTGLYPHDISPLAY
280
     1
  9
$TILEMODELIGHTSYNCH
280
     1
  9
$CMATERIAL
347
44
  9
$SOLIDHIST
280
     0
  9
$SHOWHIST
280
     1
  9
$DWFFRAME
280
     2
  9
$DGNFRAME
280
     2
  9
$REALWORLDSCALE
290
     1
  9
$INTERFERECOLOR
 62
   256
  9
$CSHADOW
280
     0
  9
$SHADOWPLANELOCATION
 40
0.0
  0
ENDSEC
  0
SECTION
  2
CLASSES
  0
CLASS
  1
ACDBDICTIONARYWDFLT
  2
AcDbDictionaryWithDefault
  3
ObjectDBX Classes
 90
        0
 91
        4
280
     0
281
     0
  0
CLASS
  1
VISUALSTYLE
  2
AcDbVisualStyle
  3
ObjectDBX Classes
 90
     4095
 91
        4
280
     0
281
     0
  0
CLASS
  1
MATERIAL
  2
AcDbMaterial
  3
ObjectDBX Classes
 90
     1153
 91
        4
280
     0
281
     0
  0
CLASS
  1
SCALE
  2
AcDbScale
  3
ObjectDBX Classes
 90
     1153
 91
        4
280
     0
281
     0
  0
CLASS
  1
TABLESTYLE
  2
AcDbTableStyle
  3
ObjectDBX Classes
 90
     4095
 91
        4
280
     0
281
     0
  0
CLASS
  1
MLEADERSTYLE
  2
AcDbMLeaderStyle
  3
ACDB_MLEADERSTYLE_CLASS
 90
     4095
 91
        4
280
     0
281
     0
  0
CLASS
  1
SUN
  2
AcDbSun
  3
SCENEOE
 90
     1153
 91
        4
280
     0
281
     0
  0
CLASS
  1
DICTIONARYVAR
  2
AcDbDictionaryVar
  3
ObjectDBX Classes
 90
        0
 91
        4
280
     0
281
     0
  0
CLASS
  1
CELLSTYLEMAP
  2
AcDbCellStyleMap
  3
ObjectDBX Classes
 90
     1152
 91
        4
280
     0
281
     0
  0
ENDSEC
  0
SECTION
  2
TABLES
  0
TABLE
  2
VPORT
  5
8
330
0
100
AcDbSymbolTable
 70
     1
  0
VPORT
  5
29
330
8
100
AcDbSymbolTableRecord
100
AcDbViewportTableRecord
  2
*Active
 70
     0
 10
0.0
 20
0.0
 11
1.0
 21
1.0
 12
0.0
 22
0.0
 13
0.0
 23
0.0
 14
0.5
 24
0.5
 15
0.5
 25
0.5
 16
0.0
 26
0.0
 36
1.0
 17
0.0
 27
0.0
 37
0.0
 40
6.439259999999999
 41
0.5865674006019326
 42
50.0
 43
0.0
 44
0.0
 50
0.0
 51
0.0
 71
     0
 72
   100
 73
     1
 74
     3
 75
     0
 76
     0
 77
     0
 78
     0
281
     0
 65
     1
110
0.0
120
0.0
130
0.0
111
1.0
121
0.0
131
0.0
112
0.0
122
1.0
132
0.0
 79
     0
146
0.0
348
2F
 60
     3
 61
     5
292
     1
282
     1
141
0.0
142
0.0
 63
   250
361
6D
  0
ENDTAB
  0
TABLE
  2
LTYPE
  5
5
330
0
100
AcDbSymbolTable
 70
     3
  0
LTYPE
  5
14
330
5
100
AcDbSymbolTableRecord
100
AcDbLinetypeTableRecord
  2
ByBlock
 70
     0
  3

 72
    65
 73
     0
 40
0.0
  0
LTYPE
  5
15
330
5
100
AcDbSymbolTableRecord
100
AcDbLinetypeTableRecord
  2
ByLayer
 70
     0
  3

 72
    65
 73
     0
 40
0.0
  0
LTYPE
  5
16
330
5
100
AcDbSymbolTableRecord
100
AcDbLinetypeTableRecord
  2
Continuous
 70
     0
  3
Solid line
 72
    65
 73
     0
 40
0.0
  0
LTYPE
  5
9D
330
5
100
AcDbSymbolTableRecord
100
AcDbLinetypeTableRecord
  2
Dashed
 70
     0
  3

 72
    65
 73
     2
 40
2.0
 49
1.0
 74
     0
 49
-1.0
 74
     0
  0
LTYPE
  5
10D
330
5
100
AcDbSymbolTableRecord
100
AcDbLinetypeTableRecord
  2
Center
 70
     0
  3

 72
    65
 73
     4
 40
1.5
 49
0.45
 74
     0
 49
-0.5
 74
     0
 49
0.05
 74
     0
 49
-0.5
 74
     0
  0
ENDTAB
  0
TABLE
  2
LAYER
  5
2
330
0
100
AcDbSymbolTable
 70
     7
  0
LAYER
  5
10
330
2
100
AcDbSymbolTableRecord
100
AcDbLayerTableRecord
  2
0
 70
     0
 62
     7
  6
Continuous
370
    -3
390
F
347
46
348
0
  0
LAYER
  5
72
330
2
100
AcDbSymbolTableRecord
100
AcDbLayerTableRecord
  2
AM_6
 70
     0
 62
    -2
  6
Continuous
370
    35
390
F
347
46
348
0
  0
LAYER
  5
9E
330
2
100
AcDbSymbolTableRecord
100
AcDbLayerTableRecord
  2
AM_9
 70
     0
 62
     6
  6
Dashed
370
    25
390
F
347
46
348
0
  0
LAYER
  5
A3
330
2
100
AcDbSymbolTableRecord
100
AcDbLayerTableRecord
  2
AM_4
 70
     0
 62
     3
  6
Continuous
370
    25
390
F
347
46
348
0
  0
LAYER
  5
D3
330
2
100
AcDbSymbolTableRecord
100
AcDbLayerTableRecord
  2
AM_5
 70
     0
 62
     3
  6
Continuous
370
    25
390
F
347
46
348
0
  0
LAYER
  5
10E
330
2
100
AcDbSymbolTableRecord
100
AcDbLayerTableRecord
  2
AM_7
 70
     0
 62
     7
  6
Center
370
    25
390
F
347
46
348
0
  0
LAYER
  5
1F0
330
2
100
AcDbSymbolTableRecord
100
AcDbLayerTableRecord
  2
ConnectionPoints
 70
     0
 62
     7
  6
Continuous
370
    50
390
F
347
46
348
0
  0
ENDTAB
  0
TABLE
  2
STYLE
  5
3
330
0
100
AcDbSymbolTable
 70
     1
  0
STYLE
  5
11
330
3
100
AcDbSymbolTableRecord
100
AcDbTextStyleTableRecord
  2
Standard
 70
     0
 40
0.0
 41
1.0
 50
0.0
 71
     0
 42
0.2
  3
txt
  4

  0
ENDTAB
  0
TABLE
  2
VIEW
  5
6
330
0
100
AcDbSymbolTable
 70
     0
  0
ENDTAB
  0
TABLE
  2
UCS
  5
7
330
0
100
AcDbSymbolTable
 70
     0
  0
ENDTAB
  0
TABLE
  2
APPID
  5
9
330
0
100
AcDbSymbolTable
 70
     1
  0
APPID
  5
12
330
9
100
AcDbSymbolTableRecord
100
AcDbRegAppTableRecord
  2
ACAD
 70
     0
  0
ENDTAB
  0
TABLE
  2
DIMSTYLE
  5
A
330
0
100
AcDbSymbolTable
 70
     1
100
AcDbDimStyleTable
  0
DIMSTYLE
105
27
330
A
100
AcDbSymbolTableRecord
100
AcDbDimStyleTableRecord
  2
Standard
 70
     0
178
     0
340
11
  0
ENDTAB
  0
TABLE
  2
BLOCK_RECORD
  5
1
330
0
100
AcDbSymbolTable
 70
     5
  0
BLOCK_RECORD
  5
1F
330
1
100
AcDbSymbolTableRecord
100
AcDbBlockTableRecord
  2
*Model_Space
340
22
 70
     0
280
     1
281
     0
  0
BLOCK_RECORD
  5
1B
330
1
100
AcDbSymbolTableRecord
100
AcDbBlockTableRecord
  2
*Paper_Space
340
1E
 70
     0
280
     1
281
     0
  0
BLOCK_RECORD
  5
23
330
1
100
AcDbSymbolTableRecord
100
AcDbBlockTableRecord
  2
*Paper_Space0
340
26
 70
     0
280
     1
281
     0
  0
BLOCK_RECORD
  5
6E
330
1
100
AcDbSymbolTableRecord
100
AcDbBlockTableRecord
  2
1_129347_0
340
0
102
{BLKREFS
331
6F
102
}
 70
     0
280
     1
281
     0
  0
BLOCK_RECORD
  5
87
330
1
100
AcDbSymbolTableRecord
100
AcDbBlockTableRecord
  2
2_INS_GT_07_CRI_0_in_129347_0
340
0
102
{BLKREFS
331
88
102
}
 70
     0
280
     1
281
     0
  0
BLOCK_RECORD
  5
AA
330
1
100
AcDbSymbolTableRecord
100
AcDbBlockTableRecord
  2
3_129974_0_in_129347_0
340
0
102
{BLKREFS
331
AB
102
}
 70
     0
280
     1
281
     0
  0
BLOCK_RECORD
  5
ED
330
1
100
AcDbSymbolTableRecord
100
AcDbBlockTableRecord
  2
4_F2B_GREZ_07_PCR_II_0_in_129347_0
340
0
102
{BLKREFS
331
EE
102
}
 70
     0
280
     1
281
     0
  0
ENDTAB
  0
ENDSEC
  0
SECTION
  2
BLOCKS
  0
BLOCK
  5
20
330
1F
100
AcDbEntity
  8
0
100
AcDbBlockBegin
  2
*Model_Space
 70
     0
 10
0.0
 20
0.0
 30
0.0
  3
*Model_Space
  1

  0
ENDBLK
  5
21
330
1F
100
AcDbEntity
  8
0
100
AcDbBlockEnd
  0
BLOCK
  5
1C
330
1B
100
AcDbEntity
 67
     1
  8
0
100
AcDbBlockBegin
  2
*Paper_Space
 70
     0
 10
0.0
 20
0.0
 30
0.0
  3
*Paper_Space
  1

  0
ENDBLK
  5
1D
330
1B
100
AcDbEntity
 67
     1
  8
0
100
AcDbBlockEnd
  0
BLOCK
  5
24
330
23
100
AcDbEntity
  8
0
100
AcDbBlockBegin
  2
*Paper_Space0
 70
     0
 10
0.0
 20
0.0
 30
0.0
  3
*Paper_Space0
  1

  0
ENDBLK
  5
25
330
23
100
AcDbEntity
  8
0
100
AcDbBlockEnd
  0
BLOCK
  5
70
330
6E
100
AcDbEntity
  8
0
100
AcDbBlockBegin
  2
1_129347_0
 70
     2
 10
0.0
 20
0.0
 30
0.0
  3
1_129347_0
  1

  0
ATTDEF
  5
73
330
6E
100
AcDbEntity
  8
AM_6
100
AcDbText
 10
6.8515
 20
3.1565
 30
0.0
 40
0.5
  1
Grip Tight Two-Bolt Flange - Polymer Housing, Corrosion Resistant Insert Inch Bore
100
AcDbAttributeDefinition
  3

  2
NN
 70
     8
280
     0
  0
ATTDEF
  5
74
330
6E
100
AcDbEntity
  8
AM_6
100
AcDbText
 10
6.8515
 20
2.6565
 30
0.0
 40
0.5
  1
GTEZ Normal Duty Polymer Housed 2 Bolt Flange Bearings
100
AcDbAttributeDefinition
  3

  2
NT
 70
     8
280
     0
  0
ATTDEF
  5
75
330
6E
100
AcDbEntity
  8
AM_6
100
AcDbText
 10
6.8515
 20
2.1565
 30
0.0
 40
0.5
  1
129347
100
AcDbAttributeDefinition
  3

  2
NB
 70
     8
280
     0
  0
ATTDEF
  5
76
330
6E
100
AcDbEntity
  8
AM_6
100
AcDbText
 10
6.8515
 20
1.6565
 30
0.0
 40
0.5
  1
$PN.$LUBE.
100
AcDbAttributeDefinition
  3

  2
NBSYN
 70
     8
280
     0
  0
ATTDEF
  5
77
330
6E
100
AcDbEntity
  8
AM_6
100
AcDbText
 10
6.8515
 20
1.1565
 30
0.0
 40
0.5
  1
129347
100
AcDbAttributeDefinition
  3

  2
LINA
 70
     8
280
     0
  0
ATTDEF
  5
78
330
6E
100
AcDbEntity
  8
AM_6
100
AcDbText
 10
6.8515
 20
0.6564999999999999
 30
0.0
 40
0.5
  1
207
100
AcDbAttributeDefinition
  3

  2
SERIES
 70
     8
280
     0
  0
ATTDEF
  5
79
330
6E
100
AcDbEntity
  8
AM_6
100
AcDbText
 10
6.8515
 20
0.1564999999999999
 30
0.0
 40
0.5
  1
1-7/16
100
AcDbAttributeDefinition
  3

  2
SS
 70
     8
280
     0
  0
ATTDEF
  5
7A
330
6E
100
AcDbEntity
  8
AM_6
100
AcDbText
 10
6.8515
 20
-0.3435000000000001
 30
0.0
 40
0.5
  1
129347
100
AcDbAttributeDefinition
  3

  2
PN
 70
     8
280
     0
  0
ATTDEF
  5
7B
330
6E
100
AcDbEntity
  8
AM_6
100
AcDbText
 10
6.8515
 20
-0.8435000000000001
 30
0.0
 40
0.5
  1
F2B-GTEZ-107-PCR
100
AcDbAttributeDefinition
  3

  2
DESCRIPTION
 70
     8
280
     0
  0
ATTDEF
  5
7C
330
6E
100
AcDbEntity
  8
AM_6
100
AcDbText
 10
6.8515
 20
-1.3435
 30
0.0
 40
0.5
  1
1-5/8
100
AcDbAttributeDefinition
  3

  2
A
 70
     8
280
     0
  0
ATTDEF
  5
7D
330
6E
100
AcDbEntity
  8
AM_6
100
AcDbText
 10
6.8515
 20
-1.8435
 30
0.0
 40
0.5
  1
6-5/16
100
AcDbAttributeDefinition
  3

  2
B
 70
     8
280
     0
  0
ATTDEF
  5
7E
330
6E
100
AcDbEntity
  8
AM_6
100
AcDbText
 10
6.8515
 20
-2.3435
 30
0.0
 40
0.5
  1
1-27/32
100
AcDbAttributeDefinition
  3

  2
C
 70
     8
280
     0
  0
ATTDEF
  5
7F
330
6E
100
AcDbEntity
  8
AM_6
100
AcDbText
 10
6.8515
 20
-2.8435
 30
0.0
 40
0.5
  1
5-1/8
100
AcDbAttributeDefinition
  3

  2
D
 70
     8
280
     0
  0
ATTDEF
  5
80
330
6E
100
AcDbEntity
  8
AM_6
100
AcDbText
 10
6.8515
 20
-3.3435
 30
0.0
 40
0.5
  1
1/2
100
AcDbAttributeDefinition
  3

  2
F
 70
     8
280
     0
  0
ATTDEF
  5
81
330
6E
100
AcDbEntity
  8
AM_6
100
AcDbText
 10
6.8515
 20
-3.8435
 30
0.0
 40
0.5
  1
5/8
100
AcDbAttributeDefinition
  3

  2
H
 70
     8
280
     0
  0
ATTDEF
  5
82
330
6E
100
AcDbEntity
  8
AM_6
100
AcDbText
 10
6.8515
 20
-4.343500000000001
 30
0.0
 40
0.5
  1
35/64
100
AcDbAttributeDefinition
  3

  2
J
 70
     8
280
     0
  0
ATTDEF
  5
83
330
6E
100
AcDbEntity
  8
AM_6
100
AcDbText
 10
6.8515
 20
-4.843500000000001
 30
0.0
 40
0.5
  1
2-19/64
100
AcDbAttributeDefinition
  3

  2
L
 70
     8
280
     0
  0
ATTDEF
  5
84
330
6E
100
AcDbEntity
  8
AM_6
100
AcDbText
 10
6.8515
 20
-5.343500000000001
 30
0.0
 40
0.5
  1
3-45/64
100
AcDbAttributeDefinition
  3

  2
M
 70
     8
280
     0
  0
ATTDEF
  5
85
330
6E
100
AcDbEntity
  8
AM_6
100
AcDbText
 10
6.8515
 20
-5.843500000000001
 30
0.0
 40
0.5
  1
1-53/64
100
AcDbAttributeDefinition
  3

  2
Z
 70
     8
280
     0
  0
ATTDEF
  5
86
330
6E
100
AcDbEntity
  8
AM_6
100
AcDbText
 10
6.8515
 20
-6.343500000000001
 30
0.0
 40
0.5
  1
baldor
100
AcDbAttributeDefinition
  3

  2
COMPANY
 70
     8
280
     0
  0
INSERT
  5
88
330
6E
100
AcDbEntity
  8
0
100
AcDbBlockReference
  2
2_INS_GT_07_CRI_0_in_129347_0
 10
0.0
 20
0.0
 30
0.0
  0
INSERT
  5
AB
330
6E
100
AcDbEntity
  8
0
100
AcDbBlockReference
  2
3_129974_0_in_129347_0
 10
0.0
 20
0.0
 30
0.0
  0
INSERT
  5
EE
330
6E
100
AcDbEntity
  8
0
100
AcDbBlockReference
  2
4_F2B_GREZ_07_PCR_II_0_in_129347_0
 10
0.0
 20
0.0
 30
0.0
  0
ENDBLK
  5
71
330
6E
100
AcDbEntity
  8
0
100
AcDbBlockEnd
  0
BLOCK
  5
89
330
87
100
AcDbEntity
  8
0
100
AcDbBlockBegin
  2
2_INS_GT_07_CRI_0_in_129347_0
 70
     2
 10
0.0
 20
0.0
 30
0.0
  3
2_INS_GT_07_CRI_0_in_129347_0
  1

  0
ATTDEF
  5
8B
330
87
100
AcDbEntity
  8
AM_6
100
AcDbText
 10
6.404816191682578
 20
1.404816191682578
 30
0.0
 40
0.5
  1
INS-GT-CR-I
100
AcDbAttributeDefinition
  3

  2
NN
 70
     8
280
     0
  0
ATTDEF
  5
8C
330
87
100
AcDbEntity
  8
AM_6
100
AcDbText
 10
6.404816191682578
 20
0.9048161916825781
 30
0.0
 40
0.5
  1
GT Normal Duty Corrosion Resistant Bearing Inserts
100
AcDbAttributeDefinition
  3

  2
NT
 70
     8
280
     0
  0
ATTDEF
  5
8D
330
87
100
AcDbEntity
  8
AM_6
100
AcDbText
 10
6.404816191682578
 20
0.4048161916825781
 30
0.0
 40
0.5
  1
INS-GT-07-CRI
100
AcDbAttributeDefinition
  3

  2
NB
 70
     8
280
     0
  0
ATTDEF
  5
8E
330
87
100
AcDbEntity
  8
AM_6
100
AcDbText
 10
6.404816191682578
 20
-0.0951838083174219
 30
0.0
 40
0.5
  1
$PN.I
100
AcDbAttributeDefinition
  3

  2
NBSYN
 70
     8
280
     0
  0
ATTDEF
  5
8F
330
87
100
AcDbEntity
  8
AM_6
100
AcDbText
 10
6.404816191682578
 20
-0.5951838083174219
 30
0.0
 40
0.5
  1
INS-GT-07-CR
100
AcDbAttributeDefinition
  3

  2
LINA
 70
     8
280
     0
  0
ATTDEF
  5
90
330
87
100
AcDbEntity
  8
AM_6
100
AcDbText
 10
6.404816191682578
 20
-1.095183808317422
 30
0.0
 40
0.5
  1
207
100
AcDbAttributeDefinition
  3

  2
SERIES
 70
     8
280
     0
  0
ATTDEF
  5
91
330
87
100
AcDbEntity
  8
AM_6
100
AcDbText
 10
6.404816191682578
 20
-1.595183808317422
 30
0.0
 40
0.5
  1
INS-GT-07-CR
100
AcDbAttributeDefinition
  3

  2
PN
 70
     8
280
     0
  0
ATTDEF
  5
92
330
87
100
AcDbEntity
  8
AM_6
100
AcDbText
 10
6.404816191682578
 20
-2.095183808317422
 30
0.0
 40
0.5
  1
INS-GT-07-CR
100
AcDbAttributeDefinition
  3

  2
DESCRIPTION
 70
     8
280
     0
  0
ATTDEF
  5
93
330
87
100
AcDbEntity
  8
AM_6
100
AcDbText
 10
6.404816191682578
 20
-2.595183808317422
 30
0.0
 40
0.5
  1
1-5/8
100
AcDbAttributeDefinition
  3

  2
A
 70
     8
280
     0
  0
ATTDEF
  5
94
330
87
100
AcDbEntity
  8
AM_6
100
AcDbText
 10
6.404816191682578
 20
-3.095183808317422
 30
0.0
 40
0.5
  1
0.7480
100
AcDbAttributeDefinition
  3

  2
C
 70
     8
280
     0
  0
ATTDEF
  5
95
330
87
100
AcDbEntity
  8
AM_6
100
AcDbText
 10
6.404816191682578
 20
-3.595183808317422
 30
0.0
 40
0.5
  1
2.8346
100
AcDbAttributeDefinition
  3

  2
D
 70
     8
280
     0
  0
ATTDEF
  5
96
330
87
100
AcDbEntity
  8
AM_6
100
AcDbText
 10
6.404816191682578
 20
-4.095183808317422
 30
0.0
 40
0.5
  1
0.202
100
AcDbAttributeDefinition
  3

  2
J
 70
     8
280
     0
  0
ATTDEF
  5
97
330
87
100
AcDbEntity
  8
AM_6
100
AcDbText
 10
6.404816191682578
 20
-4.595183808317422
 30
0.0
 40
0.5
  1
2-19/64
100
AcDbAttributeDefinition
  3

  2
L
 70
     8
280
     0
  0
ATTDEF
  5
98
330
87
100
AcDbEntity
  8
AM_6
100
AcDbText
 10
6.404816191682578
 20
-5.095183808317422
 30
0.0
 40
0.5
  1
10 - 32 x 1/4
100
AcDbAttributeDefinition
  3

  2
N
 70
     8
280
     0
  0
ATTDEF
  5
99
330
87
100
AcDbEntity
  8
AM_6
100
AcDbText
 10
6.404816191682578
 20
-5.595183808317422
 30
0.0
 40
0.5
  1
9/16
100
AcDbAttributeDefinition
  3

  2
W
 70
     8
280
     0
  0
ATTDEF
  5
9A
330
87
100
AcDbEntity
  8
AM_6
100
AcDbText
 10
6.404816191682578
 20
-6.095183808317422
 30
0.0
 40
0.5
  1
1-3/64
100
AcDbAttributeDefinition
  3

  2
X
 70
     8
280
     0
  0
ATTDEF
  5
9B
330
87
100
AcDbEntity
  8
AM_6
100
AcDbText
 10
6.404816191682578
 20
-6.595183808317422
 30
0.0
 40
0.5
  1
1-1/16
100
AcDbAttributeDefinition
  3

  2
Y
 70
     8
280
     0
  0
ATTDEF
  5
9C
330
87
100
AcDbEntity
  8
AM_6
100
AcDbText
 10
6.404816191682578
 20
-7.095183808317422
 30
0.0
 40
0.5
  1
baldor
100
AcDbAttributeDefinition
  3

  2
COMPANY
 70
     8
280
     0
  0
CIRCLE
  5
9F
330
87
100
AcDbEntity
  8
AM_9
100
AcDbCircle
 10
0.0000000000000001
 20
0.0
 30
0.0
 40
0.8881585142599845
  0
CIRCLE
  5
A0
330
87
100
AcDbEntity
  8
AM_9
100
AcDbCircle
 10
0.0000000000000001
 20
0.0
 30
0.0
 40
1.3425
  0
CIRCLE
  5
A1
330
87
100
AcDbEntity
  8
AM_9
100
AcDbCircle
 10
0.0000000000000001
 20
0.0
 30
0.0
 40
1.376903536473977
  0
CIRCLE
  5
A2
330
87
100
AcDbEntity
  8
AM_9
100
AcDbCircle
 10
0.0000000000000001
 20
0.0
 30
0.0
 40
0.9909133333333333
  0
CIRCLE
  5
A4
330
87
100
AcDbEntity
  8
AM_4
100
AcDbCircle
 10
0.0000000000000001
 20
0.0
 30
0.0
 40
1.397432220977328
  0
CIRCLE
  5
A5
330
87
100
AcDbEntity
  8
AM_4
100
AcDbCircle
 10
0.0000000000000001
 20
0.0
 30
0.0
 40
1.404816191682578
  0
CIRCLE
  5
A6
330
87
100
AcDbEntity
  8
AM_4
100
AcDbCircle
 10
0.0000000000000001
 20
0.0
 30
0.0
 40
1.384128370350267
  0
CIRCLE
  5
A7
330
87
100
AcDbEntity
  8
AM_4
100
AcDbCircle
 10
0.0000000000000001
 20
0.0
 30
0.0
 40
1.350181451274502
  0
CIRCLE
  5
A8
330
87
100
AcDbEntity
  8
AM_4
100
AcDbCircle
 10
0.0000000000000001
 20
0.0
 30
0.0
 40
1.322326637389132
  0
ARC
  5
A9
330
87
100
AcDbEntity
  8
AM_4
100
AcDbCircle
 10
0.0
 20
-0.0000000000000078
 30
0.0
 40
0.8567707677083412
100
AcDbArc
 50
86.65439405810875
 51
93.34560594189125
  0
ENDBLK
  5
8A
330
87
100
AcDbEntity
  8
0
100
AcDbBlockEnd
  0
BLOCK
  5
AC
330
AA
100
AcDbEntity
  8
0
100
AcDbBlockBegin
  2
3_129974_0_in_129347_0
 70
     2
 10
0.0
 20
0.0
 30
0.0
  3
3_129974_0_in_129347_0
  1

  0
ATTDEF
  5
AE
330
AA
100
AcDbEntity
  8
AM_6
100
AcDbText
 10
6.143987627295965
 20
1.1484373925987
 30
0.0
 40
0.5
  1
Grip Tight Adapter and Nut - Corrosion Resistant Inch Bore
100
AcDbAttributeDefinition
  3

  2
NN
 70
     8
280
     0
  0
ATTDEF
  5
AF
330
AA
100
AcDbEntity
  8
AM_6
100
AcDbText
 10
6.143987627295965
 20
0.6484373925986997
 30
0.0
 40
0.5
  1
GT and GTM Adapter & Lock Nut Assemblies
100
AcDbAttributeDefinition
  3

  2
NT
 70
     8
280
     0
  0
ATTDEF
  5
B0
330
AA
100
AcDbEntity
  8
AM_6
100
AcDbText
 10
6.143987627295965
 20
0.1484373925986997
 30
0.0
 40
0.5
  1
129974
100
AcDbAttributeDefinition
  3

  2
NB
 70
     8
280
     0
  0
ATTDEF
  5
B1
330
AA
100
AcDbEntity
  8
AM_6
100
AcDbText
 10
6.143987627295965
 20
-0.3515626074013003
 30
0.0
 40
0.5
  1
$PN.
100
AcDbAttributeDefinition
  3

  2
NBSYN
 70
     8
280
     0
  0
ATTDEF
  5
B2
330
AA
100
AcDbEntity
  8
AM_6
100
AcDbText
 10
6.143987627295965
 20
-0.8515626074013003
 30
0.0
 40
0.5
  1
129974
100
AcDbAttributeDefinition
  3

  2
LINA
 70
     8
280
     0
  0
ATTDEF
  5
B3
330
AA
100
AcDbEntity
  8
AM_6
100
AcDbText
 10
6.143987627295965
 20
-1.3515626074013
 30
0.0
 40
0.5
  1
207
100
AcDbAttributeDefinition
  3

  2
SERIES
 70
     8
280
     0
  0
ATTDEF
  5
B4
330
AA
100
AcDbEntity
  8
AM_6
100
AcDbText
 10
6.143987627295965
 20
-1.8515626074013
 30
0.0
 40
0.5
  1
1-7/16
100
AcDbAttributeDefinition
  3

  2
SS
 70
     8
280
     0
  0
ATTDEF
  5
B5
330
AA
100
AcDbEntity
  8
AM_6
100
AcDbText
 10
6.143987627295965
 20
-2.3515626074013
 30
0.0
 40
0.5
  1
129974
100
AcDbAttributeDefinition
  3

  2
PN
 70
     8
280
     0
  0
ATTDEF
  5
B6
330
AA
100
AcDbEntity
  8
AM_6
100
AcDbText
 10
6.143987627295965
 20
-2.8515626074013
 30
0.0
 40
0.5
  1
AN-GT-07-107-CR
100
AcDbAttributeDefinition
  3

  2
DESCRIPTION
 70
     8
280
     0
  0
ATTDEF
  5
B7
330
AA
100
AcDbEntity
  8
AM_6
100
AcDbText
 10
6.143987627295965
 20
-3.3515626074013
 30
0.0
 40
0.5
  1
1-5/8
100
AcDbAttributeDefinition
  3

  2
A
 70
     8
280
     0
  0
ATTDEF
  5
B8
330
AA
100
AcDbEntity
  8
AM_6
100
AcDbText
 10
6.143987627295965
 20
-3.8515626074013
 30
0.0
 40
0.5
  1
0.7480
100
AcDbAttributeDefinition
  3

  2
C
 70
     8
280
     0
  0
ATTDEF
  5
B9
330
AA
100
AcDbEntity
  8
AM_6
100
AcDbText
 10
6.143987627295965
 20
-4.3515626074013
 30
0.0
 40
0.5
  1
2.8346
100
AcDbAttributeDefinition
  3

  2
D
 70
     8
280
     0
  0
ATTDEF
  5
BA
330
AA
100
AcDbEntity
  8
AM_6
100
AcDbText
 10
6.143987627295965
 20
-4.8515626074013
 30
0.0
 40
0.5
  1
0.202
100
AcDbAttributeDefinition
  3

  2
J
 70
     8
280
     0
  0
ATTDEF
  5
BB
330
AA
100
AcDbEntity
  8
AM_6
100
AcDbText
 10
6.143987627295965
 20
-5.3515626074013
 30
0.0
 40
0.5
  1
2-19/64
100
AcDbAttributeDefinition
  3

  2
L
 70
     8
280
     0
  0
ATTDEF
  5
BC
330
AA
100
AcDbEntity
  8
AM_6
100
AcDbText
 10
6.143987627295965
 20
-5.8515626074013
 30
0.0
 40
0.5
  1
10 - 32 x 1/4
100
AcDbAttributeDefinition
  3

  2
N
 70
     8
280
     0
  0
ATTDEF
  5
BD
330
AA
100
AcDbEntity
  8
AM_6
100
AcDbText
 10
6.143987627295965
 20
-6.3515626074013
 30
0.0
 40
0.5
  1
9/16
100
AcDbAttributeDefinition
  3

  2
W
 70
     8
280
     0
  0
ATTDEF
  5
BE
330
AA
100
AcDbEntity
  8
AM_6
100
AcDbText
 10
6.143987627295965
 20
-6.8515626074013
 30
0.0
 40
0.5
  1
1-3/64
100
AcDbAttributeDefinition
  3

  2
X
 70
     8
280
     0
  0
ATTDEF
  5
BF
330
AA
100
AcDbEntity
  8
AM_6
100
AcDbText
 10
6.143987627295965
 20
-7.3515626074013
 30
0.0
 40
0.5
  1
1-1/16
100
AcDbAttributeDefinition
  3

  2
Y
 70
     8
280
     0
  0
ATTDEF
  5
C0
330
AA
100
AcDbEntity
  8
AM_6
100
AcDbText
 10
6.143987627295965
 20
-7.8515626074013
 30
0.0
 40
0.5
  1
baldor
100
AcDbAttributeDefinition
  3

  2
COMPANY
 70
     8
280
     0
  0
LINE
  5
C1
330
AA
100
AcDbEntity
  8
AM_9
100
AcDbLine
 10
0.0500000000000001
 20
0.8567788675498903
 30
0.0
 11
0.0500000000000001
 21
0.8887174864181436
 31
0.0
  0
LINE
  5
C2
330
AA
100
AcDbEntity
  8
AM_9
100
AcDbLine
 10
-0.0499999999999999
 20
0.8567788675498904
 30
0.0
 11
-0.0499999999999999
 21
0.8887174864181436
 31
0.0
  0
ARC
  5
C3
330
AA
100
AcDbEntity
  8
AM_9
100
AcDbCircle
 10
0.0000000000000001
 20
0.0000000000000001
 30
0.0
 40
0.8901228963830687
100
AcDbArc
 50
93.22011451807202
 51
86.77988548192796
  0
CIRCLE
  5
C4
330
AA
100
AcDbEntity
  8
AM_9
100
AcDbCircle
 10
0.0000000000000001
 20
0.0
 30
0.0
 40
0.9388020833333335
  0
CIRCLE
  5
C5
330
AA
100
AcDbEntity
  8
AM_9
100
AcDbCircle
 10
0.0000000000000001
 20
0.0
 30
0.0
 40
1.020833333333333
  0
LINE
  5
C6
330
AA
100
AcDbEntity
  8
AM_9
100
AcDbLine
 10
-1.1314375
 20
-0.078
 30
0.0
 11
-0.878328125
 21
-0.078
 31
0.0
  0
LINE
  5
C7
330
AA
100
AcDbEntity
  8
AM_9
100
AcDbLine
 10
-0.878328125
 20
0.078
 30
0.0
 11
-1.1314375
 21
0.078
 31
0.0
  0
LINE
  5
C8
330
AA
100
AcDbEntity
  8
AM_9
100
AcDbLine
 10
-0.878328125
 20
-0.078
 30
0.0
 11
-0.8613281249999999
 21
-0.0950000000000001
 31
0.0
  0
LINE
  5
C9
330
AA
100
AcDbEntity
  8
AM_9
100
AcDbLine
 10
-0.8613281249999999
 20
0.0950000000000001
 30
0.0
 11
-0.878328125
 21
0.078
 31
0.0
  0
LINE
  5
CA
330
AA
100
AcDbEntity
  8
AM_9
100
AcDbLine
 10
-0.8613281249999999
 20
0.0950000000000001
 30
0.0
 11
-0.8613281249999999
 21
-0.0950000000000001
 31
0.0
  0
LINE
  5
CB
330
AA
100
AcDbEntity
  8
AM_9
100
AcDbLine
 10
-0.878328125
 20
0.078
 30
0.0
 11
-0.878328125
 21
-0.078
 31
0.0
  0
LINE
  5
CC
330
AA
100
AcDbEntity
  8
AM_9
100
AcDbLine
 10
-1.1314375
 20
0.078
 30
0.0
 11
-1.144244257137375
 21
0.090806757137375
 31
0.0
  0
LINE
  5
CD
330
AA
100
AcDbEntity
  8
AM_9
100
AcDbLine
 10
-1.144776503615392
 20
-0.0913390036153919
 30
0.0
 11
-1.1314375
 21
-0.078
 31
0.0
  0
LINE
  5
CE
330
AA
100
AcDbEntity
  8
AM_9
100
AcDbLine
 10
-1.1314375
 20
0.078
 30
0.0
 11
-1.1314375
 21
-0.078
 31
0.0
  0
LWPOLYLINE
  5
CF
330
AA
100
AcDbEntity
  8
AM_9
100
AcDbPolyline
 90
        5
 70
     0
 43
0.0
 10
-1.147292015526705
 20
0.0512808201467308
 10
-1.146603620382192
 20
0.0648754894601966
 10
-1.145492017330086
 20
0.0821993287034678
 10
-1.144843903647285
 20
0.0907806570140069
 10
-1.144797794265198
 20
0.0913602848714248
  0
LINE
  5
D0
330
AA
100
AcDbEntity
  8
AM_9
100
AcDbLine
 10
-1.147355870624547
 20
0.0498316922212981
 30
0.0
 11
-1.147292015526705
 21
0.0512808201467308
 31
0.0
  0
LINE
  5
D1
330
AA
100
AcDbEntity
  8
AM_9
100
AcDbLine
 10
-1.147256458332654
 20
-0.0520702431362171
 30
0.0
 11
-1.1473680283312
 21
-0.0495509734477941
 31
0.0
  0
LWPOLYLINE
  5
D2
330
AA
100
AcDbEntity
  8
AM_9
100
AcDbPolyline
 90
        5
 70
     0
 43
0.0
 10
-1.144797793578997
 20
-0.091360293469917
 10
-1.145216408107165
 20
-0.0859538830325481
 10
-1.146299986377777
 20
-0.0700359381786167
 10
-1.146920177120514
 20
-0.0590152414220181
 10
-1.147256458332654
 20
-0.0520702431362171
  0
LINE
  5
D4
330
AA
100
AcDbEntity
  8
AM_5
100
AcDbLine
 10
-1.144501503453032
 20
-0.0950000000000001
 30
0.0
 11
-0.8613281249999999
 21
-0.0950000000000001
 31
0.0
  0
LINE
  5
D5
330
AA
100
AcDbEntity
  8
AM_5
100
AcDbLine
 10
-1.144501503453032
 20
0.0950000000000002
 30
0.0
 11
-0.8613281249999999
 21
0.0950000000000002
 31
0.0
  0
LWPOLYLINE
  5
D6
330
AA
100
AcDbEntity
  8
AM_4
100
AcDbPolyline
 90
        6
 70
     0
 43
0.0
 10
-1.1473680283312
 20
-0.0495509734477941
 10
-1.147525790069069
 20
-0.0457520768119632
 10
-1.148315742261515
 20
-0.016722663682404
 10
-1.148361459032061
 20
0.0132155520507687
 10
-1.147700235991567
 20
0.0411443764219549
 10
-1.147355870624547
 20
0.0498316922212981
  0
LINE
  5
D7
330
AA
100
AcDbEntity
  8
AM_4
100
AcDbLine
 10
-0.4845252478657536
 20
-1.041222346853389
 30
0.0
 11
-0.4484688369832018
 21
-0.9787708112662304
 31
0.0
  0
ARC
  5
D8
330
AA
100
AcDbEntity
  8
AM_4
100
AcDbCircle
 10
0.0000000000000004
 20
-0.0000000000000004
 30
0.0
 40
1.1484375
100
AcDbArc
 50
245.0454286839745
 51
354.9545713160255
  0
LINE
  5
D9
330
AA
100
AcDbEntity
  8
AM_4
100
AcDbLine
 10
1.071874805530861
 20
-0.101
 30
0.0
 11
1.143987627295964
 21
-0.101
 31
0.0
  0
LINE
  5
DA
330
AA
100
AcDbEntity
  8
AM_4
100
AcDbLine
 10
1.143987627295964
 20
0.101
 30
0.0
 11
1.071874805530861
 21
0.101
 31
0.0
  0
LINE
  5
DB
330
AA
100
AcDbEntity
  8
AM_4
100
AcDbLine
 10
-0.4484688369832024
 20
0.9787708112662303
 30
0.0
 11
-0.4845252478657541
 21
1.041222346853389
 31
0.0
  0
ARC
  5
DC
330
AA
100
AcDbEntity
  8
AM_4
100
AcDbCircle
 10
0.0
 20
-0.0000000000000001
 30
0.0
 40
1.1484375
100
AcDbArc
 50
5.04542868397455
 51
114.9545713160255
  0
LINE
  5
DD
330
AA
100
AcDbEntity
  8
AM_4
100
AcDbLine
 10
0.0500000000000001
 20
0.7170087604067331
 30
0.0
 11
0.0500000000000001
 21
0.8567708333333333
 31
0.0
  0
LINE
  5
DE
330
AA
100
AcDbEntity
  8
AM_4
100
AcDbLine
 10
-0.0499999999999999
 20
0.7170087604067331
 30
0.0
 11
-0.0499999999999999
 21
0.8567708333333334
 31
0.0
  0
LINE
  5
DF
330
AA
100
AcDbEntity
  8
AM_4
100
AcDbLine
 10
1.071874805530861
 20
0.101
 30
0.0
 11
1.071874805530861
 21
-0.101
 31
0.0
  0
LINE
  5
E0
330
AA
100
AcDbEntity
  8
AM_4
100
AcDbLine
 10
-0.0499999999999999
 20
0.8567708333333334
 30
0.0
 11
0.0500000000000001
 21
0.8567708333333333
 31
0.0
  0
LINE
  5
E1
330
AA
100
AcDbEntity
  8
AM_4
100
AcDbLine
 10
-0.6594623794302107
 20
0.9402223468533891
 30
0.0
 11
-0.6234059685476591
 21
0.87777081126623
 31
0.0
  0
LINE
  5
E2
330
AA
100
AcDbEntity
  8
AM_4
100
AcDbLine
 10
-0.6234059685476591
 20
0.87777081126623
 30
0.0
 11
-0.4484688369832024
 21
0.9787708112662303
 31
0.0
  0
ARC
  5
E3
330
AA
100
AcDbEntity
  8
AM_4
100
AcDbCircle
 10
0.0000000000000002
 20
0.0000000000000002
 30
0.0
 40
1.1185175
100
AcDbArc
 50
5.180756530870902
 51
114.8192434691291
  0
LINE
  5
E4
330
AA
100
AcDbEntity
  8
AM_4
100
AcDbLine
 10
-0.6234059685476585
 20
-0.8777708112662306
 30
0.0
 11
-0.6594623794302101
 21
-0.9402223468533897
 31
0.0
  0
LINE
  5
E5
330
AA
100
AcDbEntity
  8
AM_4
100
AcDbLine
 10
-0.4484688369832018
 20
-0.9787708112662304
 30
0.0
 11
-0.6234059685476585
 21
-0.8777708112662306
 31
0.0
  0
ARC
  5
E6
330
AA
100
AcDbEntity
  8
AM_4
100
AcDbCircle
 10
0.0000000000000001
 20
-0.0000000000000001
 30
0.0
 40
1.1185175
100
AcDbArc
 50
245.1807565308709
 51
354.8192434691292
  0
ARC
  5
E7
330
AA
100
AcDbEntity
  8
AM_4
100
AcDbCircle
 10
0.000000000000001
 20
-0.0000000000000003
 30
0.0
 40
1.148437500000001
100
AcDbArc
 50
125.0454286839746
 51
177.5326322353161
  0
LWPOLYLINE
  5
E8
330
AA
100
AcDbEntity
  8
AM_4
100
AcDbPolyline
 90
        6
 70
     0
 43
0.0
 10
-1.147372786500038
 20
0.0494406735935922
 10
-1.142896056280188
 20
0.0276490989623731
 10
-1.140922088836125
 20
0.0043007204488114
 10
-1.141701089946704
 20
-0.0176995504781212
 10
-1.145082964130279
 20
-0.0398391566671438
 10
-1.147372786500038
 20
-0.0494406735935925
  0
ARC
  5
E9
330
AA
100
AcDbEntity
  8
AM_4
100
AcDbCircle
 10
0.0000000000000016
 20
0.0000000000000008
 30
0.0
 40
1.148437500000002
100
AcDbArc
 50
182.4673677646839
 51
234.9545713160254
  0
ARC
  5
EA
330
AA
100
AcDbEntity
  8
AM_4
100
AcDbCircle
 10
-0.0000000000000008
 20
0.0000000000000001
 30
0.0
 40
1.1185175
100
AcDbArc
 50
125.1807565308709
 51
234.8192434691292
  0
ARC
  5
EB
330
AA
100
AcDbEntity
  8
AM_4
100
AcDbCircle
 10
0.0000000000000001
 20
0.0000000000000001
 30
0.0
 40
0.7187499999999999
100
AcDbArc
 50
93.98901513298222
 51
86.01098486701778
  0
ARC
  5
EC
330
AA
100
AcDbEntity
  8
AM_4
100
AcDbCircle
 10
0.0000000000000001
 20
-0.0000000000000001
 30
0.0
 40
0.8567708333333331
100
AcDbArc
 50
93.34560594189128
 51
86.65439405810874
  0
ENDBLK
  5
AD
330
AA
100
AcDbEntity
  8
0
100
AcDbBlockEnd
  0
BLOCK
  5
EF
330
ED
100
AcDbEntity
  8
0
100
AcDbBlockBegin
  2
4_F2B_GREZ_07_PCR_II_0_in_129347_0
 70
     2
 10
0.0
 20
0.0
 30
0.0
  3
4_F2B_GREZ_07_PCR_II_0_in_129347_0
  1

  0
ATTDEF
  5
F1
330
ED
100
AcDbEntity
  8
AM_6
100
AcDbText
 10
6.8515
 20
3.1565
 30
0.0
 40
0.5
  1
F2B-GTEZ-PCR-B-I
100
AcDbAttributeDefinition
  3

  2
NN
 70
     8
280
     0
  0
ATTDEF
  5
F2
330
ED
100
AcDbEntity
  8
AM_6
100
AcDbText
 10
6.8515
 20
2.6565
 30
0.0
 40
0.5
  1
GTEZ Normal Duty Polymer Housed 2 Bolt Flange Bearings
100
AcDbAttributeDefinition
  3

  2
NT
 70
     8
280
     0
  0
ATTDEF
  5
F3
330
ED
100
AcDbEntity
  8
AM_6
100
AcDbText
 10
6.8515
 20
2.1565
 30
0.0
 40
0.5
  1
F2B-GREZ-07-PCR-II
100
AcDbAttributeDefinition
  3

  2
NB
 70
     8
280
     0
  0
ATTDEF
  5
F4
330
ED
100
AcDbEntity
  8
AM_6
100
AcDbText
 10
6.8515
 20
1.6565
 30
0.0
 40
0.5
  1
$PN.$LUBE.I
100
AcDbAttributeDefinition
  3

  2
NBSYN
 70
     8
280
     0
  0
ATTDEF
  5
F5
330
ED
100
AcDbEntity
  8
AM_6
100
AcDbText
 10
6.8515
 20
1.1565
 30
0.0
 40
0.5
  1
F2B-GREZ-07-PCR-I
100
AcDbAttributeDefinition
  3

  2
LINA
 70
     8
280
     0
  0
ATTDEF
  5
F6
330
ED
100
AcDbEntity
  8
AM_6
100
AcDbText
 10
6.8515
 20
0.6564999999999999
 30
0.0
 40
0.5
  1
207
100
AcDbAttributeDefinition
  3

  2
SERIES
 70
     8
280
     0
  0
ATTDEF
  5
F7
330
ED
100
AcDbEntity
  8
AM_6
100
AcDbText
 10
6.8515
 20
0.1564999999999999
 30
0.0
 40
0.5
  1
1-1/4
100
AcDbAttributeDefinition
  3

  2
SS
 70
     8
280
     0
  0
ATTDEF
  5
F8
330
ED
100
AcDbEntity
  8
AM_6
100
AcDbText
 10
6.8515
 20
-0.3435000000000001
 30
0.0
 40
0.5
  1
F2B-GREZ-07-PCR-I
100
AcDbAttributeDefinition
  3

  2
PN
 70
     8
280
     0
  0
ATTDEF
  5
F9
330
ED
100
AcDbEntity
  8
AM_6
100
AcDbText
 10
6.8515
 20
-0.8435000000000001
 30
0.0
 40
0.5
  1
F2B-GREZ-07-PCR
100
AcDbAttributeDefinition
  3

  2
DESCRIPTION
 70
     8
280
     0
  0
ATTDEF
  5
FA
330
ED
100
AcDbEntity
  8
AM_6
100
AcDbText
 10
6.8515
 20
-1.3435
 30
0.0
 40
0.5
  1
2.18
100
AcDbAttributeDefinition
  3

  2
WEIGHT
 70
     8
280
     0
  0
ATTDEF
  5
FB
330
ED
100
AcDbEntity
  8
AM_6
100
AcDbText
 10
6.8515
 20
-1.8435
 30
0.0
 40
0.5
  1
1-5/8
100
AcDbAttributeDefinition
  3

  2
A
 70
     8
280
     0
  0
ATTDEF
  5
FC
330
ED
100
AcDbEntity
  8
AM_6
100
AcDbText
 10
6.8515
 20
-2.3435
 30
0.0
 40
0.5
  1
6-5/16
100
AcDbAttributeDefinition
  3

  2
B
 70
     8
280
     0
  0
ATTDEF
  5
FD
330
ED
100
AcDbEntity
  8
AM_6
100
AcDbText
 10
6.8515
 20
-2.8435
 30
0.0
 40
0.5
  1
1-27/32
100
AcDbAttributeDefinition
  3

  2
C
 70
     8
280
     0
  0
ATTDEF
  5
FE
330
ED
100
AcDbEntity
  8
AM_6
100
AcDbText
 10
6.8515
 20
-3.3435
 30
0.0
 40
0.5
  1
5-1/8
100
AcDbAttributeDefinition
  3

  2
D
 70
     8
280
     0
  0
ATTDEF
  5
FF
330
ED
100
AcDbEntity
  8
AM_6
100
AcDbText
 10
6.8515
 20
-3.8435
 30
0.0
 40
0.5
  1
1/2
100
AcDbAttributeDefinition
  3

  2
F
 70
     8
280
     0
  0
ATTDEF
  5
100
330
ED
100
AcDbEntity
  8
AM_6
100
AcDbText
 10
6.8515
 20
-4.343500000000001
 30
0.0
 40
0.5
  1
0.813
100
AcDbAttributeDefinition
  3

  2
FMAJ1
 70
     8
280
     0
  0
ATTDEF
  5
101
330
ED
100
AcDbEntity
  8
AM_6
100
AcDbText
 10
6.8515
 20
-4.843500000000001
 30
0.0
 40
0.5
  1
0.516
100
AcDbAttributeDefinition
  3

  2
FMIN1
 70
     8
280
     0
  0
ATTDEF
  5
102
330
ED
100
AcDbEntity
  8
AM_6
100
AcDbText
 10
6.8515
 20
-5.343500000000001
 30
0.0
 40
0.5
  1
5/8
100
AcDbAttributeDefinition
  3

  2
H
 70
     8
280
     0
  0
ATTDEF
  5
103
330
ED
100
AcDbEntity
  8
AM_6
100
AcDbText
 10
6.8515
 20
-5.843500000000001
 30
0.0
 40
0.5
  1
35/64
100
AcDbAttributeDefinition
  3

  2
J
 70
     8
280
     0
  0
ATTDEF
  5
104
330
ED
100
AcDbEntity
  8
AM_6
100
AcDbText
 10
6.8515
 20
-6.343500000000001
 30
0.0
 40
0.5
  1
2-19/64
100
AcDbAttributeDefinition
  3

  2
L
 70
     8
280
     0
  0
ATTDEF
  5
105
330
ED
100
AcDbEntity
  8
AM_6
100
AcDbText
 10
6.8515
 20
-6.843500000000001
 30
0.0
 40
0.5
  1
3-45/64
100
AcDbAttributeDefinition
  3

  2
M
 70
     8
280
     0
  0
ATTDEF
  5
106
330
ED
100
AcDbEntity
  8
AM_6
100
AcDbText
 10
6.8515
 20
-7.343500000000001
 30
0.0
 40
0.5
  1
1-53/64
100
AcDbAttributeDefinition
  3

  2
Z
 70
     8
280
     0
  0
ATTDEF
  5
107
330
ED
100
AcDbEntity
  8
AM_6
100
AcDbText
 10
6.8515
 20
-7.843500000000001
 30
0.0
 40
0.5
  1
Infotext
100
AcDbAttributeDefinition
  3

  2
INFO
 70
     8
280
     0
  0
ATTDEF
  5
108
330
ED
100
AcDbEntity
  8
AM_6
100
AcDbText
 10
6.8515
 20
-8.3435
 30
0.0
 40
0.5
  1
baldor
100
AcDbAttributeDefinition
  3

  2
COMPANY
 70
     8
280
     0
  0
ARC
  5
109
330
ED
100
AcDbEntity
  8
AM_9
100
AcDbCircle
 10
0.8264994874758365
 20
0.6335650968662363
 30
0.0
 40
1.025000512524163
100
AcDbArc
 50
0.0
 51
0.5138369691427318
  0
ARC
  5
10A
330
ED
100
AcDbEntity
  8
AM_9
100
AcDbCircle
 10
-0.8264994874949265
 20
0.6335650968663351
 30
0.0
 40
1.025000512505073
100
AcDbArc
 50
179.486163030853
 51
180.0
  0
ARC
  5
10B
330
ED
100
AcDbEntity
  8
AM_9
100
AcDbCircle
 10
0.8264994874945302
 20
-0.6335650968663327
 30
0.0
 40
1.02500051250547
100
AcDbArc
 50
359.486163030853
 51
0.0
  0
ARC
  5
10C
330
ED
100
AcDbEntity
  8
AM_9
100
AcDbCircle
 10
-0.8264994874675415
 20
-0.6335650968662105
 30
0.0
 40
1.025000512532458
100
AcDbArc
 50
180.0
 51
180.5138369691385
  0
LINE
  5
10F
330
ED
100
AcDbEntity
  8
AM_7
100
AcDbLine
 10
-0.2709
 20
-2.5625
 30
0.0
 11
0.2709
 21
-2.5625
 31
0.0
  0
LINE
  5
110
330
ED
100
AcDbEntity
  8
AM_7
100
AcDbLine
 10
0.0
 20
-2.8334
 30
0.0
 11
0.0
 21
-2.2916
 31
0.0
  0
LINE
  5
111
330
ED
100
AcDbEntity
  8
AM_7
100
AcDbLine
 10
-0.2709
 20
2.5625
 30
0.0
 11
0.2709
 21
2.5625
 31
0.0
  0
LINE
  5
112
330
ED
100
AcDbEntity
  8
AM_7
100
AcDbLine
 10
0.0
 20
2.2916
 30
0.0
 11
0.0
 21
2.8334
 31
0.0
  0
LINE
  5
113
330
ED
100
AcDbEntity
  8
AM_7
100
AcDbLine
 10
-1.488165
 20
0.0
 30
0.0
 11
1.488165
 21
0.0
 31
0.0
  0
LINE
  5
114
330
ED
100
AcDbEntity
  8
AM_7
100
AcDbLine
 10
0.0
 20
-1.488165
 30
0.0
 11
0.0
 21
1.488165
 31
0.0
  0
LINE
  5
115
330
ED
100
AcDbEntity
  8
AM_7
100
AcDbLine
 10
1.110515833411743
 20
1.308824409078636
 30
0.0
 11
1.490736249246955
 21
1.689044824913848
 31
0.0
  0
ARC
  5
116
330
ED
100
AcDbEntity
  8
AM_4
100
AcDbCircle
 10
0.8264994874999768
 20
-0.6335650968663447
 30
0.0
 40
1.025000512500023
100
AcDbArc
 50
334.0000000000002
 51
359.4861630308516
  0
LINE
  5
117
330
ED
100
AcDbEntity
  8
AM_4
100
AcDbLine
 10
0.736399475607026
 20
-3.1565
 30
0.0
 11
1.747763845588595
 21
-1.082895746990368
 31
0.0
  0
ARC
  5
118
330
ED
100
AcDbEntity
  8
AM_4
100
AcDbCircle
 10
0.8264994875000229
 20
0.6335650968663558
 30
0.0
 40
1.025000512499977
100
AcDbArc
 50
0.5138369691484064
 51
26.00000000000026
  0
LINE
  5
119
330
ED
100
AcDbEntity
  8
AM_4
100
AcDbLine
 10
1.747763845588595
 20
1.082895746990367
 30
0.0
 11
0.7363994756070268
 21
3.1565
 31
0.0
  0
LINE
  5
11A
330
ED
100
AcDbEntity
  8
AM_4
100
AcDbLine
 10
-0.7363994756070273
 20
-3.156499999999999
 30
0.0
 11
0.736399475607026
 21
-3.1565
 31
0.0
  0
LINE
  5
11B
330
ED
100
AcDbEntity
  8
AM_4
100
AcDbLine
 10
-1.747763845588595
 20
-1.082895746990367
 30
0.0
 11
-0.7363994756070273
 21
-3.156499999999999
 31
0.0
  0
ARC
  5
11C
330
ED
100
AcDbEntity
  8
AM_4
100
AcDbCircle
 10
-0.8264994874999929
 20
-0.6335650968663479
 30
0.0
 40
1.025000512500007
100
AcDbArc
 50
180.513836969147
 51
205.9999999999999
  0
LINE
  5
11D
330
ED
100
AcDbEntity
  8
AM_4
100
AcDbLine
 10
0.7363994756070268
 20
3.1565
 30
0.0
 11
-0.7363994756070273
 21
3.1565
 31
0.0
  0
ARC
  5
11E
330
ED
100
AcDbEntity
  8
AM_4
100
AcDbCircle
 10
-0.8264994874999979
 20
0.6335650968663495
 30
0.0
 40
1.025000512500002
100
AcDbArc
 50
154.0
 51
179.4861630308516
  0
LINE
  5
11F
330
ED
100
AcDbEntity
  8
AM_4
100
AcDbLine
 10
-0.7363994756070273
 20
3.1565
 30
0.0
 11
-1.747763845588595
 21
1.082895746990367
 31
0.0
  0
LINE
  5
120
330
ED
100
AcDbEntity
  8
AM_4
100
AcDbLine
 10
0.55544981485
 20
-3.1565
 30
0.0
 11
0.55544981485
 21
-1.94407481485
 31
0.0
  0
LINE
  5
121
330
ED
100
AcDbEntity
  8
AM_4
100
AcDbLine
 10
-0.5554498148500007
 20
-1.94407481485
 30
0.0
 11
-0.5554498148500004
 21
-3.1565
 31
0.0
  0
CIRCLE
  5
122
330
ED
100
AcDbEntity
  8
AM_4
100
AcDbCircle
 10
0.0
 20
-2.5625
 30
0.0
 40
0.258
  0
ARC
  5
123
330
ED
100
AcDbEntity
  8
AM_4
100
AcDbCircle
 10
0.6480246296999995
 20
-1.94407481485
 30
0.0
 40
0.0925748148499996
100
AcDbArc
 50
90.0
 51
180.0
  0
ARC
  5
124
330
ED
100
AcDbEntity
  8
AM_4
100
AcDbCircle
 10
-0.6480246297000003
 20
-1.94407481485
 30
0.0
 40
0.0925748148499996
100
AcDbArc
 50
0.0
 51
90.0
  0
LINE
  5
125
330
ED
100
AcDbEntity
  8
AM_4
100
AcDbLine
 10
-0.5554498148500006
 20
3.1565
 30
0.0
 11
-0.5554498148500002
 21
1.94407481485
 31
0.0
  0
CIRCLE
  5
126
330
ED
100
AcDbEntity
  8
AM_4
100
AcDbCircle
 10
0.0
 20
2.5625
 30
0.0
 40
0.258
  0
ARC
  5
127
330
ED
100
AcDbEntity
  8
AM_4
100
AcDbCircle
 10
-0.6480246297000009
 20
1.94407481485
 30
0.0
 40
0.0925748148500005
100
AcDbArc
 50
270.0
 51
0.0
  0
ARC
  5
128
330
ED
100
AcDbEntity
  8
AM_4
100
AcDbCircle
 10
0.6480246296999994
 20
1.94407481485
 30
0.0
 40
0.0925748148499993
100
AcDbArc
 50
179.9999991462263
 51
270.0
  0
LINE
  5
129
330
ED
100
AcDbEntity
  8
AM_4
100
AcDbLine
 10
0.5554498148500001
 20
1.94407481485
 30
0.0
 11
0.55544981485
 21
3.1565
 31
0.0
  0
LINE
  5
12A
330
ED
100
AcDbEntity
  8
AM_4
100
AcDbLine
 10
1.401192061241728
 20
1.692008170390985
 30
0.0
 11
1.493699589152671
 21
1.599500642480042
 31
0.0
  0
ARC
  5
12B
330
ED
100
AcDbEntity
  8
AM_4
100
AcDbCircle
 10
1.479780197736435
 20
1.585581239920963
 30
0.0
 40
0.0196850000000002
100
AcDbArc
 50
336.8011623336738
 51
45.00000000000001
  0
ARC
  5
12C
330
ED
100
AcDbEntity
  8
AM_4
100
AcDbCircle
 10
1.387272664254071
 20
1.678088773403328
 30
0.0
 40
0.0196849999999999
100
AcDbArc
 50
45.00000000000046
 51
113.1988376663288
  0
LINE
  5
12D
330
ED
100
AcDbEntity
  8
AM_4
100
AcDbLine
 10
1.379518284813545
 20
1.696182109869893
 30
0.0
 11
1.497873534203001
 21
1.577826860480437
 31
0.0
  0
LINE
  5
12E
330
ED
100
AcDbEntity
  8
AM_4
100
AcDbLine
 10
1.379518284813545
 20
1.696182109869893
 30
0.0
 11
1.327081410781497
 21
1.673708896116812
 31
0.0
  0
LINE
  5
12F
330
ED
100
AcDbEntity
  8
AM_4
100
AcDbLine
 10
1.475400320449919
 20
1.525389986448389
 30
0.0
 11
1.497873534203001
 21
1.577826860480437
 31
0.0
  0
LINE
  5
130
330
ED
100
AcDbEntity
  8
AM_4
100
AcDbLine
 10
1.327081410781497
 20
1.673708896116812
 30
0.0
 11
1.475400320449919
 21
1.525389986448389
 31
0.0
  0
ARC
  5
131
330
ED
100
AcDbEntity
  8
AM_4
100
AcDbCircle
 10
1.457306983983354
 20
1.533144365888914
 30
0.0
 40
0.0196849999999997
100
AcDbArc
 50
269.1573699380498
 51
336.801162333676
  0
ARC
  5
132
330
ED
100
AcDbEntity
  8
AM_4
100
AcDbCircle
 10
1.334835790222022
 20
1.655615559650246
 30
0.0
 40
0.0196850000000002
100
AcDbArc
 50
113.1988376663262
 51
180.8426300619496
  0
LINE
  5
133
330
ED
100
AcDbEntity
  8
AM_4
100
AcDbLine
 10
1.315152918979709
 20
1.655326069307542
 30
0.0
 11
1.457017493640649
 21
1.513461494646601
 31
0.0
  0
ARC
  5
134
330
ED
100
AcDbEntity
  8
AM_4
100
AcDbCircle
 10
1.455971705741417
 20
1.442356847855942
 30
0.0
 40
0.0711123369574825
100
AcDbArc
 50
89.15736993804809
 51
191.1445357652384
  0
ARC
  5
135
330
ED
100
AcDbEntity
  8
AM_4
100
AcDbCircle
 10
1.24404827218905
 20
1.65428028140831
 30
0.0
 40
0.0711123369574828
100
AcDbArc
 50
258.8554642347618
 51
0.842630061951289
  0
LINE
  5
136
330
ED
100
AcDbEntity
  8
AM_4
100
AcDbLine
 10
1.230303348112543
 20
1.584508929624891
 30
0.0
 11
1.386200353957998
 21
1.428611923779435
 31
0.0
  0
LINE
  5
137
330
ED
100
AcDbEntity
  8
AM_4
100
AcDbLine
 10
1.372280956970341
 20
1.414692526791778
 30
0.0
 11
1.386200353957998
 21
1.428611923779435
 31
0.0
  0
LINE
  5
138
330
ED
100
AcDbEntity
  8
AM_4
100
AcDbLine
 10
1.230303348112543
 20
1.584508929624891
 30
0.0
 11
1.216383951124886
 21
1.570589532637233
 31
0.0
  0
LINE
  5
139
330
ED
100
AcDbEntity
  8
AM_4
100
AcDbLine
 10
1.276695900239281
 20
1.319107470060718
 30
0.0
 11
1.288763797226938
 21
1.331175367048376
 31
0.0
  0
LINE
  5
13A
330
ED
100
AcDbEntity
  8
AM_4
100
AcDbLine
 10
1.132866791381483
 20
1.487072372893831
 30
0.0
 11
1.120798894393826
 21
1.475004475906173
 31
0.0
  0
LINE
  5
13B
330
ED
100
AcDbEntity
  8
AM_4
100
AcDbLine
 10
1.279722453139346
 20
1.349448726746
 30
0.0
 11
1.354007597272716
 21
1.423733870879371
 31
0.0
  0
LINE
  5
13C
330
ED
100
AcDbEntity
  8
AM_4
100
AcDbLine
 10
1.344013604169465
 20
1.285157575715882
 30
0.0
 11
1.418298748302835
 21
1.359442719849252
 31
0.0
  0
LWPOLYLINE
  5
13D
330
ED
100
AcDbEntity
  8
AM_4
100
AcDbPolyline
 90
        6
 70
     0
 43
0.0
 10
1.279722453139346
 20
1.349448726746
 10
1.292167555119128
 20
1.330289642648339
 10
1.306852112134934
 20
1.313088819907333
 10
1.307653697330797
 20
1.31228723471147
 10
1.324774807775371
 20
1.297661518009435
 10
1.344013604169465
 20
1.285157575715882
  0
LWPOLYLINE
  5
13E
330
ED
100
AcDbEntity
  8
AM_4
100
AcDbPolyline
 90
        7
 70
     0
 43
0.0
 10
1.151140151079108
 20
1.478031028806238
 10
1.179465655840217
 20
1.4430078679185
 10
1.210014592991784
 20
1.409926339050484
 10
1.211617763383591
 20
1.408323168658676
 10
1.218680984754418
 20
1.401404341659617
 10
1.237367865747001
 20
1.38414795699718
 10
1.279722453139346
 20
1.349448726746
  0
LINE
  5
13F
330
ED
100
AcDbEntity
  8
AM_4
100
AcDbLine
 10
1.099460167900428
 20
1.520478996374886
 30
0.0
 11
1.322170420707994
 21
1.29776874356732
 31
0.0
  0
LINE
  5
140
330
ED
100
AcDbEntity
  8
AM_4
100
AcDbLine
 10
1.322170420707994
 20
1.29776874356732
 30
0.0
 11
1.344013604169465
 21
1.285157575715882
 31
0.0
  0
LINE
  5
141
330
ED
100
AcDbEntity
  8
AM_4
100
AcDbLine
 10
1.086849000048989
 20
1.542322179836357
 30
0.0
 11
1.099460167900428
 21
1.520478996374886
 31
0.0
  0
LINE
  5
142
330
ED
100
AcDbEntity
  8
AM_4
100
AcDbLine
 10
1.086849000048989
 20
1.542322179836357
 30
0.0
 11
1.16113414418236
 21
1.616607323969727
 31
0.0
  0
LWPOLYLINE
  5
143
330
ED
100
AcDbEntity
  8
AM_4
100
AcDbPolyline
 90
        6
 70
     0
 43
0.0
 10
1.086849000048989
 20
1.542322179836357
 10
1.099294102028756
 20
1.523163095738716
 10
1.113978659044541
 20
1.505962272997726
 10
1.114780244240478
 20
1.50516068780179
 10
1.131901354685036
 20
1.490534971099775
 10
1.151140151079108
 20
1.478031028806238
  0
LINE
  5
144
330
ED
100
AcDbEntity
  8
AM_4
100
AcDbLine
 10
1.151140151079108
 20
1.478031028806238
 30
0.0
 11
1.225425295212479
 21
1.552316172939608
 31
0.0
  0
LINE
  5
145
330
ED
100
AcDbEntity
  8
AM_4
100
AcDbLine
 10
1.18297732764383
 20
1.603996156118289
 30
0.0
 11
1.405687580451396
 21
1.381285903310723
 31
0.0
  0
LWPOLYLINE
  5
146
330
ED
100
AcDbEntity
  8
AM_4
100
AcDbPolyline
 90
        5
 70
     0
 43
0.0
 10
1.418298748302835
 20
1.359442719849252
 10
1.405771370071773
 20
1.378681083099668
 10
1.391077785382925
 20
1.395894556658444
 10
1.373598904248313
 20
1.410942450349225
 10
1.354007597272716
 20
1.423733870879371
  0
LWPOLYLINE
  5
147
330
ED
100
AcDbEntity
  8
AM_4
100
AcDbPolyline
 90
        5
 70
     0
 43
0.0
 10
1.225425295212479
 20
1.552316172939608
 10
1.212897916981417
 20
1.571554536190024
 10
1.198204332292568
 20
1.5887680097488
 10
1.180725451157957
 20
1.603815903439581
 10
1.16113414418236
 20
1.616607323969727
  0
LWPOLYLINE
  5
148
330
ED
100
AcDbEntity
  8
AM_4
100
AcDbPolyline
 90
        6
 70
     0
 43
0.0
 10
1.354007597272716
 20
1.423733870879371
 10
1.345355835900851
 20
1.434878820163728
 10
1.318581178298963
 20
1.466879390583779
 10
1.289825700466537
 20
1.497099233346789
 10
1.258474386555904
 20
1.525688520520712
 10
1.225425295212479
 20
1.552316172939608
  0
LINE
  5
149
330
ED
100
AcDbEntity
  8
AM_4
100
AcDbLine
 10
1.18297732764383
 20
1.603996156118289
 30
0.0
 11
1.16113414418236
 21
1.616607323969727
 31
0.0
  0
LINE
  5
14A
330
ED
100
AcDbEntity
  8
AM_4
100
AcDbLine
 10
1.418298748302835
 20
1.359442719849252
 30
0.0
 11
1.405687580451396
 21
1.381285903310723
 31
0.0
  0
LINE
  5
14B
330
ED
100
AcDbEntity
  8
AM_4
100
AcDbLine
 10
0.06886975
 20
1.672168804699996
 30
0.0
 11
0.06886975
 21
1.71587055
 31
0.0
  0
LINE
  5
14C
330
ED
100
AcDbEntity
  8
AM_4
100
AcDbLine
 10
0.06580887
 20
1.657601554600009
 30
0.0
 11
0.06886975
 21
1.672168804699996
 31
0.0
  0
LINE
  5
14D
330
ED
100
AcDbEntity
  8
AM_4
100
AcDbLine
 10
-0.2004874629000166
 20
1.672168804699996
 30
0.0
 11
-0.1974265873000162
 21
1.657601554600009
 31
0.0
  0
LINE
  5
14E
330
ED
100
AcDbEntity
  8
AM_4
100
AcDbLine
 10
0.09641765
 20
1.7304378
 30
0.0
 11
0.09335677
 21
1.71587055
 31
0.0
  0
LINE
  5
14F
330
ED
100
AcDbEntity
  8
AM_4
100
AcDbLine
 10
0.05968711
 20
1.7420916
 30
0.0
 11
0.04744361
 21
1.7537454
 31
0.0
  0
LINE
  5
150
330
ED
100
AcDbEntity
  8
AM_4
100
AcDbLine
 10
0.04744361
 20
1.7537454
 30
0.0
 11
0.0352001
 21
1.7595723
 31
0.0
  0
LINE
  5
151
330
ED
100
AcDbEntity
  8
AM_4
100
AcDbLine
 10
0.06886975
 20
1.71587055
 30
0.0
 11
0.06580887
 21
1.7304378
 31
0.0
  0
LINE
  5
152
330
ED
100
AcDbEntity
  8
AM_4
100
AcDbLine
 10
0.06580887
 20
1.7304378
 30
0.0
 11
0.05968711
 21
1.7420916
 31
0.0
  0
LINE
  5
153
330
ED
100
AcDbEntity
  8
AM_4
100
AcDbLine
 10
0.14233081
 20
1.74500505
 30
0.0
 11
0.1698787
 21
1.74500505
 31
0.0
  0
LINE
  5
154
330
ED
100
AcDbEntity
  8
AM_4
100
AcDbLine
 10
0.1698787
 20
1.74500505
 30
0.0
 11
0.18212221
 21
1.7420916
 31
0.0
  0
LINE
  5
155
330
ED
100
AcDbEntity
  8
AM_4
100
AcDbLine
 10
0.18212221
 20
1.7420916
 30
0.0
 11
0.19130484
 21
1.7362647
 31
0.0
  0
LINE
  5
156
330
ED
100
AcDbEntity
  8
AM_4
100
AcDbLine
 10
0.19130484
 20
1.7362647
 30
0.0
 11
0.19436572
 21
1.72752435
 31
0.0
  0
LINE
  5
157
330
ED
100
AcDbEntity
  8
AM_4
100
AcDbLine
 10
0.19436572
 20
1.72752435
 30
0.0
 11
0.21273099
 21
1.72752435
 31
0.0
  0
LINE
  5
158
330
ED
100
AcDbEntity
  8
AM_4
100
AcDbLine
 10
0.0352001
 20
1.7595723
 30
0.0
 11
0.0198957099999999
 21
1.76248575
 31
0.0
  0
LINE
  5
159
330
ED
100
AcDbEntity
  8
AM_4
100
AcDbLine
 10
0.19742659
 20
1.7537454
 30
0.0
 11
0.18518309
 21
1.7595723
 31
0.0
  0
LINE
  5
15A
330
ED
100
AcDbEntity
  8
AM_4
100
AcDbLine
 10
0.18518309
 20
1.7595723
 30
0.0
 11
0.1698787
 21
1.76248575
 31
0.0
  0
LINE
  5
15B
330
ED
100
AcDbEntity
  8
AM_4
100
AcDbLine
 10
-0.2739485216999935
 20
1.76248575
 30
0.0
 11
-0.347409580399984
 21
1.76248575
 31
0.0
  0
LINE
  5
15C
330
ED
100
AcDbEntity
  8
AM_4
100
AcDbLine
 10
-0.347409580399984
 20
1.76248575
 30
0.0
 11
-0.347409580399984
 21
1.625553609599993
 31
0.0
  0
LINE
  5
15D
330
ED
100
AcDbEntity
  8
AM_4
100
AcDbLine
 10
-0.347409580399984
 20
1.625553609599993
 30
0.0
 11
-0.2739485216999935
 21
1.625553609599993
 31
0.0
  0
LINE
  5
15E
330
ED
100
AcDbEntity
  8
AM_4
100
AcDbLine
 10
-0.2739485216999935
 20
1.625553609599993
 30
0.0
 11
-0.258644143400034
 21
1.628467059599987
 31
0.0
  0
LINE
  5
15F
330
ED
100
AcDbEntity
  8
AM_4
100
AcDbLine
 10
0.21273099
 20
1.72752435
 30
0.0
 11
0.20967012
 21
1.7420916
 31
0.0
  0
LINE
  5
160
330
ED
100
AcDbEntity
  8
AM_4
100
AcDbLine
 10
0.20967012
 20
1.7420916
 30
0.0
 11
0.19742659
 21
1.7537454
 31
0.0
  0
LINE
  5
161
330
ED
100
AcDbEntity
  8
AM_4
100
AcDbLine
 10
0.12090467
 20
1.7362647
 30
0.0
 11
0.13008729
 21
1.7420916
 31
0.0
  0
LINE
  5
162
330
ED
100
AcDbEntity
  8
AM_4
100
AcDbLine
 10
0.13008729
 20
1.7420916
 30
0.0
 11
0.14233081
 21
1.74500505
 31
0.0
  0
LINE
  5
163
330
ED
100
AcDbEntity
  8
AM_4
100
AcDbLine
 10
0.05968711
 20
1.645947754500017
 30
0.0
 11
0.06580887
 21
1.657601554600009
 31
0.0
  0
LINE
  5
164
330
ED
100
AcDbEntity
  8
AM_4
100
AcDbLine
 10
-0.2249744897000611
 20
1.71587055
 30
0.0
 11
-0.2280353653999914
 21
1.7304378
 31
0.0
  0
LINE
  5
165
330
ED
100
AcDbEntity
  8
AM_4
100
AcDbLine
 10
-0.2280353653999914
 20
1.7304378
 30
0.0
 11
-0.234157116700034
 21
1.7420916
 31
0.0
  0
LINE
  5
166
330
ED
100
AcDbEntity
  8
AM_4
100
AcDbLine
 10
-0.234157116700034
 20
1.7420916
 30
0.0
 11
-0.2464006193000068
 21
1.7537454
 31
0.0
  0
LINE
  5
167
330
ED
100
AcDbEntity
  8
AM_4
100
AcDbLine
 10
-0.2464006193000068
 20
1.7537454
 30
0.0
 11
-0.2586441434000339
 21
1.7595723
 31
0.0
  0
LINE
  5
168
330
ED
100
AcDbEntity
  8
AM_4
100
AcDbLine
 10
0.0198957099999999
 20
1.76248575
 30
0.0
 11
-0.0535653508999878
 21
1.76248575
 31
0.0
  0
LINE
  5
169
330
ED
100
AcDbEntity
  8
AM_4
100
AcDbLine
 10
-0.1974265873000162
 20
1.7304378
 30
0.0
 11
-0.2004874629000166
 21
1.71587055
 31
0.0
  0
LINE
  5
16A
330
ED
100
AcDbEntity
  8
AM_4
100
AcDbLine
 10
-0.2004874629000166
 20
1.71587055
 30
0.0
 11
-0.2004874629000166
 21
1.672168804699996
 31
0.0
  0
LINE
  5
16B
330
ED
100
AcDbEntity
  8
AM_4
100
AcDbLine
 10
-0.1974265873000162
 20
1.657601554600009
 30
0.0
 11
-0.19130483600003
 21
1.645947754500017
 31
0.0
  0
LINE
  5
16C
330
ED
100
AcDbEntity
  8
AM_4
100
AcDbLine
 10
0.09335677
 20
1.71587055
 30
0.0
 11
0.09335677
 21
1.672168804699996
 31
0.0
  0
LINE
  5
16D
330
ED
100
AcDbEntity
  8
AM_4
100
AcDbLine
 10
0.09335677
 20
1.672168804699996
 30
0.0
 11
0.09641765
 21
1.657601554600009
 31
0.0
  0
LINE
  5
16E
330
ED
100
AcDbEntity
  8
AM_4
100
AcDbLine
 10
0.09641765
 20
1.657601554600009
 30
0.0
 11
0.1025394
 21
1.645947754500017
 31
0.0
  0
LINE
  5
16F
330
ED
100
AcDbEntity
  8
AM_4
100
AcDbLine
 10
0.1025394
 20
1.645947754500017
 30
0.0
 11
0.11478291
 21
1.634293959699991
 31
0.0
  0
LINE
  5
170
330
ED
100
AcDbEntity
  8
AM_4
100
AcDbLine
 10
0.11478291
 20
1.634293959699991
 30
0.0
 11
0.12702642
 21
1.628467059599987
 31
0.0
  0
LINE
  5
171
330
ED
100
AcDbEntity
  8
AM_4
100
AcDbLine
 10
0.12702642
 20
1.628467059599987
 30
0.0
 11
0.14233081
 21
1.625553609599993
 31
0.0
  0
LINE
  5
172
330
ED
100
AcDbEntity
  8
AM_4
100
AcDbLine
 10
0.14233081
 20
1.625553609599993
 30
0.0
 11
0.1698787
 21
1.625553609599993
 31
0.0
  0
LINE
  5
173
330
ED
100
AcDbEntity
  8
AM_4
100
AcDbLine
 10
0.1698787
 20
1.625553609599993
 30
0.0
 11
0.18518309
 21
1.628467059599987
 31
0.0
  0
LINE
  5
174
330
ED
100
AcDbEntity
  8
AM_4
100
AcDbLine
 10
0.18518309
 20
1.628467059599987
 30
0.0
 11
0.19742659
 21
1.634293959699991
 31
0.0
  0
LINE
  5
175
330
ED
100
AcDbEntity
  8
AM_4
100
AcDbLine
 10
0.19742659
 20
1.634293959699991
 30
0.0
 11
0.20967012
 21
1.645947754500017
 31
0.0
  0
LINE
  5
176
330
ED
100
AcDbEntity
  8
AM_4
100
AcDbLine
 10
0.20967012
 20
1.645947754500017
 30
0.0
 11
0.21273099
 21
1.657601554600009
 31
0.0
  0
LINE
  5
177
330
ED
100
AcDbEntity
  8
AM_4
100
AcDbLine
 10
0.21273099
 20
1.657601554600009
 30
0.0
 11
0.21273099
 21
1.7013033
 31
0.0
  0
LINE
  5
178
330
ED
100
AcDbEntity
  8
AM_4
100
AcDbLine
 10
0.21273099
 20
1.7013033
 30
0.0
 11
0.16681783
 21
1.7013033
 31
0.0
  0
LINE
  5
179
330
ED
100
AcDbEntity
  8
AM_4
100
AcDbLine
 10
0.16681783
 20
1.7013033
 30
0.0
 11
0.16681783
 21
1.683822604200006
 31
0.0
  0
LINE
  5
17A
330
ED
100
AcDbEntity
  8
AM_4
100
AcDbLine
 10
0.16681783
 20
1.683822604200006
 30
0.0
 11
0.19436572
 21
1.683822604200006
 31
0.0
  0
LINE
  5
17B
330
ED
100
AcDbEntity
  8
AM_4
100
AcDbLine
 10
0.19436572
 20
1.683822604200006
 30
0.0
 11
0.19436572
 21
1.660515004600004
 31
0.0
  0
LINE
  5
17C
330
ED
100
AcDbEntity
  8
AM_4
100
AcDbLine
 10
0.19436572
 20
1.660515004600004
 30
0.0
 11
0.19130484
 21
1.651774657200011
 31
0.0
  0
LINE
  5
17D
330
ED
100
AcDbEntity
  8
AM_4
100
AcDbLine
 10
0.19130484
 20
1.651774657200011
 30
0.0
 11
0.18212221
 21
1.645947754500017
 31
0.0
  0
LINE
  5
17E
330
ED
100
AcDbEntity
  8
AM_4
100
AcDbLine
 10
0.18212221
 20
1.645947754500017
 30
0.0
 11
0.1698787
 21
1.643034304400007
 31
0.0
  0
CIRCLE
  5
17F
330
ED
100
AcDbEntity
  8
AM_4
100
AcDbCircle
 10
0.0
 20
0.0
 30
0.0
 40
1.4173
  0
LINE
  5
180
330
ED
100
AcDbEntity
  8
AM_4
100
AcDbLine
 10
0.14233081
 20
1.643034304400007
 30
0.0
 11
0.13008729
 21
1.645947754500017
 31
0.0
  0
LINE
  5
181
330
ED
100
AcDbEntity
  8
AM_4
100
AcDbLine
 10
0.13008729
 20
1.645947754500017
 30
0.0
 11
0.12090467
 21
1.651774657200011
 31
0.0
  0
LINE
  5
182
330
ED
100
AcDbEntity
  8
AM_4
100
AcDbLine
 10
0.12090467
 20
1.651774657200011
 30
0.0
 11
0.11478291
 21
1.660515004600004
 31
0.0
  0
LINE
  5
183
330
ED
100
AcDbEntity
  8
AM_4
100
AcDbLine
 10
0.11478291
 20
1.660515004600004
 30
0.0
 11
0.11172203
 21
1.672168804699996
 31
0.0
  0
LINE
  5
184
330
ED
100
AcDbEntity
  8
AM_4
100
AcDbLine
 10
0.11172203
 20
1.672168804699996
 30
0.0
 11
0.11172203
 21
1.71587055
 31
0.0
  0
LINE
  5
185
330
ED
100
AcDbEntity
  8
AM_4
100
AcDbLine
 10
0.11172203
 20
1.71587055
 30
0.0
 11
0.11478291
 21
1.72752435
 31
0.0
  0
LINE
  5
186
330
ED
100
AcDbEntity
  8
AM_4
100
AcDbLine
 10
0.11478291
 20
1.72752435
 30
0.0
 11
0.12090467
 21
1.7362647
 31
0.0
  0
LINE
  5
187
330
ED
100
AcDbEntity
  8
AM_4
100
AcDbLine
 10
-0.19130483600003
 20
1.7420916
 30
0.0
 11
-0.1974265873000162
 21
1.7304378
 31
0.0
  0
LINE
  5
188
330
ED
100
AcDbEntity
  8
AM_4
100
AcDbLine
 10
0.14233081
 20
1.76248575
 30
0.0
 11
0.12702642
 21
1.7595723
 31
0.0
  0
LINE
  5
189
330
ED
100
AcDbEntity
  8
AM_4
100
AcDbLine
 10
0.12702642
 20
1.7595723
 30
0.0
 11
0.11478291
 21
1.7537454
 31
0.0
  0
LINE
  5
18A
330
ED
100
AcDbEntity
  8
AM_4
100
AcDbLine
 10
-0.258644143400034
 20
1.628467059599987
 30
0.0
 11
-0.2464006193000068
 21
1.634293959699991
 31
0.0
  0
LINE
  5
18B
330
ED
100
AcDbEntity
  8
AM_4
100
AcDbLine
 10
-0.2464006193000068
 20
1.634293959699991
 30
0.0
 11
-0.234157116700034
 21
1.645947754500017
 31
0.0
  0
LINE
  5
18C
330
ED
100
AcDbEntity
  8
AM_4
100
AcDbLine
 10
-0.234157116700034
 20
1.645947754500017
 30
0.0
 11
-0.2280353653999914
 21
1.657601554600009
 31
0.0
  0
LINE
  5
18D
330
ED
100
AcDbEntity
  8
AM_4
100
AcDbLine
 10
-0.2280353653999914
 20
1.657601554600009
 30
0.0
 11
-0.2249744897000611
 21
1.672168804699996
 31
0.0
  0
LINE
  5
18E
330
ED
100
AcDbEntity
  8
AM_4
100
AcDbLine
 10
-0.2249744897000611
 20
1.672168804699996
 30
0.0
 11
-0.2249744897000611
 21
1.71587055
 31
0.0
  0
LINE
  5
18F
330
ED
100
AcDbEntity
  8
AM_4
100
AcDbLine
 10
0.34740959
 20
1.625553609599993
 30
0.0
 11
0.34740959
 21
1.643034304400007
 31
0.0
  0
LINE
  5
190
330
ED
100
AcDbEntity
  8
AM_4
100
AcDbLine
 10
0.34740959
 20
1.643034304400007
 30
0.0
 11
0.25558328
 21
1.643034304400007
 31
0.0
  0
LINE
  5
191
330
ED
100
AcDbEntity
  8
AM_4
100
AcDbLine
 10
0.25558328
 20
1.643034304400007
 30
0.0
 11
0.25558328
 21
1.689649503599983
 31
0.0
  0
LINE
  5
192
330
ED
100
AcDbEntity
  8
AM_4
100
AcDbLine
 10
0.25558328
 20
1.689649503599983
 30
0.0
 11
0.33516609
 21
1.689649503599983
 31
0.0
  0
LINE
  5
193
330
ED
100
AcDbEntity
  8
AM_4
100
AcDbLine
 10
0.33516609
 20
1.689649503599983
 30
0.0
 11
0.33516609
 21
1.7071302
 31
0.0
  0
LINE
  5
194
330
ED
100
AcDbEntity
  8
AM_4
100
AcDbLine
 10
0.33516609
 20
1.7071302
 30
0.0
 11
0.25558328
 21
1.7071302
 31
0.0
  0
LINE
  5
195
330
ED
100
AcDbEntity
  8
AM_4
100
AcDbLine
 10
0.25558328
 20
1.7071302
 30
0.0
 11
0.25558328
 21
1.74500505
 31
0.0
  0
LINE
  5
196
330
ED
100
AcDbEntity
  8
AM_4
100
AcDbLine
 10
0.25558328
 20
1.74500505
 30
0.0
 11
0.34740959
 21
1.74500505
 31
0.0
  0
LINE
  5
197
330
ED
100
AcDbEntity
  8
AM_4
100
AcDbLine
 10
0.34740959
 20
1.74500505
 30
0.0
 11
0.34740959
 21
1.76248575
 31
0.0
  0
LINE
  5
198
330
ED
100
AcDbEntity
  8
AM_4
100
AcDbLine
 10
0.34740959
 20
1.76248575
 30
0.0
 11
0.237218
 21
1.76248575
 31
0.0
  0
LINE
  5
199
330
ED
100
AcDbEntity
  8
AM_4
100
AcDbLine
 10
-0.2586441434000339
 20
1.7595723
 30
0.0
 11
-0.2739485216999935
 21
1.76248575
 31
0.0
  0
LINE
  5
19A
330
ED
100
AcDbEntity
  8
AM_4
100
AcDbLine
 10
-0.0811132479000217
 20
1.7304378
 30
0.0
 11
-0.0872349992000083
 21
1.7420916
 31
0.0
  0
LINE
  5
19B
330
ED
100
AcDbEntity
  8
AM_4
100
AcDbLine
 10
-0.0872349992000083
 20
1.7420916
 30
0.0
 11
-0.0994785126000024
 21
1.7537454
 31
0.0
  0
LINE
  5
19C
330
ED
100
AcDbEntity
  8
AM_4
100
AcDbLine
 10
-0.0994785126000024
 20
1.7537454
 30
0.0
 11
-0.1117220152000316
 21
1.7595723
 31
0.0
  0
LINE
  5
19D
330
ED
100
AcDbEntity
  8
AM_4
100
AcDbLine
 10
-0.1117220152000316
 20
1.7595723
 30
0.0
 11
-0.1270264042000257
 21
1.76248575
 31
0.0
  0
LINE
  5
19E
330
ED
100
AcDbEntity
  8
AM_4
100
AcDbLine
 10
-0.1270264042000257
 20
1.76248575
 30
0.0
 11
-0.1515134310000146
 21
1.76248575
 31
0.0
  0
LINE
  5
19F
330
ED
100
AcDbEntity
  8
AM_4
100
AcDbLine
 10
-0.1515134310000146
 20
1.76248575
 30
0.0
 11
-0.1668178092000414
 21
1.7595723
 31
0.0
  0
LINE
  5
1A0
330
ED
100
AcDbEntity
  8
AM_4
100
AcDbLine
 10
-0.19130483600003
 20
1.645947754500017
 30
0.0
 11
-0.1790613334000591
 21
1.634293959699991
 31
0.0
  0
LINE
  5
1A1
330
ED
100
AcDbEntity
  8
AM_4
100
AcDbLine
 10
-0.1790613334000591
 20
1.634293959699991
 30
0.0
 11
-0.1668178092000414
 21
1.628467059599987
 31
0.0
  0
LINE
  5
1A2
330
ED
100
AcDbEntity
  8
AM_4
100
AcDbLine
 10
-0.1668178092000414
 20
1.628467059599987
 30
0.0
 11
-0.1515134310000146
 21
1.625553609599993
 31
0.0
  0
LINE
  5
1A3
330
ED
100
AcDbEntity
  8
AM_4
100
AcDbLine
 10
-0.1515134310000146
 20
1.625553609599993
 30
0.0
 11
-0.1270264042000257
 21
1.625553609599993
 31
0.0
  0
LINE
  5
1A4
330
ED
100
AcDbEntity
  8
AM_4
100
AcDbLine
 10
-0.1270264042000257
 20
1.625553609599993
 30
0.0
 11
-0.1117220152000316
 21
1.628467059599987
 31
0.0
  0
LINE
  5
1A5
330
ED
100
AcDbEntity
  8
AM_4
100
AcDbLine
 10
-0.1117220152000316
 20
1.628467059599987
 30
0.0
 11
-0.0994785126000024
 21
1.634293959699991
 31
0.0
  0
LINE
  5
1A6
330
ED
100
AcDbEntity
  8
AM_4
100
AcDbLine
 10
-0.0994785126000024
 20
1.634293959699991
 30
0.0
 11
-0.0872349992000083
 21
1.645947754500017
 31
0.0
  0
LINE
  5
1A7
330
ED
100
AcDbEntity
  8
AM_4
100
AcDbLine
 10
-0.0872349992000083
 20
1.645947754500017
 30
0.0
 11
-0.0811132479000217
 21
1.657601554600009
 31
0.0
  0
LINE
  5
1A8
330
ED
100
AcDbEntity
  8
AM_4
100
AcDbLine
 10
-0.0811132479000217
 20
1.657601554600009
 30
0.0
 11
-0.0780523722000355
 21
1.672168804699996
 31
0.0
  0
LINE
  5
1A9
330
ED
100
AcDbEntity
  8
AM_4
100
AcDbLine
 10
-0.0780523722000355
 20
1.672168804699996
 30
0.0
 11
-0.0780523722000355
 21
1.71587055
 31
0.0
  0
LINE
  5
1AA
330
ED
100
AcDbEntity
  8
AM_4
100
AcDbLine
 10
-0.0780523722000355
 20
1.71587055
 30
0.0
 11
-0.0811132479000217
 21
1.7304378
 31
0.0
  0
LINE
  5
1AB
330
ED
100
AcDbEntity
  8
AM_4
100
AcDbLine
 10
0.237218
 20
1.625553609599993
 30
0.0
 11
0.34740959
 21
1.625553609599993
 31
0.0
  0
LINE
  5
1AC
330
ED
100
AcDbEntity
  8
AM_4
100
AcDbLine
 10
0.04744361
 20
1.634293959699991
 30
0.0
 11
0.05968711
 21
1.645947754500017
 31
0.0
  0
LINE
  5
1AD
330
ED
100
AcDbEntity
  8
AM_4
100
AcDbLine
 10
0.1698787
 20
1.76248575
 30
0.0
 11
0.14233081
 21
1.76248575
 31
0.0
  0
LINE
  5
1AE
330
ED
100
AcDbEntity
  8
AM_4
100
AcDbLine
 10
-0.1668178092000414
 20
1.7595723
 30
0.0
 11
-0.1790613334000591
 21
1.7537454
 31
0.0
  0
LINE
  5
1AF
330
ED
100
AcDbEntity
  8
AM_4
100
AcDbLine
 10
-0.1790613334000591
 20
1.7537454
 30
0.0
 11
-0.19130483600003
 21
1.7420916
 31
0.0
  0
LINE
  5
1B0
330
ED
100
AcDbEntity
  8
AM_4
100
AcDbLine
 10
0.1698787
 20
1.643034304400007
 30
0.0
 11
0.14233081
 21
1.643034304400007
 31
0.0
  0
LINE
  5
1B1
330
ED
100
AcDbEntity
  8
AM_4
100
AcDbLine
 10
0.0352001
 20
1.628467059599987
 30
0.0
 11
0.04744361
 21
1.634293959699991
 31
0.0
  0
LINE
  5
1B2
330
ED
100
AcDbEntity
  8
AM_4
100
AcDbLine
 10
0.237218
 20
1.76248575
 30
0.0
 11
0.237218
 21
1.625553609599993
 31
0.0
  0
LINE
  5
1B3
330
ED
100
AcDbEntity
  8
AM_4
100
AcDbLine
 10
0.01989571
 20
1.625553609599993
 30
0.0
 11
0.0352001
 21
1.628467059599987
 31
0.0
  0
LINE
  5
1B4
330
ED
100
AcDbEntity
  8
AM_4
100
AcDbLine
 10
0.1025394000000001
 20
1.7420916
 30
0.0
 11
0.09641765
 21
1.7304378
 31
0.0
  0
LINE
  5
1B5
330
ED
100
AcDbEntity
  8
AM_4
100
AcDbLine
 10
-0.0535653508999878
 20
1.625553609599993
 30
0.0
 11
0.01989571
 21
1.625553609599993
 31
0.0
  0
LINE
  5
1B6
330
ED
100
AcDbEntity
  8
AM_4
100
AcDbLine
 10
-0.0535653508999878
 20
1.76248575
 30
0.0
 11
-0.0535653508999878
 21
1.625553609599993
 31
0.0
  0
LINE
  5
1B7
330
ED
100
AcDbEntity
  8
AM_4
100
AcDbLine
 10
0.11478291
 20
1.7537454
 30
0.0
 11
0.1025394000000001
 21
1.7420916
 31
0.0
  0
LINE
  5
1B8
330
ED
100
AcDbEntity
  8
AM_4
100
AcDbLine
 10
-0.7443033702999997
 20
-1.8515
 30
0.0
 11
0.7443033702999997
 21
-1.8515
 31
0.0
  0
LINE
  5
1B9
330
ED
100
AcDbEntity
  8
AM_4
100
AcDbLine
 10
1.776446262786827
 20
0.8193571075131728
 30
0.0
 11
0.7443033702999998
 21
1.8515
 31
0.0
  0
LINE
  5
1BA
330
ED
100
AcDbEntity
  8
AM_4
100
AcDbLine
 10
-0.7443033702999997
 20
1.8515
 30
0.0
 11
-1.776446262786827
 21
0.8193571075131729
 31
0.0
  0
ARC
  5
1BB
330
ED
100
AcDbEntity
  8
AM_4
100
AcDbCircle
 10
-1.595250512500001
 20
0.6381613572263451
 30
0.0
 40
0.256249487499999
100
AcDbArc
 50
134.9999999999997
 51
180.0
  0
LINE
  5
1BC
330
ED
100
AcDbEntity
  8
AM_4
100
AcDbLine
 10
0.7443033702999998
 20
1.8515
 30
0.0
 11
-0.7443033702999997
 21
1.8515
 31
0.0
  0
LINE
  5
1BD
330
ED
100
AcDbEntity
  8
AM_4
100
AcDbLine
 10
0.7443033702999997
 20
-1.8515
 30
0.0
 11
1.776446262786827
 21
-0.8193571075131724
 31
0.0
  0
ARC
  5
1BE
330
ED
100
AcDbEntity
  8
AM_4
100
AcDbCircle
 10
1.595250512500002
 20
0.6381613572263459
 30
0.0
 40
0.2562494874999981
100
AcDbArc
 50
0.0
 51
45.00000000000025
  0
LINE
  5
1BF
330
ED
100
AcDbEntity
  8
AM_4
100
AcDbLine
 10
-1.776446262786827
 20
-0.8193571075131728
 30
0.0
 11
-0.7443033702999997
 21
-1.8515
 31
0.0
  0
ARC
  5
1C0
330
ED
100
AcDbEntity
  8
AM_4
100
AcDbCircle
 10
1.595250512499997
 20
-0.6381613572263436
 30
0.0
 40
0.2562494875000028
100
AcDbArc
 50
315.0000000000002
 51
0.0000012074182697
  0
LINE
  5
1C1
330
ED
100
AcDbEntity
  8
AM_4
100
AcDbLine
 10
-1.8515
 20
0.6381613572263447
 30
0.0
 11
-1.8515
 21
-0.6381613534079306
 31
0.0
  0
ARC
  5
1C2
330
ED
100
AcDbEntity
  8
AM_4
100
AcDbCircle
 10
-1.595250512499999
 20
-0.6381613572263447
 30
0.0
 40
0.256249487500001
100
AcDbArc
 50
180.0
 51
225.0
  0
LINE
  5
1C3
330
ED
100
AcDbEntity
  8
AM_4
100
AcDbLine
 10
1.8515
 20
-0.638161353407929
 30
0.0
 11
1.8515
 21
0.6381613572263454
 31
0.0
  0
LINE
  5
1C4
330
ED
100
AcDbEntity
  8
AM_4
100
AcDbLine
 10
-0.3290443050000261
 20
1.74500505
 30
0.0
 11
-0.3290443050000261
 21
1.643034304400007
 31
0.0
  0
LINE
  5
1C5
330
ED
100
AcDbEntity
  8
AM_4
100
AcDbLine
 10
-0.2739485216999935
 20
1.74500505
 30
0.0
 11
-0.3290443050000261
 21
1.74500505
 31
0.0
  0
LINE
  5
1C6
330
ED
100
AcDbEntity
  8
AM_4
100
AcDbLine
 10
-0.2617050191000226
 20
1.7420916
 30
0.0
 11
-0.2739485216999935
 21
1.74500505
 31
0.0
  0
LINE
  5
1C7
330
ED
100
AcDbEntity
  8
AM_4
100
AcDbLine
 10
-0.2525223706000493
 20
1.7362647
 30
0.0
 11
-0.2617050191000226
 21
1.7420916
 31
0.0
  0
LINE
  5
1C8
330
ED
100
AcDbEntity
  8
AM_4
100
AcDbLine
 10
-0.2464006193000068
 20
1.72752435
 30
0.0
 11
-0.2525223706000493
 21
1.7362647
 31
0.0
  0
LINE
  5
1C9
330
ED
100
AcDbEntity
  8
AM_4
100
AcDbLine
 10
-0.2433397436000182
 20
1.71587055
 30
0.0
 11
-0.2464006193000068
 21
1.72752435
 31
0.0
  0
LINE
  5
1CA
330
ED
100
AcDbEntity
  8
AM_4
100
AcDbLine
 10
-0.2433397436000182
 20
1.672168804699996
 30
0.0
 11
-0.2433397436000182
 21
1.71587055
 31
0.0
  0
LINE
  5
1CB
330
ED
100
AcDbEntity
  8
AM_4
100
AcDbLine
 10
-0.2464006193000068
 20
1.660515004600004
 30
0.0
 11
-0.2433397436000182
 21
1.672168804699996
 31
0.0
  0
LINE
  5
1CC
330
ED
100
AcDbEntity
  8
AM_4
100
AcDbLine
 10
-0.2525223706000493
 20
1.651774657200011
 30
0.0
 11
-0.2464006193000068
 21
1.660515004600004
 31
0.0
  0
LINE
  5
1CD
330
ED
100
AcDbEntity
  8
AM_4
100
AcDbLine
 10
-0.2617050191000226
 20
1.645947754500017
 30
0.0
 11
-0.2525223706000493
 21
1.651774657200011
 31
0.0
  0
LINE
  5
1CE
330
ED
100
AcDbEntity
  8
AM_4
100
AcDbLine
 10
-0.2739485216999935
 20
1.643034304400007
 30
0.0
 11
-0.2617050191000226
 21
1.645947754500017
 31
0.0
  0
LINE
  5
1CF
330
ED
100
AcDbEntity
  8
AM_4
100
AcDbLine
 10
-0.3290443050000261
 20
1.643034304400007
 30
0.0
 11
-0.2739485216999935
 21
1.643034304400007
 31
0.0
  0
LINE
  5
1D0
330
ED
100
AcDbEntity
  8
AM_4
100
AcDbLine
 10
-0.0964176369000162
 20
1.71587055
 30
0.0
 11
-0.0994785126000024
 21
1.72752435
 31
0.0
  0
LINE
  5
1D1
330
ED
100
AcDbEntity
  8
AM_4
100
AcDbLine
 10
-0.0964176369000162
 20
1.672168804699996
 30
0.0
 11
-0.0964176369000162
 21
1.71587055
 31
0.0
  0
LINE
  5
1D2
330
ED
100
AcDbEntity
  8
AM_4
100
AcDbLine
 10
-0.0994785126000024
 20
1.660515004600004
 30
0.0
 11
-0.0964176369000162
 21
1.672168804699996
 31
0.0
  0
LINE
  5
1D3
330
ED
100
AcDbEntity
  8
AM_4
100
AcDbLine
 10
-0.1056002639000449
 20
1.651774657200011
 30
0.0
 11
-0.0994785126000024
 21
1.660515004600004
 31
0.0
  0
LINE
  5
1D4
330
ED
100
AcDbEntity
  8
AM_4
100
AcDbLine
 10
-0.1147829015999969
 20
1.645947754500017
 30
0.0
 11
-0.1056002639000449
 21
1.651774657200011
 31
0.0
  0
LINE
  5
1D5
330
ED
100
AcDbEntity
  8
AM_4
100
AcDbLine
 10
-0.1270264042000257
 20
1.643034304400007
 30
0.0
 11
-0.1147829015999969
 21
1.645947754500017
 31
0.0
  0
LINE
  5
1D6
330
ED
100
AcDbEntity
  8
AM_4
100
AcDbLine
 10
-0.1515134310000146
 20
1.643034304400007
 30
0.0
 11
-0.1270264042000257
 21
1.643034304400007
 31
0.0
  0
LINE
  5
1D7
330
ED
100
AcDbEntity
  8
AM_4
100
AcDbLine
 10
-0.1637569336000434
 20
1.645947754500017
 30
0.0
 11
-0.1515134310000146
 21
1.643034304400007
 31
0.0
  0
LINE
  5
1D8
330
ED
100
AcDbEntity
  8
AM_4
100
AcDbLine
 10
-0.1729395605000277
 20
1.651774657200011
 30
0.0
 11
-0.1637569336000434
 21
1.645947754500017
 31
0.0
  0
LINE
  5
1D9
330
ED
100
AcDbEntity
  8
AM_4
100
AcDbLine
 10
-0.1790613334000591
 20
1.660515004600004
 30
0.0
 11
-0.1729395605000277
 21
1.651774657200011
 31
0.0
  0
LINE
  5
1DA
330
ED
100
AcDbEntity
  8
AM_4
100
AcDbLine
 10
-0.1821222090000573
 20
1.672168804699996
 30
0.0
 11
-0.1790613334000591
 21
1.660515004600004
 31
0.0
  0
LINE
  5
1DB
330
ED
100
AcDbEntity
  8
AM_4
100
AcDbLine
 10
-0.1821222090000572
 20
1.71587055
 30
0.0
 11
-0.1821222090000573
 21
1.672168804699996
 31
0.0
  0
LINE
  5
1DC
330
ED
100
AcDbEntity
  8
AM_4
100
AcDbLine
 10
-0.1637569336000434
 20
1.7420916
 30
0.0
 11
-0.1729395605000277
 21
1.7362647
 31
0.0
  0
LINE
  5
1DD
330
ED
100
AcDbEntity
  8
AM_4
100
AcDbLine
 10
-0.1515134310000146
 20
1.74500505
 30
0.0
 11
-0.1637569336000434
 21
1.7420916
 31
0.0
  0
LINE
  5
1DE
330
ED
100
AcDbEntity
  8
AM_4
100
AcDbLine
 10
-0.1270264042000257
 20
1.74500505
 30
0.0
 11
-0.1515134310000146
 21
1.74500505
 31
0.0
  0
LINE
  5
1DF
330
ED
100
AcDbEntity
  8
AM_4
100
AcDbLine
 10
-0.1147829015999969
 20
1.7420916
 30
0.0
 11
-0.1270264042000257
 21
1.74500505
 31
0.0
  0
LINE
  5
1E0
330
ED
100
AcDbEntity
  8
AM_4
100
AcDbLine
 10
-0.1729395605000277
 20
1.7362647
 30
0.0
 11
-0.1790613334000591
 21
1.72752435
 31
0.0
  0
LINE
  5
1E1
330
ED
100
AcDbEntity
  8
AM_4
100
AcDbLine
 10
-0.0994785126000024
 20
1.72752435
 30
0.0
 11
-0.1056002639000449
 21
1.7362647
 31
0.0
  0
LINE
  5
1E2
330
ED
100
AcDbEntity
  8
AM_4
100
AcDbLine
 10
-0.1056002639000449
 20
1.7362647
 30
0.0
 11
-0.1147829015999969
 21
1.7420916
 31
0.0
  0
LINE
  5
1E3
330
ED
100
AcDbEntity
  8
AM_4
100
AcDbLine
 10
-0.1790613334000591
 20
1.72752435
 30
0.0
 11
-0.1821222090000572
 21
1.71587055
 31
0.0
  0
LINE
  5
1E4
330
ED
100
AcDbEntity
  8
AM_4
100
AcDbLine
 10
0.03213922
 20
1.7420916
 30
0.0
 11
0.01989571
 21
1.74500505
 31
0.0
  0
LINE
  5
1E5
330
ED
100
AcDbEntity
  8
AM_4
100
AcDbLine
 10
0.01989571
 20
1.74500505
 30
0.0
 11
-0.035200086200065
 21
1.74500505
 31
0.0
  0
LINE
  5
1E6
330
ED
100
AcDbEntity
  8
AM_4
100
AcDbLine
 10
-0.035200086200065
 20
1.74500505
 30
0.0
 11
-0.035200086200065
 21
1.643034304400007
 31
0.0
  0
LINE
  5
1E7
330
ED
100
AcDbEntity
  8
AM_4
100
AcDbLine
 10
0.04132185
 20
1.7362647
 30
0.0
 11
0.03213922
 21
1.7420916
 31
0.0
  0
LINE
  5
1E8
330
ED
100
AcDbEntity
  8
AM_4
100
AcDbLine
 10
0.04744361
 20
1.72752435
 30
0.0
 11
0.04132185
 21
1.7362647
 31
0.0
  0
LINE
  5
1E9
330
ED
100
AcDbEntity
  8
AM_4
100
AcDbLine
 10
0.05050448
 20
1.71587055
 30
0.0
 11
0.04744361
 21
1.72752435
 31
0.0
  0
LINE
  5
1EA
330
ED
100
AcDbEntity
  8
AM_4
100
AcDbLine
 10
0.05050448
 20
1.672168804699996
 30
0.0
 11
0.05050448
 21
1.71587055
 31
0.0
  0
LINE
  5
1EB
330
ED
100
AcDbEntity
  8
AM_4
100
AcDbLine
 10
0.04744361
 20
1.660515004600004
 30
0.0
 11
0.05050448
 21
1.672168804699996
 31
0.0
  0
LINE
  5
1EC
330
ED
100
AcDbEntity
  8
AM_4
100
AcDbLine
 10
0.04132185
 20
1.651774657200011
 30
0.0
 11
0.04744361
 21
1.660515004600004
 31
0.0
  0
LINE
  5
1ED
330
ED
100
AcDbEntity
  8
AM_4
100
AcDbLine
 10
0.03213922
 20
1.645947754500017
 30
0.0
 11
0.04132185
 21
1.651774657200011
 31
0.0
  0
LINE
  5
1EE
330
ED
100
AcDbEntity
  8
AM_4
100
AcDbLine
 10
0.0198957099999999
 20
1.643034304400007
 30
0.0
 11
0.03213922
 21
1.645947754500017
 31
0.0
  0
LINE
  5
1EF
330
ED
100
AcDbEntity
  8
AM_4
100
AcDbLine
 10
-0.035200086200065
 20
1.643034304400007
 30
0.0
 11
0.0198957099999999
 21
1.643034304400007
 31
0.0
  0
ENDBLK
  5
F0
330
ED
100
AcDbEntity
  8
0
100
AcDbBlockEnd
  0
ENDSEC
  0
SECTION
  2
ENTITIES
  0
INSERT
  5
6F
330
1F
100
AcDbEntity
  8
0
100
AcDbBlockReference
  2
1_129347_0
 10
0.0
 20
0.0
 30
0.0
  0
POINT
  5
1F1
330
1F
100
AcDbEntity
  8
ConnectionPoints
100
AcDbPoint
 10
0.0000000000000001
 20
0.0
 30
0.7815000000000003
  0
POINT
  5
1F2
330
1F
100
AcDbEntity
  8
ConnectionPoints
100
AcDbPoint
 10
0.0000000000000001
 20
0.0
 30
0.2190000000000003
  0
POINT
  5
1F3
330
1F
100
AcDbEntity
  8
ConnectionPoints
100
AcDbPoint
 10
0.0
 20
0.0
 30
0.2190000000000003
  0
ENDSEC
  0
SECTION
  2
OBJECTS
  0
DICTIONARY
  5
C
330
0
100
AcDbDictionary
281
     1
  3
ACAD_DETAILVIEWSTYLE
350
1FB
  3
ACAD_GROUP
350
D
  3
ACAD_LAYOUT
350
1A
  3
ACAD_MATERIAL
350
43
  3
ACAD_MLEADERSTYLE
350
6B
  3
ACAD_MLINESTYLE
350
17
  3
ACAD_PLOTSETTINGS
350
19
  3
ACAD_PLOTSTYLENAME
350
E
  3
ACAD_SCALELIST
350
47
  3
ACAD_SECTIONVIEWSTYLE
350
1FC
  3
ACAD_TABLESTYLE
350
69
  3
ACAD_VISUALSTYLE
350
2A
  3
ACDB_RECOMPOSE_DATA
350
1F8
  3
AcDbVariableDictionary
350
1F4
  0
SUN
  5
6D
330
29
100
AcDbSun
 90
        1
290
     0
 63
     7
421
 16777215
 40
1.0
291
     1
 91
  2455826
 92
 54000000
292
     0
 70
     2
 71
   256
280
     1
  0
DICTIONARY
  5
1FB
102
{ACAD_REACTORS
330
C
102
}
330
C
100
AcDbDictionary
281
     1
  0
DICTIONARY
  5
D
102
{ACAD_REACTORS
330
C
102
}
330
C
100
AcDbDictionary
281
     1
  0
DICTIONARY
  5
1A
102
{ACAD_REACTORS
330
C
102
}
330
C
100
AcDbDictionary
281
     1
  3
Layout1
350
1E
  3
Layout2
350
26
  3
Model
350
22
  0
DICTIONARY
  5
43
102
{ACAD_REACTORS
330
C
102
}
330
C
100
AcDbDictionary
281
     1
  3
ByBlock
350
45
  3
ByLayer
350
44
  3
Global
350
46
  0
DICTIONARY
  5
6B
102
{ACAD_REACTORS
330
C
102
}
330
C
100
AcDbDictionary
281
     1
  3
Standard
350
6C
  0
DICTIONARY
  5
17
102
{ACAD_REACTORS
330
C
102
}
330
C
100
AcDbDictionary
281
     1
  3
Standard
350
18
  0
DICTIONARY
  5
19
102
{ACAD_REACTORS
330
C
102
}
330
C
100
AcDbDictionary
281
     1
  0
ACDBDICTIONARYWDFLT
  5
E
102
{ACAD_REACTORS
330
C
102
}
330
C
100
AcDbDictionary
281
     1
  3
Normal
350
F
100
AcDbDictionaryWithDefault
340
F
  0
DICTIONARY
  5
47
102
{ACAD_REACTORS
330
C
102
}
330
C
100
AcDbDictionary
281
     1
  3
A0
350
48
  3
A1
350
49
  3
A2
350
4A
  3
A3
350
4B
  3
A4
350
4C
  3
A5
350
4D
  3
A6
350
4E
  3
A7
350
4F
  3
A8
350
50
  3
A9
350
51
  3
B0
350
52
  3
B1
350
53
  3
B2
350
54
  3
B3
350
55
  3
B4
350
56
  3
B5
350
57
  3
B6
350
58
  3
B7
350
59
  3
B8
350
5A
  3
B9
350
5B
  3
C0
350
5C
  3
C1
350
5D
  3
C2
350
5E
  3
C3
350
5F
  3
C4
350
60
  3
C5
350
61
  3
C6
350
62
  3
C7
350
63
  3
C8
350
64
  3
C9
350
65
  3
D0
350
66
  3
D1
350
67
  3
D2
350
68
  0
DICTIONARY
  5
1FC
102
{ACAD_REACTORS
330
C
102
}
330
C
100
AcDbDictionary
281
     1
  0
DICTIONARY
  5
69
102
{ACAD_REACTORS
330
C
102
}
330
C
100
AcDbDictionary
281
     1
  3
Standard
350
6A
  0
DICTIONARY
  5
2A
102
{ACAD_REACTORS
330
C
102
}
330
C
100
AcDbDictionary
281
     1
  3
2dWireframe
350
2F
  3
Basic
350
32
  3
Brighten
350
36
  3
ColorChange
350
3A
  3
Conceptual
350
34
  3
Dim
350
35
  3
EdgeColorOff
350
3D
  3
Facepattern
350
39
  3
Flat
350
2B
  3
FlatWithEdges
350
2C
  3
Gouraud
350
2D
  3
GouraudWithEdges
350
2E
  3
Hidden
350
31
  3
JitterOff
350
3B
  3
Linepattern
350
38
  3
OverhangOff
350
3C
  3
Realistic
350
33
  3
Shaded
350
42
  3
Shaded with edges
350
41
  3
Shades of Gray
350
3E
  3
Sketchy
350
3F
  3
Thicken
350
37
  3
Wireframe
350
30
  3
X-Ray
350
40
  0
XRECORD
  5
1F8
102
{ACAD_REACTORS
330
C
102
}
330
C
100
AcDbXrecord
280
     1
 90
        1
330
6A
  0
DICTIONARY
  5
1F4
102
{ACAD_REACTORS
330
C
102
}
330
C
100
AcDbDictionary
281
     1
  3
CANNOSCALE
350
1F5
  3
CMLEADERSTYLE
350
1FA
  3
CTABLESTYLE
350
1F9
  0
LAYOUT
  5
1E
102
{ACAD_REACTORS
330
1A
102
}
330
1A
100
AcDbPlotSettings
  1

  2
none_device
  4

  6

 40
0.0
 41
0.0
 42
0.0
 43
0.0
 44
0.0
 45
0.0
 46
0.0
 47
0.0
 48
0.0
 49
0.0
140
0.0
141
0.0
142
1.0
143
1.0
 70
   688
 72
     0
 73
     0
 74
     5
  7

 75
    16
 76
     0
 77
     2
 78
   300
147
1.0
148
0.0
149
0.0
100
AcDbLayout
  1
Layout1
 70
     1
 71
     1
 10
0.0
 20
0.0
 11
12.0
 21
9.0
 12
0.0
 22
0.0
 32
0.0
 14
1.000000000000000E+20
 24
1.000000000000000E+20
 34
1.000000000000000E+20
 15
-1.000000000000000E+20
 25
-1.000000000000000E+20
 35
-1.000000000000000E+20
146
0.0
 13
0.0
 23
0.0
 33
0.0
 16
1.0
 26
0.0
 36
0.0
 17
0.0
 27
1.0
 37
0.0
 76
     0
330
1B
  0
LAYOUT
  5
26
102
{ACAD_REACTORS
330
1A
102
}
330
1A
100
AcDbPlotSettings
  1

  2
none_device
  4

  6

 40
0.0
 41
0.0
 42
0.0
 43
0.0
 44
0.0
 45
0.0
 46
0.0
 47
0.0
 48
0.0
 49
0.0
140
0.0
141
0.0
142
1.0
143
1.0
 70
   688
 72
     0
 73
     0
 74
     5
  7

 75
    16
 76
     0
 77
     2
 78
   300
147
1.0
148
0.0
149
0.0
100
AcDbLayout
  1
Layout2
 70
     1
 71
     2
 10
0.0
 20
0.0
 11
0.0
 21
0.0
 12
0.0
 22
0.0
 32
0.0
 14
0.0
 24
0.0
 34
0.0
 15
0.0
 25
0.0
 35
0.0
146
0.0
 13
0.0
 23
0.0
 33
0.0
 16
1.0
 26
0.0
 36
0.0
 17
0.0
 27
1.0
 37
0.0
 76
     0
330
23
  0
LAYOUT
  5
22
102
{ACAD_REACTORS
330
1A
102
}
330
1A
100
AcDbPlotSettings
  1

  2
none_device
  4
Letter_(8.50_x_11.00_Inches)
  6

 40
6.35
 41
6.35
 42
6.35000508
 43
6.35000508
 44
215.9
 45
279.4
 46
0.0
 47
0.0
 48
0.0
 49
0.0
140
0.0
141
0.0
142
1.0
143
1.0
 70
  1712
 72
     0
 73
     0
 74
     0
  7

 75
     0
 76
     0
 77
     2
 78
   300
147
1.0
148
0.0
149
0.0
100
AcDbLayout
  1
Model
 70
     1
 71
     0
 10
0.0
 20
0.0
 11
12.0
 21
9.0
 12
0.0
 22
0.0
 32
0.0
 14
1.000000000000000E+20
 24
1.000000000000000E+20
 34
1.000000000000000E+20
 15
-1.000000000000000E+20
 25
-1.000000000000000E+20
 35
-1.000000000000000E+20
146
0.0
 13
0.0
 23
0.0
 33
0.0
 16
1.0
 26
0.0
 36
0.0
 17
0.0
 27
1.0
 37
0.0
 76
     0
330
1F
331
29
  0
MATERIAL
  5
45
102
{ACAD_REACTORS
330
43
102
}
330
43
100
AcDbMaterial
  1
ByBlock
 72
     1
 94
      127
  0
MATERIAL
  5
44
102
{ACAD_REACTORS
330
43
102
}
330
43
100
AcDbMaterial
  1
ByLayer
 72
     1
 94
      127
  0
MATERIAL
  5
46
102
{ACAD_REACTORS
330
43
102
}
330
43
100
AcDbMaterial
  1
Global
 72
     1
 94
      127
  0
MLEADERSTYLE
  5
6C
102
{ACAD_REACTORS
330
6B
102
}
330
6B
100
AcDbMLeaderStyle
179
     2
170
     2
171
     1
172
     0
 90
        2
 40
0.0
 41
0.0
173
     1
 91
-1056964608
340
14
 92
       -2
290
     1
 42
0.09
291
     1
 43
0.36
  3
Standard
341
0
 44
0.18
300

342
11
174
     1
178
     6
175
     1
176
     0
 93
-1056964608
 45
0.18
292
     0
297
     0
 46
0.18
343
0
 94
-1056964608
 47
1.0
 49
1.0
140
1.0
293
     1
141
0.0
294
     1
177
     0
142
1.0
295
     0
296
     0
143
0.125
271
     0
272
     9
273
     9
298
     0
  0
MLINESTYLE
  5
18
102
{ACAD_REACTORS
330
17
102
}
330
17
100
AcDbMlineStyle
  2
Standard
 70
     0
  3

 62
   256
 51
90.0
 52
90.0
 71
     2
 49
0.5
 62
   256
  6
BYLAYER
 49
-0.5
 62
   256
  6
BYLAYER
  0
ACDBPLACEHOLDER
  5
F
102
{ACAD_REACTORS
330
E
102
}
330
E
  0
SCALE
  5
48
102
{ACAD_REACTORS
330
47
102
}
330
47
100
AcDbScale
 70
     0
300
1:1
140
1.0
141
1.0
290
     1
  0
SCALE
  5
49
102
{ACAD_REACTORS
330
47
102
}
330
47
100
AcDbScale
 70
     0
300
1:2
140
1.0
141
2.0
290
     0
  0
SCALE
  5
4A
102
{ACAD_REACTORS
330
47
102
}
330
47
100
AcDbScale
 70
     0
300
1:4
140
1.0
141
4.0
290
     0
  0
SCALE
  5
4B
102
{ACAD_REACTORS
330
47
102
}
330
47
100
AcDbScale
 70
     0
300
1:5
140
1.0
141
5.0
290
     0
  0
SCALE
  5
4C
102
{ACAD_REACTORS
330
47
102
}
330
47
100
AcDbScale
 70
     0
300
1:8
140
1.0
141
8.0
290
     0
  0
SCALE
  5
4D
102
{ACAD_REACTORS
330
47
102
}
330
47
100
AcDbScale
 70
     0
300
1:10
140
1.0
141
10.0
290
     0
  0
SCALE
  5
4E
102
{ACAD_REACTORS
330
47
102
}
330
47
100
AcDbScale
 70
     0
300
1:16
140
1.0
141
16.0
290
     0
  0
SCALE
  5
4F
102
{ACAD_REACTORS
330
47
102
}
330
47
100
AcDbScale
 70
     0
300
1:20
140
1.0
141
20.0
290
     0
  0
SCALE
  5
50
102
{ACAD_REACTORS
330
47
102
}
330
47
100
AcDbScale
 70
     0
300
1:30
140
1.0
141
30.0
290
     0
  0
SCALE
  5
51
102
{ACAD_REACTORS
330
47
102
}
330
47
100
AcDbScale
 70
     0
300
1:40
140
1.0
141
40.0
290
     0
  0
SCALE
  5
52
102
{ACAD_REACTORS
330
47
102
}
330
47
100
AcDbScale
 70
     0
300
1:50
140
1.0
141
50.0
290
     0
  0
SCALE
  5
53
102
{ACAD_REACTORS
330
47
102
}
330
47
100
AcDbScale
 70
     0
300
1:100
140
1.0
141
100.0
290
     0
  0
SCALE
  5
54
102
{ACAD_REACTORS
330
47
102
}
330
47
100
AcDbScale
 70
     0
300
2:1
140
2.0
141
1.0
290
     0
  0
SCALE
  5
55
102
{ACAD_REACTORS
330
47
102
}
330
47
100
AcDbScale
 70
     0
300
4:1
140
4.0
141
1.0
290
     0
  0
SCALE
  5
56
102
{ACAD_REACTORS
330
47
102
}
330
47
100
AcDbScale
 70
     0
300
8:1
140
8.0
141
1.0
290
     0
  0
SCALE
  5
57
102
{ACAD_REACTORS
330
47
102
}
330
47
100
AcDbScale
 70
     0
300
10:1
140
10.0
141
1.0
290
     0
  0
SCALE
  5
58
102
{ACAD_REACTORS
330
47
102
}
330
47
100
AcDbScale
 70
     0
300
100:1
140
100.0
141
1.0
290
     0
  0
SCALE
  5
59
102
{ACAD_REACTORS
330
47
102
}
330
47
100
AcDbScale
 70
     0
300
1/128" = 1'-0"
140
0.0078125
141
12.0
290
     0
  0
SCALE
  5
5A
102
{ACAD_REACTORS
330
47
102
}
330
47
100
AcDbScale
 70
     0
300
1/64" = 1'-0"
140
0.015625
141
12.0
290
     0
  0
SCALE
  5
5B
102
{ACAD_REACTORS
330
47
102
}
330
47
100
AcDbScale
 70
     0
300
1/32" = 1'-0"
140
0.03125
141
12.0
290
     0
  0
SCALE
  5
5C
102
{ACAD_REACTORS
330
47
102
}
330
47
100
AcDbScale
 70
     0
300
1/16" = 1'-0"
140
0.0625
141
12.0
290
     0
  0
SCALE
  5
5D
102
{ACAD_REACTORS
330
47
102
}
330
47
100
AcDbScale
 70
     0
300
3/32" = 1'-0"
140
0.09375
141
12.0
290
     0
  0
SCALE
  5
5E
102
{ACAD_REACTORS
330
47
102
}
330
47
100
AcDbScale
 70
     0
300
1/8" = 1'-0"
140
0.125
141
12.0
290
     0
  0
SCALE
  5
5F
102
{ACAD_REACTORS
330
47
102
}
330
47
100
AcDbScale
 70
     0
300
3/16" = 1'-0"
140
0.1875
141
12.0
290
     0
  0
SCALE
  5
60
102
{ACAD_REACTORS
330
47
102
}
330
47
100
AcDbScale
 70
     0
300
1/4" = 1'-0"
140
0.25
141
12.0
290
     0
  0
SCALE
  5
61
102
{ACAD_REACTORS
330
47
102
}
330
47
100
AcDbScale
 70
     0
300
3/8" = 1'-0"
140
0.375
141
12.0
290
     0
  0
SCALE
  5
62
102
{ACAD_REACTORS
330
47
102
}
330
47
100
AcDbScale
 70
     0
300
1/2" = 1'-0"
140
0.5
141
12.0
290
     0
  0
SCALE
  5
63
102
{ACAD_REACTORS
330
47
102
}
330
47
100
AcDbScale
 70
     0
300
3/4" = 1'-0"
140
0.75
141
12.0
290
     0
  0
SCALE
  5
64
102
{ACAD_REACTORS
330
47
102
}
330
47
100
AcDbScale
 70
     0
300
1" = 1'-0"
140
1.0
141
12.0
290
     0
  0
SCALE
  5
65
102
{ACAD_REACTORS
330
47
102
}
330
47
100
AcDbScale
 70
     0
300
1-1/2" = 1'-0"
140
1.5
141
12.0
290
     0
  0
SCALE
  5
66
102
{ACAD_REACTORS
330
47
102
}
330
47
100
AcDbScale
 70
     0
300
3" = 1'-0"
140
3.0
141
12.0
290
     0
  0
SCALE
  5
67
102
{ACAD_REACTORS
330
47
102
}
330
47
100
AcDbScale
 70
     0
300
6" = 1'-0"
140
6.0
141
12.0
290
     0
  0
SCALE
  5
68
102
{ACAD_REACTORS
330
47
102
}
330
47
100
AcDbScale
 70
     0
300
1'-0" = 1'-0"
140
12.0
141
12.0
290
     0
  0
TABLESTYLE
  5
6A
102
{ACAD_REACTORS
330
69
102
}
102
{ACAD_XDICTIONARY
360
1F6
102
}
330
69
100
AcDbTableStyle
  3
Standard
 70
     0
 71
     0
 40
0.06
 41
0.06
280
     0
281
     0
  7
Standard
140
0.18
170
     2
 62
     0
 63
   257
283
     0
 90
        4
 91
        0
  1

274
    -2
284
     1
 64
     0
275
    -2
285
     1
 65
     0
276
    -2
286
     1
 66
     0
277
    -2
287
     1
 67
     0
278
    -2
288
     1
 68
     0
279
    -2
289
     1
 69
     0
  7
Standard
140
0.25
170
     5
 62
     0
 63
   257
283
     0
 90
        4
 91
        0
  1

274
    -2
284
     1
 64
     0
275
    -2
285
     1
 65
     0
276
    -2
286
     1
 66
     0
277
    -2
287
     1
 67
     0
278
    -2
288
     1
 68
     0
279
    -2
289
     1
 69
     0
  7
Standard
140
0.18
170
     5
 62
     0
 63
   257
283
     0
 90
        4
 91
        0
  1

274
    -2
284
     1
 64
     0
275
    -2
285
     1
 65
     0
276
    -2
286
     1
 66
     0
277
    -2
287
     1
 67
     0
278
    -2
288
     1
 68
     0
279
    -2
289
     1
 69
     0
  0
VISUALSTYLE
  5
2F
102
{ACAD_REACTORS
330
2A
102
}
330
2A
100
AcDbVisualStyle
  2
2dWireframe
 70
     4
177
     3
291
     0
 70
    58
 90
        0
176
     1
 90
        2
176
     1
 90
        0
176
     1
 90
        0
176
     1
 40
0.6
176
     1
 40
30.0
176
     1
 62
     7
420
 16777215
176
     1
 90
        1
176
     1
 90
        4
176
     1
 62
     7
176
     1
 62
   257
176
     1
 90
        1
176
     1
 90
        1
176
     1
 40
1.0
176
     1
 90
        0
176
     1
 62
   257
176
     1
 40
1.0
176
     1
 90
        1
176
     1
 90
        6
176
     1
 90
        2
176
     1
 62
     7
176
     1
 90
        5
176
     1
 90
        0
176
     1
 90
        0
176
     1
290
     0
176
     1
 90
        1
176
     1
 40
0.0
176
     1
 90
        0
176
     1
290
     1
176
     1
290
     1
176
     1
290
     0
176
     1
290
     0
176
     1
290
     0
176
     1
290
     0
176
     1
290
     0
176
     1
290
     0
176
     1
290
     0
176
     1
 90
       50
176
     1
 40
0.0
176
     1
 40
1.0
176
     1
 90
        0
176
     1
 62
    18
420
        0
176
     1
 90
       50
176
     1
 90
        3
176
     1
 62
     5
420
      255
176
     1
290
     0
176
     1
 90
       50
176
     1
 90
       50
176
     1
 90
       50
176
     1
290
     0
176
     1
 90
       50
176
     1
 62
   256
176
     0
 40
1.0
176
     0
 90
        2
176
     1
  1
strokes_ogs.tif
176
     1
290
     0
176
     1
 40
1.0
176
     1
 40
1.0
176
     1
  0
VISUALSTYLE
  5
32
102
{ACAD_REACTORS
330
2A
102
}
330
2A
100
AcDbVisualStyle
  2
Basic
 70
     7
177
     3
291
     1
 70
    58
 90
        1
176
     1
 90
        0
176
     1
 90
        1
176
     1
 90
        0
176
     1
 40
0.6
176
     1
 40
30.0
176
     1
 62
     7
420
 16777215
176
     1
 90
        0
176
     1
 90
        4
176
     1
 62
     7
176
     1
 62
   257
176
     1
 90
        1
176
     1
 90
        1
176
     1
 40
1.0
176
     1
 90
        8
176
     1
 62
     7
176
     1
 40
1.0
176
     1
 90
        1
176
     1
 90
        6
176
     1
 90
        2
176
     1
 62
     7
176
     1
 90
        5
176
     1
 90
        0
176
     1
 90
        0
176
     1
290
     0
176
     1
 90
        1
176
     1
 40
0.0
176
     1
 90
        0
176
     1
290
     0
176
     1
290
     1
176
     1
290
     1
176
     1
290
     0
176
     1
290
     0
176
     1
290
     0
176
     1
290
     0
176
     1
290
     0
176
     1
290
     0
176
     1
 90
       50
176
     1
 40
0.0
176
     1
 40
1.0
176
     1
 90
        0
176
     1
 62
    18
420
        0
176
     1
 90
       50
176
     1
 90
        3
176
     1
 62
     5
420
      255
176
     1
290
     0
176
     1
 90
       50
176
     1
 90
       50
176
     1
 90
       50
176
     1
290
     0
176
     1
 90
       50
176
     1
 62
   256
176
     0
 40
1.0
176
     0
 90
        2
176
     1
  1
strokes_ogs.tif
176
     1
290
     0
176
     1
 40
1.0
176
     1
 40
1.0
176
     1
  0
VISUALSTYLE
  5
36
102
{ACAD_REACTORS
330
2A
102
}
330
2A
100
AcDbVisualStyle
  2
Brighten
 70
    12
177
     3
291
     1
 70
    58
 90
        2
176
     1
 90
        2
176
     1
 90
        0
176
     1
 90
        0
176
     1
 40
0.6
176
     1
 40
30.0
176
     1
 62
     7
420
 16777215
176
     1
 90
        1
176
     1
 90
        4
176
     1
 62
     7
176
     1
 62
   257
176
     1
 90
        1
176
     1
 90
        1
176
     1
 40
1.0
176
     1
 90
        8
176
     1
 62
     7
176
     1
 40
1.0
176
     1
 90
        1
176
     1
 90
        6
176
     1
 90
        2
176
     1
 62
     7
176
     1
 90
        5
176
     1
 90
        0
176
     1
 90
        0
176
     1
290
     0
176
     1
 90
        1
176
     1
 40
50.0
176
     1
 90
        0
176
     1
290
     0
176
     1
290
     1
176
     1
290
     1
176
     1
290
     0
176
     1
290
     0
176
     1
290
     0
176
     1
290
     0
176
     1
290
     0
176
     1
290
     0
176
     1
 90
       50
176
     1
 40
0.0
176
     1
 40
1.0
176
     1
 90
        0
176
     1
 62
    18
420
        0
176
     1
 90
       50
176
     1
 90
        3
176
     1
 62
     5
420
      255
176
     1
290
     0
176
     1
 90
       50
176
     1
 90
       50
176
     1
 90
       50
176
     1
290
     0
176
     1
 90
       50
176
     1
 62
   256
176
     0
 40
1.0
176
     0
 90
        2
176
     1
  1
strokes_ogs.tif
176
     1
290
     0
176
     1
 40
1.0
176
     1
 40
1.0
176
     1
  0
VISUALSTYLE
  5
3A
102
{ACAD_REACTORS
330
2A
102
}
330
2A
100
AcDbVisualStyle
  2
ColorChange
 70
    16
177
     3
291
     1
 70
    58
 90
        2
176
     1
 90
        2
176
     1
 90
        3
176
     1
 90
        0
176
     1
 40
0.6
176
     1
 40
30.0
176
     1
 62
     8
420
  8421504
176
     1
 90
        1
176
     1
 90
        4
176
     1
 62
     7
176
     1
 62
   257
176
     1
 90
        1
176
     1
 90
        1
176
     1
 40
1.0
176
     1
 90
        8
176
     1
 62
     8
420
  8421504
176
     1
 40
1.0
176
     1
 90
        1
176
     1
 90
        6
176
     1
 90
        2
176
     1
 62
     7
176
     1
 90
        5
176
     1
 90
        0
176
     1
 90
        0
176
     1
290
     0
176
     1
 90
        1
176
     1
 40
0.0
176
     1
 90
        0
176
     1
290
     0
176
     1
290
     1
176
     1
290
     1
176
     1
290
     0
176
     1
290
     0
176
     1
290
     0
176
     1
290
     0
176
     1
290
     0
176
     1
290
     0
176
     1
 90
       50
176
     1
 40
0.0
176
     1
 40
1.0
176
     1
 90
        0
176
     1
 62
    18
420
        0
176
     1
 90
       50
176
     1
 90
        3
176
     1
 62
     5
420
      255
176
     1
290
     0
176
     1
 90
       50
176
     1
 90
       50
176
     1
 90
       50
176
     1
290
     0
176
     1
 90
       50
176
     1
 62
   256
176
     0
 40
1.0
176
     0
 90
        2
176
     1
  1
strokes_ogs.tif
176
     1
290
     0
176
     1
 40
1.0
176
     1
 40
1.0
176
     1
  0
VISUALSTYLE
  5
34
102
{ACAD_REACTORS
330
2A
102
}
330
2A
100
AcDbVisualStyle
  2
Conceptual
 70
     9
177
     3
291
     0
 70
    58
 90
        3
176
     1
 90
        2
176
     1
 90
        0
176
     1
 90
        0
176
     1
 40
0.6
176
     1
 40
30.0
176
     1
 62
     7
420
 16777215
176
     1
 90
        2
176
     1
 90
        2
176
     1
 62
     7
176
     1
 62
   257
176
     1
 90
        1
176
     1
 90
        1
176
     1
 40
179.0
176
     1
 90
        8
176
     1
 62
     7
176
     1
 40
1.0
176
     1
 90
        1
176
     1
 90
        6
176
     1
 90
        2
176
     1
 62
     7
176
     1
 90
        3
176
     1
 90
        0
176
     1
 90
        0
176
     1
290
     0
176
     1
 90
        1
176
     1
 40
0.0
176
     1
 90
        0
176
     1
290
     0
176
     1
290
     1
176
     1
290
     1
176
     1
290
     0
176
     1
290
     0
176
     1
290
     0
176
     1
290
     0
176
     1
290
     0
176
     1
290
     0
176
     1
 90
       50
176
     1
 40
0.0
176
     1
 40
1.0
176
     1
 90
        0
176
     1
 62
    18
420
        0
176
     1
 90
       50
176
     1
 90
        3
176
     1
 62
     5
420
      255
176
     1
290
     0
176
     1
 90
       50
176
     1
 90
       50
176
     1
 90
       50
176
     1
290
     0
176
     1
 90
       50
176
     1
 62
   256
176
     0
 40
1.0
176
     0
 90
        2
176
     1
  1
strokes_ogs.tif
176
     1
290
     0
176
     1
 40
1.0
176
     1
 40
1.0
176
     1
  0
VISUALSTYLE
  5
35
102
{ACAD_REACTORS
330
2A
102
}
330
2A
100
AcDbVisualStyle
  2
Dim
 70
    11
177
     3
291
     1
 70
    58
 90
        2
176
     1
 90
        2
176
     1
 90
        0
176
     1
 90
        0
176
     1
 40
0.6
176
     1
 40
30.0
176
     1
 62
     7
420
 16777215
176
     1
 90
        1
176
     1
 90
        4
176
     1
 62
     7
176
     1
 62
   257
176
     1
 90
        1
176
     1
 90
        1
176
     1
 40
1.0
176
     1
 90
        8
176
     1
 62
     7
176
     1
 40
1.0
176
     1
 90
        1
176
     1
 90
        6
176
     1
 90
        2
176
     1
 62
     7
176
     1
 90
        5
176
     1
 90
        0
176
     1
 90
        0
176
     1
290
     0
176
     1
 90
        1
176
     1
 40
-50.0
176
     1
 90
        0
176
     1
290
     0
176
     1
290
     1
176
     1
290
     1
176
     1
290
     0
176
     1
290
     0
176
     1
290
     0
176
     1
290
     0
176
     1
290
     0
176
     1
290
     0
176
     1
 90
       50
176
     1
 40
0.0
176
     1
 40
1.0
176
     1
 90
        0
176
     1
 62
    18
420
        0
176
     1
 90
       50
176
     1
 90
        3
176
     1
 62
     5
420
      255
176
     1
290
     0
176
     1
 90
       50
176
     1
 90
       50
176
     1
 90
       50
176
     1
290
     0
176
     1
 90
       50
176
     1
 62
   256
176
     0
 40
1.0
176
     0
 90
        2
176
     1
  1
strokes_ogs.tif
176
     1
290
     0
176
     1
 40
1.0
176
     1
 40
1.0
176
     1
  0
VISUALSTYLE
  5
3D
102
{ACAD_REACTORS
330
2A
102
}
330
2A
100
AcDbVisualStyle
  2
EdgeColorOff
 70
    22
177
     3
291
     1
 70
    58
 90
        2
176
     0
 90
        2
176
     0
 90
        0
176
     0
 90
        0
176
     0
 40
0.6
176
     0
 40
30.0
176
     0
 62
     7
420
 16777215
176
     0
 90
        1
176
     0
 90
        4
176
     0
 62
     7
176
     0
 62
   257
176
     0
 90
        1
176
     0
 90
        1
176
     0
 40
1.0
176
     0
 90
        8
176
     2
 62
     7
176
     0
 40
1.0
176
     0
 90
        1
176
     0
 90
        6
176
     0
 90
        2
176
     0
 62
     7
176
     0
 90
        5
176
     0
 90
        0
176
     0
 90
        0
176
     0
290
     0
176
     0
 90
        1
176
     0
 40
0.0
176
     0
 90
        0
176
     0
290
     0
176
     0
290
     1
176
     0
290
     1
176
     0
290
     0
176
     0
290
     0
176
     0
290
     0
176
     0
290
     0
176
     0
290
     0
176
     0
290
     0
176
     0
 90
       50
176
     0
 40
0.0
176
     0
 40
1.0
176
     0
 90
        0
176
     0
 62
    18
420
        0
176
     0
 90
       50
176
     0
 90
        3
176
     0
 62
     5
420
      255
176
     0
290
     0
176
     0
 90
       50
176
     0
 90
       50
176
     0
 90
       50
176
     0
290
     0
176
     0
 90
       50
176
     0
 62
   256
176
     0
 40
1.0
176
     0
 90
        2
176
     0
  1
strokes_ogs.tif
176
     0
290
     0
176
     0
 40
1.0
176
     0
 40
1.0
176
     0
  0
VISUALSTYLE
  5
39
102
{ACAD_REACTORS
330
2A
102
}
330
2A
100
AcDbVisualStyle
  2
Facepattern
 70
    15
177
     3
291
     1
 70
    58
 90
        2
176
     1
 90
        2
176
     1
 90
        0
176
     1
 90
        0
176
     1
 40
0.6
176
     1
 40
30.0
176
     1
 62
     7
420
 16777215
176
     1
 90
        1
176
     1
 90
        4
176
     1
 62
     7
176
     1
 62
   257
176
     1
 90
        1
176
     1
 90
        1
176
     1
 40
1.0
176
     1
 90
        8
176
     1
 62
     7
176
     1
 40
1.0
176
     1
 90
        1
176
     1
 90
        6
176
     1
 90
        2
176
     1
 62
     7
176
     1
 90
        5
176
     1
 90
        0
176
     1
 90
        0
176
     1
290
     0
176
     1
 90
        1
176
     1
 40
0.0
176
     1
 90
        0
176
     1
290
     0
176
     1
290
     1
176
     1
290
     1
176
     1
290
     0
176
     1
290
     0
176
     1
290
     0
176
     1
290
     0
176
     1
290
     0
176
     1
290
     0
176
     1
 90
       50
176
     1
 40
0.0
176
     1
 40
1.0
176
     1
 90
        0
176
     1
 62
    18
420
        0
176
     1
 90
       50
176
     1
 90
        3
176
     1
 62
     5
420
      255
176
     1
290
     0
176
     1
 90
       50
176
     1
 90
       50
176
     1
 90
       50
176
     1
290
     0
176
     1
 90
       50
176
     1
 62
   256
176
     0
 40
1.0
176
     0
 90
        2
176
     1
  1
strokes_ogs.tif
176
     1
290
     0
176
     1
 40
1.0
176
     1
 40
1.0
176
     1
  0
VISUALSTYLE
  5
2B
102
{ACAD_REACTORS
330
2A
102
}
330
2A
100
AcDbVisualStyle
  2
Flat
 70
     0
177
     3
291
     1
 70
    58
 90
        2
176
     1
 90
        1
176
     1
 90
        1
176
     1
 90
        2
176
     1
 40
0.6
176
     1
 40
30.0
176
     1
 62
     7
420
 16777215
176
     1
 90
        0
176
     1
 90
        0
176
     1
 62
     7
176
     1
 62
   257
176
     1
 90
        1
176
     1
 90
        1
176
     1
 40
1.0
176
     1
 90
        8
176
     1
 62
     7
176
     1
 40
1.0
176
     1
 90
        1
176
     1
 90
        6
176
     1
 90
        2
176
     1
 62
     7
176
     1
 90
        5
176
     1
 90
        0
176
     1
 90
        0
176
     1
290
     0
176
     1
 90
       13
176
     1
 40
0.0
176
     1
 90
        0
176
     1
290
     0
176
     1
290
     1
176
     1
290
     1
176
     1
290
     0
176
     1
290
     0
176
     1
290
     0
176
     1
290
     0
176
     1
290
     0
176
     1
290
     0
176
     1
 90
       50
176
     1
 40
0.0
176
     1
 40
1.0
176
     1
 90
        0
176
     1
 62
    18
420
        0
176
     1
 90
       50
176
     1
 90
        3
176
     1
 62
     5
420
      255
176
     1
290
     0
176
     1
 90
       50
176
     1
 90
       50
176
     1
 90
       50
176
     1
290
     0
176
     1
 90
       50
176
     1
 62
   256
176
     0
 40
1.0
176
     0
 90
        2
176
     1
  1
strokes_ogs.tif
176
     1
290
     0
176
     1
 40
1.0
176
     1
 40
1.0
176
     1
  0
VISUALSTYLE
  5
2C
102
{ACAD_REACTORS
330
2A
102
}
330
2A
100
AcDbVisualStyle
  2
FlatWithEdges
 70
     1
177
     3
291
     1
 70
    58
 90
        2
176
     1
 90
        1
176
     1
 90
        1
176
     1
 90
        2
176
     1
 40
0.6
176
     1
 40
30.0
176
     1
 62
     7
420
 16777215
176
     1
 90
        1
176
     1
 90
        0
176
     1
 62
     7
176
     1
 62
   257
176
     1
 90
        1
176
     1
 90
        1
176
     1
 40
1.0
176
     1
 90
        0
176
     1
 62
   257
176
     1
 40
1.0
176
     1
 90
        1
176
     1
 90
        6
176
     1
 90
        2
176
     1
 62
     7
176
     1
 90
        5
176
     1
 90
        0
176
     1
 90
        0
176
     1
290
     0
176
     1
 90
       13
176
     1
 40
0.0
176
     1
 90
        0
176
     1
290
     0
176
     1
290
     1
176
     1
290
     1
176
     1
290
     0
176
     1
290
     0
176
     1
290
     0
176
     1
290
     0
176
     1
290
     0
176
     1
290
     0
176
     1
 90
       50
176
     1
 40
0.0
176
     1
 40
1.0
176
     1
 90
        0
176
     1
 62
    18
420
        0
176
     1
 90
       50
176
     1
 90
        3
176
     1
 62
     5
420
      255
176
     1
290
     0
176
     1
 90
       50
176
     1
 90
       50
176
     1
 90
       50
176
     1
290
     0
176
     1
 90
       50
176
     1
 62
   256
176
     0
 40
1.0
176
     0
 90
        2
176
     1
  1
strokes_ogs.tif
176
     1
290
     0
176
     1
 40
1.0
176
     1
 40
1.0
176
     1
  0
VISUALSTYLE
  5
2D
102
{ACAD_REACTORS
330
2A
102
}
330
2A
100
AcDbVisualStyle
  2
Gouraud
 70
     2
177
     3
291
     1
 70
    58
 90
        2
176
     1
 90
        2
176
     1
 90
        1
176
     1
 90
        2
176
     1
 40
0.6
176
     1
 40
30.0
176
     1
 62
     7
420
 16777215
176
     1
 90
        0
176
     1
 90
        0
176
     1
 62
     7
176
     1
 62
   257
176
     1
 90
        1
176
     1
 90
        1
176
     1
 40
1.0
176
     1
 90
        0
176
     1
 62
     7
176
     1
 40
1.0
176
     1
 90
        1
176
     1
 90
        6
176
     1
 90
        2
176
     1
 62
     7
176
     1
 90
        5
176
     1
 90
        0
176
     1
 90
        0
176
     1
290
     0
176
     1
 90
       13
176
     1
 40
0.0
176
     1
 90
        0
176
     1
290
     0
176
     1
290
     1
176
     1
290
     1
176
     1
290
     0
176
     1
290
     0
176
     1
290
     0
176
     1
290
     0
176
     1
290
     0
176
     1
290
     0
176
     1
 90
       50
176
     1
 40
0.0
176
     1
 40
1.0
176
     1
 90
        0
176
     1
 62
    18
420
        0
176
     1
 90
       50
176
     1
 90
        3
176
     1
 62
     5
420
      255
176
     1
290
     0
176
     1
 90
       50
176
     1
 90
       50
176
     1
 90
       50
176
     1
290
     0
176
     1
 90
       50
176
     1
 62
   256
176
     0
 40
1.0
176
     0
 90
        2
176
     1
  1
strokes_ogs.tif
176
     1
290
     0
176
     1
 40
1.0
176
     1
 40
1.0
176
     1
  0
VISUALSTYLE
  5
2E
102
{ACAD_REACTORS
330
2A
102
}
330
2A
100
AcDbVisualStyle
  2
GouraudWithEdges
 70
     3
177
     3
291
     1
 70
    58
 90
        2
176
     1
 90
        2
176
     1
 90
        1
176
     1
 90
        2
176
     1
 40
0.6
176
     1
 40
30.0
176
     1
 62
     7
420
 16777215
176
     1
 90
        1
176
     1
 90
        0
176
     1
 62
     7
176
     1
 62
   257
176
     1
 90
        1
176
     1
 90
        1
176
     1
 40
1.0
176
     1
 90
        0
176
     1
 62
   257
176
     1
 40
1.0
176
     1
 90
        1
176
     1
 90
        6
176
     1
 90
        2
176
     1
 62
     7
176
     1
 90
        5
176
     1
 90
        0
176
     1
 90
        0
176
     1
290
     0
176
     1
 90
       13
176
     1
 40
0.0
176
     1
 90
        0
176
     1
290
     0
176
     1
290
     1
176
     1
290
     1
176
     1
290
     0
176
     1
290
     0
176
     1
290
     0
176
     1
290
     0
176
     1
290
     0
176
     1
290
     0
176
     1
 90
       50
176
     1
 40
0.0
176
     1
 40
1.0
176
     1
 90
        0
176
     1
 62
    18
420
        0
176
     1
 90
       50
176
     1
 90
        3
176
     1
 62
     5
420
      255
176
     1
290
     0
176
     1
 90
       50
176
     1
 90
       50
176
     1
 90
       50
176
     1
290
     0
176
     1
 90
       50
176
     1
 62
   256
176
     0
 40
1.0
176
     0
 90
        2
176
     1
  1
strokes_ogs.tif
176
     1
290
     0
176
     1
 40
1.0
176
     1
 40
1.0
176
     1
  0
VISUALSTYLE
  5
31
102
{ACAD_REACTORS
330
2A
102
}
330
2A
100
AcDbVisualStyle
  2
Hidden
 70
     6
177
     3
291
     0
 70
    58
 90
        1
176
     1
 90
        2
176
     1
 90
        2
176
     1
 90
        0
176
     1
 40
0.6
176
     1
 40
30.0
176
     1
 62
     7
420
 16777215
176
     1
 90
        2
176
     1
 90
        2
176
     1
 62
     7
176
     1
 62
   257
176
     1
 90
        2
176
     1
 90
        1
176
     1
 40
40.0
176
     1
 90
        0
176
     1
 62
   257
176
     1
 40
1.0
176
     1
 90
        1
176
     1
 90
        6
176
     1
 90
        2
176
     1
 62
     7
176
     1
 90
        3
176
     1
 90
        0
176
     1
 90
        0
176
     1
290
     0
176
     1
 90
        1
176
     1
 40
0.0
176
     1
 90
        0
176
     1
290
     0
176
     1
290
     1
176
     1
290
     1
176
     1
290
     0
176
     1
290
     0
176
     1
290
     0
176
     1
290
     0
176
     1
290
     0
176
     1
290
     0
176
     1
 90
       50
176
     1
 40
0.0
176
     1
 40
1.0
176
     1
 90
        0
176
     1
 62
    18
420
        0
176
     1
 90
       50
176
     1
 90
        3
176
     1
 62
     5
420
      255
176
     1
290
     0
176
     1
 90
       50
176
     1
 90
       50
176
     1
 90
       50
176
     1
290
     0
176
     1
 90
       50
176
     1
 62
   256
176
     0
 40
1.0
176
     0
 90
        2
176
     1
  1
strokes_ogs.tif
176
     1
290
     0
176
     1
 40
1.0
176
     1
 40
1.0
176
     1
  0
VISUALSTYLE
  5
3B
102
{ACAD_REACTORS
330
2A
102
}
330
2A
100
AcDbVisualStyle
  2
JitterOff
 70
    20
177
     3
291
     1
 70
    58
 90
        2
176
     0
 90
        2
176
     0
 90
        0
176
     0
 90
        0
176
     0
 40
0.6
176
     0
 40
30.0
176
     0
 62
     7
420
 16777215
176
     0
 90
        1
176
     0
 90
        4
176
     0
 62
     7
176
     0
 62
   257
176
     0
 90
        1
176
     0
 90
        1
176
     0
 40
1.0
176
     0
 90
       10
176
     2
 62
     7
176
     0
 40
1.0
176
     0
 90
        1
176
     0
 90
        6
176
     0
 90
        2
176
     0
 62
     7
176
     0
 90
        5
176
     0
 90
        0
176
     0
 90
        0
176
     0
290
     0
176
     0
 90
        1
176
     0
 40
0.0
176
     0
 90
        0
176
     0
290
     0
176
     0
290
     1
176
     0
290
     1
176
     0
290
     0
176
     0
290
     0
176
     0
290
     0
176
     0
290
     0
176
     0
290
     0
176
     0
290
     0
176
     0
 90
       50
176
     0
 40
0.0
176
     0
 40
1.0
176
     0
 90
        0
176
     0
 62
    18
420
        0
176
     0
 90
       50
176
     0
 90
        3
176
     0
 62
     5
420
      255
176
     0
290
     0
176
     0
 90
       50
176
     0
 90
       50
176
     0
 90
       50
176
     0
290
     0
176
     0
 90
       50
176
     0
 62
   256
176
     0
 40
1.0
176
     0
 90
        2
176
     0
  1
strokes_ogs.tif
176
     0
290
     0
176
     0
 40
1.0
176
     0
 40
1.0
176
     0
  0
VISUALSTYLE
  5
38
102
{ACAD_REACTORS
330
2A
102
}
330
2A
100
AcDbVisualStyle
  2
Linepattern
 70
    14
177
     3
291
     1
 70
    58
 90
        2
176
     1
 90
        2
176
     1
 90
        0
176
     1
 90
        0
176
     1
 40
0.6
176
     1
 40
30.0
176
     1
 62
     7
420
 16777215
176
     1
 90
        1
176
     1
 90
        4
176
     1
 62
     7
176
     1
 62
   257
176
     1
 90
        7
176
     1
 90
        7
176
     1
 40
1.0
176
     1
 90
        8
176
     1
 62
     7
176
     1
 40
1.0
176
     1
 90
        1
176
     1
 90
        6
176
     1
 90
        2
176
     1
 62
     7
176
     1
 90
        5
176
     1
 90
        0
176
     1
 90
        0
176
     1
290
     0
176
     1
 90
        1
176
     1
 40
0.0
176
     1
 90
        0
176
     1
290
     0
176
     1
290
     1
176
     1
290
     1
176
     1
290
     0
176
     1
290
     0
176
     1
290
     0
176
     1
290
     0
176
     1
290
     0
176
     1
290
     0
176
     1
 90
       50
176
     1
 40
0.0
176
     1
 40
1.0
176
     1
 90
        0
176
     1
 62
    18
420
        0
176
     1
 90
       50
176
     1
 90
        3
176
     1
 62
     5
420
      255
176
     1
290
     0
176
     1
 90
       50
176
     1
 90
       50
176
     1
 90
       50
176
     1
290
     0
176
     1
 90
       50
176
     1
 62
   256
176
     0
 40
1.0
176
     0
 90
        2
176
     1
  1
strokes_ogs.tif
176
     1
290
     0
176
     1
 40
1.0
176
     1
 40
1.0
176
     1
  0
VISUALSTYLE
  5
3C
102
{ACAD_REACTORS
330
2A
102
}
330
2A
100
AcDbVisualStyle
  2
OverhangOff
 70
    21
177
     3
291
     1
 70
    58
 90
        2
176
     0
 90
        2
176
     0
 90
        0
176
     0
 90
        0
176
     0
 40
0.6
176
     0
 40
30.0
176
     0
 62
     7
420
 16777215
176
     0
 90
        1
176
     0
 90
        4
176
     0
 62
     7
176
     0
 62
   257
176
     0
 90
        1
176
     0
 90
        1
176
     0
 40
1.0
176
     0
 90
        9
176
     2
 62
     7
176
     0
 40
1.0
176
     0
 90
        1
176
     0
 90
        6
176
     0
 90
        2
176
     0
 62
     7
176
     0
 90
        5
176
     0
 90
        0
176
     0
 90
        0
176
     0
290
     0
176
     0
 90
        1
176
     0
 40
0.0
176
     0
 90
        0
176
     0
290
     0
176
     0
290
     1
176
     0
290
     1
176
     0
290
     0
176
     0
290
     0
176
     0
290
     0
176
     0
290
     0
176
     0
290
     0
176
     0
290
     0
176
     0
 90
       50
176
     0
 40
0.0
176
     0
 40
1.0
176
     0
 90
        0
176
     0
 62
    18
420
        0
176
     0
 90
       50
176
     0
 90
        3
176
     0
 62
     5
420
      255
176
     0
290
     0
176
     0
 90
       50
176
     0
 90
       50
176
     0
 90
       50
176
     0
290
     0
176
     0
 90
       50
176
     0
 62
   256
176
     0
 40
1.0
176
     0
 90
        2
176
     0
  1
strokes_ogs.tif
176
     0
290
     0
176
     0
 40
1.0
176
     0
 40
1.0
176
     0
  0
VISUALSTYLE
  5
33
102
{ACAD_REACTORS
330
2A
102
}
330
2A
100
AcDbVisualStyle
  2
Realistic
 70
     8
177
     3
291
     0
 70
    58
 90
        2
176
     1
 90
        3
176
     1
 90
        0
176
     1
 90
        2
176
     1
 40
0.6
176
     1
 40
30.0
176
     1
 62
     7
420
 16777215
176
     1
 90
        0
176
     1
 90
        0
176
     1
 62
     7
176
     1
 62
   257
176
     1
 90
        1
176
     1
 90
        1
176
     1
 40
1.0
176
     1
 90
        8
176
     1
 62
   257
176
     1
 40
1.0
176
     1
 90
        1
176
     1
 90
        6
176
     1
 90
        2
176
     1
 62
     7
176
     1
 90
        3
176
     1
 90
        0
176
     1
 90
        0
176
     1
290
     0
176
     1
 90
       13
176
     1
 40
0.0
176
     1
 90
        0
176
     1
290
     0
176
     1
290
     1
176
     1
290
     1
176
     1
290
     0
176
     1
290
     0
176
     1
290
     0
176
     1
290
     0
176
     1
290
     0
176
     1
290
     0
176
     1
 90
       50
176
     1
 40
0.0
176
     1
 40
1.0
176
     1
 90
        0
176
     1
 62
    18
420
        0
176
     1
 90
       50
176
     1
 90
        3
176
     1
 62
     5
420
      255
176
     1
290
     0
176
     1
 90
       50
176
     1
 90
       50
176
     1
 90
       50
176
     1
290
     0
176
     1
 90
       50
176
     1
 62
   256
176
     0
 40
1.0
176
     0
 90
        2
176
     1
  1
strokes_ogs.tif
176
     1
290
     0
176
     1
 40
1.0
176
     1
 40
1.0
176
     1
  0
VISUALSTYLE
  5
42
102
{ACAD_REACTORS
330
2A
102
}
330
2A
100
AcDbVisualStyle
  2
Shaded
 70
    27
177
     3
291
     0
 70
    58
 90
        2
176
     1
 90
        2
176
     1
 90
        1
176
     1
 90
        2
176
     1
 40
0.6
176
     1
 40
30.0
176
     1
 62
     7
420
 16777215
176
     1
 90
        0
176
     1
 90
        4
176
     1
 62
     7
176
     1
 62
   257
176
     1
 90
        1
176
     1
 90
        1
176
     1
 40
1.0
176
     1
 90
        8
176
     1
 62
   257
176
     1
 40
1.0
176
     1
 90
        1
176
     1
 90
        6
176
     1
 90
        2
176
     1
 62
     8
420
  7895160
176
     1
 90
        3
176
     1
 90
        0
176
     1
 90
        0
176
     1
290
     0
176
     1
 90
        5
176
     1
 40
0.0
176
     1
 90
        0
176
     1
290
     0
176
     1
290
     1
176
     1
290
     1
176
     1
290
     0
176
     1
290
     0
176
     1
290
     0
176
     1
290
     0
176
     1
290
     0
176
     1
290
     0
176
     1
 90
       50
176
     1
 40
0.0
176
     1
 40
1.0
176
     1
 90
        0
176
     1
 62
    18
420
        0
176
     1
 90
       50
176
     1
 90
        3
176
     1
 62
     5
420
      255
176
     1
290
     0
176
     1
 90
       50
176
     1
 90
       50
176
     1
 90
       50
176
     1
290
     0
176
     1
 90
       50
176
     1
 62
   256
176
     0
 40
1.0
176
     0
 90
        2
176
     1
  1
strokes_ogs.tif
176
     1
290
     0
176
     1
 40
1.0
176
     1
 40
1.0
176
     1
  0
VISUALSTYLE
  5
41
102
{ACAD_REACTORS
330
2A
102
}
330
2A
100
AcDbVisualStyle
  2
Shaded with edges
 70
    26
177
     3
291
     0
 70
    58
 90
        2
176
     1
 90
        2
176
     1
 90
        1
176
     1
 90
        2
176
     1
 40
0.6
176
     1
 40
30.0
176
     1
 62
     7
420
 16777215
176
     1
 90
        1
176
     1
 90
       10
176
     1
 62
     7
176
     1
 62
   257
176
     1
 90
        2
176
     1
 90
        1
176
     1
 40
1.0
176
     1
 90
        8
176
     1
 62
   257
176
     1
 40
1.0
176
     1
 90
        1
176
     1
 90
        6
176
     1
 90
        2
176
     1
 62
     7
176
     1
 90
        3
176
     1
 90
        0
176
     1
 90
        0
176
     1
290
     0
176
     1
 90
        5
176
     1
 40
0.0
176
     1
 90
        0
176
     1
290
     0
176
     1
290
     1
176
     1
290
     1
176
     1
290
     0
176
     1
290
     0
176
     1
290
     0
176
     1
290
     0
176
     1
290
     0
176
     1
290
     0
176
     1
 90
       50
176
     1
 40
0.0
176
     1
 40
1.0
176
     1
 90
        0
176
     1
 62
    18
420
        0
176
     1
 90
       50
176
     1
 90
        3
176
     1
 62
     5
420
      255
176
     1
290
     0
176
     1
 90
       50
176
     1
 90
       50
176
     1
 90
       50
176
     1
290
     0
176
     1
 90
       50
176
     1
 62
   256
176
     0
 40
1.0
176
     0
 90
        2
176
     1
  1
strokes_ogs.tif
176
     1
290
     0
176
     1
 40
1.0
176
     1
 40
1.0
176
     1
  0
VISUALSTYLE
  5
3E
102
{ACAD_REACTORS
330
2A
102
}
330
2A
100
AcDbVisualStyle
  2
Shades of Gray
 70
    23
177
     3
291
     0
 70
    58
 90
        2
176
     1
 90
        2
176
     1
 90
        3
176
     1
 90
        0
176
     1
 40
0.6
176
     1
 40
30.0
176
     1
 62
     7
420
 16777215
176
     1
 90
        2
176
     1
 90
        2
176
     1
 62
     7
176
     1
 62
     7
176
     1
 90
        1
176
     1
 90
        1
176
     1
 40
40.0
176
     1
 90
        8
176
     1
 62
     7
176
     1
 40
1.0
176
     1
 90
        1
176
     1
 90
        6
176
     1
 90
        2
176
     1
 62
     7
176
     1
 90
        3
176
     1
 90
        0
176
     1
 90
        0
176
     1
290
     0
176
     1
 90
        1
176
     1
 40
0.0
176
     1
 90
        0
176
     1
290
     0
176
     1
290
     1
176
     1
290
     1
176
     1
290
     0
176
     1
290
     0
176
     1
290
     0
176
     1
290
     0
176
     1
290
     0
176
     1
290
     0
176
     1
 90
       50
176
     1
 40
0.0
176
     1
 40
1.0
176
     1
 90
        0
176
     1
 62
    18
420
        0
176
     1
 90
       50
176
     1
 90
        3
176
     1
 62
     5
420
      255
176
     1
290
     0
176
     1
 90
       50
176
     1
 90
       50
176
     1
 90
       50
176
     1
290
     0
176
     1
 90
       50
176
     1
 62
   256
176
     0
 40
1.0
176
     0
 90
        2
176
     1
  1
strokes_ogs.tif
176
     1
290
     0
176
     1
 40
1.0
176
     1
 40
1.0
176
     1
  0
VISUALSTYLE
  5
3F
102
{ACAD_REACTORS
330
2A
102
}
330
2A
100
AcDbVisualStyle
  2
Sketchy
 70
    24
177
     3
291
     0
 70
    58
 90
        1
176
     1
 90
        2
176
     1
 90
        2
176
     1
 90
        0
176
     1
 40
0.6
176
     1
 40
30.0
176
     1
 62
     7
420
 16777215
176
     1
 90
        2
176
     1
 90
        2
176
     1
 62
     7
176
     1
 62
     7
176
     1
 90
        1
176
     1
 90
        1
176
     1
 40
40.0
176
     1
 90
       11
176
     1
 62
     7
176
     1
 40
1.0
176
     1
 90
        1
176
     1
 90
        6
176
     1
 90
        2
176
     1
 62
     7
176
     1
 90
        6
176
     1
 90
        0
176
     1
 90
        0
176
     1
290
     0
176
     1
 90
        1
176
     1
 40
0.0
176
     1
 90
        0
176
     1
290
     0
176
     1
290
     1
176
     1
290
     1
176
     1
290
     0
176
     1
290
     0
176
     1
290
     0
176
     1
290
     0
176
     1
290
     0
176
     1
290
     0
176
     1
 90
       50
176
     1
 40
0.0
176
     1
 40
1.0
176
     1
 90
        0
176
     1
 62
    18
420
        0
176
     1
 90
       50
176
     1
 90
        3
176
     1
 62
     5
420
      255
176
     1
290
     0
176
     1
 90
       50
176
     1
 90
       50
176
     1
 90
       50
176
     1
290
     0
176
     1
 90
       50
176
     1
 62
   256
176
     0
 40
1.0
176
     0
 90
        2
176
     1
  1
strokes_ogs.tif
176
     1
290
     0
176
     1
 40
1.0
176
     1
 40
1.0
176
     1
  0
VISUALSTYLE
  5
37
102
{ACAD_REACTORS
330
2A
102
}
330
2A
100
AcDbVisualStyle
  2
Thicken
 70
    13
177
     3
291
     1
 70
    58
 90
        2
176
     1
 90
        2
176
     1
 90
        0
176
     1
 90
        0
176
     1
 40
0.6
176
     1
 40
30.0
176
     1
 62
     7
420
 16777215
176
     1
 90
        1
176
     1
 90
        4
176
     1
 62
     7
176
     1
 62
   257
176
     1
 90
        1
176
     1
 90
        1
176
     1
 40
1.0
176
     1
 90
       12
176
     1
 62
     7
176
     1
 40
1.0
176
     1
 90
        1
176
     1
 90
        6
176
     1
 90
        2
176
     1
 62
     7
176
     1
 90
        5
176
     1
 90
        0
176
     1
 90
        0
176
     1
290
     0
176
     1
 90
        1
176
     1
 40
0.0
176
     1
 90
        0
176
     1
290
     0
176
     1
290
     1
176
     1
290
     1
176
     1
290
     0
176
     1
290
     0
176
     1
290
     0
176
     1
290
     0
176
     1
290
     0
176
     1
290
     0
176
     1
 90
       50
176
     1
 40
0.0
176
     1
 40
1.0
176
     1
 90
        0
176
     1
 62
    18
420
        0
176
     1
 90
       50
176
     1
 90
        3
176
     1
 62
     5
420
      255
176
     1
290
     0
176
     1
 90
       50
176
     1
 90
       50
176
     1
 90
       50
176
     1
290
     0
176
     1
 90
       50
176
     1
 62
   256
176
     0
 40
1.0
176
     0
 90
        2
176
     1
  1
strokes_ogs.tif
176
     1
290
     0
176
     1
 40
1.0
176
     1
 40
1.0
176
     1
  0
VISUALSTYLE
  5
30
102
{ACAD_REACTORS
330
2A
102
}
330
2A
100
AcDbVisualStyle
  2
Wireframe
 70
     5
177
     3
291
     0
 70
    58
 90
        0
176
     1
 90
        2
176
     1
 90
        0
176
     1
 90
        0
176
     1
 40
0.6
176
     1
 40
30.0
176
     1
 62
     7
420
 16777215
176
     1
 90
        1
176
     1
 90
        4
176
     1
 62
     7
176
     1
 62
   257
176
     1
 90
        1
176
     1
 90
        1
176
     1
 40
1.0
176
     1
 90
        0
176
     1
 62
   257
176
     1
 40
1.0
176
     1
 90
        1
176
     1
 90
        6
176
     1
 90
        2
176
     1
 62
     7
176
     1
 90
        3
176
     1
 90
        0
176
     1
 90
        0
176
     1
290
     0
176
     1
 90
        1
176
     1
 40
0.0
176
     1
 90
        0
176
     1
290
     0
176
     1
290
     1
176
     1
290
     1
176
     1
290
     0
176
     1
290
     0
176
     1
290
     0
176
     1
290
     0
176
     1
290
     0
176
     1
290
     0
176
     1
 90
       50
176
     1
 40
0.0
176
     1
 40
1.0
176
     1
 90
        0
176
     1
 62
    18
420
        0
176
     1
 90
       50
176
     1
 90
        3
176
     1
 62
     5
420
      255
176
     1
290
     0
176
     1
 90
       50
176
     1
 90
       50
176
     1
 90
       50
176
     1
290
     0
176
     1
 90
       50
176
     1
 62
   256
176
     0
 40
1.0
176
     0
 90
        2
176
     1
  1
strokes_ogs.tif
176
     1
290
     0
176
     1
 40
1.0
176
     1
 40
1.0
176
     1
  0
VISUALSTYLE
  5
40
102
{ACAD_REACTORS
330
2A
102
}
330
2A
100
AcDbVisualStyle
  2
X-Ray
 70
    25
177
     3
291
     0
 70
    58
 90
        2
176
     1
 90
        2
176
     1
 90
        1
176
     1
 90
        1
176
     1
 40
0.5
176
     1
 40
30.0
176
     1
 62
     7
420
 16777215
176
     1
 90
        1
176
     1
 90
        0
176
     1
 62
     7
176
     1
 62
   257
176
     1
 90
        1
176
     1
 90
        1
176
     1
 40
1.0
176
     1
 90
        8
176
     1
 62
     7
176
     1
 40
1.0
176
     1
 90
        1
176
     1
 90
        6
176
     1
 90
        2
176
     1
 62
     7
176
     1
 90
        3
176
     1
 90
        0
176
     1
 90
        0
176
     1
290
     0
176
     1
 90
       13
176
     1
 40
0.0
176
     1
 90
        0
176
     1
290
     0
176
     1
290
     1
176
     1
290
     1
176
     1
290
     0
176
     1
290
     0
176
     1
290
     0
176
     1
290
     0
176
     1
290
     0
176
     1
290
     0
176
     1
 90
       50
176
     1
 40
0.0
176
     1
 40
1.0
176
     1
 90
        0
176
     1
 62
    18
420
        0
176
     1
 90
       50
176
     1
 90
        3
176
     1
 62
     5
420
      255
176
     1
290
     0
176
     1
 90
       50
176
     1
 90
       50
176
     1
 90
       50
176
     1
290
     0
176
     1
 90
       50
176
     1
 62
   256
176
     0
 40
1.0
176
     0
 90
        2
176
     1
  1
strokes_ogs.tif
176
     1
290
     0
176
     1
 40
1.0
176
     1
 40
1.0
176
     1
  0
DICTIONARYVAR
  5
1F5
102
{ACAD_REACTORS
330
1F4
102
}
330
1F4
100
DictionaryVariables
280
     0
  1
1:1
  0
DICTIONARYVAR
  5
1FA
102
{ACAD_REACTORS
330
1F4
102
}
330
1F4
100
DictionaryVariables
280
     0
  1
Standard
  0
DICTIONARYVAR
  5
1F9
102
{ACAD_REACTORS
330
1F4
102
}
330
1F4
100
DictionaryVariables
280
     0
  1
Standard
  0
DICTIONARY
  5
1F6
330
6A
100
AcDbDictionary
280
     1
281
     1
  3
ACAD_ROUNDTRIP_2008_TABLESTYLE_CELLSTYLEMAP
360
1F7
  0
CELLSTYLEMAP
  5
1F7
102
{ACAD_REACTORS
330
1F6
102
}
330
1F6
100
AcDbCellStyleMap
 90
        3
300
CELLSTYLE
  1
TABLEFORMAT_BEGIN
 90
        5
170
     1
 91
        0
 92
    32768
 62
   257
 93
        1
300
CONTENTFORMAT
  1
CONTENTFORMAT_BEGIN
 90
        0
 91
        0
 92
        4
 93
        0
300

 40
0.0
140
1.0
 94
        5
 62
     0
340
11
144
0.25
309
CONTENTFORMAT_END
171
     1
301
MARGIN
  1
CELLMARGIN_BEGIN
 40
0.06
 40
0.06
 40
0.06
 40
0.06
 40
0.06
 40
0.06
309
CELLMARGIN_END
 94
        6
 95
        1
302
GRIDFORMAT
  1
GRIDFORMAT_BEGIN
 90
        0
 91
        1
 62
     0
 92
       -2
340
14
 93
        0
 40
0.045
309
GRIDFORMAT_END
 95
        2
302
GRIDFORMAT
  1
GRIDFORMAT_BEGIN
 90
        0
 91
        1
 62
     0
 92
       -2
340
14
 93
        0
 40
0.045
309
GRIDFORMAT_END
 95
        4
302
GRIDFORMAT
  1
GRIDFORMAT_BEGIN
 90
        0
 91
        1
 62
     0
 92
       -2
340
14
 93
        0
 40
0.045
309
GRIDFORMAT_END
 95
        8
302
GRIDFORMAT
  1
GRIDFORMAT_BEGIN
 90
        0
 91
        1
 62
     0
 92
       -2
340
14
 93
        0
 40
0.045
309
GRIDFORMAT_END
 95
       16
302
GRIDFORMAT
  1
GRIDFORMAT_BEGIN
 90
        0
 91
        1
 62
     0
 92
       -2
340
14
 93
        0
 40
0.045
309
GRIDFORMAT_END
 95
       32
302
GRIDFORMAT
  1
GRIDFORMAT_BEGIN
 90
        0
 91
        1
 62
     0
 92
       -2
340
14
 93
        0
 40
0.045
309
GRIDFORMAT_END
309
TABLEFORMAT_END
  1
CELLSTYLE_BEGIN
 90
        1
 91
        1
300
_TITLE
309
CELLSTYLE_END
300
CELLSTYLE
  1
TABLEFORMAT_BEGIN
 90
        5
170
     1
 91
        0
 92
        0
 62
   257
 93
        1
300
CONTENTFORMAT
  1
CONTENTFORMAT_BEGIN
 90
        0
 91
        0
 92
        4
 93
        0
300

 40
0.0
140
1.0
 94
        5
 62
     0
340
11
144
0.18
309
CONTENTFORMAT_END
171
     1
301
MARGIN
  1
CELLMARGIN_BEGIN
 40
0.06
 40
0.06
 40
0.06
 40
0.06
 40
0.06
 40
0.06
309
CELLMARGIN_END
 94
        6
 95
        1
302
GRIDFORMAT
  1
GRIDFORMAT_BEGIN
 90
        0
 91
        1
 62
     0
 92
       -2
340
14
 93
        0
 40
0.045
309
GRIDFORMAT_END
 95
        2
302
GRIDFORMAT
  1
GRIDFORMAT_BEGIN
 90
        0
 91
        1
 62
     0
 92
       -2
340
14
 93
        0
 40
0.045
309
GRIDFORMAT_END
 95
        4
302
GRIDFORMAT
  1
GRIDFORMAT_BEGIN
 90
        0
 91
        1
 62
     0
 92
       -2
340
14
 93
        0
 40
0.045
309
GRIDFORMAT_END
 95
        8
302
GRIDFORMAT
  1
GRIDFORMAT_BEGIN
 90
        0
 91
        1
 62
     0
 92
       -2
340
14
 93
        0
 40
0.045
309
GRIDFORMAT_END
 95
       16
302
GRIDFORMAT
  1
GRIDFORMAT_BEGIN
 90
        0
 91
        1
 62
     0
 92
       -2
340
14
 93
        0
 40
0.045
309
GRIDFORMAT_END
 95
       32
302
GRIDFORMAT
  1
GRIDFORMAT_BEGIN
 90
        0
 91
        1
 62
     0
 92
       -2
340
14
 93
        0
 40
0.045
309
GRIDFORMAT_END
309
TABLEFORMAT_END
  1
CELLSTYLE_BEGIN
 90
        2
 91
        1
300
_HEADER
309
CELLSTYLE_END
300
CELLSTYLE
  1
TABLEFORMAT_BEGIN
 90
        5
170
     1
 91
        0
 92
        0
 62
   257
 93
        1
300
CONTENTFORMAT
  1
CONTENTFORMAT_BEGIN
 90
        0
 91
        0
 92
        4
 93
        0
300

 40
0.0
140
1.0
 94
        2
 62
     0
340
11
144
0.18
309
CONTENTFORMAT_END
171
     1
301
MARGIN
  1
CELLMARGIN_BEGIN
 40
0.06
 40
0.06
 40
0.06
 40
0.06
 40
0.06
 40
0.06
309
CELLMARGIN_END
 94
        6
 95
        1
302
GRIDFORMAT
  1
GRIDFORMAT_BEGIN
 90
        0
 91
        1
 62
     0
 92
       -2
340
14
 93
        0
 40
0.045
309
GRIDFORMAT_END
 95
        2
302
GRIDFORMAT
  1
GRIDFORMAT_BEGIN
 90
        0
 91
        1
 62
     0
 92
       -2
340
14
 93
        0
 40
0.045
309
GRIDFORMAT_END
 95
        4
302
GRIDFORMAT
  1
GRIDFORMAT_BEGIN
 90
        0
 91
        1
 62
     0
 92
       -2
340
14
 93
        0
 40
0.045
309
GRIDFORMAT_END
 95
        8
302
GRIDFORMAT
  1
GRIDFORMAT_BEGIN
 90
        0
 91
        1
 62
     0
 92
       -2
340
14
 93
        0
 40
0.045
309
GRIDFORMAT_END
 95
       16
302
GRIDFORMAT
  1
GRIDFORMAT_BEGIN
 90
        0
 91
        1
 62
     0
 92
       -2
340
14
 93
        0
 40
0.045
309
GRIDFORMAT_END
 95
       32
302
GRIDFORMAT
  1
GRIDFORMAT_BEGIN
 90
        0
 91
        1
 62
     0
 92
       -2
340
14
 93
        0
 40
0.045
309
GRIDFORMAT_END
309
TABLEFORMAT_END
  1
CELLSTYLE_BEGIN
 90
        3
 91
        2
300
_DATA
309
CELLSTYLE_END
  0
ENDSEC
  0
EOF