0
SECTION
  2
HEADER
  9
$ACADVER
  1
AC1027
  9
$ACADMAINTVER
 70
     8
  9
$DWGCODEPAGE
  3
ANSI_1252
  9
$REQUIREDVERSIONS
160
                 0
  9
$COMMENTS
  1
File was created by Cadenas
  9
$CUSTOMPROPERTYTAG
  1
NN
  9
$CUSTOMPROPERTY
  1
Grip Tight Two-Bolt Flange - Polymer Housing, Corrosion Resistant Insert Inch Bore
  9
$CUSTOMPROPERTYTAG
  1
NT
  9
$CUSTOMPROPERTY
  1
GTEZ Normal Duty Polymer Housed 2 Bolt Flange Bearings
  9
$CUSTOMPROPERTYTAG
  1
NB
  9
$CUSTOMPROPERTY
  1
129344
  9
$CUSTOMPROPERTYTAG
  1
NBSYN
  9
$CUSTOMPROPERTY
  1
$PN.$LUBE.
  9
$CUSTOMPROPERTYTAG
  1
LINA
  9
$CUSTOMPROPERTY
  1
129344
  9
$CUSTOMPROPERTYTAG
  1
SERIES
  9
$CUSTOMPROPERTY
  1
206
  9
$CUSTOMPROPERTYTAG
  1
SS
  9
$CUSTOMPROPERTY
  1
1-1/4
  9
$CUSTOMPROPERTYTAG
  1
PN
  9
$CUSTOMPROPERTY
  1
129344
  9
$CUSTOMPROPERTYTAG
  1
DESCRIPTION
  9
$CUSTOMPROPERTY
  1
F2B-GTEZ-104S-PCR
  9
$CUSTOMPROPERTYTAG
  1
A
  9
$CUSTOMPROPERTY
  1
1-39/64
  9
$CUSTOMPROPERTYTAG
  1
B
  9
$CUSTOMPROPERTY
  1
5-19/32
  9
$CUSTOMPROPERTYTAG
  1
C
  9
$CUSTOMPROPERTY
  1
1-53/64
  9
$CUSTOMPROPERTYTAG
  1
D
  9
$CUSTOMPROPERTY
  1
4-19/32
  9
$CUSTOMPROPERTYTAG
  1
F
  9
$CUSTOMPROPERTY
  1
3/8
  9
$CUSTOMPROPERTYTAG
  1
H
  9
$CUSTOMPROPERTY
  1
39/64
  9
$CUSTOMPROPERTYTAG
  1
J
  9
$CUSTOMPROPERTY
  1
35/64
  9
$CUSTOMPROPERTYTAG
  1
L
  9
$CUSTOMPROPERTY
  1
2
  9
$CUSTOMPROPERTYTAG
  1
M
  9
$CUSTOMPROPERTY
  1
3-13/64
  9
$CUSTOMPROPERTYTAG
  1
Z
  9
$CUSTOMPROPERTY
  1
1-25/32
  9
$CUSTOMPROPERTYTAG
  1
COMPANY
  9
$CUSTOMPROPERTY
  1
baldor
  9
$INSBASE
 10
0.0
 20
0.0
 30
0.0
  9
$EXTMIN
 10
1.000000000000000E+20
 20
1.000000000000000E+20
 30
1.000000000000000E+20
  9
$EXTMAX
 10
-1.000000000000000E+20
 20
-1.000000000000000E+20
 30
-1.000000000000000E+20
  9
$LIMMIN
 10
0.0
 20
0.0
  9
$LIMMAX
 10
12.0
 20
9.0
  9
$ORTHOMODE
 70
     0
  9
$REGENMODE
 70
     1
  9
$FILLMODE
 70
     1
  9
$QTEXTMODE
 70
     0
  9
$MIRRTEXT
 70
     1
  9
$LTSCALE
 40
1.0
  9
$ATTMODE
 70
     1
  9
$TEXTSIZE
 40
0.2
  9
$TRACEWID
 40
0.05
  9
$TEXTSTYLE
  7
Standard
  9
$CLAYER
  8
0
  9
$CELTYPE
  6
ByLayer
  9
$CECOLOR
 62
   256
  9
$CELTSCALE
 40
1.0
  9
$DISPSILH
 70
     0
  9
$DIMSCALE
 40
1.0
  9
$DIMASZ
 40
0.18
  9
$DIMEXO
 40
0.0625
  9
$DIMDLI
 40
0.38
  9
$DIMRND
 40
0.0
  9
$DIMDLE
 40
0.0
  9
$DIMEXE
 40
0.18
  9
$DIMTP
 40
0.0
  9
$DIMTM
 40
0.0
  9
$DIMTXT
 40
0.18
  9
$DIMCEN
 40
0.09
  9
$DIMTSZ
 40
0.0
  9
$DIMTOL
 70
     0
  9
$DIMLIM
 70
     0
  9
$DIMTIH
 70
     1
  9
$DIMTOH
 70
     1
  9
$DIMSE1
 70
     0
  9
$DIMSE2
 70
     0
  9
$DIMTAD
 70
     0
  9
$DIMZIN
 70
     0
  9
$DIMBLK
  1

  9
$DIMASO
 70
     1
  9
$DIMSHO
 70
     1
  9
$DIMPOST
  1

  9
$DIMAPOST
  1

  9
$DIMALT
 70
     0
  9
$DIMALTD
 70
     2
  9
$DIMALTF
 40
25.4
  9
$DIMLFAC
 40
1.0
  9
$DIMTOFL
 70
     0
  9
$DIMTVP
 40
0.0
  9
$DIMTIX
 70
     0
  9
$DIMSOXD
 70
     0
  9
$DIMSAH
 70
     0
  9
$DIMBLK1
  1

  9
$DIMBLK2
  1

  9
$DIMSTYLE
  2
Standard
  9
$DIMCLRD
 70
     0
  9
$DIMCLRE
 70
     0
  9
$DIMCLRT
 70
     0
  9
$DIMTFAC
 40
1.0
  9
$DIMGAP
 40
0.09
  9
$DIMJUST
 70
     0
  9
$DIMSD1
 70
     0
  9
$DIMSD2
 70
     0
  9
$DIMTOLJ
 70
     1
  9
$DIMTZIN
 70
     0
  9
$DIMALTZ
 70
     0
  9
$DIMALTTZ
 70
     0
  9
$DIMUPT
 70
     0
  9
$DIMDEC
 70
     4
  9
$DIMTDEC
 70
     4
  9
$DIMALTU
 70
     2
  9
$DIMALTTD
 70
     2
  9
$DIMTXSTY
  7
Standard
  9
$DIMAUNIT
 70
     0
  9
$DIMADEC
 70
     0
  9
$DIMALTRND
 40
0.0
  9
$DIMAZIN
 70
     0
  9
$DIMDSEP
 70
    46
  9
$DIMATFIT
 70
     3
  9
$DIMFRAC
 70
     0
  9
$DIMLDRBLK
  1

  9
$DIMLUNIT
 70
     2
  9
$DIMLWD
 70
    -2
  9
$DIMLWE
 70
    -2
  9
$DIMTMOVE
 70
     0
  9
$DIMFXL
 40
1.0
  9
$DIMFXLON
 70
     0
  9
$DIMJOGANG
 40
0.7853981633974483
  9
$DIMTFILL
 70
     0
  9
$DIMTFILLCLR
 70
     0
  9
$DIMARCSYM
 70
     0
  9
$DIMLTYPE
  6

  9
$DIMLTEX1
  6

  9
$DIMLTEX2
  6

  9
$DIMTXTDIRECTION
 70
     0
  9
$LUNITS
 70
     2
  9
$LUPREC
 70
     4
  9
$SKETCHINC
 40
0.1
  9
$FILLETRAD
 40
0.5
  9
$AUNITS
 70
     0
  9
$AUPREC
 70
     0
  9
$MENU
  1
.
  9
$ELEVATION
 40
0.0
  9
$PELEVATION
 40
0.0
  9
$THICKNESS
 40
0.0
  9
$LIMCHECK
 70
     0
  9
$CHAMFERA
 40
0.0
  9
$CHAMFERB
 40
0.0
  9
$CHAMFERC
 40
0.0
  9
$CHAMFERD
 40
0.0
  9
$SKPOLY
 70
     0
  9
$TDCREATE
 40
2458168.992398993
  9
$TDUCREATE
 40
2458168.950732327
  9
$TDUPDATE
 40
2458168.992399178
  9
$TDUUPDATE
 40
2458168.950732511
  9
$TDINDWG
 40
0.0000000116
  9
$TDUSRTIMER
 40
0.0000000116
  9
$USRTIMER
 70
     1
  9
$ANGBASE
 50
0.0
  9
$ANGDIR
 70
     0
  9
$PDMODE
 70
     0
  9
$PDSIZE
 40
0.0
  9
$PLINEWID
 40
0.0
  9
$SPLFRAME
 70
     0
  9
$SPLINETYPE
 70
     6
  9
$SPLINESEGS
 70
     8
  9
$HANDSEED
  5
200
  9
$SURFTAB1
 70
     6
  9
$SURFTAB2
 70
     6
  9
$SURFTYPE
 70
     6
  9
$SURFU
 70
     6
  9
$SURFV
 70
     6
  9
$UCSBASE
  2

  9
$UCSNAME
  2

  9
$UCSORG
 10
0.0
 20
0.0
 30
0.0
  9
$UCSXDIR
 10
1.0
 20
0.0
 30
0.0
  9
$UCSYDIR
 10
0.0
 20
1.0
 30
0.0
  9
$UCSORTHOREF
  2

  9
$UCSORTHOVIEW
 70
     0
  9
$UCSORGTOP
 10
0.0
 20
0.0
 30
0.0
  9
$UCSORGBOTTOM
 10
0.0
 20
0.0
 30
0.0
  9
$UCSORGLEFT
 10
0.0
 20
0.0
 30
0.0
  9
$UCSORGRIGHT
 10
0.0
 20
0.0
 30
0.0
  9
$UCSORGFRONT
 10
0.0
 20
0.0
 30
0.0
  9
$UCSORGBACK
 10
0.0
 20
0.0
 30
0.0
  9
$PUCSBASE
  2

  9
$PUCSNAME
  2

  9
$PUCSORG
 10
0.0
 20
0.0
 30
0.0
  9
$PUCSXDIR
 10
1.0
 20
0.0
 30
0.0
  9
$PUCSYDIR
 10
0.0
 20
1.0
 30
0.0
  9
$PUCSORTHOREF
  2

  9
$PUCSORTHOVIEW
 70
     0
  9
$PUCSORGTOP
 10
0.0
 20
0.0
 30
0.0
  9
$PUCSORGBOTTOM
 10
0.0
 20
0.0
 30
0.0
  9
$PUCSORGLEFT
 10
0.0
 20
0.0
 30
0.0
  9
$PUCSORGRIGHT
 10
0.0
 20
0.0
 30
0.0
  9
$PUCSORGFRONT
 10
0.0
 20
0.0
 30
0.0
  9
$PUCSORGBACK
 10
0.0
 20
0.0
 30
0.0
  9
$USERI1
 70
     0
  9
$USERI2
 70
     0
  9
$USERI3
 70
     0
  9
$USERI4
 70
     0
  9
$USERI5
 70
     0
  9
$USERR1
 40
0.0
  9
$USERR2
 40
0.0
  9
$USERR3
 40
0.0
  9
$USERR4
 40
0.0
  9
$USERR5
 40
0.0
  9
$WORLDVIEW
 70
     1
  9
$SHADEDGE
 70
     3
  9
$SHADEDIF
 70
    70
  9
$TILEMODE
 70
     1
  9
$MAXACTVP
 70
    64
  9
$PINSBASE
 10
0.0
 20
0.0
 30
0.0
  9
$PLIMCHECK
 70
     0
  9
$PEXTMIN
 10
1.000000000000000E+20
 20
1.000000000000000E+20
 30
1.000000000000000E+20
  9
$PEXTMAX
 10
-1.000000000000000E+20
 20
-1.000000000000000E+20
 30
-1.000000000000000E+20
  9
$PLIMMIN
 10
0.0
 20
0.0
  9
$PLIMMAX
 10
12.0
 20
9.0
  9
$UNITMODE
 70
     0
  9
$VISRETAIN
 70
     1
  9
$PLINEGEN
 70
     0
  9
$PSLTSCALE
 70
     1
  9
$TREEDEPTH
 70
  3020
  9
$CMLSTYLE
  2
Standard
  9
$CMLJUST
 70
     0
  9
$CMLSCALE
 40
1.0
  9
$PROXYGRAPHICS
 70
     1
  9
$MEASUREMENT
 70
     0
  9
$CELWEIGHT
370
    -1
  9
$ENDCAPS
280
     0
  9
$JOINSTYLE
280
     0
  9
$LWDISPLAY
290
     0
  9
$INSUNITS
 70
     1
  9
$HYPERLINKBASE
  1

  9
$STYLESHEET
  1

  9
$XEDIT
290
     1
  9
$CEPSNTYPE
380
     0
  9
$PSTYLEMODE
290
     1
  9
$FINGERPRINTGUID
  2
{93216DA7-571E-4DAC-9A59-72EABDDF95F9}
  9
$VERSIONGUID
  2
{FAEB1C32-E019-11D5-929B-00C0DF256EC4}
  9
$EXTNAMES
290
     1
  9
$PSVPSCALE
 40
0.0
  9
$OLESTARTUP
290
     0
  9
$SORTENTS
280
   127
  9
$INDEXCTL
280
     0
  9
$HIDETEXT
280
     1
  9
$XCLIPFRAME
280
     2
  9
$HALOGAP
280
     0
  9
$OBSCOLOR
 70
   257
  9
$OBSLTYPE
280
     0
  9
$INTERSECTIONDISPLAY
280
     0
  9
$INTERSECTIONCOLOR
 70
   257
  9
$DIMASSOC
280
     2
  9
$PROJECTNAME
  1

  9
$CAMERADISPLAY
290
     0
  9
$LENSLENGTH
 40
50.0
  9
$CAMERAHEIGHT
 40
0.0
  9
$STEPSPERSEC
 40
2.0
  9
$STEPSIZE
 40
6.0
  9
$3DDWFPREC
 40
2.0
  9
$PSOLWIDTH
 40
0.25
  9
$PSOLHEIGHT
 40
4.0
  9
$LOFTANG1
 40
1.570796326794897
  9
$LOFTANG2
 40
1.570796326794897
  9
$LOFTMAG1
 40
0.0
  9
$LOFTMAG2
 40
0.0
  9
$LOFTPARAM
 70
     7
  9
$LOFTNORMALS
280
     1
  9
$LATITUDE
 40
37.795
  9
$LONGITUDE
 40
-122.394
  9
$NORTHDIRECTION
 40
0.0
  9
$TIMEZONE
 70
 -8000
  9
$LIGHTGLYPHDISPLAY
280
     1
  9
$TILEMODELIGHTSYNCH
280
     1
  9
$CMATERIAL
347
44
  9
$SOLIDHIST
280
     0
  9
$SHOWHIST
280
     1
  9
$DWFFRAME
280
     2
  9
$DGNFRAME
280
     2
  9
$REALWORLDSCALE
290
     1
  9
$INTERFERECOLOR
 62
   256
  9
$CSHADOW
280
     0
  9
$SHADOWPLANELOCATION
 40
0.0
  0
ENDSEC
  0
SECTION
  2
CLASSES
  0
CLASS
  1
ACDBDICTIONARYWDFLT
  2
AcDbDictionaryWithDefault
  3
ObjectDBX Classes
 90
        0
 91
        4
280
     0
281
     0
  0
CLASS
  1
VISUALSTYLE
  2
AcDbVisualStyle
  3
ObjectDBX Classes
 90
     4095
 91
        4
280
     0
281
     0
  0
CLASS
  1
MATERIAL
  2
AcDbMaterial
  3
ObjectDBX Classes
 90
     1153
 91
        4
280
     0
281
     0
  0
CLASS
  1
SCALE
  2
AcDbScale
  3
ObjectDBX Classes
 90
     1153
 91
        4
280
     0
281
     0
  0
CLASS
  1
TABLESTYLE
  2
AcDbTableStyle
  3
ObjectDBX Classes
 90
     4095
 91
        4
280
     0
281
     0
  0
CLASS
  1
MLEADERSTYLE
  2
AcDbMLeaderStyle
  3
ACDB_MLEADERSTYLE_CLASS
 90
     4095
 91
        4
280
     0
281
     0
  0
CLASS
  1
SUN
  2
AcDbSun
  3
SCENEOE
 90
     1153
 91
        4
280
     0
281
     0
  0
CLASS
  1
DICTIONARYVAR
  2
AcDbDictionaryVar
  3
ObjectDBX Classes
 90
        0
 91
        4
280
     0
281
     0
  0
CLASS
  1
CELLSTYLEMAP
  2
AcDbCellStyleMap
  3
ObjectDBX Classes
 90
     1152
 91
        4
280
     0
281
     0
  0
ENDSEC
  0
SECTION
  2
TABLES
  0
TABLE
  2
VPORT
  5
8
330
0
100
AcDbSymbolTable
 70
     1
  0
VPORT
  5
29
330
8
100
AcDbSymbolTableRecord
100
AcDbViewportTableRecord
  2
*Active
 70
     0
 10
0.0
 20
0.0
 11
1.0
 21
1.0
 12
0.0
 22
0.0
 13
0.0
 23
0.0
 14
0.5
 24
0.5
 15
0.5
 25
0.5
 16
0.0
 26
0.0
 36
1.0
 17
0.0
 27
0.0
 37
0.0
 40
5.705880000000001
 41
0.5725777618877366
 42
50.0
 43
0.0
 44
0.0
 50
0.0
 51
0.0
 71
     0
 72
   100
 73
     1
 74
     3
 75
     0
 76
     0
 77
     0
 78
     0
281
     0
 65
     1
110
0.0
120
0.0
130
0.0
111
1.0
121
0.0
131
0.0
112
0.0
122
1.0
132
0.0
 79
     0
146
0.0
348
2F
 60
     3
 61
     5
292
     1
282
     1
141
0.0
142
0.0
 63
   250
361
6D
  0
ENDTAB
  0
TABLE
  2
LTYPE
  5
5
330
0
100
AcDbSymbolTable
 70
     3
  0
LTYPE
  5
14
330
5
100
AcDbSymbolTableRecord
100
AcDbLinetypeTableRecord
  2
ByBlock
 70
     0
  3

 72
    65
 73
     0
 40
0.0
  0
LTYPE
  5
15
330
5
100
AcDbSymbolTableRecord
100
AcDbLinetypeTableRecord
  2
ByLayer
 70
     0
  3

 72
    65
 73
     0
 40
0.0
  0
LTYPE
  5
16
330
5
100
AcDbSymbolTableRecord
100
AcDbLinetypeTableRecord
  2
Continuous
 70
     0
  3
Solid line
 72
    65
 73
     0
 40
0.0
  0
LTYPE
  5
9D
330
5
100
AcDbSymbolTableRecord
100
AcDbLinetypeTableRecord
  2
Dashed
 70
     0
  3

 72
    65
 73
     2
 40
2.0
 49
1.0
 74
     0
 49
-1.0
 74
     0
  0
LTYPE
  5
10F
330
5
100
AcDbSymbolTableRecord
100
AcDbLinetypeTableRecord
  2
Center
 70
     0
  3

 72
    65
 73
     4
 40
1.5
 49
0.45
 74
     0
 49
-0.5
 74
     0
 49
0.05
 74
     0
 49
-0.5
 74
     0
  0
ENDTAB
  0
TABLE
  2
LAYER
  5
2
330
0
100
AcDbSymbolTable
 70
     7
  0
LAYER
  5
10
330
2
100
AcDbSymbolTableRecord
100
AcDbLayerTableRecord
  2
0
 70
     0
 62
     7
  6
Continuous
370
    -3
390
F
347
46
348
0
  0
LAYER
  5
72
330
2
100
AcDbSymbolTableRecord
100
AcDbLayerTableRecord
  2
AM_6
 70
     0
 62
    -2
  6
Continuous
370
    35
390
F
347
46
348
0
  0
LAYER
  5
9E
330
2
100
AcDbSymbolTableRecord
100
AcDbLayerTableRecord
  2
AM_9
 70
     0
 62
     6
  6
Dashed
370
    25
390
F
347
46
348
0
  0
LAYER
  5
A3
330
2
100
AcDbSymbolTableRecord
100
AcDbLayerTableRecord
  2
AM_4
 70
     0
 62
     3
  6
Continuous
370
    25
390
F
347
46
348
0
  0
LAYER
  5
D5
330
2
100
AcDbSymbolTableRecord
100
AcDbLayerTableRecord
  2
AM_5
 70
     0
 62
     3
  6
Continuous
370
    25
390
F
347
46
348
0
  0
LAYER
  5
110
330
2
100
AcDbSymbolTableRecord
100
AcDbLayerTableRecord
  2
AM_7
 70
     0
 62
     7
  6
Center
370
    25
390
F
347
46
348
0
  0
LAYER
  5
1F3
330
2
100
AcDbSymbolTableRecord
100
AcDbLayerTableRecord
  2
ConnectionPoints
 70
     0
 62
     7
  6
Continuous
370
    50
390
F
347
46
348
0
  0
ENDTAB
  0
TABLE
  2
STYLE
  5
3
330
0
100
AcDbSymbolTable
 70
     1
  0
STYLE
  5
11
330
3
100
AcDbSymbolTableRecord
100
AcDbTextStyleTableRecord
  2
Standard
 70
     0
 40
0.0
 41
1.0
 50
0.0
 71
     0
 42
0.2
  3
txt
  4

  0
ENDTAB
  0
TABLE
  2
VIEW
  5
6
330
0
100
AcDbSymbolTable
 70
     0
  0
ENDTAB
  0
TABLE
  2
UCS
  5
7
330
0
100
AcDbSymbolTable
 70
     0
  0
ENDTAB
  0
TABLE
  2
APPID
  5
9
330
0
100
AcDbSymbolTable
 70
     1
  0
APPID
  5
12
330
9
100
AcDbSymbolTableRecord
100
AcDbRegAppTableRecord
  2
ACAD
 70
     0
  0
ENDTAB
  0
TABLE
  2
DIMSTYLE
  5
A
330
0
100
AcDbSymbolTable
 70
     1
100
AcDbDimStyleTable
  0
DIMSTYLE
105
27
330
A
100
AcDbSymbolTableRecord
100
AcDbDimStyleTableRecord
  2
Standard
 70
     0
178
     0
340
11
  0
ENDTAB
  0
TABLE
  2
BLOCK_RECORD
  5
1
330
0
100
AcDbSymbolTable
 70
     5
  0
BLOCK_RECORD
  5
1F
330
1
100
AcDbSymbolTableRecord
100
AcDbBlockTableRecord
  2
*Model_Space
340
22
 70
     0
280
     1
281
     0
  0
BLOCK_RECORD
  5
1B
330
1
100
AcDbSymbolTableRecord
100
AcDbBlockTableRecord
  2
*Paper_Space
340
1E
 70
     0
280
     1
281
     0
  0
BLOCK_RECORD
  5
23
330
1
100
AcDbSymbolTableRecord
100
AcDbBlockTableRecord
  2
*Paper_Space0
340
26
 70
     0
280
     1
281
     0
  0
BLOCK_RECORD
  5
6E
330
1
100
AcDbSymbolTableRecord
100
AcDbBlockTableRecord
  2
1_129344_0
340
0
102
{BLKREFS
331
6F
102
}
 70
     0
280
     1
281
     0
  0
BLOCK_RECORD
  5
87
330
1
100
AcDbSymbolTableRecord
100
AcDbBlockTableRecord
  2
2_INS_GT_06_CRI_0_in_129344_0
340
0
102
{BLKREFS
331
88
102
}
 70
     0
280
     1
281
     0
  0
BLOCK_RECORD
  5
AA
330
1
100
AcDbSymbolTableRecord
100
AcDbBlockTableRecord
  2
3_AN_GT_06_104S_CR_0_in_129344_0
340
0
102
{BLKREFS
331
AB
102
}
 70
     0
280
     1
281
     0
  0
BLOCK_RECORD
  5
EE
330
1
100
AcDbSymbolTableRecord
100
AcDbBlockTableRecord
  2
4_F2B_GREZ_06_PCR_II_0_in_129344_0
340
0
102
{BLKREFS
331
EF
102
}
 70
     0
280
     1
281
     0
  0
ENDTAB
  0
ENDSEC
  0
SECTION
  2
BLOCKS
  0
BLOCK
  5
20
330
1F
100
AcDbEntity
  8
0
100
AcDbBlockBegin
  2
*Model_Space
 70
     0
 10
0.0
 20
0.0
 30
0.0
  3
*Model_Space
  1

  0
ENDBLK
  5
21
330
1F
100
AcDbEntity
  8
0
100
AcDbBlockEnd
  0
BLOCK
  5
1C
330
1B
100
AcDbEntity
 67
     1
  8
0
100
AcDbBlockBegin
  2
*Paper_Space
 70
     0
 10
0.0
 20
0.0
 30
0.0
  3
*Paper_Space
  1

  0
ENDBLK
  5
1D
330
1B
100
AcDbEntity
 67
     1
  8
0
100
AcDbBlockEnd
  0
BLOCK
  5
24
330
23
100
AcDbEntity
  8
0
100
AcDbBlockBegin
  2
*Paper_Space0
 70
     0
 10
0.0
 20
0.0
 30
0.0
  3
*Paper_Space0
  1

  0
ENDBLK
  5
25
330
23
100
AcDbEntity
  8
0
100
AcDbBlockEnd
  0
BLOCK
  5
70
330
6E
100
AcDbEntity
  8
0
100
AcDbBlockBegin
  2
1_129344_0
 70
     2
 10
0.0
 20
0.0
 30
0.0
  3
1_129344_0
  1

  0
ATTDEF
  5
73
330
6E
100
AcDbEntity
  8
AM_6
100
AcDbText
 10
6.6015
 20
2.797
 30
0.0
 40
0.5
  1
Grip Tight Two-Bolt Flange - Polymer Housing, Corrosion Resistant Insert Inch Bore
100
AcDbAttributeDefinition
  3

  2
NN
 70
     8
280
     0
  0
ATTDEF
  5
74
330
6E
100
AcDbEntity
  8
AM_6
100
AcDbText
 10
6.6015
 20
2.297
 30
0.0
 40
0.5
  1
GTEZ Normal Duty Polymer Housed 2 Bolt Flange Bearings
100
AcDbAttributeDefinition
  3

  2
NT
 70
     8
280
     0
  0
ATTDEF
  5
75
330
6E
100
AcDbEntity
  8
AM_6
100
AcDbText
 10
6.6015
 20
1.797
 30
0.0
 40
0.5
  1
129344
100
AcDbAttributeDefinition
  3

  2
NB
 70
     8
280
     0
  0
ATTDEF
  5
76
330
6E
100
AcDbEntity
  8
AM_6
100
AcDbText
 10
6.6015
 20
1.297
 30
0.0
 40
0.5
  1
$PN.$LUBE.
100
AcDbAttributeDefinition
  3

  2
NBSYN
 70
     8
280
     0
  0
ATTDEF
  5
77
330
6E
100
AcDbEntity
  8
AM_6
100
AcDbText
 10
6.6015
 20
0.7970000000000002
 30
0.0
 40
0.5
  1
129344
100
AcDbAttributeDefinition
  3

  2
LINA
 70
     8
280
     0
  0
ATTDEF
  5
78
330
6E
100
AcDbEntity
  8
AM_6
100
AcDbText
 10
6.6015
 20
0.2970000000000002
 30
0.0
 40
0.5
  1
206
100
AcDbAttributeDefinition
  3

  2
SERIES
 70
     8
280
     0
  0
ATTDEF
  5
79
330
6E
100
AcDbEntity
  8
AM_6
100
AcDbText
 10
6.6015
 20
-0.2029999999999998
 30
0.0
 40
0.5
  1
1-1/4
100
AcDbAttributeDefinition
  3

  2
SS
 70
     8
280
     0
  0
ATTDEF
  5
7A
330
6E
100
AcDbEntity
  8
AM_6
100
AcDbText
 10
6.6015
 20
-0.7029999999999998
 30
0.0
 40
0.5
  1
129344
100
AcDbAttributeDefinition
  3

  2
PN
 70
     8
280
     0
  0
ATTDEF
  5
7B
330
6E
100
AcDbEntity
  8
AM_6
100
AcDbText
 10
6.6015
 20
-1.203
 30
0.0
 40
0.5
  1
F2B-GTEZ-104S-PCR
100
AcDbAttributeDefinition
  3

  2
DESCRIPTION
 70
     8
280
     0
  0
ATTDEF
  5
7C
330
6E
100
AcDbEntity
  8
AM_6
100
AcDbText
 10
6.6015
 20
-1.703
 30
0.0
 40
0.5
  1
1-39/64
100
AcDbAttributeDefinition
  3

  2
A
 70
     8
280
     0
  0
ATTDEF
  5
7D
330
6E
100
AcDbEntity
  8
AM_6
100
AcDbText
 10
6.6015
 20
-2.203
 30
0.0
 40
0.5
  1
5-19/32
100
AcDbAttributeDefinition
  3

  2
B
 70
     8
280
     0
  0
ATTDEF
  5
7E
330
6E
100
AcDbEntity
  8
AM_6
100
AcDbText
 10
6.6015
 20
-2.703
 30
0.0
 40
0.5
  1
1-53/64
100
AcDbAttributeDefinition
  3

  2
C
 70
     8
280
     0
  0
ATTDEF
  5
7F
330
6E
100
AcDbEntity
  8
AM_6
100
AcDbText
 10
6.6015
 20
-3.203
 30
0.0
 40
0.5
  1
4-19/32
100
AcDbAttributeDefinition
  3

  2
D
 70
     8
280
     0
  0
ATTDEF
  5
80
330
6E
100
AcDbEntity
  8
AM_6
100
AcDbText
 10
6.6015
 20
-3.703
 30
0.0
 40
0.5
  1
3/8
100
AcDbAttributeDefinition
  3

  2
F
 70
     8
280
     0
  0
ATTDEF
  5
81
330
6E
100
AcDbEntity
  8
AM_6
100
AcDbText
 10
6.6015
 20
-4.202999999999999
 30
0.0
 40
0.5
  1
39/64
100
AcDbAttributeDefinition
  3

  2
H
 70
     8
280
     0
  0
ATTDEF
  5
82
330
6E
100
AcDbEntity
  8
AM_6
100
AcDbText
 10
6.6015
 20
-4.702999999999999
 30
0.0
 40
0.5
  1
35/64
100
AcDbAttributeDefinition
  3

  2
J
 70
     8
280
     0
  0
ATTDEF
  5
83
330
6E
100
AcDbEntity
  8
AM_6
100
AcDbText
 10
6.6015
 20
-5.202999999999999
 30
0.0
 40
0.5
  1
2
100
AcDbAttributeDefinition
  3

  2
L
 70
     8
280
     0
  0
ATTDEF
  5
84
330
6E
100
AcDbEntity
  8
AM_6
100
AcDbText
 10
6.6015
 20
-5.702999999999999
 30
0.0
 40
0.5
  1
3-13/64
100
AcDbAttributeDefinition
  3

  2
M
 70
     8
280
     0
  0
ATTDEF
  5
85
330
6E
100
AcDbEntity
  8
AM_6
100
AcDbText
 10
6.6015
 20
-6.202999999999999
 30
0.0
 40
0.5
  1
1-25/32
100
AcDbAttributeDefinition
  3

  2
Z
 70
     8
280
     0
  0
ATTDEF
  5
86
330
6E
100
AcDbEntity
  8
AM_6
100
AcDbText
 10
6.6015
 20
-6.702999999999999
 30
0.0
 40
0.5
  1
baldor
100
AcDbAttributeDefinition
  3

  2
COMPANY
 70
     8
280
     0
  0
INSERT
  5
88
330
6E
100
AcDbEntity
  8
0
100
AcDbBlockReference
  2
2_INS_GT_06_CRI_0_in_129344_0
 10
0.0
 20
0.0
 30
0.0
  0
INSERT
  5
AB
330
6E
100
AcDbEntity
  8
0
100
AcDbBlockReference
  2
3_AN_GT_06_104S_CR_0_in_129344_0
 10
0.0
 20
0.0
 30
0.0
  0
INSERT
  5
EF
330
6E
100
AcDbEntity
  8
0
100
AcDbBlockReference
  2
4_F2B_GREZ_06_PCR_II_0_in_129344_0
 10
0.0
 20
0.0
 30
0.0
  0
ENDBLK
  5
71
330
6E
100
AcDbEntity
  8
0
100
AcDbBlockEnd
  0
BLOCK
  5
89
330
87
100
AcDbEntity
  8
0
100
AcDbBlockBegin
  2
2_INS_GT_06_CRI_0_in_129344_0
 70
     2
 10
0.0
 20
0.0
 30
0.0
  3
2_INS_GT_06_CRI_0_in_129344_0
  1

  0
ATTDEF
  5
8B
330
87
100
AcDbEntity
  8
AM_6
100
AcDbText
 10
6.208802299237562
 20
1.208802299237562
 30
0.0
 40
0.5
  1
INS-GT-CR-I
100
AcDbAttributeDefinition
  3

  2
NN
 70
     8
280
     0
  0
ATTDEF
  5
8C
330
87
100
AcDbEntity
  8
AM_6
100
AcDbText
 10
6.208802299237562
 20
0.708802299237562
 30
0.0
 40
0.5
  1
GT Normal Duty Corrosion Resistant Bearing Inserts
100
AcDbAttributeDefinition
  3

  2
NT
 70
     8
280
     0
  0
ATTDEF
  5
8D
330
87
100
AcDbEntity
  8
AM_6
100
AcDbText
 10
6.208802299237562
 20
0.208802299237562
 30
0.0
 40
0.5
  1
INS-GT-06-CRI
100
AcDbAttributeDefinition
  3

  2
NB
 70
     8
280
     0
  0
ATTDEF
  5
8E
330
87
100
AcDbEntity
  8
AM_6
100
AcDbText
 10
6.208802299237562
 20
-0.291197700762438
 30
0.0
 40
0.5
  1
$PN.I
100
AcDbAttributeDefinition
  3

  2
NBSYN
 70
     8
280
     0
  0
ATTDEF
  5
8F
330
87
100
AcDbEntity
  8
AM_6
100
AcDbText
 10
6.208802299237562
 20
-0.791197700762438
 30
0.0
 40
0.5
  1
INS-GT-06-CR
100
AcDbAttributeDefinition
  3

  2
LINA
 70
     8
280
     0
  0
ATTDEF
  5
90
330
87
100
AcDbEntity
  8
AM_6
100
AcDbText
 10
6.208802299237562
 20
-1.291197700762438
 30
0.0
 40
0.5
  1
206
100
AcDbAttributeDefinition
  3

  2
SERIES
 70
     8
280
     0
  0
ATTDEF
  5
91
330
87
100
AcDbEntity
  8
AM_6
100
AcDbText
 10
6.208802299237562
 20
-1.791197700762438
 30
0.0
 40
0.5
  1
INS-GT-06-CR
100
AcDbAttributeDefinition
  3

  2
PN
 70
     8
280
     0
  0
ATTDEF
  5
92
330
87
100
AcDbEntity
  8
AM_6
100
AcDbText
 10
6.208802299237562
 20
-2.291197700762438
 30
0.0
 40
0.5
  1
INS-GT-06-CR
100
AcDbAttributeDefinition
  3

  2
DESCRIPTION
 70
     8
280
     0
  0
ATTDEF
  5
93
330
87
100
AcDbEntity
  8
AM_6
100
AcDbText
 10
6.208802299237562
 20
-2.791197700762438
 30
0.0
 40
0.5
  1
1-39/64
100
AcDbAttributeDefinition
  3

  2
A
 70
     8
280
     0
  0
ATTDEF
  5
94
330
87
100
AcDbEntity
  8
AM_6
100
AcDbText
 10
6.208802299237562
 20
-3.291197700762438
 30
0.0
 40
0.5
  1
0.7087
100
AcDbAttributeDefinition
  3

  2
C
 70
     8
280
     0
  0
ATTDEF
  5
95
330
87
100
AcDbEntity
  8
AM_6
100
AcDbText
 10
6.208802299237562
 20
-3.791197700762438
 30
0.0
 40
0.5
  1
2.4409
100
AcDbAttributeDefinition
  3

  2
D
 70
     8
280
     0
  0
ATTDEF
  5
96
330
87
100
AcDbEntity
  8
AM_6
100
AcDbText
 10
6.208802299237562
 20
-4.291197700762438
 30
0.0
 40
0.5
  1
0.190
100
AcDbAttributeDefinition
  3

  2
J
 70
     8
280
     0
  0
ATTDEF
  5
97
330
87
100
AcDbEntity
  8
AM_6
100
AcDbText
 10
6.208802299237562
 20
-4.791197700762438
 30
0.0
 40
0.5
  1
2
100
AcDbAttributeDefinition
  3

  2
L
 70
     8
280
     0
  0
ATTDEF
  5
98
330
87
100
AcDbEntity
  8
AM_6
100
AcDbText
 10
6.208802299237562
 20
-5.291197700762438
 30
0.0
 40
0.5
  1
10 - 32 x 1/4
100
AcDbAttributeDefinition
  3

  2
N
 70
     8
280
     0
  0
ATTDEF
  5
99
330
87
100
AcDbEntity
  8
AM_6
100
AcDbText
 10
6.208802299237562
 20
-5.791197700762438
 30
0.0
 40
0.5
  1
17/32
100
AcDbAttributeDefinition
  3

  2
W
 70
     8
280
     0
  0
ATTDEF
  5
9A
330
87
100
AcDbEntity
  8
AM_6
100
AcDbText
 10
6.208802299237562
 20
-6.291197700762438
 30
0.0
 40
0.5
  1
1-1/32
100
AcDbAttributeDefinition
  3

  2
X
 70
     8
280
     0
  0
ATTDEF
  5
9B
330
87
100
AcDbEntity
  8
AM_6
100
AcDbText
 10
6.208802299237562
 20
-6.791197700762438
 30
0.0
 40
0.5
  1
1-5/64
100
AcDbAttributeDefinition
  3

  2
Y
 70
     8
280
     0
  0
ATTDEF
  5
9C
330
87
100
AcDbEntity
  8
AM_6
100
AcDbText
 10
6.208802299237562
 20
-7.291197700762438
 30
0.0
 40
0.5
  1
baldor
100
AcDbAttributeDefinition
  3

  2
COMPANY
 70
     8
280
     0
  0
CIRCLE
  5
9F
330
87
100
AcDbEntity
  8
AM_9
100
AcDbCircle
 10
0.0000000000000001
 20
0.0
 30
0.0
 40
0.7762326752613241
  0
CIRCLE
  5
A0
330
87
100
AcDbEntity
  8
AM_9
100
AcDbCircle
 10
0.0000000000000001
 20
0.0
 30
0.0
 40
1.14958
  0
CIRCLE
  5
A1
330
87
100
AcDbEntity
  8
AM_9
100
AcDbCircle
 10
0.0000000000000001
 20
0.0
 30
0.0
 40
1.18262050129021
  0
CIRCLE
  5
A2
330
87
100
AcDbEntity
  8
AM_9
100
AcDbCircle
 10
0.0000000000000001
 20
0.0
 30
0.0
 40
0.8605408888888888
  0
CIRCLE
  5
A4
330
87
100
AcDbEntity
  8
AM_4
100
AcDbCircle
 10
0.0000000000000001
 20
0.0
 30
0.0
 40
1.201804896935735
  0
CIRCLE
  5
A5
330
87
100
AcDbEntity
  8
AM_4
100
AcDbCircle
 10
0.0000000000000001
 20
0.0
 30
0.0
 40
1.208802299237562
  0
CIRCLE
  5
A6
330
87
100
AcDbEntity
  8
AM_4
100
AcDbCircle
 10
0.0000000000000001
 20
0.0
 30
0.0
 40
1.189469187752788
  0
CIRCLE
  5
A7
330
87
100
AcDbEntity
  8
AM_4
100
AcDbCircle
 10
0.0000000000000001
 20
0.0
 30
0.0
 40
1.156857867002994
  0
CIRCLE
  5
A8
330
87
100
AcDbEntity
  8
AM_4
100
AcDbCircle
 10
0.0000000000000001
 20
0.0
 30
0.0
 40
1.130466548018286
  0
ARC
  5
A9
330
87
100
AcDbEntity
  8
AM_4
100
AcDbCircle
 10
0.0000000000000001
 20
0.0000000000000592
 30
0.0
 40
0.7460316888888295
100
AcDbArc
 50
86.15708307481073
 51
93.84291692518927
  0
ENDBLK
  5
8A
330
87
100
AcDbEntity
  8
0
100
AcDbBlockEnd
  0
BLOCK
  5
AC
330
AA
100
AcDbEntity
  8
0
100
AcDbBlockBegin
  2
3_AN_GT_06_104S_CR_0_in_129344_0
 70
     2
 10
0.0
 20
0.0
 30
0.0
  3
3_AN_GT_06_104S_CR_0_in_129344_0
  1

  0
ATTDEF
  5
AE
330
AA
100
AcDbEntity
  8
AM_6
100
AcDbText
 10
5.995477272467835
 20
0.9999907698236257
 30
0.0
 40
0.5
  1
Grip Tight Adapter and Nut - Corrosion Resistant Inch Bore
100
AcDbAttributeDefinition
  3

  2
NN
 70
     8
280
     0
  0
ATTDEF
  5
AF
330
AA
100
AcDbEntity
  8
AM_6
100
AcDbText
 10
5.995477272467835
 20
0.4999907698236257
 30
0.0
 40
0.5
  1
GT and GTM Adapter & Lock Nut Assemblies
100
AcDbAttributeDefinition
  3

  2
NT
 70
     8
280
     0
  0
ATTDEF
  5
B0
330
AA
100
AcDbEntity
  8
AM_6
100
AcDbText
 10
5.995477272467835
 20
-0.0000092301763743
 30
0.0
 40
0.5
  1
AN-GT-06-104S-CR
100
AcDbAttributeDefinition
  3

  2
NB
 70
     8
280
     0
  0
ATTDEF
  5
B1
330
AA
100
AcDbEntity
  8
AM_6
100
AcDbText
 10
5.995477272467835
 20
-0.5000092301763743
 30
0.0
 40
0.5
  1
$PN.
100
AcDbAttributeDefinition
  3

  2
NBSYN
 70
     8
280
     0
  0
ATTDEF
  5
B2
330
AA
100
AcDbEntity
  8
AM_6
100
AcDbText
 10
5.995477272467835
 20
-1.000009230176374
 30
0.0
 40
0.5
  1
AN-GT-06-104S-CR
100
AcDbAttributeDefinition
  3

  2
LINA
 70
     8
280
     0
  0
ATTDEF
  5
B3
330
AA
100
AcDbEntity
  8
AM_6
100
AcDbText
 10
5.995477272467835
 20
-1.500009230176374
 30
0.0
 40
0.5
  1
206
100
AcDbAttributeDefinition
  3

  2
SERIES
 70
     8
280
     0
  0
ATTDEF
  5
B4
330
AA
100
AcDbEntity
  8
AM_6
100
AcDbText
 10
5.995477272467835
 20
-2.000009230176374
 30
0.0
 40
0.5
  1
1-1/4
100
AcDbAttributeDefinition
  3

  2
SS
 70
     8
280
     0
  0
ATTDEF
  5
B5
330
AA
100
AcDbEntity
  8
AM_6
100
AcDbText
 10
5.995477272467835
 20
-2.500009230176374
 30
0.0
 40
0.5
  1
AN-GT-06-104S-CR
100
AcDbAttributeDefinition
  3

  2
PN
 70
     8
280
     0
  0
ATTDEF
  5
B6
330
AA
100
AcDbEntity
  8
AM_6
100
AcDbText
 10
5.995477272467835
 20
-3.000009230176374
 30
0.0
 40
0.5
  1
AN-GT-06-104S-CR
100
AcDbAttributeDefinition
  3

  2
DESCRIPTION
 70
     8
280
     0
  0
ATTDEF
  5
B7
330
AA
100
AcDbEntity
  8
AM_6
100
AcDbText
 10
5.995477272467835
 20
-3.500009230176374
 30
0.0
 40
0.5
  1
1-39/64
100
AcDbAttributeDefinition
  3

  2
A
 70
     8
280
     0
  0
ATTDEF
  5
B8
330
AA
100
AcDbEntity
  8
AM_6
100
AcDbText
 10
5.995477272467835
 20
-4.000009230176374
 30
0.0
 40
0.5
  1
0.7087
100
AcDbAttributeDefinition
  3

  2
C
 70
     8
280
     0
  0
ATTDEF
  5
B9
330
AA
100
AcDbEntity
  8
AM_6
100
AcDbText
 10
5.995477272467835
 20
-4.500009230176374
 30
0.0
 40
0.5
  1
2.4409
100
AcDbAttributeDefinition
  3

  2
D
 70
     8
280
     0
  0
ATTDEF
  5
BA
330
AA
100
AcDbEntity
  8
AM_6
100
AcDbText
 10
5.995477272467835
 20
-5.000009230176374
 30
0.0
 40
0.5
  1
0.190
100
AcDbAttributeDefinition
  3

  2
J
 70
     8
280
     0
  0
ATTDEF
  5
BB
330
AA
100
AcDbEntity
  8
AM_6
100
AcDbText
 10
5.995477272467835
 20
-5.500009230176374
 30
0.0
 40
0.5
  1
2
100
AcDbAttributeDefinition
  3

  2
L
 70
     8
280
     0
  0
ATTDEF
  5
BC
330
AA
100
AcDbEntity
  8
AM_6
100
AcDbText
 10
5.995477272467835
 20
-6.000009230176374
 30
0.0
 40
0.5
  1
10 - 32 x 1/4
100
AcDbAttributeDefinition
  3

  2
N
 70
     8
280
     0
  0
ATTDEF
  5
BD
330
AA
100
AcDbEntity
  8
AM_6
100
AcDbText
 10
5.995477272467835
 20
-6.500009230176374
 30
0.0
 40
0.5
  1
17/32
100
AcDbAttributeDefinition
  3

  2
W
 70
     8
280
     0
  0
ATTDEF
  5
BE
330
AA
100
AcDbEntity
  8
AM_6
100
AcDbText
 10
5.995477272467835
 20
-7.000009230176374
 30
0.0
 40
0.5
  1
1-1/32
100
AcDbAttributeDefinition
  3

  2
X
 70
     8
280
     0
  0
ATTDEF
  5
BF
330
AA
100
AcDbEntity
  8
AM_6
100
AcDbText
 10
5.995477272467835
 20
-7.500009230176374
 30
0.0
 40
0.5
  1
1-5/64
100
AcDbAttributeDefinition
  3

  2
Y
 70
     8
280
     0
  0
ATTDEF
  5
C0
330
AA
100
AcDbEntity
  8
AM_6
100
AcDbText
 10
5.995477272467835
 20
-8.000009230176374
 30
0.0
 40
0.5
  1
baldor
100
AcDbAttributeDefinition
  3

  2
COMPANY
 70
     8
280
     0
  0
LINE
  5
C1
330
AA
100
AcDbEntity
  8
AM_9
100
AcDbLine
 10
0.0500000000000001
 20
0.7460409281219607
 30
0.0
 11
0.0500000000000001
 21
0.7764797570067602
 31
0.0
  0
LINE
  5
C2
330
AA
100
AcDbEntity
  8
AM_9
100
AcDbLine
 10
-0.0499999999999999
 20
0.7460409281219607
 30
0.0
 11
-0.0499999999999999
 21
0.7764797570067602
 31
0.0
  0
ARC
  5
C3
330
AA
100
AcDbEntity
  8
AM_9
100
AcDbCircle
 10
0.0000000000000001
 20
-0.0000000000000001
 30
0.0
 40
0.7780879211511238
100
AcDbArc
 50
93.68437061446721
 51
86.3156293855328
  0
CIRCLE
  5
C4
330
AA
100
AcDbEntity
  8
AM_9
100
AcDbCircle
 10
0.0000000000000001
 20
0.0
 30
0.0
 40
0.8174603174603172
  0
CIRCLE
  5
C5
330
AA
100
AcDbEntity
  8
AM_9
100
AcDbCircle
 10
0.0000000000000001
 20
0.0
 30
0.0
 40
0.8888888888888888
  0
LINE
  5
C6
330
AA
100
AcDbEntity
  8
AM_9
100
AcDbLine
 10
-0.983
 20
-0.078
 30
0.0
 11
-0.767
 21
-0.078
 31
0.0
  0
LINE
  5
C7
330
AA
100
AcDbEntity
  8
AM_9
100
AcDbLine
 10
-0.767
 20
0.078
 30
0.0
 11
-0.983
 21
0.078
 31
0.0
  0
LINE
  5
C8
330
AA
100
AcDbEntity
  8
AM_9
100
AcDbLine
 10
-0.767
 20
-0.078
 30
0.0
 11
-0.7499999999999999
 21
-0.0949999999999999
 31
0.0
  0
LINE
  5
C9
330
AA
100
AcDbEntity
  8
AM_9
100
AcDbLine
 10
-0.7499999999999999
 20
0.0949999999999999
 30
0.0
 11
-0.767
 21
0.078
 31
0.0
  0
LINE
  5
CA
330
AA
100
AcDbEntity
  8
AM_9
100
AcDbLine
 10
-0.7499999999999999
 20
0.0949999999999999
 30
0.0
 11
-0.7499999999999999
 21
-0.0949999999999999
 31
0.0
  0
LINE
  5
CB
330
AA
100
AcDbEntity
  8
AM_9
100
AcDbLine
 10
-0.767
 20
0.078
 30
0.0
 11
-0.767
 21
-0.078
 31
0.0
  0
LINE
  5
CC
330
AA
100
AcDbEntity
  8
AM_9
100
AcDbLine
 10
-0.983
 20
0.078
 30
0.0
 11
-0.9957299183302447
 21
0.0907299183302447
 31
0.0
  0
LINE
  5
CD
330
AA
100
AcDbEntity
  8
AM_9
100
AcDbLine
 10
-0.9957274875080059
 20
-0.0907274875080057
 30
0.0
 11
-0.983
 21
-0.078
 31
0.0
  0
LINE
  5
CE
330
AA
100
AcDbEntity
  8
AM_9
100
AcDbLine
 10
-0.983
 20
0.078
 30
0.0
 11
-0.983
 21
-0.078
 31
0.0
  0
LINE
  5
CF
330
AA
100
AcDbEntity
  8
AM_9
100
AcDbLine
 10
-0.9960862205868951
 20
0.088386883398588
 30
0.0
 11
-0.9958633683061173
 21
0.0908633681193612
 31
0.0
  0
LWPOLYLINE
  5
D0
330
AA
100
AcDbEntity
  8
AM_9
100
AcDbPolyline
 90
        6
 70
     0
 43
0.0
 10
-0.9998350304877168
 20
0.0181634746022452
 10
-0.9994685472898437
 20
0.0325978983728889
 10
-0.9983417104400577
 20
0.0575658683216009
 10
-0.9970295411275498
 20
0.0770200890611481
 10
-0.9964716861551616
 20
0.0839296055697218
 10
-0.9960862205868951
 20
0.088386883398588
  0
LINE
  5
D1
330
AA
100
AcDbEntity
  8
AM_9
100
AcDbLine
 10
-0.9999434908710189
 20
0.0106308543720911
 30
0.0
 11
-0.9998350304877168
 21
0.0181634746022452
 31
0.0
  0
LINE
  5
D2
330
AA
100
AcDbEntity
  8
AM_9
100
AcDbLine
 10
-0.9998331958925801
 20
-0.0182641832894208
 30
0.0
 11
-0.9998926012482021
 21
-0.0146555780883592
 31
0.0
  0
LWPOLYLINE
  5
D3
330
AA
100
AcDbEntity
  8
AM_9
100
AcDbPolyline
 90
        6
 70
     0
 43
0.0
 10
-0.996099235926269
 20
-0.0882400826558031
 10
-0.9965156882220763
 20
-0.0834055341526079
 10
-0.997135870118619
 20
-0.0756310552801185
 10
-0.9978296891775725
 20
-0.065847637738867
 10
-0.9985619358876295
 20
-0.0536102620432863
 10
-0.9991657780930019
 20
-0.0408380690998768
  0
LINE
  5
D4
330
AA
100
AcDbEntity
  8
AM_9
100
AcDbLine
 10
-0.9958633683008626
 20
-0.0908633681769522
 30
0.0
 11
-0.996099235926269
 21
-0.0882400826558031
 31
0.0
  0
LINE
  5
D6
330
AA
100
AcDbEntity
  8
AM_5
100
AcDbLine
 10
-0.9954772724678349
 20
-0.0949999999999999
 30
0.0
 11
-0.7499999999999999
 21
-0.0949999999999999
 31
0.0
  0
LINE
  5
D7
330
AA
100
AcDbEntity
  8
AM_5
100
AcDbLine
 10
-0.9954772724678349
 20
0.0950000000000001
 30
0.0
 11
-0.7499999999999999
 21
0.0950000000000001
 31
0.0
  0
LINE
  5
D8
330
AA
100
AcDbEntity
  8
AM_4
100
AcDbLine
 10
-0.4154662228743955
 20
-0.9096086068471885
 30
0.0
 11
-0.3843941686403087
 21
-0.8557902302182143
 31
0.0
  0
ARC
  5
D9
330
AA
100
AcDbEntity
  8
AM_4
100
AcDbCircle
 10
0.0
 20
0.0
 30
0.0
 40
1.0
100
AcDbArc
 50
245.4513198124178
 51
354.5486801875822
  0
LINE
  5
DA
330
AA
100
AcDbEntity
  8
AM_4
100
AcDbLine
 10
0.9333331639996614
 20
-0.095
 30
0.0
 11
0.9954772724678349
 21
-0.095
 31
0.0
  0
LINE
  5
DB
330
AA
100
AcDbEntity
  8
AM_4
100
AcDbLine
 10
0.9954772724678349
 20
0.095
 30
0.0
 11
0.9333331639996614
 21
0.095
 31
0.0
  0
LINE
  5
DC
330
AA
100
AcDbEntity
  8
AM_4
100
AcDbLine
 10
-0.3843941686403092
 20
0.8557902302182141
 30
0.0
 11
-0.4154662228743962
 21
0.9096086068471881
 31
0.0
  0
ARC
  5
DD
330
AA
100
AcDbEntity
  8
AM_4
100
AcDbCircle
 10
0.0
 20
-0.0000000000000001
 30
0.0
 40
1.0
100
AcDbArc
 50
5.45131981241778
 51
114.5486801875822
  0
LINE
  5
DE
330
AA
100
AcDbEntity
  8
AM_4
100
AcDbLine
 10
0.0500000000000001
 20
0.6229967897188556
 30
0.0
 11
0.0500000000000001
 21
0.7460317460317459
 31
0.0
  0
LINE
  5
DF
330
AA
100
AcDbEntity
  8
AM_4
100
AcDbLine
 10
-0.0499999999999999
 20
0.6229967897188556
 30
0.0
 11
-0.0499999999999999
 21
0.7460317460317459
 31
0.0
  0
LINE
  5
E0
330
AA
100
AcDbEntity
  8
AM_4
100
AcDbLine
 10
0.9333331639996614
 20
0.095
 30
0.0
 11
0.9333331639996614
 21
-0.095
 31
0.0
  0
LINE
  5
E1
330
AA
100
AcDbEntity
  8
AM_4
100
AcDbLine
 10
-0.0499999999999999
 20
0.7460317460317459
 30
0.0
 11
0.0500000000000001
 21
0.7460317460317459
 31
0.0
  0
LINE
  5
E2
330
AA
100
AcDbEntity
  8
AM_4
100
AcDbLine
 10
-0.5800110495934395
 20
0.8146086068471882
 30
0.0
 11
-0.5489389953593525
 21
0.7607902302182141
 31
0.0
  0
LINE
  5
E3
330
AA
100
AcDbEntity
  8
AM_4
100
AcDbLine
 10
-0.5489389953593525
 20
0.7607902302182141
 30
0.0
 11
-0.3843941686403092
 21
0.8557902302182141
 31
0.0
  0
ARC
  5
E4
330
AA
100
AcDbEntity
  8
AM_4
100
AcDbCircle
 10
0.0
 20
0.0000000000000002
 30
0.0
 40
0.971652
100
AcDbArc
 50
5.610865412998182
 51
114.3891345870018
  0
LINE
  5
E5
330
AA
100
AcDbEntity
  8
AM_4
100
AcDbLine
 10
-0.5489389953593521
 20
-0.7607902302182145
 30
0.0
 11
-0.5800110495934389
 21
-0.8146086068471885
 31
0.0
  0
LINE
  5
E6
330
AA
100
AcDbEntity
  8
AM_4
100
AcDbLine
 10
-0.3843941686403087
 20
-0.8557902302182143
 30
0.0
 11
-0.5489389953593521
 21
-0.7607902302182145
 31
0.0
  0
ARC
  5
E7
330
AA
100
AcDbEntity
  8
AM_4
100
AcDbCircle
 10
-0.0000000000000002
 20
0.0000000000000002
 30
0.0
 40
0.9716520000000001
100
AcDbArc
 50
245.6108654129982
 51
354.3891345870018
  0
ARC
  5
E8
330
AA
100
AcDbEntity
  8
AM_4
100
AcDbCircle
 10
0.0000000000000022
 20
-0.0000000000000011
 30
0.0
 40
1.000000000000002
100
AcDbArc
 50
125.4513198124179
 51
179.0906600083975
  0
LINE
  5
E9
330
AA
100
AcDbEntity
  8
AM_4
100
AcDbLine
 10
-0.9998740586901644
 20
0.0158703105973887
 30
0.0
 11
-0.9998740586901644
 21
-0.0158703105973891
 31
0.0
  0
ARC
  5
EA
330
AA
100
AcDbEntity
  8
AM_4
100
AcDbCircle
 10
0.0000000000000011
 20
0.0000000000000005
 30
0.0
 40
1.000000000000001
100
AcDbArc
 50
180.9093399916026
 51
234.5486801875822
  0
ARC
  5
EB
330
AA
100
AcDbEntity
  8
AM_4
100
AcDbCircle
 10
0.0000000000000001
 20
-0.0000000000000001
 30
0.0
 40
0.971652
100
AcDbArc
 50
125.6108654129982
 51
234.3891345870018
  0
ARC
  5
EC
330
AA
100
AcDbEntity
  8
AM_4
100
AcDbCircle
 10
0.0000000000000001
 20
0.0000000000000001
 30
0.0
 40
0.6249999999999999
100
AcDbArc
 50
94.58856573578582
 51
85.41143426421417
  0
ARC
  5
ED
330
AA
100
AcDbEntity
  8
AM_4
100
AcDbCircle
 10
0.0000000000000001
 20
0.0000000000000001
 30
0.0
 40
0.7460317460317459
100
AcDbArc
 50
93.84291692518897
 51
86.15708307481106
  0
ENDBLK
  5
AD
330
AA
100
AcDbEntity
  8
0
100
AcDbBlockEnd
  0
BLOCK
  5
F0
330
EE
100
AcDbEntity
  8
0
100
AcDbBlockBegin
  2
4_F2B_GREZ_06_PCR_II_0_in_129344_0
 70
     2
 10
0.0
 20
0.0
 30
0.0
  3
4_F2B_GREZ_06_PCR_II_0_in_129344_0
  1

  0
ATTDEF
  5
F2
330
EE
100
AcDbEntity
  8
AM_6
100
AcDbText
 10
6.6015
 20
2.797
 30
0.0
 40
0.5
  1
F2B-GTEZ-PCR-B-I
100
AcDbAttributeDefinition
  3

  2
NN
 70
     8
280
     0
  0
ATTDEF
  5
F3
330
EE
100
AcDbEntity
  8
AM_6
100
AcDbText
 10
6.6015
 20
2.297
 30
0.0
 40
0.5
  1
GTEZ Normal Duty Polymer Housed 2 Bolt Flange Bearings
100
AcDbAttributeDefinition
  3

  2
NT
 70
     8
280
     0
  0
ATTDEF
  5
F4
330
EE
100
AcDbEntity
  8
AM_6
100
AcDbText
 10
6.6015
 20
1.797
 30
0.0
 40
0.5
  1
F2B-GREZ-06-PCR-II
100
AcDbAttributeDefinition
  3

  2
NB
 70
     8
280
     0
  0
ATTDEF
  5
F5
330
EE
100
AcDbEntity
  8
AM_6
100
AcDbText
 10
6.6015
 20
1.297
 30
0.0
 40
0.5
  1
$PN.$LUBE.I
100
AcDbAttributeDefinition
  3

  2
NBSYN
 70
     8
280
     0
  0
ATTDEF
  5
F6
330
EE
100
AcDbEntity
  8
AM_6
100
AcDbText
 10
6.6015
 20
0.7970000000000002
 30
0.0
 40
0.5
  1
F2B-GREZ-06-PCR-I
100
AcDbAttributeDefinition
  3

  2
LINA
 70
     8
280
     0
  0
ATTDEF
  5
F7
330
EE
100
AcDbEntity
  8
AM_6
100
AcDbText
 10
6.6015
 20
0.2970000000000002
 30
0.0
 40
0.5
  1
206
100
AcDbAttributeDefinition
  3

  2
SERIES
 70
     8
280
     0
  0
ATTDEF
  5
F8
330
EE
100
AcDbEntity
  8
AM_6
100
AcDbText
 10
6.6015
 20
-0.2029999999999998
 30
0.0
 40
0.5
  1
1-1/8
100
AcDbAttributeDefinition
  3

  2
SS
 70
     8
280
     0
  0
ATTDEF
  5
F9
330
EE
100
AcDbEntity
  8
AM_6
100
AcDbText
 10
6.6015
 20
-0.7029999999999998
 30
0.0
 40
0.5
  1
F2B-GREZ-06-PCR-I
100
AcDbAttributeDefinition
  3

  2
PN
 70
     8
280
     0
  0
ATTDEF
  5
FA
330
EE
100
AcDbEntity
  8
AM_6
100
AcDbText
 10
6.6015
 20
-1.203
 30
0.0
 40
0.5
  1
F2B-GREZ-06-PCR
100
AcDbAttributeDefinition
  3

  2
DESCRIPTION
 70
     8
280
     0
  0
ATTDEF
  5
FB
330
EE
100
AcDbEntity
  8
AM_6
100
AcDbText
 10
6.6015
 20
-1.703
 30
0.0
 40
0.5
  1
1.56
100
AcDbAttributeDefinition
  3

  2
WEIGHT
 70
     8
280
     0
  0
ATTDEF
  5
FC
330
EE
100
AcDbEntity
  8
AM_6
100
AcDbText
 10
6.6015
 20
-2.203
 30
0.0
 40
0.5
  1
1-39/64
100
AcDbAttributeDefinition
  3

  2
A
 70
     8
280
     0
  0
ATTDEF
  5
FD
330
EE
100
AcDbEntity
  8
AM_6
100
AcDbText
 10
6.6015
 20
-2.703
 30
0.0
 40
0.5
  1
5-19/32
100
AcDbAttributeDefinition
  3

  2
B
 70
     8
280
     0
  0
ATTDEF
  5
FE
330
EE
100
AcDbEntity
  8
AM_6
100
AcDbText
 10
6.6015
 20
-3.203
 30
0.0
 40
0.5
  1
1-53/64
100
AcDbAttributeDefinition
  3

  2
C
 70
     8
280
     0
  0
ATTDEF
  5
FF
330
EE
100
AcDbEntity
  8
AM_6
100
AcDbText
 10
6.6015
 20
-3.703
 30
0.0
 40
0.5
  1
4-19/32
100
AcDbAttributeDefinition
  3

  2
D
 70
     8
280
     0
  0
ATTDEF
  5
100
330
EE
100
AcDbEntity
  8
AM_6
100
AcDbText
 10
6.6015
 20
-4.202999999999999
 30
0.0
 40
0.5
  1
3/8
100
AcDbAttributeDefinition
  3

  2
F
 70
     8
280
     0
  0
ATTDEF
  5
101
330
EE
100
AcDbEntity
  8
AM_6
100
AcDbText
 10
6.6015
 20
-4.702999999999999
 30
0.0
 40
0.5
  1
0.625
100
AcDbAttributeDefinition
  3

  2
FMAJ1
 70
     8
280
     0
  0
ATTDEF
  5
102
330
EE
100
AcDbEntity
  8
AM_6
100
AcDbText
 10
6.6015
 20
-5.202999999999999
 30
0.0
 40
0.5
  1
0.391
100
AcDbAttributeDefinition
  3

  2
FMIN1
 70
     8
280
     0
  0
ATTDEF
  5
103
330
EE
100
AcDbEntity
  8
AM_6
100
AcDbText
 10
6.6015
 20
-5.702999999999999
 30
0.0
 40
0.5
  1
39/64
100
AcDbAttributeDefinition
  3

  2
H
 70
     8
280
     0
  0
ATTDEF
  5
104
330
EE
100
AcDbEntity
  8
AM_6
100
AcDbText
 10
6.6015
 20
-6.202999999999999
 30
0.0
 40
0.5
  1
35/64
100
AcDbAttributeDefinition
  3

  2
J
 70
     8
280
     0
  0
ATTDEF
  5
105
330
EE
100
AcDbEntity
  8
AM_6
100
AcDbText
 10
6.6015
 20
-6.702999999999999
 30
0.0
 40
0.5
  1
2
100
AcDbAttributeDefinition
  3

  2
L
 70
     8
280
     0
  0
ATTDEF
  5
106
330
EE
100
AcDbEntity
  8
AM_6
100
AcDbText
 10
6.6015
 20
-7.202999999999999
 30
0.0
 40
0.5
  1
3-13/64
100
AcDbAttributeDefinition
  3

  2
M
 70
     8
280
     0
  0
ATTDEF
  5
107
330
EE
100
AcDbEntity
  8
AM_6
100
AcDbText
 10
6.6015
 20
-7.702999999999999
 30
0.0
 40
0.5
  1
1-25/32
100
AcDbAttributeDefinition
  3

  2
Z
 70
     8
280
     0
  0
ATTDEF
  5
108
330
EE
100
AcDbEntity
  8
AM_6
100
AcDbText
 10
6.6015
 20
-8.203
 30
0.0
 40
0.5
  1
Infotext
100
AcDbAttributeDefinition
  3

  2
INFO
 70
     8
280
     0
  0
ATTDEF
  5
109
330
EE
100
AcDbEntity
  8
AM_6
100
AcDbText
 10
6.6015
 20
-8.703
 30
0.0
 40
0.5
  1
baldor
100
AcDbAttributeDefinition
  3

  2
COMPANY
 70
     8
280
     0
  0
ARC
  5
10A
330
EE
100
AcDbEntity
  8
AM_9
100
AcDbCircle
 10
0.6826995405970819
 20
0.5405832960229651
 30
0.0
 40
0.918800459402918
100
AcDbArc
 50
0.0
 51
1.007081876155428
  0
ARC
  5
10B
330
EE
100
AcDbEntity
  8
AM_9
100
AcDbCircle
 10
-0.6826995405969428
 20
0.5405832960229656
 30
0.0
 40
0.9188004594030571
100
AcDbArc
 50
178.9929181238449
 51
180.0
  0
ARC
  5
10C
330
EE
100
AcDbEntity
  8
AM_9
100
AcDbCircle
 10
0.6826995405975114
 20
-0.5405832960229667
 30
0.0
 40
0.9188004594024886
100
AcDbArc
 50
358.9929181238446
 51
0.0
  0
ARC
  5
10D
330
EE
100
AcDbEntity
  8
AM_9
100
AcDbCircle
 10
-0.6826995405971074
 20
-0.5405832960229647
 30
0.0
 40
0.9188004594028926
100
AcDbArc
 50
180.0
 51
181.0070818761551
  0
LINE
  5
10E
330
EE
100
AcDbEntity
  8
AM_9
100
AcDbLine
 10
1.315065961733099
 20
1.339981905107699
 30
0.0
 11
1.233167916178572
 21
1.507897782525982
 31
0.0
  0
LINE
  5
111
330
EE
100
AcDbEntity
  8
AM_7
100
AcDbLine
 10
-0.205275
 20
-2.297
 30
0.0
 11
0.205275
 21
-2.297
 31
0.0
  0
LINE
  5
112
330
EE
100
AcDbEntity
  8
AM_7
100
AcDbLine
 10
0.0
 20
-2.502275
 30
0.0
 11
0.0
 21
-2.091725
 31
0.0
  0
LINE
  5
113
330
EE
100
AcDbEntity
  8
AM_7
100
AcDbLine
 10
-0.205275
 20
2.297
 30
0.0
 11
0.205275
 21
2.297
 31
0.0
  0
LINE
  5
114
330
EE
100
AcDbEntity
  8
AM_7
100
AcDbLine
 10
0.0
 20
2.091725
 30
0.0
 11
0.0
 21
2.502275
 31
0.0
  0
LINE
  5
115
330
EE
100
AcDbEntity
  8
AM_7
100
AcDbLine
 10
-1.2814725
 20
0.0
 30
0.0
 11
1.2814725
 21
0.0
 31
0.0
  0
LINE
  5
116
330
EE
100
AcDbEntity
  8
AM_7
100
AcDbLine
 10
0.0
 20
-1.2814725
 30
0.0
 11
0.0
 21
1.2814725
 31
0.0
  0
LINE
  5
117
330
EE
100
AcDbEntity
  8
AM_7
100
AcDbLine
 10
0.9489041810600618
 20
1.120436011430318
 30
0.0
 11
1.329124596895274
 21
1.50065642726553
 31
0.0
  0
ARC
  5
118
330
EE
100
AcDbEntity
  8
AM_4
100
AcDbCircle
 10
0.6826995406000008
 20
-0.5405832960229887
 30
0.0
 40
0.9188004593999991
100
AcDbArc
 50
334.0000000000002
 51
358.9929181238432
  0
LINE
  5
119
330
EE
100
AcDbEntity
  8
AM_4
100
AcDbLine
 10
0.6044307547239767
 20
-2.797
 30
0.0
 11
1.508511923245661
 21
-0.943358907080495
 31
0.0
  0
ARC
  5
11A
330
EE
100
AcDbEntity
  8
AM_4
100
AcDbCircle
 10
0.6826995405999983
 20
0.5405832960229852
 30
0.0
 40
0.9188004594000018
100
AcDbArc
 50
1.007081876156875
 51
25.99999999999995
  0
LINE
  5
11B
330
EE
100
AcDbEntity
  8
AM_4
100
AcDbLine
 10
1.233167916178572
 20
1.507897782525982
 30
0.0
 11
0.6044307547239767
 21
2.797
 31
0.0
  0
LINE
  5
11C
330
EE
100
AcDbEntity
  8
AM_4
100
AcDbLine
 10
1.50851192324566
 20
0.9433589070804945
 30
0.0
 11
1.315065961733099
 21
1.339981905107699
 31
0.0
  0
LINE
  5
11D
330
EE
100
AcDbEntity
  8
AM_4
100
AcDbLine
 10
-0.604430754723977
 20
-2.797
 30
0.0
 11
0.6044307547239767
 21
-2.797
 31
0.0
  0
LINE
  5
11E
330
EE
100
AcDbEntity
  8
AM_4
100
AcDbLine
 10
-1.50851192324566
 20
-0.9433589070804946
 30
0.0
 11
-0.604430754723977
 21
-2.797
 31
0.0
  0
ARC
  5
11F
330
EE
100
AcDbEntity
  8
AM_4
100
AcDbCircle
 10
-0.6826995405999965
 20
-0.5405832960229848
 30
0.0
 40
0.9188004594000035
100
AcDbArc
 50
181.0070818761573
 51
205.9999999999999
  0
LINE
  5
120
330
EE
100
AcDbEntity
  8
AM_4
100
AcDbLine
 10
0.6044307547239767
 20
2.797
 30
0.0
 11
-0.6044307547239772
 21
2.797
 31
0.0
  0
ARC
  5
121
330
EE
100
AcDbEntity
  8
AM_4
100
AcDbCircle
 10
-0.6826995405999972
 20
0.5405832960229848
 30
0.0
 40
0.918800459400003
100
AcDbArc
 50
154.0
 51
178.9929181238428
  0
LINE
  5
122
330
EE
100
AcDbEntity
  8
AM_4
100
AcDbLine
 10
-0.6044307547239772
 20
2.797
 30
0.0
 11
-1.50851192324566
 21
0.9433589070804946
 31
0.0
  0
LINE
  5
123
330
EE
100
AcDbEntity
  8
AM_4
100
AcDbLine
 10
0.4804498398499996
 20
-2.797
 30
0.0
 11
0.4804498398499995
 21
-1.68157483985
 31
0.0
  0
LINE
  5
124
330
EE
100
AcDbEntity
  8
AM_4
100
AcDbLine
 10
-0.4804498398499999
 20
-1.68157483985
 30
0.0
 11
-0.4804498398499996
 21
-2.797
 31
0.0
  0
CIRCLE
  5
125
330
EE
100
AcDbEntity
  8
AM_4
100
AcDbCircle
 10
0.0
 20
-2.297
 30
0.0
 40
0.1955
  0
ARC
  5
126
330
EE
100
AcDbEntity
  8
AM_4
100
AcDbCircle
 10
0.5605246796999998
 20
-1.68157483985
 30
0.0
 40
0.0800748398500004
100
AcDbArc
 50
90.0
 51
180.0
  0
ARC
  5
127
330
EE
100
AcDbEntity
  8
AM_4
100
AcDbCircle
 10
-0.5605246796999998
 20
-1.68157483985
 30
0.0
 40
0.0800748398499999
100
AcDbArc
 50
0.0
 51
90.0
  0
LINE
  5
128
330
EE
100
AcDbEntity
  8
AM_4
100
AcDbLine
 10
-0.4804498398500001
 20
2.797
 30
0.0
 11
-0.48044983985
 21
1.68157483985
 31
0.0
  0
CIRCLE
  5
129
330
EE
100
AcDbEntity
  8
AM_4
100
AcDbCircle
 10
0.0
 20
2.297
 30
0.0
 40
0.1955
  0
ARC
  5
12A
330
EE
100
AcDbEntity
  8
AM_4
100
AcDbCircle
 10
-0.5605246797
 20
1.68157483985
 30
0.0
 40
0.08007483985
100
AcDbArc
 50
270.0
 51
0.0
  0
ARC
  5
12B
330
EE
100
AcDbEntity
  8
AM_4
100
AcDbCircle
 10
0.5605246796999998
 20
1.68157483985
 30
0.0
 40
0.08007483985
100
AcDbArc
 50
180.0
 51
270.0
  0
LINE
  5
12C
330
EE
100
AcDbEntity
  8
AM_4
100
AcDbLine
 10
0.4804498398499998
 20
1.68157483985
 30
0.0
 11
0.4804498398499996
 21
2.797
 31
0.0
  0
LINE
  5
12D
330
EE
100
AcDbEntity
  8
AM_4
100
AcDbLine
 10
1.239580408890046
 20
1.503619772742667
 30
0.0
 11
1.332087940123107
 21
1.411112241509606
 31
0.0
  0
ARC
  5
12E
330
EE
100
AcDbEntity
  8
AM_4
100
AcDbCircle
 10
1.318168545384754
 20
1.397192842272645
 30
0.0
 40
0.0196850000000001
100
AcDbArc
 50
336.8011623336729
 51
44.99999999999771
  0
ARC
  5
12F
330
EE
100
AcDbEntity
  8
AM_4
100
AcDbCircle
 10
1.225661011902389
 20
1.48970037575501
 30
0.0
 40
0.0196850000000002
100
AcDbArc
 50
45.00000000000138
 51
113.1988376663276
  0
LINE
  5
130
330
EE
100
AcDbEntity
  8
AM_4
100
AcDbLine
 10
1.217906632461863
 20
1.507793712221575
 30
0.0
 11
1.336261881851319
 21
1.389438462832119
 31
0.0
  0
LINE
  5
131
330
EE
100
AcDbEntity
  8
AM_4
100
AcDbLine
 10
1.217906632461863
 20
1.507793712221575
 30
0.0
 11
1.165469758429815
 21
1.485320498468494
 31
0.0
  0
LINE
  5
132
330
EE
100
AcDbEntity
  8
AM_4
100
AcDbLine
 10
1.313788668098238
 20
1.33700158880007
 30
0.0
 11
1.336261881851319
 21
1.389438462832119
 31
0.0
  0
LINE
  5
133
330
EE
100
AcDbEntity
  8
AM_4
100
AcDbLine
 10
1.165469758429815
 20
1.485320498468494
 30
0.0
 11
1.313788668098238
 21
1.33700158880007
 31
0.0
  0
ARC
  5
134
330
EE
100
AcDbEntity
  8
AM_4
100
AcDbCircle
 10
1.295695331631672
 20
1.344755968240598
 30
0.0
 40
0.0196850000000009
100
AcDbArc
 50
269.1573759994384
 51
336.8011623336697
  0
ARC
  5
135
330
EE
100
AcDbEntity
  8
AM_4
100
AcDbCircle
 10
1.173224137870341
 20
1.467227162001927
 30
0.0
 40
0.0196850000000008
100
AcDbArc
 50
113.1988376663283
 51
180.8426240005593
  0
LINE
  5
136
330
EE
100
AcDbEntity
  8
AM_4
100
AcDbLine
 10
1.153541266597402
 20
1.466937673741498
 30
0.0
 11
1.295405843371242
 21
1.325073096967658
 31
0.0
  0
ARC
  5
137
330
EE
100
AcDbEntity
  8
AM_4
100
AcDbCircle
 10
1.294360053389736
 20
1.253968450207624
 30
0.0
 40
0.071112336957483
100
AcDbArc
 50
89.15736826016206
 51
191.1445357652385
  0
ARC
  5
138
330
EE
100
AcDbEntity
  8
AM_4
100
AcDbCircle
 10
1.082436619837369
 20
1.465891883759991
 30
0.0
 40
0.0711123369574825
100
AcDbArc
 50
258.8554642347611
 51
0.8426317398379323
  0
LINE
  5
139
330
EE
100
AcDbEntity
  8
AM_4
100
AcDbLine
 10
1.068691695760861
 20
1.396120531976572
 30
0.0
 11
1.224588701606316
 21
1.240223526131117
 31
0.0
  0
LINE
  5
13A
330
EE
100
AcDbEntity
  8
AM_4
100
AcDbLine
 10
1.210669304618659
 20
1.22630412914346
 30
0.0
 11
1.224588701606316
 21
1.240223526131117
 31
0.0
  0
LINE
  5
13B
330
EE
100
AcDbEntity
  8
AM_4
100
AcDbLine
 10
1.068691695760861
 20
1.396120531976572
 30
0.0
 11
1.054772298773204
 21
1.382201134988915
 31
0.0
  0
LINE
  5
13C
330
EE
100
AcDbEntity
  8
AM_4
100
AcDbLine
 10
1.1148342478876
 20
1.1304690724124
 30
0.0
 11
1.127152144875256
 21
1.142786969400057
 31
0.0
  0
LINE
  5
13D
330
EE
100
AcDbEntity
  8
AM_4
100
AcDbLine
 10
0.9712551390298014
 20
1.298683975245512
 30
0.0
 11
0.9589372420421446
 21
1.286366078257855
 31
0.0
  0
LINE
  5
13E
330
EE
100
AcDbEntity
  8
AM_4
100
AcDbLine
 10
1.118110800787664
 20
1.161060329097682
 30
0.0
 11
1.192395944921034
 21
1.235345473231053
 31
0.0
  0
LINE
  5
13F
330
EE
100
AcDbEntity
  8
AM_4
100
AcDbLine
 10
1.182401951817783
 20
1.096769178067564
 30
0.0
 11
1.256687095951153
 21
1.171054322200934
 31
0.0
  0
LWPOLYLINE
  5
140
330
EE
100
AcDbEntity
  8
AM_4
100
AcDbPolyline
 90
        6
 70
     0
 43
0.0
 10
1.118110800787664
 20
1.161060329097682
 10
1.130555902767461
 20
1.141901245
 10
1.145240459783288
 20
1.124700422258979
 10
1.146042044979079
 20
1.123898837063188
 10
1.163163155423668
 20
1.109273120361132
 10
1.182401951817783
 20
1.096769178067564
  0
LWPOLYLINE
  5
141
330
EE
100
AcDbEntity
  8
AM_4
100
AcDbPolyline
 90
        6
 70
     0
 43
0.0
 10
0.9895284987274265
 20
1.28964263115792
 10
1.024227728978606
 20
1.247288043765575
 10
1.048402940640185
 20
1.221537941402082
 10
1.050006111031826
 20
1.219934771010442
 10
1.083087639899881
 20
1.189385833858831
 10
1.118110800787664
 20
1.161060329097682
  0
LINE
  5
142
330
EE
100
AcDbEntity
  8
AM_4
100
AcDbLine
 10
0.9378485155487463
 20
1.332090598726568
 30
0.0
 11
1.160558768356312
 21
1.109380345919002
 31
0.0
  0
LINE
  5
143
330
EE
100
AcDbEntity
  8
AM_4
100
AcDbLine
 10
1.160558768356312
 20
1.109380345919002
 30
0.0
 11
1.182401951817783
 21
1.096769178067564
 31
0.0
  0
LINE
  5
144
330
EE
100
AcDbEntity
  8
AM_4
100
AcDbLine
 10
0.9252373476973077
 20
1.353933782188039
 30
0.0
 11
0.9378485155487465
 21
1.332090598726568
 31
0.0
  0
LINE
  5
145
330
EE
100
AcDbEntity
  8
AM_4
100
AcDbLine
 10
0.9252373476973078
 20
1.353933782188039
 30
0.0
 11
0.9995224918306777
 21
1.428218926321409
 31
0.0
  0
LWPOLYLINE
  5
146
330
EE
100
AcDbEntity
  8
AM_4
100
AcDbPolyline
 90
        6
 70
     0
 43
0.0
 10
0.9252373476973078
 20
1.353933782188039
 10
0.9376824496770961
 20
1.334774698090369
 10
0.952367006692911
 20
1.317573875349356
 10
0.953168591888744
 20
1.316772290153523
 10
0.9702897023333242
 20
1.302146573451479
 10
0.9895284987274265
 20
1.28964263115792
  0
LINE
  5
147
330
EE
100
AcDbEntity
  8
AM_4
100
AcDbLine
 10
0.9895284987274265
 20
1.28964263115792
 30
0.0
 11
1.063813642860796
 21
1.36392777529129
 31
0.0
  0
LINE
  5
148
330
EE
100
AcDbEntity
  8
AM_4
100
AcDbLine
 10
1.021365675292149
 20
1.41560775846997
 30
0.0
 11
1.244075928099715
 21
1.192897505662404
 31
0.0
  0
LWPOLYLINE
  5
149
330
EE
100
AcDbEntity
  8
AM_4
100
AcDbPolyline
 90
        5
 70
     0
 43
0.0
 10
1.256687095951153
 20
1.171054322200934
 10
1.244159717720091
 20
1.190292685451349
 10
1.229466133031243
 20
1.207506159010126
 10
1.211987251896631
 20
1.222554052700906
 10
1.192395944921034
 20
1.235345473231053
  0
LWPOLYLINE
  5
14A
330
EE
100
AcDbEntity
  8
AM_4
100
AcDbPolyline
 90
        5
 70
     0
 43
0.0
 10
1.063813642860796
 20
1.36392777529129
 10
1.051286264629734
 20
1.383166138541706
 10
1.036592679940886
 20
1.400379612100482
 10
1.019113798806274
 20
1.415427505791263
 10
0.9995224918306777
 20
1.428218926321409
  0
LWPOLYLINE
  5
14B
330
EE
100
AcDbEntity
  8
AM_4
100
AcDbPolyline
 90
        6
 70
     0
 43
0.0
 10
1.192395944921034
 20
1.235345473231053
 10
1.166226605401933
 20
1.267858717639166
 10
1.138163840633724
 20
1.298737174315419
 10
1.107484730812016
 20
1.328031412986538
 10
1.074958592145153
 20
1.355276013919425
 10
1.063813642860796
 20
1.36392777529129
  0
LINE
  5
14C
330
EE
100
AcDbEntity
  8
AM_4
100
AcDbLine
 10
1.021365675292149
 20
1.41560775846997
 30
0.0
 11
0.9995224918306777
 21
1.428218926321409
 31
0.0
  0
LINE
  5
14D
330
EE
100
AcDbEntity
  8
AM_4
100
AcDbLine
 10
1.256687095951153
 20
1.171054322200934
 30
0.0
 11
1.244075928099715
 21
1.192897505662404
 31
0.0
  0
LINE
  5
14E
330
EE
100
AcDbEntity
  8
AM_4
100
AcDbLine
 10
0.06886975
 20
1.422168804699996
 30
0.0
 11
0.06886975
 21
1.46587055
 31
0.0
  0
LINE
  5
14F
330
EE
100
AcDbEntity
  8
AM_4
100
AcDbLine
 10
0.06580887
 20
1.407601554600009
 30
0.0
 11
0.06886975
 21
1.422168804699996
 31
0.0
  0
LINE
  5
150
330
EE
100
AcDbEntity
  8
AM_4
100
AcDbLine
 10
-0.2004874629000166
 20
1.422168804699996
 30
0.0
 11
-0.1974265873000162
 21
1.407601554600009
 31
0.0
  0
LINE
  5
151
330
EE
100
AcDbEntity
  8
AM_4
100
AcDbLine
 10
0.09641765
 20
1.4804378
 30
0.0
 11
0.09335677
 21
1.46587055
 31
0.0
  0
LINE
  5
152
330
EE
100
AcDbEntity
  8
AM_4
100
AcDbLine
 10
0.05968711
 20
1.4920916
 30
0.0
 11
0.04744361
 21
1.5037454
 31
0.0
  0
LINE
  5
153
330
EE
100
AcDbEntity
  8
AM_4
100
AcDbLine
 10
0.04744361
 20
1.5037454
 30
0.0
 11
0.0352001
 21
1.5095723
 31
0.0
  0
LINE
  5
154
330
EE
100
AcDbEntity
  8
AM_4
100
AcDbLine
 10
0.06886975
 20
1.46587055
 30
0.0
 11
0.06580887
 21
1.4804378
 31
0.0
  0
LINE
  5
155
330
EE
100
AcDbEntity
  8
AM_4
100
AcDbLine
 10
0.06580887
 20
1.4804378
 30
0.0
 11
0.05968711
 21
1.4920916
 31
0.0
  0
LINE
  5
156
330
EE
100
AcDbEntity
  8
AM_4
100
AcDbLine
 10
0.14233081
 20
1.49500505
 30
0.0
 11
0.1698787
 21
1.49500505
 31
0.0
  0
LINE
  5
157
330
EE
100
AcDbEntity
  8
AM_4
100
AcDbLine
 10
0.1698787
 20
1.49500505
 30
0.0
 11
0.18212221
 21
1.4920916
 31
0.0
  0
LINE
  5
158
330
EE
100
AcDbEntity
  8
AM_4
100
AcDbLine
 10
0.18212221
 20
1.4920916
 30
0.0
 11
0.19130484
 21
1.4862647
 31
0.0
  0
LINE
  5
159
330
EE
100
AcDbEntity
  8
AM_4
100
AcDbLine
 10
0.19130484
 20
1.4862647
 30
0.0
 11
0.19436572
 21
1.47752435
 31
0.0
  0
LINE
  5
15A
330
EE
100
AcDbEntity
  8
AM_4
100
AcDbLine
 10
0.19436572
 20
1.47752435
 30
0.0
 11
0.21273099
 21
1.47752435
 31
0.0
  0
LINE
  5
15B
330
EE
100
AcDbEntity
  8
AM_4
100
AcDbLine
 10
0.0352001
 20
1.5095723
 30
0.0
 11
0.0198957099999999
 21
1.51248575
 31
0.0
  0
LINE
  5
15C
330
EE
100
AcDbEntity
  8
AM_4
100
AcDbLine
 10
0.19742659
 20
1.5037454
 30
0.0
 11
0.18518309
 21
1.5095723
 31
0.0
  0
LINE
  5
15D
330
EE
100
AcDbEntity
  8
AM_4
100
AcDbLine
 10
0.18518309
 20
1.5095723
 30
0.0
 11
0.1698787
 21
1.51248575
 31
0.0
  0
LINE
  5
15E
330
EE
100
AcDbEntity
  8
AM_4
100
AcDbLine
 10
-0.2739485216999935
 20
1.51248575
 30
0.0
 11
-0.347409580399984
 21
1.51248575
 31
0.0
  0
LINE
  5
15F
330
EE
100
AcDbEntity
  8
AM_4
100
AcDbLine
 10
-0.347409580399984
 20
1.51248575
 30
0.0
 11
-0.347409580399984
 21
1.375553609599993
 31
0.0
  0
LINE
  5
160
330
EE
100
AcDbEntity
  8
AM_4
100
AcDbLine
 10
-0.347409580399984
 20
1.375553609599993
 30
0.0
 11
-0.2739485216999935
 21
1.375553609599993
 31
0.0
  0
LINE
  5
161
330
EE
100
AcDbEntity
  8
AM_4
100
AcDbLine
 10
-0.2739485216999935
 20
1.375553609599993
 30
0.0
 11
-0.258644143400034
 21
1.378467059599987
 31
0.0
  0
LINE
  5
162
330
EE
100
AcDbEntity
  8
AM_4
100
AcDbLine
 10
0.21273099
 20
1.47752435
 30
0.0
 11
0.20967012
 21
1.4920916
 31
0.0
  0
LINE
  5
163
330
EE
100
AcDbEntity
  8
AM_4
100
AcDbLine
 10
0.20967012
 20
1.4920916
 30
0.0
 11
0.19742659
 21
1.5037454
 31
0.0
  0
LINE
  5
164
330
EE
100
AcDbEntity
  8
AM_4
100
AcDbLine
 10
0.12090467
 20
1.4862647
 30
0.0
 11
0.13008729
 21
1.4920916
 31
0.0
  0
LINE
  5
165
330
EE
100
AcDbEntity
  8
AM_4
100
AcDbLine
 10
0.13008729
 20
1.4920916
 30
0.0
 11
0.14233081
 21
1.49500505
 31
0.0
  0
LINE
  5
166
330
EE
100
AcDbEntity
  8
AM_4
100
AcDbLine
 10
0.05968711
 20
1.395947754500017
 30
0.0
 11
0.06580887
 21
1.407601554600009
 31
0.0
  0
LINE
  5
167
330
EE
100
AcDbEntity
  8
AM_4
100
AcDbLine
 10
-0.2249744897000611
 20
1.46587055
 30
0.0
 11
-0.2280353653999914
 21
1.4804378
 31
0.0
  0
LINE
  5
168
330
EE
100
AcDbEntity
  8
AM_4
100
AcDbLine
 10
-0.2280353653999914
 20
1.4804378
 30
0.0
 11
-0.234157116700034
 21
1.4920916
 31
0.0
  0
LINE
  5
169
330
EE
100
AcDbEntity
  8
AM_4
100
AcDbLine
 10
-0.234157116700034
 20
1.4920916
 30
0.0
 11
-0.2464006193000068
 21
1.5037454
 31
0.0
  0
LINE
  5
16A
330
EE
100
AcDbEntity
  8
AM_4
100
AcDbLine
 10
-0.2464006193000068
 20
1.5037454
 30
0.0
 11
-0.2586441434000339
 21
1.509572299999999
 31
0.0
  0
LINE
  5
16B
330
EE
100
AcDbEntity
  8
AM_4
100
AcDbLine
 10
0.0198957099999999
 20
1.51248575
 30
0.0
 11
-0.0535653508999878
 21
1.51248575
 31
0.0
  0
LINE
  5
16C
330
EE
100
AcDbEntity
  8
AM_4
100
AcDbLine
 10
-0.1974265873000162
 20
1.4804378
 30
0.0
 11
-0.2004874629000166
 21
1.46587055
 31
0.0
  0
LINE
  5
16D
330
EE
100
AcDbEntity
  8
AM_4
100
AcDbLine
 10
-0.2004874629000166
 20
1.46587055
 30
0.0
 11
-0.2004874629000166
 21
1.422168804699996
 31
0.0
  0
LINE
  5
16E
330
EE
100
AcDbEntity
  8
AM_4
100
AcDbLine
 10
-0.1974265873000162
 20
1.407601554600009
 30
0.0
 11
-0.19130483600003
 21
1.395947754500017
 31
0.0
  0
LINE
  5
16F
330
EE
100
AcDbEntity
  8
AM_4
100
AcDbLine
 10
0.09335677
 20
1.46587055
 30
0.0
 11
0.09335677
 21
1.422168804699996
 31
0.0
  0
LINE
  5
170
330
EE
100
AcDbEntity
  8
AM_4
100
AcDbLine
 10
0.09335677
 20
1.422168804699996
 30
0.0
 11
0.09641765
 21
1.407601554600009
 31
0.0
  0
LINE
  5
171
330
EE
100
AcDbEntity
  8
AM_4
100
AcDbLine
 10
0.09641765
 20
1.407601554600009
 30
0.0
 11
0.1025394
 21
1.395947754500017
 31
0.0
  0
LINE
  5
172
330
EE
100
AcDbEntity
  8
AM_4
100
AcDbLine
 10
0.1025394
 20
1.395947754500017
 30
0.0
 11
0.11478291
 21
1.384293959699991
 31
0.0
  0
LINE
  5
173
330
EE
100
AcDbEntity
  8
AM_4
100
AcDbLine
 10
0.11478291
 20
1.384293959699991
 30
0.0
 11
0.12702642
 21
1.378467059599987
 31
0.0
  0
LINE
  5
174
330
EE
100
AcDbEntity
  8
AM_4
100
AcDbLine
 10
0.12702642
 20
1.378467059599987
 30
0.0
 11
0.14233081
 21
1.375553609599993
 31
0.0
  0
LINE
  5
175
330
EE
100
AcDbEntity
  8
AM_4
100
AcDbLine
 10
0.14233081
 20
1.375553609599993
 30
0.0
 11
0.1698787
 21
1.375553609599993
 31
0.0
  0
LINE
  5
176
330
EE
100
AcDbEntity
  8
AM_4
100
AcDbLine
 10
0.1698787
 20
1.375553609599993
 30
0.0
 11
0.18518309
 21
1.378467059599987
 31
0.0
  0
LINE
  5
177
330
EE
100
AcDbEntity
  8
AM_4
100
AcDbLine
 10
0.18518309
 20
1.378467059599987
 30
0.0
 11
0.19742659
 21
1.384293959699991
 31
0.0
  0
LINE
  5
178
330
EE
100
AcDbEntity
  8
AM_4
100
AcDbLine
 10
0.19742659
 20
1.384293959699991
 30
0.0
 11
0.20967012
 21
1.395947754500017
 31
0.0
  0
LINE
  5
179
330
EE
100
AcDbEntity
  8
AM_4
100
AcDbLine
 10
0.20967012
 20
1.395947754500017
 30
0.0
 11
0.21273099
 21
1.407601554600009
 31
0.0
  0
LINE
  5
17A
330
EE
100
AcDbEntity
  8
AM_4
100
AcDbLine
 10
0.21273099
 20
1.407601554600009
 30
0.0
 11
0.21273099
 21
1.4513033
 31
0.0
  0
LINE
  5
17B
330
EE
100
AcDbEntity
  8
AM_4
100
AcDbLine
 10
0.21273099
 20
1.4513033
 30
0.0
 11
0.16681783
 21
1.4513033
 31
0.0
  0
LINE
  5
17C
330
EE
100
AcDbEntity
  8
AM_4
100
AcDbLine
 10
0.16681783
 20
1.4513033
 30
0.0
 11
0.16681783
 21
1.433822604200006
 31
0.0
  0
LINE
  5
17D
330
EE
100
AcDbEntity
  8
AM_4
100
AcDbLine
 10
0.16681783
 20
1.433822604200006
 30
0.0
 11
0.19436572
 21
1.433822604200006
 31
0.0
  0
LINE
  5
17E
330
EE
100
AcDbEntity
  8
AM_4
100
AcDbLine
 10
0.19436572
 20
1.433822604200006
 30
0.0
 11
0.19436572
 21
1.410515004600004
 31
0.0
  0
LINE
  5
17F
330
EE
100
AcDbEntity
  8
AM_4
100
AcDbLine
 10
0.19436572
 20
1.410515004600004
 30
0.0
 11
0.19130484
 21
1.40177465720001
 31
0.0
  0
LINE
  5
180
330
EE
100
AcDbEntity
  8
AM_4
100
AcDbLine
 10
0.19130484
 20
1.40177465720001
 30
0.0
 11
0.18212221
 21
1.395947754500017
 31
0.0
  0
LINE
  5
181
330
EE
100
AcDbEntity
  8
AM_4
100
AcDbLine
 10
0.18212221
 20
1.395947754500017
 30
0.0
 11
0.1698787
 21
1.393034304400007
 31
0.0
  0
LINE
  5
182
330
EE
100
AcDbEntity
  8
AM_4
100
AcDbLine
 10
0.1698787
 20
1.393034304400007
 30
0.0
 11
0.14233081
 21
1.393034304400007
 31
0.0
  0
LINE
  5
183
330
EE
100
AcDbEntity
  8
AM_4
100
AcDbLine
 10
0.14233081
 20
1.393034304400007
 30
0.0
 11
0.13008729
 21
1.395947754500017
 31
0.0
  0
LINE
  5
184
330
EE
100
AcDbEntity
  8
AM_4
100
AcDbLine
 10
0.13008729
 20
1.395947754500017
 30
0.0
 11
0.12090467
 21
1.40177465720001
 31
0.0
  0
LINE
  5
185
330
EE
100
AcDbEntity
  8
AM_4
100
AcDbLine
 10
0.12090467
 20
1.40177465720001
 30
0.0
 11
0.11478291
 21
1.410515004600004
 31
0.0
  0
LINE
  5
186
330
EE
100
AcDbEntity
  8
AM_4
100
AcDbLine
 10
0.11478291
 20
1.410515004600004
 30
0.0
 11
0.11172203
 21
1.422168804699996
 31
0.0
  0
LINE
  5
187
330
EE
100
AcDbEntity
  8
AM_4
100
AcDbLine
 10
0.11172203
 20
1.422168804699996
 30
0.0
 11
0.11172203
 21
1.46587055
 31
0.0
  0
LINE
  5
188
330
EE
100
AcDbEntity
  8
AM_4
100
AcDbLine
 10
0.11172203
 20
1.46587055
 30
0.0
 11
0.11478291
 21
1.47752435
 31
0.0
  0
LINE
  5
189
330
EE
100
AcDbEntity
  8
AM_4
100
AcDbLine
 10
0.11478291
 20
1.47752435
 30
0.0
 11
0.12090467
 21
1.4862647
 31
0.0
  0
LINE
  5
18A
330
EE
100
AcDbEntity
  8
AM_4
100
AcDbLine
 10
-0.19130483600003
 20
1.4920916
 30
0.0
 11
-0.1974265873000162
 21
1.4804378
 31
0.0
  0
LINE
  5
18B
330
EE
100
AcDbEntity
  8
AM_4
100
AcDbLine
 10
0.14233081
 20
1.51248575
 30
0.0
 11
0.12702642
 21
1.5095723
 31
0.0
  0
LINE
  5
18C
330
EE
100
AcDbEntity
  8
AM_4
100
AcDbLine
 10
0.12702642
 20
1.5095723
 30
0.0
 11
0.11478291
 21
1.5037454
 31
0.0
  0
LINE
  5
18D
330
EE
100
AcDbEntity
  8
AM_4
100
AcDbLine
 10
-0.258644143400034
 20
1.378467059599987
 30
0.0
 11
-0.2464006193000068
 21
1.384293959699991
 31
0.0
  0
LINE
  5
18E
330
EE
100
AcDbEntity
  8
AM_4
100
AcDbLine
 10
-0.2464006193000068
 20
1.384293959699991
 30
0.0
 11
-0.234157116700034
 21
1.395947754500017
 31
0.0
  0
LINE
  5
18F
330
EE
100
AcDbEntity
  8
AM_4
100
AcDbLine
 10
-0.234157116700034
 20
1.395947754500017
 30
0.0
 11
-0.2280353653999914
 21
1.407601554600009
 31
0.0
  0
LINE
  5
190
330
EE
100
AcDbEntity
  8
AM_4
100
AcDbLine
 10
-0.2280353653999914
 20
1.407601554600009
 30
0.0
 11
-0.2249744897000611
 21
1.422168804699996
 31
0.0
  0
LINE
  5
191
330
EE
100
AcDbEntity
  8
AM_4
100
AcDbLine
 10
-0.2249744897000611
 20
1.422168804699996
 30
0.0
 11
-0.2249744897000611
 21
1.46587055
 31
0.0
  0
LINE
  5
192
330
EE
100
AcDbEntity
  8
AM_4
100
AcDbLine
 10
0.34740959
 20
1.375553609599993
 30
0.0
 11
0.34740959
 21
1.393034304400007
 31
0.0
  0
LINE
  5
193
330
EE
100
AcDbEntity
  8
AM_4
100
AcDbLine
 10
0.34740959
 20
1.393034304400007
 30
0.0
 11
0.25558328
 21
1.393034304400007
 31
0.0
  0
LINE
  5
194
330
EE
100
AcDbEntity
  8
AM_4
100
AcDbLine
 10
0.25558328
 20
1.393034304400007
 30
0.0
 11
0.25558328
 21
1.439649503599983
 31
0.0
  0
LINE
  5
195
330
EE
100
AcDbEntity
  8
AM_4
100
AcDbLine
 10
0.25558328
 20
1.439649503599983
 30
0.0
 11
0.33516609
 21
1.439649503599983
 31
0.0
  0
LINE
  5
196
330
EE
100
AcDbEntity
  8
AM_4
100
AcDbLine
 10
0.33516609
 20
1.439649503599983
 30
0.0
 11
0.33516609
 21
1.4571302
 31
0.0
  0
LINE
  5
197
330
EE
100
AcDbEntity
  8
AM_4
100
AcDbLine
 10
0.33516609
 20
1.4571302
 30
0.0
 11
0.25558328
 21
1.4571302
 31
0.0
  0
LINE
  5
198
330
EE
100
AcDbEntity
  8
AM_4
100
AcDbLine
 10
0.25558328
 20
1.4571302
 30
0.0
 11
0.25558328
 21
1.49500505
 31
0.0
  0
LINE
  5
199
330
EE
100
AcDbEntity
  8
AM_4
100
AcDbLine
 10
0.25558328
 20
1.49500505
 30
0.0
 11
0.34740959
 21
1.49500505
 31
0.0
  0
LINE
  5
19A
330
EE
100
AcDbEntity
  8
AM_4
100
AcDbLine
 10
0.34740959
 20
1.49500505
 30
0.0
 11
0.34740959
 21
1.51248575
 31
0.0
  0
LINE
  5
19B
330
EE
100
AcDbEntity
  8
AM_4
100
AcDbLine
 10
0.34740959
 20
1.51248575
 30
0.0
 11
0.237218
 21
1.51248575
 31
0.0
  0
LINE
  5
19C
330
EE
100
AcDbEntity
  8
AM_4
100
AcDbLine
 10
-0.2586441434000339
 20
1.509572299999999
 30
0.0
 11
-0.2739485216999935
 21
1.51248575
 31
0.0
  0
LINE
  5
19D
330
EE
100
AcDbEntity
  8
AM_4
100
AcDbLine
 10
-0.0811132479000217
 20
1.4804378
 30
0.0
 11
-0.0872349992000083
 21
1.4920916
 31
0.0
  0
LINE
  5
19E
330
EE
100
AcDbEntity
  8
AM_4
100
AcDbLine
 10
-0.0872349992000083
 20
1.4920916
 30
0.0
 11
-0.0994785126000024
 21
1.5037454
 31
0.0
  0
LINE
  5
19F
330
EE
100
AcDbEntity
  8
AM_4
100
AcDbLine
 10
-0.0994785126000024
 20
1.5037454
 30
0.0
 11
-0.1117220152000316
 21
1.5095723
 31
0.0
  0
LINE
  5
1A0
330
EE
100
AcDbEntity
  8
AM_4
100
AcDbLine
 10
-0.1117220152000316
 20
1.5095723
 30
0.0
 11
-0.1270264042000257
 21
1.51248575
 31
0.0
  0
LINE
  5
1A1
330
EE
100
AcDbEntity
  8
AM_4
100
AcDbLine
 10
-0.1270264042000257
 20
1.51248575
 30
0.0
 11
-0.1515134310000146
 21
1.51248575
 31
0.0
  0
LINE
  5
1A2
330
EE
100
AcDbEntity
  8
AM_4
100
AcDbLine
 10
-0.1515134310000146
 20
1.51248575
 30
0.0
 11
-0.1668178092000414
 21
1.5095723
 31
0.0
  0
LINE
  5
1A3
330
EE
100
AcDbEntity
  8
AM_4
100
AcDbLine
 10
-0.19130483600003
 20
1.395947754500017
 30
0.0
 11
-0.1790613334000591
 21
1.384293959699991
 31
0.0
  0
LINE
  5
1A4
330
EE
100
AcDbEntity
  8
AM_4
100
AcDbLine
 10
-0.1790613334000591
 20
1.384293959699991
 30
0.0
 11
-0.1668178092000414
 21
1.378467059599987
 31
0.0
  0
LINE
  5
1A5
330
EE
100
AcDbEntity
  8
AM_4
100
AcDbLine
 10
-0.1668178092000414
 20
1.378467059599987
 30
0.0
 11
-0.1515134310000146
 21
1.375553609599993
 31
0.0
  0
LINE
  5
1A6
330
EE
100
AcDbEntity
  8
AM_4
100
AcDbLine
 10
-0.1515134310000146
 20
1.375553609599993
 30
0.0
 11
-0.1270264042000257
 21
1.375553609599993
 31
0.0
  0
LINE
  5
1A7
330
EE
100
AcDbEntity
  8
AM_4
100
AcDbLine
 10
-0.1270264042000257
 20
1.375553609599993
 30
0.0
 11
-0.1117220152000316
 21
1.378467059599987
 31
0.0
  0
LINE
  5
1A8
330
EE
100
AcDbEntity
  8
AM_4
100
AcDbLine
 10
-0.1117220152000316
 20
1.378467059599987
 30
0.0
 11
-0.0994785126000024
 21
1.384293959699991
 31
0.0
  0
LINE
  5
1A9
330
EE
100
AcDbEntity
  8
AM_4
100
AcDbLine
 10
-0.0994785126000024
 20
1.384293959699991
 30
0.0
 11
-0.0872349992000083
 21
1.395947754500017
 31
0.0
  0
LINE
  5
1AA
330
EE
100
AcDbEntity
  8
AM_4
100
AcDbLine
 10
-0.0872349992000083
 20
1.395947754500017
 30
0.0
 11
-0.0811132479000217
 21
1.407601554600009
 31
0.0
  0
LINE
  5
1AB
330
EE
100
AcDbEntity
  8
AM_4
100
AcDbLine
 10
-0.0811132479000217
 20
1.407601554600009
 30
0.0
 11
-0.0780523722000355
 21
1.422168804699996
 31
0.0
  0
LINE
  5
1AC
330
EE
100
AcDbEntity
  8
AM_4
100
AcDbLine
 10
-0.0780523722000355
 20
1.422168804699996
 30
0.0
 11
-0.0780523722000355
 21
1.46587055
 31
0.0
  0
LINE
  5
1AD
330
EE
100
AcDbEntity
  8
AM_4
100
AcDbLine
 10
-0.0780523722000355
 20
1.46587055
 30
0.0
 11
-0.0811132479000217
 21
1.4804378
 31
0.0
  0
LINE
  5
1AE
330
EE
100
AcDbEntity
  8
AM_4
100
AcDbLine
 10
0.237218
 20
1.375553609599993
 30
0.0
 11
0.34740959
 21
1.375553609599993
 31
0.0
  0
LINE
  5
1AF
330
EE
100
AcDbEntity
  8
AM_4
100
AcDbLine
 10
0.04744361
 20
1.384293959699991
 30
0.0
 11
0.05968711
 21
1.395947754500017
 31
0.0
  0
LINE
  5
1B0
330
EE
100
AcDbEntity
  8
AM_4
100
AcDbLine
 10
0.1698787
 20
1.51248575
 30
0.0
 11
0.14233081
 21
1.51248575
 31
0.0
  0
LINE
  5
1B1
330
EE
100
AcDbEntity
  8
AM_4
100
AcDbLine
 10
-0.1668178092000414
 20
1.5095723
 30
0.0
 11
-0.1790613334000591
 21
1.5037454
 31
0.0
  0
LINE
  5
1B2
330
EE
100
AcDbEntity
  8
AM_4
100
AcDbLine
 10
-0.1790613334000591
 20
1.5037454
 30
0.0
 11
-0.19130483600003
 21
1.4920916
 31
0.0
  0
LINE
  5
1B3
330
EE
100
AcDbEntity
  8
AM_4
100
AcDbLine
 10
0.0352001
 20
1.378467059599987
 30
0.0
 11
0.04744361
 21
1.384293959699991
 31
0.0
  0
LINE
  5
1B4
330
EE
100
AcDbEntity
  8
AM_4
100
AcDbLine
 10
0.237218
 20
1.51248575
 30
0.0
 11
0.237218
 21
1.375553609599993
 31
0.0
  0
LINE
  5
1B5
330
EE
100
AcDbEntity
  8
AM_4
100
AcDbLine
 10
0.01989571
 20
1.375553609599993
 30
0.0
 11
0.0352001
 21
1.378467059599987
 31
0.0
  0
LINE
  5
1B6
330
EE
100
AcDbEntity
  8
AM_4
100
AcDbLine
 10
0.1025394000000001
 20
1.4920916
 30
0.0
 11
0.09641765
 21
1.4804378
 31
0.0
  0
LINE
  5
1B7
330
EE
100
AcDbEntity
  8
AM_4
100
AcDbLine
 10
-0.0535653508999878
 20
1.375553609599993
 30
0.0
 11
0.01989571
 21
1.375553609599993
 31
0.0
  0
LINE
  5
1B8
330
EE
100
AcDbEntity
  8
AM_4
100
AcDbLine
 10
-0.0535653508999878
 20
1.51248575
 30
0.0
 11
-0.0535653508999878
 21
1.375553609599993
 31
0.0
  0
LINE
  5
1B9
330
EE
100
AcDbEntity
  8
AM_4
100
AcDbLine
 10
0.11478291
 20
1.5037454
 30
0.0
 11
0.1025394000000001
 21
1.4920916
 31
0.0
  0
CIRCLE
  5
1BA
330
EE
100
AcDbEntity
  8
AM_4
100
AcDbCircle
 10
0.0
 20
0.0
 30
0.0
 40
1.22045
  0
LINE
  5
1BB
330
EE
100
AcDbEntity
  8
AM_4
100
AcDbLine
 10
-0.6438033203000003
 20
-1.6015
 30
0.0
 11
0.6438033203000002
 21
-1.6015
 31
0.0
  0
LINE
  5
1BC
330
EE
100
AcDbEntity
  8
AM_4
100
AcDbLine
 10
1.534222562193695
 20
0.7110807581063056
 30
0.0
 11
0.6438033203000002
 21
1.6015
 31
0.0
  0
LINE
  5
1BD
330
EE
100
AcDbEntity
  8
AM_4
100
AcDbLine
 10
-0.6438033203000003
 20
1.6015
 30
0.0
 11
-1.534222562193694
 21
0.7110807581063056
 31
0.0
  0
ARC
  5
1BE
330
EE
100
AcDbEntity
  8
AM_4
100
AcDbCircle
 10
-1.3718004594
 20
0.5486586553126108
 30
0.0
 40
0.2296995405999998
100
AcDbArc
 50
134.9999999999999
 51
179.9999991462263
  0
LINE
  5
1BF
330
EE
100
AcDbEntity
  8
AM_4
100
AcDbLine
 10
0.6438033203000002
 20
1.6015
 30
0.0
 11
-0.6438033203000003
 21
1.6015
 31
0.0
  0
LINE
  5
1C0
330
EE
100
AcDbEntity
  8
AM_4
100
AcDbLine
 10
0.6438033203000002
 20
-1.6015
 30
0.0
 11
1.534222562193694
 21
-0.7110807581063056
 31
0.0
  0
ARC
  5
1C1
330
EE
100
AcDbEntity
  8
AM_4
100
AcDbCircle
 10
1.371800459399998
 20
0.5486586553126102
 30
0.0
 40
0.229699540600002
100
AcDbArc
 50
0.0
 51
44.99999999999977
  0
LINE
  5
1C2
330
EE
100
AcDbEntity
  8
AM_4
100
AcDbLine
 10
-1.534222562193695
 20
-0.7110807581063054
 30
0.0
 11
-0.6438033203000003
 21
-1.6015
 31
0.0
  0
ARC
  5
1C3
330
EE
100
AcDbEntity
  8
AM_4
100
AcDbCircle
 10
1.3718004594
 20
-0.5486586553126107
 30
0.0
 40
0.2296995406000001
100
AcDbArc
 50
314.9999999999999
 51
0.0
  0
LINE
  5
1C4
330
EE
100
AcDbEntity
  8
AM_4
100
AcDbLine
 10
-1.6015
 20
0.5486586553126108
 30
0.0
 11
-1.6015
 21
-0.5486586553126108
 31
0.0
  0
ARC
  5
1C5
330
EE
100
AcDbEntity
  8
AM_4
100
AcDbCircle
 10
-1.371800459399998
 20
-0.5486586553126102
 30
0.0
 40
0.2296995406000018
100
AcDbArc
 50
180.0
 51
224.9999999999998
  0
LINE
  5
1C6
330
EE
100
AcDbEntity
  8
AM_4
100
AcDbLine
 10
1.6015
 20
-0.5486586553126108
 30
0.0
 11
1.6015
 21
0.5486586553126106
 31
0.0
  0
LINE
  5
1C7
330
EE
100
AcDbEntity
  8
AM_4
100
AcDbLine
 10
-0.3290443050000261
 20
1.49500505
 30
0.0
 11
-0.3290443050000261
 21
1.393034304400007
 31
0.0
  0
LINE
  5
1C8
330
EE
100
AcDbEntity
  8
AM_4
100
AcDbLine
 10
-0.2739485216999935
 20
1.49500505
 30
0.0
 11
-0.3290443050000261
 21
1.49500505
 31
0.0
  0
LINE
  5
1C9
330
EE
100
AcDbEntity
  8
AM_4
100
AcDbLine
 10
-0.2617050191000226
 20
1.4920916
 30
0.0
 11
-0.2739485216999935
 21
1.49500505
 31
0.0
  0
LINE
  5
1CA
330
EE
100
AcDbEntity
  8
AM_4
100
AcDbLine
 10
-0.2525223706000493
 20
1.4862647
 30
0.0
 11
-0.2617050191000226
 21
1.4920916
 31
0.0
  0
LINE
  5
1CB
330
EE
100
AcDbEntity
  8
AM_4
100
AcDbLine
 10
-0.2464006193000068
 20
1.47752435
 30
0.0
 11
-0.2525223706000493
 21
1.4862647
 31
0.0
  0
LINE
  5
1CC
330
EE
100
AcDbEntity
  8
AM_4
100
AcDbLine
 10
-0.2433397436000182
 20
1.46587055
 30
0.0
 11
-0.2464006193000068
 21
1.47752435
 31
0.0
  0
LINE
  5
1CD
330
EE
100
AcDbEntity
  8
AM_4
100
AcDbLine
 10
-0.2433397436000182
 20
1.422168804699996
 30
0.0
 11
-0.2433397436000182
 21
1.46587055
 31
0.0
  0
LINE
  5
1CE
330
EE
100
AcDbEntity
  8
AM_4
100
AcDbLine
 10
-0.2464006193000068
 20
1.410515004600004
 30
0.0
 11
-0.2433397436000182
 21
1.422168804699996
 31
0.0
  0
LINE
  5
1CF
330
EE
100
AcDbEntity
  8
AM_4
100
AcDbLine
 10
-0.2525223706000493
 20
1.40177465720001
 30
0.0
 11
-0.2464006193000068
 21
1.410515004600004
 31
0.0
  0
LINE
  5
1D0
330
EE
100
AcDbEntity
  8
AM_4
100
AcDbLine
 10
-0.2617050191000226
 20
1.395947754500017
 30
0.0
 11
-0.2525223706000493
 21
1.40177465720001
 31
0.0
  0
LINE
  5
1D1
330
EE
100
AcDbEntity
  8
AM_4
100
AcDbLine
 10
-0.2739485216999935
 20
1.393034304400008
 30
0.0
 11
-0.2617050191000226
 21
1.395947754500017
 31
0.0
  0
LINE
  5
1D2
330
EE
100
AcDbEntity
  8
AM_4
100
AcDbLine
 10
-0.3290443050000261
 20
1.393034304400007
 30
0.0
 11
-0.2739485216999935
 21
1.393034304400008
 31
0.0
  0
LINE
  5
1D3
330
EE
100
AcDbEntity
  8
AM_4
100
AcDbLine
 10
-0.0964176369000162
 20
1.46587055
 30
0.0
 11
-0.0994785126000024
 21
1.47752435
 31
0.0
  0
LINE
  5
1D4
330
EE
100
AcDbEntity
  8
AM_4
100
AcDbLine
 10
-0.0964176369000162
 20
1.422168804699996
 30
0.0
 11
-0.0964176369000162
 21
1.46587055
 31
0.0
  0
LINE
  5
1D5
330
EE
100
AcDbEntity
  8
AM_4
100
AcDbLine
 10
-0.0994785126000024
 20
1.410515004600004
 30
0.0
 11
-0.0964176369000162
 21
1.422168804699996
 31
0.0
  0
LINE
  5
1D6
330
EE
100
AcDbEntity
  8
AM_4
100
AcDbLine
 10
-0.1056002639000449
 20
1.40177465720001
 30
0.0
 11
-0.0994785126000024
 21
1.410515004600004
 31
0.0
  0
LINE
  5
1D7
330
EE
100
AcDbEntity
  8
AM_4
100
AcDbLine
 10
-0.1147829015999969
 20
1.395947754500017
 30
0.0
 11
-0.1056002639000449
 21
1.40177465720001
 31
0.0
  0
LINE
  5
1D8
330
EE
100
AcDbEntity
  8
AM_4
100
AcDbLine
 10
-0.1270264042000257
 20
1.393034304400007
 30
0.0
 11
-0.1147829015999969
 21
1.395947754500017
 31
0.0
  0
LINE
  5
1D9
330
EE
100
AcDbEntity
  8
AM_4
100
AcDbLine
 10
-0.1515134310000146
 20
1.393034304400007
 30
0.0
 11
-0.1270264042000257
 21
1.393034304400007
 31
0.0
  0
LINE
  5
1DA
330
EE
100
AcDbEntity
  8
AM_4
100
AcDbLine
 10
-0.1637569336000434
 20
1.395947754500017
 30
0.0
 11
-0.1515134310000146
 21
1.393034304400007
 31
0.0
  0
LINE
  5
1DB
330
EE
100
AcDbEntity
  8
AM_4
100
AcDbLine
 10
-0.1729395605000277
 20
1.40177465720001
 30
0.0
 11
-0.1637569336000434
 21
1.395947754500017
 31
0.0
  0
LINE
  5
1DC
330
EE
100
AcDbEntity
  8
AM_4
100
AcDbLine
 10
-0.1790613334000591
 20
1.410515004600004
 30
0.0
 11
-0.1729395605000277
 21
1.40177465720001
 31
0.0
  0
LINE
  5
1DD
330
EE
100
AcDbEntity
  8
AM_4
100
AcDbLine
 10
-0.1821222090000573
 20
1.422168804699996
 30
0.0
 11
-0.1790613334000591
 21
1.410515004600004
 31
0.0
  0
LINE
  5
1DE
330
EE
100
AcDbEntity
  8
AM_4
100
AcDbLine
 10
-0.1821222090000572
 20
1.46587055
 30
0.0
 11
-0.1821222090000573
 21
1.422168804699996
 31
0.0
  0
LINE
  5
1DF
330
EE
100
AcDbEntity
  8
AM_4
100
AcDbLine
 10
-0.1637569336000434
 20
1.4920916
 30
0.0
 11
-0.1729395605000277
 21
1.4862647
 31
0.0
  0
LINE
  5
1E0
330
EE
100
AcDbEntity
  8
AM_4
100
AcDbLine
 10
-0.1515134310000146
 20
1.49500505
 30
0.0
 11
-0.1637569336000434
 21
1.4920916
 31
0.0
  0
LINE
  5
1E1
330
EE
100
AcDbEntity
  8
AM_4
100
AcDbLine
 10
-0.1270264042000257
 20
1.49500505
 30
0.0
 11
-0.1515134310000146
 21
1.49500505
 31
0.0
  0
LINE
  5
1E2
330
EE
100
AcDbEntity
  8
AM_4
100
AcDbLine
 10
-0.1147829015999969
 20
1.4920916
 30
0.0
 11
-0.1270264042000257
 21
1.49500505
 31
0.0
  0
LINE
  5
1E3
330
EE
100
AcDbEntity
  8
AM_4
100
AcDbLine
 10
-0.1790613334000591
 20
1.47752435
 30
0.0
 11
-0.1821222090000572
 21
1.46587055
 31
0.0
  0
LINE
  5
1E4
330
EE
100
AcDbEntity
  8
AM_4
100
AcDbLine
 10
-0.1729395605000277
 20
1.4862647
 30
0.0
 11
-0.1790613334000591
 21
1.47752435
 31
0.0
  0
LINE
  5
1E5
330
EE
100
AcDbEntity
  8
AM_4
100
AcDbLine
 10
-0.0994785126000024
 20
1.47752435
 30
0.0
 11
-0.1056002639000449
 21
1.4862647
 31
0.0
  0
LINE
  5
1E6
330
EE
100
AcDbEntity
  8
AM_4
100
AcDbLine
 10
-0.1056002639000449
 20
1.4862647
 30
0.0
 11
-0.1147829015999969
 21
1.4920916
 31
0.0
  0
LINE
  5
1E7
330
EE
100
AcDbEntity
  8
AM_4
100
AcDbLine
 10
0.03213922
 20
1.4920916
 30
0.0
 11
0.01989571
 21
1.49500505
 31
0.0
  0
LINE
  5
1E8
330
EE
100
AcDbEntity
  8
AM_4
100
AcDbLine
 10
0.01989571
 20
1.49500505
 30
0.0
 11
-0.035200086200065
 21
1.49500505
 31
0.0
  0
LINE
  5
1E9
330
EE
100
AcDbEntity
  8
AM_4
100
AcDbLine
 10
-0.035200086200065
 20
1.49500505
 30
0.0
 11
-0.035200086200065
 21
1.393034304400007
 31
0.0
  0
LINE
  5
1EA
330
EE
100
AcDbEntity
  8
AM_4
100
AcDbLine
 10
0.04132185
 20
1.4862647
 30
0.0
 11
0.03213922
 21
1.4920916
 31
0.0
  0
LINE
  5
1EB
330
EE
100
AcDbEntity
  8
AM_4
100
AcDbLine
 10
0.04744361
 20
1.47752435
 30
0.0
 11
0.04132185
 21
1.4862647
 31
0.0
  0
LINE
  5
1EC
330
EE
100
AcDbEntity
  8
AM_4
100
AcDbLine
 10
0.05050448
 20
1.46587055
 30
0.0
 11
0.04744361
 21
1.47752435
 31
0.0
  0
LINE
  5
1ED
330
EE
100
AcDbEntity
  8
AM_4
100
AcDbLine
 10
0.05050448
 20
1.422168804699996
 30
0.0
 11
0.05050448
 21
1.46587055
 31
0.0
  0
LINE
  5
1EE
330
EE
100
AcDbEntity
  8
AM_4
100
AcDbLine
 10
0.04744361
 20
1.410515004600004
 30
0.0
 11
0.05050448
 21
1.422168804699996
 31
0.0
  0
LINE
  5
1EF
330
EE
100
AcDbEntity
  8
AM_4
100
AcDbLine
 10
0.04132185
 20
1.40177465720001
 30
0.0
 11
0.04744361
 21
1.410515004600004
 31
0.0
  0
LINE
  5
1F0
330
EE
100
AcDbEntity
  8
AM_4
100
AcDbLine
 10
0.03213922
 20
1.395947754500017
 30
0.0
 11
0.04132185
 21
1.40177465720001
 31
0.0
  0
LINE
  5
1F1
330
EE
100
AcDbEntity
  8
AM_4
100
AcDbLine
 10
0.0198957099999999
 20
1.393034304400008
 30
0.0
 11
0.03213922
 21
1.395947754500017
 31
0.0
  0
LINE
  5
1F2
330
EE
100
AcDbEntity
  8
AM_4
100
AcDbLine
 10
-0.035200086200065
 20
1.393034304400007
 30
0.0
 11
0.0198957099999999
 21
1.393034304400008
 31
0.0
  0
ENDBLK
  5
F1
330
EE
100
AcDbEntity
  8
0
100
AcDbBlockEnd
  0
ENDSEC
  0
SECTION
  2
ENTITIES
  0
INSERT
  5
6F
330
1F
100
AcDbEntity
  8
0
100
AcDbBlockReference
  2
1_129344_0
 10
0.0
 20
0.0
 30
0.0
  0
POINT
  5
1F4
330
1F
100
AcDbEntity
  8
ConnectionPoints
100
AcDbPoint
 10
0.0000000000000001
 20
0.0
 30
0.75025
  0
POINT
  5
1F5
330
1F
100
AcDbEntity
  8
ConnectionPoints
100
AcDbPoint
 10
0.0000000000000001
 20
0.0
 30
0.219
  0
POINT
  5
1F6
330
1F
100
AcDbEntity
  8
ConnectionPoints
100
AcDbPoint
 10
0.0
 20
0.0
 30
0.219
  0
ENDSEC
  0
SECTION
  2
OBJECTS
  0
DICTIONARY
  5
C
330
0
100
AcDbDictionary
281
     1
  3
ACAD_DETAILVIEWSTYLE
350
1FE
  3
ACAD_GROUP
350
D
  3
ACAD_LAYOUT
350
1A
  3
ACAD_MATERIAL
350
43
  3
ACAD_MLEADERSTYLE
350
6B
  3
ACAD_MLINESTYLE
350
17
  3
ACAD_PLOTSETTINGS
350
19
  3
ACAD_PLOTSTYLENAME
350
E
  3
ACAD_SCALELIST
350
47
  3
ACAD_SECTIONVIEWSTYLE
350
1FF
  3
ACAD_TABLESTYLE
350
69
  3
ACAD_VISUALSTYLE
350
2A
  3
ACDB_RECOMPOSE_DATA
350
1FB
  3
AcDbVariableDictionary
350
1F7
  0
SUN
  5
6D
330
29
100
AcDbSun
 90
        1
290
     0
 63
     7
421
 16777215
 40
1.0
291
     1
 91
  2455826
 92
 54000000
292
     0
 70
     2
 71
   256
280
     1
  0
DICTIONARY
  5
1FE
102
{ACAD_REACTORS
330
C
102
}
330
C
100
AcDbDictionary
281
     1
  0
DICTIONARY
  5
D
102
{ACAD_REACTORS
330
C
102
}
330
C
100
AcDbDictionary
281
     1
  0
DICTIONARY
  5
1A
102
{ACAD_REACTORS
330
C
102
}
330
C
100
AcDbDictionary
281
     1
  3
Layout1
350
1E
  3
Layout2
350
26
  3
Model
350
22
  0
DICTIONARY
  5
43
102
{ACAD_REACTORS
330
C
102
}
330
C
100
AcDbDictionary
281
     1
  3
ByBlock
350
45
  3
ByLayer
350
44
  3
Global
350
46
  0
DICTIONARY
  5
6B
102
{ACAD_REACTORS
330
C
102
}
330
C
100
AcDbDictionary
281
     1
  3
Standard
350
6C
  0
DICTIONARY
  5
17
102
{ACAD_REACTORS
330
C
102
}
330
C
100
AcDbDictionary
281
     1
  3
Standard
350
18
  0
DICTIONARY
  5
19
102
{ACAD_REACTORS
330
C
102
}
330
C
100
AcDbDictionary
281
     1
  0
ACDBDICTIONARYWDFLT
  5
E
102
{ACAD_REACTORS
330
C
102
}
330
C
100
AcDbDictionary
281
     1
  3
Normal
350
F
100
AcDbDictionaryWithDefault
340
F
  0
DICTIONARY
  5
47
102
{ACAD_REACTORS
330
C
102
}
330
C
100
AcDbDictionary
281
     1
  3
A0
350
48
  3
A1
350
49
  3
A2
350
4A
  3
A3
350
4B
  3
A4
350
4C
  3
A5
350
4D
  3
A6
350
4E
  3
A7
350
4F
  3
A8
350
50
  3
A9
350
51
  3
B0
350
52
  3
B1
350
53
  3
B2
350
54
  3
B3
350
55
  3
B4
350
56
  3
B5
350
57
  3
B6
350
58
  3
B7
350
59
  3
B8
350
5A
  3
B9
350
5B
  3
C0
350
5C
  3
C1
350
5D
  3
C2
350
5E
  3
C3
350
5F
  3
C4
350
60
  3
C5
350
61
  3
C6
350
62
  3
C7
350
63
  3
C8
350
64
  3
C9
350
65
  3
D0
350
66
  3
D1
350
67
  3
D2
350
68
  0
DICTIONARY
  5
1FF
102
{ACAD_REACTORS
330
C
102
}
330
C
100
AcDbDictionary
281
     1
  0
DICTIONARY
  5
69
102
{ACAD_REACTORS
330
C
102
}
330
C
100
AcDbDictionary
281
     1
  3
Standard
350
6A
  0
DICTIONARY
  5
2A
102
{ACAD_REACTORS
330
C
102
}
330
C
100
AcDbDictionary
281
     1
  3
2dWireframe
350
2F
  3
Basic
350
32
  3
Brighten
350
36
  3
ColorChange
350
3A
  3
Conceptual
350
34
  3
Dim
350
35
  3
EdgeColorOff
350
3D
  3
Facepattern
350
39
  3
Flat
350
2B
  3
FlatWithEdges
350
2C
  3
Gouraud
350
2D
  3
GouraudWithEdges
350
2E
  3
Hidden
350
31
  3
JitterOff
350
3B
  3
Linepattern
350
38
  3
OverhangOff
350
3C
  3
Realistic
350
33
  3
Shaded
350
42
  3
Shaded with edges
350
41
  3
Shades of Gray
350
3E
  3
Sketchy
350
3F
  3
Thicken
350
37
  3
Wireframe
350
30
  3
X-Ray
350
40
  0
XRECORD
  5
1FB
102
{ACAD_REACTORS
330
C
102
}
330
C
100
AcDbXrecord
280
     1
 90
        1
330
6A
  0
DICTIONARY
  5
1F7
102
{ACAD_REACTORS
330
C
102
}
330
C
100
AcDbDictionary
281
     1
  3
CANNOSCALE
350
1F8
  3
CMLEADERSTYLE
350
1FD
  3
CTABLESTYLE
350
1FC
  0
LAYOUT
  5
1E
102
{ACAD_REACTORS
330
1A
102
}
330
1A
100
AcDbPlotSettings
  1

  2
none_device
  4

  6

 40
0.0
 41
0.0
 42
0.0
 43
0.0
 44
0.0
 45
0.0
 46
0.0
 47
0.0
 48
0.0
 49
0.0
140
0.0
141
0.0
142
1.0
143
1.0
 70
   688
 72
     0
 73
     0
 74
     5
  7

 75
    16
 76
     0
 77
     2
 78
   300
147
1.0
148
0.0
149
0.0
100
AcDbLayout
  1
Layout1
 70
     1
 71
     1
 10
0.0
 20
0.0
 11
12.0
 21
9.0
 12
0.0
 22
0.0
 32
0.0
 14
1.000000000000000E+20
 24
1.000000000000000E+20
 34
1.000000000000000E+20
 15
-1.000000000000000E+20
 25
-1.000000000000000E+20
 35
-1.000000000000000E+20
146
0.0
 13
0.0
 23
0.0
 33
0.0
 16
1.0
 26
0.0
 36
0.0
 17
0.0
 27
1.0
 37
0.0
 76
     0
330
1B
  0
LAYOUT
  5
26
102
{ACAD_REACTORS
330
1A
102
}
330
1A
100
AcDbPlotSettings
  1

  2
none_device
  4

  6

 40
0.0
 41
0.0
 42
0.0
 43
0.0
 44
0.0
 45
0.0
 46
0.0
 47
0.0
 48
0.0
 49
0.0
140
0.0
141
0.0
142
1.0
143
1.0
 70
   688
 72
     0
 73
     0
 74
     5
  7

 75
    16
 76
     0
 77
     2
 78
   300
147
1.0
148
0.0
149
0.0
100
AcDbLayout
  1
Layout2
 70
     1
 71
     2
 10
0.0
 20
0.0
 11
0.0
 21
0.0
 12
0.0
 22
0.0
 32
0.0
 14
0.0
 24
0.0
 34
0.0
 15
0.0
 25
0.0
 35
0.0
146
0.0
 13
0.0
 23
0.0
 33
0.0
 16
1.0
 26
0.0
 36
0.0
 17
0.0
 27
1.0
 37
0.0
 76
     0
330
23
  0
LAYOUT
  5
22
102
{ACAD_REACTORS
330
1A
102
}
330
1A
100
AcDbPlotSettings
  1

  2
none_device
  4
Letter_(8.50_x_11.00_Inches)
  6

 40
6.35
 41
6.35
 42
6.35000508
 43
6.35000508
 44
215.9
 45
279.4
 46
0.0
 47
0.0
 48
0.0
 49
0.0
140
0.0
141
0.0
142
1.0
143
1.0
 70
  1712
 72
     0
 73
     0
 74
     0
  7

 75
     0
 76
     0
 77
     2
 78
   300
147
1.0
148
0.0
149
0.0
100
AcDbLayout
  1
Model
 70
     1
 71
     0
 10
0.0
 20
0.0
 11
12.0
 21
9.0
 12
0.0
 22
0.0
 32
0.0
 14
1.000000000000000E+20
 24
1.000000000000000E+20
 34
1.000000000000000E+20
 15
-1.000000000000000E+20
 25
-1.000000000000000E+20
 35
-1.000000000000000E+20
146
0.0
 13
0.0
 23
0.0
 33
0.0
 16
1.0
 26
0.0
 36
0.0
 17
0.0
 27
1.0
 37
0.0
 76
     0
330
1F
331
29
  0
MATERIAL
  5
45
102
{ACAD_REACTORS
330
43
102
}
330
43
100
AcDbMaterial
  1
ByBlock
 72
     1
 94
      127
  0
MATERIAL
  5
44
102
{ACAD_REACTORS
330
43
102
}
330
43
100
AcDbMaterial
  1
ByLayer
 72
     1
 94
      127
  0
MATERIAL
  5
46
102
{ACAD_REACTORS
330
43
102
}
330
43
100
AcDbMaterial
  1
Global
 72
     1
 94
      127
  0
MLEADERSTYLE
  5
6C
102
{ACAD_REACTORS
330
6B
102
}
330
6B
100
AcDbMLeaderStyle
179
     2
170
     2
171
     1
172
     0
 90
        2
 40
0.0
 41
0.0
173
     1
 91
-1056964608
340
14
 92
       -2
290
     1
 42
0.09
291
     1
 43
0.36
  3
Standard
341
0
 44
0.18
300

342
11
174
     1
178
     6
175
     1
176
     0
 93
-1056964608
 45
0.18
292
     0
297
     0
 46
0.18
343
0
 94
-1056964608
 47
1.0
 49
1.0
140
1.0
293
     1
141
0.0
294
     1
177
     0
142
1.0
295
     0
296
     0
143
0.125
271
     0
272
     9
273
     9
298
     0
  0
MLINESTYLE
  5
18
102
{ACAD_REACTORS
330
17
102
}
330
17
100
AcDbMlineStyle
  2
Standard
 70
     0
  3

 62
   256
 51
90.0
 52
90.0
 71
     2
 49
0.5
 62
   256
  6
BYLAYER
 49
-0.5
 62
   256
  6
BYLAYER
  0
ACDBPLACEHOLDER
  5
F
102
{ACAD_REACTORS
330
E
102
}
330
E
  0
SCALE
  5
48
102
{ACAD_REACTORS
330
47
102
}
330
47
100
AcDbScale
 70
     0
300
1:1
140
1.0
141
1.0
290
     1
  0
SCALE
  5
49
102
{ACAD_REACTORS
330
47
102
}
330
47
100
AcDbScale
 70
     0
300
1:2
140
1.0
141
2.0
290
     0
  0
SCALE
  5
4A
102
{ACAD_REACTORS
330
47
102
}
330
47
100
AcDbScale
 70
     0
300
1:4
140
1.0
141
4.0
290
     0
  0
SCALE
  5
4B
102
{ACAD_REACTORS
330
47
102
}
330
47
100
AcDbScale
 70
     0
300
1:5
140
1.0
141
5.0
290
     0
  0
SCALE
  5
4C
102
{ACAD_REACTORS
330
47
102
}
330
47
100
AcDbScale
 70
     0
300
1:8
140
1.0
141
8.0
290
     0
  0
SCALE
  5
4D
102
{ACAD_REACTORS
330
47
102
}
330
47
100
AcDbScale
 70
     0
300
1:10
140
1.0
141
10.0
290
     0
  0
SCALE
  5
4E
102
{ACAD_REACTORS
330
47
102
}
330
47
100
AcDbScale
 70
     0
300
1:16
140
1.0
141
16.0
290
     0
  0
SCALE
  5
4F
102
{ACAD_REACTORS
330
47
102
}
330
47
100
AcDbScale
 70
     0
300
1:20
140
1.0
141
20.0
290
     0
  0
SCALE
  5
50
102
{ACAD_REACTORS
330
47
102
}
330
47
100
AcDbScale
 70
     0
300
1:30
140
1.0
141
30.0
290
     0
  0
SCALE
  5
51
102
{ACAD_REACTORS
330
47
102
}
330
47
100
AcDbScale
 70
     0
300
1:40
140
1.0
141
40.0
290
     0
  0
SCALE
  5
52
102
{ACAD_REACTORS
330
47
102
}
330
47
100
AcDbScale
 70
     0
300
1:50
140
1.0
141
50.0
290
     0
  0
SCALE
  5
53
102
{ACAD_REACTORS
330
47
102
}
330
47
100
AcDbScale
 70
     0
300
1:100
140
1.0
141
100.0
290
     0
  0
SCALE
  5
54
102
{ACAD_REACTORS
330
47
102
}
330
47
100
AcDbScale
 70
     0
300
2:1
140
2.0
141
1.0
290
     0
  0
SCALE
  5
55
102
{ACAD_REACTORS
330
47
102
}
330
47
100
AcDbScale
 70
     0
300
4:1
140
4.0
141
1.0
290
     0
  0
SCALE
  5
56
102
{ACAD_REACTORS
330
47
102
}
330
47
100
AcDbScale
 70
     0
300
8:1
140
8.0
141
1.0
290
     0
  0
SCALE
  5
57
102
{ACAD_REACTORS
330
47
102
}
330
47
100
AcDbScale
 70
     0
300
10:1
140
10.0
141
1.0
290
     0
  0
SCALE
  5
58
102
{ACAD_REACTORS
330
47
102
}
330
47
100
AcDbScale
 70
     0
300
100:1
140
100.0
141
1.0
290
     0
  0
SCALE
  5
59
102
{ACAD_REACTORS
330
47
102
}
330
47
100
AcDbScale
 70
     0
300
1/128" = 1'-0"
140
0.0078125
141
12.0
290
     0
  0
SCALE
  5
5A
102
{ACAD_REACTORS
330
47
102
}
330
47
100
AcDbScale
 70
     0
300
1/64" = 1'-0"
140
0.015625
141
12.0
290
     0
  0
SCALE
  5
5B
102
{ACAD_REACTORS
330
47
102
}
330
47
100
AcDbScale
 70
     0
300
1/32" = 1'-0"
140
0.03125
141
12.0
290
     0
  0
SCALE
  5
5C
102
{ACAD_REACTORS
330
47
102
}
330
47
100
AcDbScale
 70
     0
300
1/16" = 1'-0"
140
0.0625
141
12.0
290
     0
  0
SCALE
  5
5D
102
{ACAD_REACTORS
330
47
102
}
330
47
100
AcDbScale
 70
     0
300
3/32" = 1'-0"
140
0.09375
141
12.0
290
     0
  0
SCALE
  5
5E
102
{ACAD_REACTORS
330
47
102
}
330
47
100
AcDbScale
 70
     0
300
1/8" = 1'-0"
140
0.125
141
12.0
290
     0
  0
SCALE
  5
5F
102
{ACAD_REACTORS
330
47
102
}
330
47
100
AcDbScale
 70
     0
300
3/16" = 1'-0"
140
0.1875
141
12.0
290
     0
  0
SCALE
  5
60
102
{ACAD_REACTORS
330
47
102
}
330
47
100
AcDbScale
 70
     0
300
1/4" = 1'-0"
140
0.25
141
12.0
290
     0
  0
SCALE
  5
61
102
{ACAD_REACTORS
330
47
102
}
330
47
100
AcDbScale
 70
     0
300
3/8" = 1'-0"
140
0.375
141
12.0
290
     0
  0
SCALE
  5
62
102
{ACAD_REACTORS
330
47
102
}
330
47
100
AcDbScale
 70
     0
300
1/2" = 1'-0"
140
0.5
141
12.0
290
     0
  0
SCALE
  5
63
102
{ACAD_REACTORS
330
47
102
}
330
47
100
AcDbScale
 70
     0
300
3/4" = 1'-0"
140
0.75
141
12.0
290
     0
  0
SCALE
  5
64
102
{ACAD_REACTORS
330
47
102
}
330
47
100
AcDbScale
 70
     0
300
1" = 1'-0"
140
1.0
141
12.0
290
     0
  0
SCALE
  5
65
102
{ACAD_REACTORS
330
47
102
}
330
47
100
AcDbScale
 70
     0
300
1-1/2" = 1'-0"
140
1.5
141
12.0
290
     0
  0
SCALE
  5
66
102
{ACAD_REACTORS
330
47
102
}
330
47
100
AcDbScale
 70
     0
300
3" = 1'-0"
140
3.0
141
12.0
290
     0
  0
SCALE
  5
67
102
{ACAD_REACTORS
330
47
102
}
330
47
100
AcDbScale
 70
     0
300
6" = 1'-0"
140
6.0
141
12.0
290
     0
  0
SCALE
  5
68
102
{ACAD_REACTORS
330
47
102
}
330
47
100
AcDbScale
 70
     0
300
1'-0" = 1'-0"
140
12.0
141
12.0
290
     0
  0
TABLESTYLE
  5
6A
102
{ACAD_REACTORS
330
69
102
}
102
{ACAD_XDICTIONARY
360
1F9
102
}
330
69
100
AcDbTableStyle
  3
Standard
 70
     0
 71
     0
 40
0.06
 41
0.06
280
     0
281
     0
  7
Standard
140
0.18
170
     2
 62
     0
 63
   257
283
     0
 90
        4
 91
        0
  1

274
    -2
284
     1
 64
     0
275
    -2
285
     1
 65
     0
276
    -2
286
     1
 66
     0
277
    -2
287
     1
 67
     0
278
    -2
288
     1
 68
     0
279
    -2
289
     1
 69
     0
  7
Standard
140
0.25
170
     5
 62
     0
 63
   257
283
     0
 90
        4
 91
        0
  1

274
    -2
284
     1
 64
     0
275
    -2
285
     1
 65
     0
276
    -2
286
     1
 66
     0
277
    -2
287
     1
 67
     0
278
    -2
288
     1
 68
     0
279
    -2
289
     1
 69
     0
  7
Standard
140
0.18
170
     5
 62
     0
 63
   257
283
     0
 90
        4
 91
        0
  1

274
    -2
284
     1
 64
     0
275
    -2
285
     1
 65
     0
276
    -2
286
     1
 66
     0
277
    -2
287
     1
 67
     0
278
    -2
288
     1
 68
     0
279
    -2
289
     1
 69
     0
  0
VISUALSTYLE
  5
2F
102
{ACAD_REACTORS
330
2A
102
}
330
2A
100
AcDbVisualStyle
  2
2dWireframe
 70
     4
177
     3
291
     0
 70
    58
 90
        0
176
     1
 90
        2
176
     1
 90
        0
176
     1
 90
        0
176
     1
 40
0.6
176
     1
 40
30.0
176
     1
 62
     7
420
 16777215
176
     1
 90
        1
176
     1
 90
        4
176
     1
 62
     7
176
     1
 62
   257
176
     1
 90
        1
176
     1
 90
        1
176
     1
 40
1.0
176
     1
 90
        0
176
     1
 62
   257
176
     1
 40
1.0
176
     1
 90
        1
176
     1
 90
        6
176
     1
 90
        2
176
     1
 62
     7
176
     1
 90
        5
176
     1
 90
        0
176
     1
 90
        0
176
     1
290
     0
176
     1
 90
        1
176
     1
 40
0.0
176
     1
 90
        0
176
     1
290
     1
176
     1
290
     1
176
     1
290
     0
176
     1
290
     0
176
     1
290
     0
176
     1
290
     0
176
     1
290
     0
176
     1
290
     0
176
     1
290
     0
176
     1
 90
       50
176
     1
 40
0.0
176
     1
 40
1.0
176
     1
 90
        0
176
     1
 62
    18
420
        0
176
     1
 90
       50
176
     1
 90
        3
176
     1
 62
     5
420
      255
176
     1
290
     0
176
     1
 90
       50
176
     1
 90
       50
176
     1
 90
       50
176
     1
290
     0
176
     1
 90
       50
176
     1
 62
   256
176
     0
 40
1.0
176
     0
 90
        2
176
     1
  1
strokes_ogs.tif
176
     1
290
     0
176
     1
 40
1.0
176
     1
 40
1.0
176
     1
  0
VISUALSTYLE
  5
32
102
{ACAD_REACTORS
330
2A
102
}
330
2A
100
AcDbVisualStyle
  2
Basic
 70
     7
177
     3
291
     1
 70
    58
 90
        1
176
     1
 90
        0
176
     1
 90
        1
176
     1
 90
        0
176
     1
 40
0.6
176
     1
 40
30.0
176
     1
 62
     7
420
 16777215
176
     1
 90
        0
176
     1
 90
        4
176
     1
 62
     7
176
     1
 62
   257
176
     1
 90
        1
176
     1
 90
        1
176
     1
 40
1.0
176
     1
 90
        8
176
     1
 62
     7
176
     1
 40
1.0
176
     1
 90
        1
176
     1
 90
        6
176
     1
 90
        2
176
     1
 62
     7
176
     1
 90
        5
176
     1
 90
        0
176
     1
 90
        0
176
     1
290
     0
176
     1
 90
        1
176
     1
 40
0.0
176
     1
 90
        0
176
     1
290
     0
176
     1
290
     1
176
     1
290
     1
176
     1
290
     0
176
     1
290
     0
176
     1
290
     0
176
     1
290
     0
176
     1
290
     0
176
     1
290
     0
176
     1
 90
       50
176
     1
 40
0.0
176
     1
 40
1.0
176
     1
 90
        0
176
     1
 62
    18
420
        0
176
     1
 90
       50
176
     1
 90
        3
176
     1
 62
     5
420
      255
176
     1
290
     0
176
     1
 90
       50
176
     1
 90
       50
176
     1
 90
       50
176
     1
290
     0
176
     1
 90
       50
176
     1
 62
   256
176
     0
 40
1.0
176
     0
 90
        2
176
     1
  1
strokes_ogs.tif
176
     1
290
     0
176
     1
 40
1.0
176
     1
 40
1.0
176
     1
  0
VISUALSTYLE
  5
36
102
{ACAD_REACTORS
330
2A
102
}
330
2A
100
AcDbVisualStyle
  2
Brighten
 70
    12
177
     3
291
     1
 70
    58
 90
        2
176
     1
 90
        2
176
     1
 90
        0
176
     1
 90
        0
176
     1
 40
0.6
176
     1
 40
30.0
176
     1
 62
     7
420
 16777215
176
     1
 90
        1
176
     1
 90
        4
176
     1
 62
     7
176
     1
 62
   257
176
     1
 90
        1
176
     1
 90
        1
176
     1
 40
1.0
176
     1
 90
        8
176
     1
 62
     7
176
     1
 40
1.0
176
     1
 90
        1
176
     1
 90
        6
176
     1
 90
        2
176
     1
 62
     7
176
     1
 90
        5
176
     1
 90
        0
176
     1
 90
        0
176
     1
290
     0
176
     1
 90
        1
176
     1
 40
50.0
176
     1
 90
        0
176
     1
290
     0
176
     1
290
     1
176
     1
290
     1
176
     1
290
     0
176
     1
290
     0
176
     1
290
     0
176
     1
290
     0
176
     1
290
     0
176
     1
290
     0
176
     1
 90
       50
176
     1
 40
0.0
176
     1
 40
1.0
176
     1
 90
        0
176
     1
 62
    18
420
        0
176
     1
 90
       50
176
     1
 90
        3
176
     1
 62
     5
420
      255
176
     1
290
     0
176
     1
 90
       50
176
     1
 90
       50
176
     1
 90
       50
176
     1
290
     0
176
     1
 90
       50
176
     1
 62
   256
176
     0
 40
1.0
176
     0
 90
        2
176
     1
  1
strokes_ogs.tif
176
     1
290
     0
176
     1
 40
1.0
176
     1
 40
1.0
176
     1
  0
VISUALSTYLE
  5
3A
102
{ACAD_REACTORS
330
2A
102
}
330
2A
100
AcDbVisualStyle
  2
ColorChange
 70
    16
177
     3
291
     1
 70
    58
 90
        2
176
     1
 90
        2
176
     1
 90
        3
176
     1
 90
        0
176
     1
 40
0.6
176
     1
 40
30.0
176
     1
 62
     8
420
  8421504
176
     1
 90
        1
176
     1
 90
        4
176
     1
 62
     7
176
     1
 62
   257
176
     1
 90
        1
176
     1
 90
        1
176
     1
 40
1.0
176
     1
 90
        8
176
     1
 62
     8
420
  8421504
176
     1
 40
1.0
176
     1
 90
        1
176
     1
 90
        6
176
     1
 90
        2
176
     1
 62
     7
176
     1
 90
        5
176
     1
 90
        0
176
     1
 90
        0
176
     1
290
     0
176
     1
 90
        1
176
     1
 40
0.0
176
     1
 90
        0
176
     1
290
     0
176
     1
290
     1
176
     1
290
     1
176
     1
290
     0
176
     1
290
     0
176
     1
290
     0
176
     1
290
     0
176
     1
290
     0
176
     1
290
     0
176
     1
 90
       50
176
     1
 40
0.0
176
     1
 40
1.0
176
     1
 90
        0
176
     1
 62
    18
420
        0
176
     1
 90
       50
176
     1
 90
        3
176
     1
 62
     5
420
      255
176
     1
290
     0
176
     1
 90
       50
176
     1
 90
       50
176
     1
 90
       50
176
     1
290
     0
176
     1
 90
       50
176
     1
 62
   256
176
     0
 40
1.0
176
     0
 90
        2
176
     1
  1
strokes_ogs.tif
176
     1
290
     0
176
     1
 40
1.0
176
     1
 40
1.0
176
     1
  0
VISUALSTYLE
  5
34
102
{ACAD_REACTORS
330
2A
102
}
330
2A
100
AcDbVisualStyle
  2
Conceptual
 70
     9
177
     3
291
     0
 70
    58
 90
        3
176
     1
 90
        2
176
     1
 90
        0
176
     1
 90
        0
176
     1
 40
0.6
176
     1
 40
30.0
176
     1
 62
     7
420
 16777215
176
     1
 90
        2
176
     1
 90
        2
176
     1
 62
     7
176
     1
 62
   257
176
     1
 90
        1
176
     1
 90
        1
176
     1
 40
179.0
176
     1
 90
        8
176
     1
 62
     7
176
     1
 40
1.0
176
     1
 90
        1
176
     1
 90
        6
176
     1
 90
        2
176
     1
 62
     7
176
     1
 90
        3
176
     1
 90
        0
176
     1
 90
        0
176
     1
290
     0
176
     1
 90
        1
176
     1
 40
0.0
176
     1
 90
        0
176
     1
290
     0
176
     1
290
     1
176
     1
290
     1
176
     1
290
     0
176
     1
290
     0
176
     1
290
     0
176
     1
290
     0
176
     1
290
     0
176
     1
290
     0
176
     1
 90
       50
176
     1
 40
0.0
176
     1
 40
1.0
176
     1
 90
        0
176
     1
 62
    18
420
        0
176
     1
 90
       50
176
     1
 90
        3
176
     1
 62
     5
420
      255
176
     1
290
     0
176
     1
 90
       50
176
     1
 90
       50
176
     1
 90
       50
176
     1
290
     0
176
     1
 90
       50
176
     1
 62
   256
176
     0
 40
1.0
176
     0
 90
        2
176
     1
  1
strokes_ogs.tif
176
     1
290
     0
176
     1
 40
1.0
176
     1
 40
1.0
176
     1
  0
VISUALSTYLE
  5
35
102
{ACAD_REACTORS
330
2A
102
}
330
2A
100
AcDbVisualStyle
  2
Dim
 70
    11
177
     3
291
     1
 70
    58
 90
        2
176
     1
 90
        2
176
     1
 90
        0
176
     1
 90
        0
176
     1
 40
0.6
176
     1
 40
30.0
176
     1
 62
     7
420
 16777215
176
     1
 90
        1
176
     1
 90
        4
176
     1
 62
     7
176
     1
 62
   257
176
     1
 90
        1
176
     1
 90
        1
176
     1
 40
1.0
176
     1
 90
        8
176
     1
 62
     7
176
     1
 40
1.0
176
     1
 90
        1
176
     1
 90
        6
176
     1
 90
        2
176
     1
 62
     7
176
     1
 90
        5
176
     1
 90
        0
176
     1
 90
        0
176
     1
290
     0
176
     1
 90
        1
176
     1
 40
-50.0
176
     1
 90
        0
176
     1
290
     0
176
     1
290
     1
176
     1
290
     1
176
     1
290
     0
176
     1
290
     0
176
     1
290
     0
176
     1
290
     0
176
     1
290
     0
176
     1
290
     0
176
     1
 90
       50
176
     1
 40
0.0
176
     1
 40
1.0
176
     1
 90
        0
176
     1
 62
    18
420
        0
176
     1
 90
       50
176
     1
 90
        3
176
     1
 62
     5
420
      255
176
     1
290
     0
176
     1
 90
       50
176
     1
 90
       50
176
     1
 90
       50
176
     1
290
     0
176
     1
 90
       50
176
     1
 62
   256
176
     0
 40
1.0
176
     0
 90
        2
176
     1
  1
strokes_ogs.tif
176
     1
290
     0
176
     1
 40
1.0
176
     1
 40
1.0
176
     1
  0
VISUALSTYLE
  5
3D
102
{ACAD_REACTORS
330
2A
102
}
330
2A
100
AcDbVisualStyle
  2
EdgeColorOff
 70
    22
177
     3
291
     1
 70
    58
 90
        2
176
     0
 90
        2
176
     0
 90
        0
176
     0
 90
        0
176
     0
 40
0.6
176
     0
 40
30.0
176
     0
 62
     7
420
 16777215
176
     0
 90
        1
176
     0
 90
        4
176
     0
 62
     7
176
     0
 62
   257
176
     0
 90
        1
176
     0
 90
        1
176
     0
 40
1.0
176
     0
 90
        8
176
     2
 62
     7
176
     0
 40
1.0
176
     0
 90
        1
176
     0
 90
        6
176
     0
 90
        2
176
     0
 62
     7
176
     0
 90
        5
176
     0
 90
        0
176
     0
 90
        0
176
     0
290
     0
176
     0
 90
        1
176
     0
 40
0.0
176
     0
 90
        0
176
     0
290
     0
176
     0
290
     1
176
     0
290
     1
176
     0
290
     0
176
     0
290
     0
176
     0
290
     0
176
     0
290
     0
176
     0
290
     0
176
     0
290
     0
176
     0
 90
       50
176
     0
 40
0.0
176
     0
 40
1.0
176
     0
 90
        0
176
     0
 62
    18
420
        0
176
     0
 90
       50
176
     0
 90
        3
176
     0
 62
     5
420
      255
176
     0
290
     0
176
     0
 90
       50
176
     0
 90
       50
176
     0
 90
       50
176
     0
290
     0
176
     0
 90
       50
176
     0
 62
   256
176
     0
 40
1.0
176
     0
 90
        2
176
     0
  1
strokes_ogs.tif
176
     0
290
     0
176
     0
 40
1.0
176
     0
 40
1.0
176
     0
  0
VISUALSTYLE
  5
39
102
{ACAD_REACTORS
330
2A
102
}
330
2A
100
AcDbVisualStyle
  2
Facepattern
 70
    15
177
     3
291
     1
 70
    58
 90
        2
176
     1
 90
        2
176
     1
 90
        0
176
     1
 90
        0
176
     1
 40
0.6
176
     1
 40
30.0
176
     1
 62
     7
420
 16777215
176
     1
 90
        1
176
     1
 90
        4
176
     1
 62
     7
176
     1
 62
   257
176
     1
 90
        1
176
     1
 90
        1
176
     1
 40
1.0
176
     1
 90
        8
176
     1
 62
     7
176
     1
 40
1.0
176
     1
 90
        1
176
     1
 90
        6
176
     1
 90
        2
176
     1
 62
     7
176
     1
 90
        5
176
     1
 90
        0
176
     1
 90
        0
176
     1
290
     0
176
     1
 90
        1
176
     1
 40
0.0
176
     1
 90
        0
176
     1
290
     0
176
     1
290
     1
176
     1
290
     1
176
     1
290
     0
176
     1
290
     0
176
     1
290
     0
176
     1
290
     0
176
     1
290
     0
176
     1
290
     0
176
     1
 90
       50
176
     1
 40
0.0
176
     1
 40
1.0
176
     1
 90
        0
176
     1
 62
    18
420
        0
176
     1
 90
       50
176
     1
 90
        3
176
     1
 62
     5
420
      255
176
     1
290
     0
176
     1
 90
       50
176
     1
 90
       50
176
     1
 90
       50
176
     1
290
     0
176
     1
 90
       50
176
     1
 62
   256
176
     0
 40
1.0
176
     0
 90
        2
176
     1
  1
strokes_ogs.tif
176
     1
290
     0
176
     1
 40
1.0
176
     1
 40
1.0
176
     1
  0
VISUALSTYLE
  5
2B
102
{ACAD_REACTORS
330
2A
102
}
330
2A
100
AcDbVisualStyle
  2
Flat
 70
     0
177
     3
291
     1
 70
    58
 90
        2
176
     1
 90
        1
176
     1
 90
        1
176
     1
 90
        2
176
     1
 40
0.6
176
     1
 40
30.0
176
     1
 62
     7
420
 16777215
176
     1
 90
        0
176
     1
 90
        0
176
     1
 62
     7
176
     1
 62
   257
176
     1
 90
        1
176
     1
 90
        1
176
     1
 40
1.0
176
     1
 90
        8
176
     1
 62
     7
176
     1
 40
1.0
176
     1
 90
        1
176
     1
 90
        6
176
     1
 90
        2
176
     1
 62
     7
176
     1
 90
        5
176
     1
 90
        0
176
     1
 90
        0
176
     1
290
     0
176
     1
 90
       13
176
     1
 40
0.0
176
     1
 90
        0
176
     1
290
     0
176
     1
290
     1
176
     1
290
     1
176
     1
290
     0
176
     1
290
     0
176
     1
290
     0
176
     1
290
     0
176
     1
290
     0
176
     1
290
     0
176
     1
 90
       50
176
     1
 40
0.0
176
     1
 40
1.0
176
     1
 90
        0
176
     1
 62
    18
420
        0
176
     1
 90
       50
176
     1
 90
        3
176
     1
 62
     5
420
      255
176
     1
290
     0
176
     1
 90
       50
176
     1
 90
       50
176
     1
 90
       50
176
     1
290
     0
176
     1
 90
       50
176
     1
 62
   256
176
     0
 40
1.0
176
     0
 90
        2
176
     1
  1
strokes_ogs.tif
176
     1
290
     0
176
     1
 40
1.0
176
     1
 40
1.0
176
     1
  0
VISUALSTYLE
  5
2C
102
{ACAD_REACTORS
330
2A
102
}
330
2A
100
AcDbVisualStyle
  2
FlatWithEdges
 70
     1
177
     3
291
     1
 70
    58
 90
        2
176
     1
 90
        1
176
     1
 90
        1
176
     1
 90
        2
176
     1
 40
0.6
176
     1
 40
30.0
176
     1
 62
     7
420
 16777215
176
     1
 90
        1
176
     1
 90
        0
176
     1
 62
     7
176
     1
 62
   257
176
     1
 90
        1
176
     1
 90
        1
176
     1
 40
1.0
176
     1
 90
        0
176
     1
 62
   257
176
     1
 40
1.0
176
     1
 90
        1
176
     1
 90
        6
176
     1
 90
        2
176
     1
 62
     7
176
     1
 90
        5
176
     1
 90
        0
176
     1
 90
        0
176
     1
290
     0
176
     1
 90
       13
176
     1
 40
0.0
176
     1
 90
        0
176
     1
290
     0
176
     1
290
     1
176
     1
290
     1
176
     1
290
     0
176
     1
290
     0
176
     1
290
     0
176
     1
290
     0
176
     1
290
     0
176
     1
290
     0
176
     1
 90
       50
176
     1
 40
0.0
176
     1
 40
1.0
176
     1
 90
        0
176
     1
 62
    18
420
        0
176
     1
 90
       50
176
     1
 90
        3
176
     1
 62
     5
420
      255
176
     1
290
     0
176
     1
 90
       50
176
     1
 90
       50
176
     1
 90
       50
176
     1
290
     0
176
     1
 90
       50
176
     1
 62
   256
176
     0
 40
1.0
176
     0
 90
        2
176
     1
  1
strokes_ogs.tif
176
     1
290
     0
176
     1
 40
1.0
176
     1
 40
1.0
176
     1
  0
VISUALSTYLE
  5
2D
102
{ACAD_REACTORS
330
2A
102
}
330
2A
100
AcDbVisualStyle
  2
Gouraud
 70
     2
177
     3
291
     1
 70
    58
 90
        2
176
     1
 90
        2
176
     1
 90
        1
176
     1
 90
        2
176
     1
 40
0.6
176
     1
 40
30.0
176
     1
 62
     7
420
 16777215
176
     1
 90
        0
176
     1
 90
        0
176
     1
 62
     7
176
     1
 62
   257
176
     1
 90
        1
176
     1
 90
        1
176
     1
 40
1.0
176
     1
 90
        0
176
     1
 62
     7
176
     1
 40
1.0
176
     1
 90
        1
176
     1
 90
        6
176
     1
 90
        2
176
     1
 62
     7
176
     1
 90
        5
176
     1
 90
        0
176
     1
 90
        0
176
     1
290
     0
176
     1
 90
       13
176
     1
 40
0.0
176
     1
 90
        0
176
     1
290
     0
176
     1
290
     1
176
     1
290
     1
176
     1
290
     0
176
     1
290
     0
176
     1
290
     0
176
     1
290
     0
176
     1
290
     0
176
     1
290
     0
176
     1
 90
       50
176
     1
 40
0.0
176
     1
 40
1.0
176
     1
 90
        0
176
     1
 62
    18
420
        0
176
     1
 90
       50
176
     1
 90
        3
176
     1
 62
     5
420
      255
176
     1
290
     0
176
     1
 90
       50
176
     1
 90
       50
176
     1
 90
       50
176
     1
290
     0
176
     1
 90
       50
176
     1
 62
   256
176
     0
 40
1.0
176
     0
 90
        2
176
     1
  1
strokes_ogs.tif
176
     1
290
     0
176
     1
 40
1.0
176
     1
 40
1.0
176
     1
  0
VISUALSTYLE
  5
2E
102
{ACAD_REACTORS
330
2A
102
}
330
2A
100
AcDbVisualStyle
  2
GouraudWithEdges
 70
     3
177
     3
291
     1
 70
    58
 90
        2
176
     1
 90
        2
176
     1
 90
        1
176
     1
 90
        2
176
     1
 40
0.6
176
     1
 40
30.0
176
     1
 62
     7
420
 16777215
176
     1
 90
        1
176
     1
 90
        0
176
     1
 62
     7
176
     1
 62
   257
176
     1
 90
        1
176
     1
 90
        1
176
     1
 40
1.0
176
     1
 90
        0
176
     1
 62
   257
176
     1
 40
1.0
176
     1
 90
        1
176
     1
 90
        6
176
     1
 90
        2
176
     1
 62
     7
176
     1
 90
        5
176
     1
 90
        0
176
     1
 90
        0
176
     1
290
     0
176
     1
 90
       13
176
     1
 40
0.0
176
     1
 90
        0
176
     1
290
     0
176
     1
290
     1
176
     1
290
     1
176
     1
290
     0
176
     1
290
     0
176
     1
290
     0
176
     1
290
     0
176
     1
290
     0
176
     1
290
     0
176
     1
 90
       50
176
     1
 40
0.0
176
     1
 40
1.0
176
     1
 90
        0
176
     1
 62
    18
420
        0
176
     1
 90
       50
176
     1
 90
        3
176
     1
 62
     5
420
      255
176
     1
290
     0
176
     1
 90
       50
176
     1
 90
       50
176
     1
 90
       50
176
     1
290
     0
176
     1
 90
       50
176
     1
 62
   256
176
     0
 40
1.0
176
     0
 90
        2
176
     1
  1
strokes_ogs.tif
176
     1
290
     0
176
     1
 40
1.0
176
     1
 40
1.0
176
     1
  0
VISUALSTYLE
  5
31
102
{ACAD_REACTORS
330
2A
102
}
330
2A
100
AcDbVisualStyle
  2
Hidden
 70
     6
177
     3
291
     0
 70
    58
 90
        1
176
     1
 90
        2
176
     1
 90
        2
176
     1
 90
        0
176
     1
 40
0.6
176
     1
 40
30.0
176
     1
 62
     7
420
 16777215
176
     1
 90
        2
176
     1
 90
        2
176
     1
 62
     7
176
     1
 62
   257
176
     1
 90
        2
176
     1
 90
        1
176
     1
 40
40.0
176
     1
 90
        0
176
     1
 62
   257
176
     1
 40
1.0
176
     1
 90
        1
176
     1
 90
        6
176
     1
 90
        2
176
     1
 62
     7
176
     1
 90
        3
176
     1
 90
        0
176
     1
 90
        0
176
     1
290
     0
176
     1
 90
        1
176
     1
 40
0.0
176
     1
 90
        0
176
     1
290
     0
176
     1
290
     1
176
     1
290
     1
176
     1
290
     0
176
     1
290
     0
176
     1
290
     0
176
     1
290
     0
176
     1
290
     0
176
     1
290
     0
176
     1
 90
       50
176
     1
 40
0.0
176
     1
 40
1.0
176
     1
 90
        0
176
     1
 62
    18
420
        0
176
     1
 90
       50
176
     1
 90
        3
176
     1
 62
     5
420
      255
176
     1
290
     0
176
     1
 90
       50
176
     1
 90
       50
176
     1
 90
       50
176
     1
290
     0
176
     1
 90
       50
176
     1
 62
   256
176
     0
 40
1.0
176
     0
 90
        2
176
     1
  1
strokes_ogs.tif
176
     1
290
     0
176
     1
 40
1.0
176
     1
 40
1.0
176
     1
  0
VISUALSTYLE
  5
3B
102
{ACAD_REACTORS
330
2A
102
}
330
2A
100
AcDbVisualStyle
  2
JitterOff
 70
    20
177
     3
291
     1
 70
    58
 90
        2
176
     0
 90
        2
176
     0
 90
        0
176
     0
 90
        0
176
     0
 40
0.6
176
     0
 40
30.0
176
     0
 62
     7
420
 16777215
176
     0
 90
        1
176
     0
 90
        4
176
     0
 62
     7
176
     0
 62
   257
176
     0
 90
        1
176
     0
 90
        1
176
     0
 40
1.0
176
     0
 90
       10
176
     2
 62
     7
176
     0
 40
1.0
176
     0
 90
        1
176
     0
 90
        6
176
     0
 90
        2
176
     0
 62
     7
176
     0
 90
        5
176
     0
 90
        0
176
     0
 90
        0
176
     0
290
     0
176
     0
 90
        1
176
     0
 40
0.0
176
     0
 90
        0
176
     0
290
     0
176
     0
290
     1
176
     0
290
     1
176
     0
290
     0
176
     0
290
     0
176
     0
290
     0
176
     0
290
     0
176
     0
290
     0
176
     0
290
     0
176
     0
 90
       50
176
     0
 40
0.0
176
     0
 40
1.0
176
     0
 90
        0
176
     0
 62
    18
420
        0
176
     0
 90
       50
176
     0
 90
        3
176
     0
 62
     5
420
      255
176
     0
290
     0
176
     0
 90
       50
176
     0
 90
       50
176
     0
 90
       50
176
     0
290
     0
176
     0
 90
       50
176
     0
 62
   256
176
     0
 40
1.0
176
     0
 90
        2
176
     0
  1
strokes_ogs.tif
176
     0
290
     0
176
     0
 40
1.0
176
     0
 40
1.0
176
     0
  0
VISUALSTYLE
  5
38
102
{ACAD_REACTORS
330
2A
102
}
330
2A
100
AcDbVisualStyle
  2
Linepattern
 70
    14
177
     3
291
     1
 70
    58
 90
        2
176
     1
 90
        2
176
     1
 90
        0
176
     1
 90
        0
176
     1
 40
0.6
176
     1
 40
30.0
176
     1
 62
     7
420
 16777215
176
     1
 90
        1
176
     1
 90
        4
176
     1
 62
     7
176
     1
 62
   257
176
     1
 90
        7
176
     1
 90
        7
176
     1
 40
1.0
176
     1
 90
        8
176
     1
 62
     7
176
     1
 40
1.0
176
     1
 90
        1
176
     1
 90
        6
176
     1
 90
        2
176
     1
 62
     7
176
     1
 90
        5
176
     1
 90
        0
176
     1
 90
        0
176
     1
290
     0
176
     1
 90
        1
176
     1
 40
0.0
176
     1
 90
        0
176
     1
290
     0
176
     1
290
     1
176
     1
290
     1
176
     1
290
     0
176
     1
290
     0
176
     1
290
     0
176
     1
290
     0
176
     1
290
     0
176
     1
290
     0
176
     1
 90
       50
176
     1
 40
0.0
176
     1
 40
1.0
176
     1
 90
        0
176
     1
 62
    18
420
        0
176
     1
 90
       50
176
     1
 90
        3
176
     1
 62
     5
420
      255
176
     1
290
     0
176
     1
 90
       50
176
     1
 90
       50
176
     1
 90
       50
176
     1
290
     0
176
     1
 90
       50
176
     1
 62
   256
176
     0
 40
1.0
176
     0
 90
        2
176
     1
  1
strokes_ogs.tif
176
     1
290
     0
176
     1
 40
1.0
176
     1
 40
1.0
176
     1
  0
VISUALSTYLE
  5
3C
102
{ACAD_REACTORS
330
2A
102
}
330
2A
100
AcDbVisualStyle
  2
OverhangOff
 70
    21
177
     3
291
     1
 70
    58
 90
        2
176
     0
 90
        2
176
     0
 90
        0
176
     0
 90
        0
176
     0
 40
0.6
176
     0
 40
30.0
176
     0
 62
     7
420
 16777215
176
     0
 90
        1
176
     0
 90
        4
176
     0
 62
     7
176
     0
 62
   257
176
     0
 90
        1
176
     0
 90
        1
176
     0
 40
1.0
176
     0
 90
        9
176
     2
 62
     7
176
     0
 40
1.0
176
     0
 90
        1
176
     0
 90
        6
176
     0
 90
        2
176
     0
 62
     7
176
     0
 90
        5
176
     0
 90
        0
176
     0
 90
        0
176
     0
290
     0
176
     0
 90
        1
176
     0
 40
0.0
176
     0
 90
        0
176
     0
290
     0
176
     0
290
     1
176
     0
290
     1
176
     0
290
     0
176
     0
290
     0
176
     0
290
     0
176
     0
290
     0
176
     0
290
     0
176
     0
290
     0
176
     0
 90
       50
176
     0
 40
0.0
176
     0
 40
1.0
176
     0
 90
        0
176
     0
 62
    18
420
        0
176
     0
 90
       50
176
     0
 90
        3
176
     0
 62
     5
420
      255
176
     0
290
     0
176
     0
 90
       50
176
     0
 90
       50
176
     0
 90
       50
176
     0
290
     0
176
     0
 90
       50
176
     0
 62
   256
176
     0
 40
1.0
176
     0
 90
        2
176
     0
  1
strokes_ogs.tif
176
     0
290
     0
176
     0
 40
1.0
176
     0
 40
1.0
176
     0
  0
VISUALSTYLE
  5
33
102
{ACAD_REACTORS
330
2A
102
}
330
2A
100
AcDbVisualStyle
  2
Realistic
 70
     8
177
     3
291
     0
 70
    58
 90
        2
176
     1
 90
        3
176
     1
 90
        0
176
     1
 90
        2
176
     1
 40
0.6
176
     1
 40
30.0
176
     1
 62
     7
420
 16777215
176
     1
 90
        0
176
     1
 90
        0
176
     1
 62
     7
176
     1
 62
   257
176
     1
 90
        1
176
     1
 90
        1
176
     1
 40
1.0
176
     1
 90
        8
176
     1
 62
   257
176
     1
 40
1.0
176
     1
 90
        1
176
     1
 90
        6
176
     1
 90
        2
176
     1
 62
     7
176
     1
 90
        3
176
     1
 90
        0
176
     1
 90
        0
176
     1
290
     0
176
     1
 90
       13
176
     1
 40
0.0
176
     1
 90
        0
176
     1
290
     0
176
     1
290
     1
176
     1
290
     1
176
     1
290
     0
176
     1
290
     0
176
     1
290
     0
176
     1
290
     0
176
     1
290
     0
176
     1
290
     0
176
     1
 90
       50
176
     1
 40
0.0
176
     1
 40
1.0
176
     1
 90
        0
176
     1
 62
    18
420
        0
176
     1
 90
       50
176
     1
 90
        3
176
     1
 62
     5
420
      255
176
     1
290
     0
176
     1
 90
       50
176
     1
 90
       50
176
     1
 90
       50
176
     1
290
     0
176
     1
 90
       50
176
     1
 62
   256
176
     0
 40
1.0
176
     0
 90
        2
176
     1
  1
strokes_ogs.tif
176
     1
290
     0
176
     1
 40
1.0
176
     1
 40
1.0
176
     1
  0
VISUALSTYLE
  5
42
102
{ACAD_REACTORS
330
2A
102
}
330
2A
100
AcDbVisualStyle
  2
Shaded
 70
    27
177
     3
291
     0
 70
    58
 90
        2
176
     1
 90
        2
176
     1
 90
        1
176
     1
 90
        2
176
     1
 40
0.6
176
     1
 40
30.0
176
     1
 62
     7
420
 16777215
176
     1
 90
        0
176
     1
 90
        4
176
     1
 62
     7
176
     1
 62
   257
176
     1
 90
        1
176
     1
 90
        1
176
     1
 40
1.0
176
     1
 90
        8
176
     1
 62
   257
176
     1
 40
1.0
176
     1
 90
        1
176
     1
 90
        6
176
     1
 90
        2
176
     1
 62
     8
420
  7895160
176
     1
 90
        3
176
     1
 90
        0
176
     1
 90
        0
176
     1
290
     0
176
     1
 90
        5
176
     1
 40
0.0
176
     1
 90
        0
176
     1
290
     0
176
     1
290
     1
176
     1
290
     1
176
     1
290
     0
176
     1
290
     0
176
     1
290
     0
176
     1
290
     0
176
     1
290
     0
176
     1
290
     0
176
     1
 90
       50
176
     1
 40
0.0
176
     1
 40
1.0
176
     1
 90
        0
176
     1
 62
    18
420
        0
176
     1
 90
       50
176
     1
 90
        3
176
     1
 62
     5
420
      255
176
     1
290
     0
176
     1
 90
       50
176
     1
 90
       50
176
     1
 90
       50
176
     1
290
     0
176
     1
 90
       50
176
     1
 62
   256
176
     0
 40
1.0
176
     0
 90
        2
176
     1
  1
strokes_ogs.tif
176
     1
290
     0
176
     1
 40
1.0
176
     1
 40
1.0
176
     1
  0
VISUALSTYLE
  5
41
102
{ACAD_REACTORS
330
2A
102
}
330
2A
100
AcDbVisualStyle
  2
Shaded with edges
 70
    26
177
     3
291
     0
 70
    58
 90
        2
176
     1
 90
        2
176
     1
 90
        1
176
     1
 90
        2
176
     1
 40
0.6
176
     1
 40
30.0
176
     1
 62
     7
420
 16777215
176
     1
 90
        1
176
     1
 90
       10
176
     1
 62
     7
176
     1
 62
   257
176
     1
 90
        2
176
     1
 90
        1
176
     1
 40
1.0
176
     1
 90
        8
176
     1
 62
   257
176
     1
 40
1.0
176
     1
 90
        1
176
     1
 90
        6
176
     1
 90
        2
176
     1
 62
     7
176
     1
 90
        3
176
     1
 90
        0
176
     1
 90
        0
176
     1
290
     0
176
     1
 90
        5
176
     1
 40
0.0
176
     1
 90
        0
176
     1
290
     0
176
     1
290
     1
176
     1
290
     1
176
     1
290
     0
176
     1
290
     0
176
     1
290
     0
176
     1
290
     0
176
     1
290
     0
176
     1
290
     0
176
     1
 90
       50
176
     1
 40
0.0
176
     1
 40
1.0
176
     1
 90
        0
176
     1
 62
    18
420
        0
176
     1
 90
       50
176
     1
 90
        3
176
     1
 62
     5
420
      255
176
     1
290
     0
176
     1
 90
       50
176
     1
 90
       50
176
     1
 90
       50
176
     1
290
     0
176
     1
 90
       50
176
     1
 62
   256
176
     0
 40
1.0
176
     0
 90
        2
176
     1
  1
strokes_ogs.tif
176
     1
290
     0
176
     1
 40
1.0
176
     1
 40
1.0
176
     1
  0
VISUALSTYLE
  5
3E
102
{ACAD_REACTORS
330
2A
102
}
330
2A
100
AcDbVisualStyle
  2
Shades of Gray
 70
    23
177
     3
291
     0
 70
    58
 90
        2
176
     1
 90
        2
176
     1
 90
        3
176
     1
 90
        0
176
     1
 40
0.6
176
     1
 40
30.0
176
     1
 62
     7
420
 16777215
176
     1
 90
        2
176
     1
 90
        2
176
     1
 62
     7
176
     1
 62
     7
176
     1
 90
        1
176
     1
 90
        1
176
     1
 40
40.0
176
     1
 90
        8
176
     1
 62
     7
176
     1
 40
1.0
176
     1
 90
        1
176
     1
 90
        6
176
     1
 90
        2
176
     1
 62
     7
176
     1
 90
        3
176
     1
 90
        0
176
     1
 90
        0
176
     1
290
     0
176
     1
 90
        1
176
     1
 40
0.0
176
     1
 90
        0
176
     1
290
     0
176
     1
290
     1
176
     1
290
     1
176
     1
290
     0
176
     1
290
     0
176
     1
290
     0
176
     1
290
     0
176
     1
290
     0
176
     1
290
     0
176
     1
 90
       50
176
     1
 40
0.0
176
     1
 40
1.0
176
     1
 90
        0
176
     1
 62
    18
420
        0
176
     1
 90
       50
176
     1
 90
        3
176
     1
 62
     5
420
      255
176
     1
290
     0
176
     1
 90
       50
176
     1
 90
       50
176
     1
 90
       50
176
     1
290
     0
176
     1
 90
       50
176
     1
 62
   256
176
     0
 40
1.0
176
     0
 90
        2
176
     1
  1
strokes_ogs.tif
176
     1
290
     0
176
     1
 40
1.0
176
     1
 40
1.0
176
     1
  0
VISUALSTYLE
  5
3F
102
{ACAD_REACTORS
330
2A
102
}
330
2A
100
AcDbVisualStyle
  2
Sketchy
 70
    24
177
     3
291
     0
 70
    58
 90
        1
176
     1
 90
        2
176
     1
 90
        2
176
     1
 90
        0
176
     1
 40
0.6
176
     1
 40
30.0
176
     1
 62
     7
420
 16777215
176
     1
 90
        2
176
     1
 90
        2
176
     1
 62
     7
176
     1
 62
     7
176
     1
 90
        1
176
     1
 90
        1
176
     1
 40
40.0
176
     1
 90
       11
176
     1
 62
     7
176
     1
 40
1.0
176
     1
 90
        1
176
     1
 90
        6
176
     1
 90
        2
176
     1
 62
     7
176
     1
 90
        6
176
     1
 90
        0
176
     1
 90
        0
176
     1
290
     0
176
     1
 90
        1
176
     1
 40
0.0
176
     1
 90
        0
176
     1
290
     0
176
     1
290
     1
176
     1
290
     1
176
     1
290
     0
176
     1
290
     0
176
     1
290
     0
176
     1
290
     0
176
     1
290
     0
176
     1
290
     0
176
     1
 90
       50
176
     1
 40
0.0
176
     1
 40
1.0
176
     1
 90
        0
176
     1
 62
    18
420
        0
176
     1
 90
       50
176
     1
 90
        3
176
     1
 62
     5
420
      255
176
     1
290
     0
176
     1
 90
       50
176
     1
 90
       50
176
     1
 90
       50
176
     1
290
     0
176
     1
 90
       50
176
     1
 62
   256
176
     0
 40
1.0
176
     0
 90
        2
176
     1
  1
strokes_ogs.tif
176
     1
290
     0
176
     1
 40
1.0
176
     1
 40
1.0
176
     1
  0
VISUALSTYLE
  5
37
102
{ACAD_REACTORS
330
2A
102
}
330
2A
100
AcDbVisualStyle
  2
Thicken
 70
    13
177
     3
291
     1
 70
    58
 90
        2
176
     1
 90
        2
176
     1
 90
        0
176
     1
 90
        0
176
     1
 40
0.6
176
     1
 40
30.0
176
     1
 62
     7
420
 16777215
176
     1
 90
        1
176
     1
 90
        4
176
     1
 62
     7
176
     1
 62
   257
176
     1
 90
        1
176
     1
 90
        1
176
     1
 40
1.0
176
     1
 90
       12
176
     1
 62
     7
176
     1
 40
1.0
176
     1
 90
        1
176
     1
 90
        6
176
     1
 90
        2
176
     1
 62
     7
176
     1
 90
        5
176
     1
 90
        0
176
     1
 90
        0
176
     1
290
     0
176
     1
 90
        1
176
     1
 40
0.0
176
     1
 90
        0
176
     1
290
     0
176
     1
290
     1
176
     1
290
     1
176
     1
290
     0
176
     1
290
     0
176
     1
290
     0
176
     1
290
     0
176
     1
290
     0
176
     1
290
     0
176
     1
 90
       50
176
     1
 40
0.0
176
     1
 40
1.0
176
     1
 90
        0
176
     1
 62
    18
420
        0
176
     1
 90
       50
176
     1
 90
        3
176
     1
 62
     5
420
      255
176
     1
290
     0
176
     1
 90
       50
176
     1
 90
       50
176
     1
 90
       50
176
     1
290
     0
176
     1
 90
       50
176
     1
 62
   256
176
     0
 40
1.0
176
     0
 90
        2
176
     1
  1
strokes_ogs.tif
176
     1
290
     0
176
     1
 40
1.0
176
     1
 40
1.0
176
     1
  0
VISUALSTYLE
  5
30
102
{ACAD_REACTORS
330
2A
102
}
330
2A
100
AcDbVisualStyle
  2
Wireframe
 70
     5
177
     3
291
     0
 70
    58
 90
        0
176
     1
 90
        2
176
     1
 90
        0
176
     1
 90
        0
176
     1
 40
0.6
176
     1
 40
30.0
176
     1
 62
     7
420
 16777215
176
     1
 90
        1
176
     1
 90
        4
176
     1
 62
     7
176
     1
 62
   257
176
     1
 90
        1
176
     1
 90
        1
176
     1
 40
1.0
176
     1
 90
        0
176
     1
 62
   257
176
     1
 40
1.0
176
     1
 90
        1
176
     1
 90
        6
176
     1
 90
        2
176
     1
 62
     7
176
     1
 90
        3
176
     1
 90
        0
176
     1
 90
        0
176
     1
290
     0
176
     1
 90
        1
176
     1
 40
0.0
176
     1
 90
        0
176
     1
290
     0
176
     1
290
     1
176
     1
290
     1
176
     1
290
     0
176
     1
290
     0
176
     1
290
     0
176
     1
290
     0
176
     1
290
     0
176
     1
290
     0
176
     1
 90
       50
176
     1
 40
0.0
176
     1
 40
1.0
176
     1
 90
        0
176
     1
 62
    18
420
        0
176
     1
 90
       50
176
     1
 90
        3
176
     1
 62
     5
420
      255
176
     1
290
     0
176
     1
 90
       50
176
     1
 90
       50
176
     1
 90
       50
176
     1
290
     0
176
     1
 90
       50
176
     1
 62
   256
176
     0
 40
1.0
176
     0
 90
        2
176
     1
  1
strokes_ogs.tif
176
     1
290
     0
176
     1
 40
1.0
176
     1
 40
1.0
176
     1
  0
VISUALSTYLE
  5
40
102
{ACAD_REACTORS
330
2A
102
}
330
2A
100
AcDbVisualStyle
  2
X-Ray
 70
    25
177
     3
291
     0
 70
    58
 90
        2
176
     1
 90
        2
176
     1
 90
        1
176
     1
 90
        1
176
     1
 40
0.5
176
     1
 40
30.0
176
     1
 62
     7
420
 16777215
176
     1
 90
        1
176
     1
 90
        0
176
     1
 62
     7
176
     1
 62
   257
176
     1
 90
        1
176
     1
 90
        1
176
     1
 40
1.0
176
     1
 90
        8
176
     1
 62
     7
176
     1
 40
1.0
176
     1
 90
        1
176
     1
 90
        6
176
     1
 90
        2
176
     1
 62
     7
176
     1
 90
        3
176
     1
 90
        0
176
     1
 90
        0
176
     1
290
     0
176
     1
 90
       13
176
     1
 40
0.0
176
     1
 90
        0
176
     1
290
     0
176
     1
290
     1
176
     1
290
     1
176
     1
290
     0
176
     1
290
     0
176
     1
290
     0
176
     1
290
     0
176
     1
290
     0
176
     1
290
     0
176
     1
 90
       50
176
     1
 40
0.0
176
     1
 40
1.0
176
     1
 90
        0
176
     1
 62
    18
420
        0
176
     1
 90
       50
176
     1
 90
        3
176
     1
 62
     5
420
      255
176
     1
290
     0
176
     1
 90
       50
176
     1
 90
       50
176
     1
 90
       50
176
     1
290
     0
176
     1
 90
       50
176
     1
 62
   256
176
     0
 40
1.0
176
     0
 90
        2
176
     1
  1
strokes_ogs.tif
176
     1
290
     0
176
     1
 40
1.0
176
     1
 40
1.0
176
     1
  0
DICTIONARYVAR
  5
1F8
102
{ACAD_REACTORS
330
1F7
102
}
330
1F7
100
DictionaryVariables
280
     0
  1
1:1
  0
DICTIONARYVAR
  5
1FD
102
{ACAD_REACTORS
330
1F7
102
}
330
1F7
100
DictionaryVariables
280
     0
  1
Standard
  0
DICTIONARYVAR
  5
1FC
102
{ACAD_REACTORS
330
1F7
102
}
330
1F7
100
DictionaryVariables
280
     0
  1
Standard
  0
DICTIONARY
  5
1F9
330
6A
100
AcDbDictionary
280
     1
281
     1
  3
ACAD_ROUNDTRIP_2008_TABLESTYLE_CELLSTYLEMAP
360
1FA
  0
CELLSTYLEMAP
  5
1FA
102
{ACAD_REACTORS
330
1F9
102
}
330
1F9
100
AcDbCellStyleMap
 90
        3
300
CELLSTYLE
  1
TABLEFORMAT_BEGIN
 90
        5
170
     1
 91
        0
 92
    32768
 62
   257
 93
        1
300
CONTENTFORMAT
  1
CONTENTFORMAT_BEGIN
 90
        0
 91
        0
 92
        4
 93
        0
300

 40
0.0
140
1.0
 94
        5
 62
     0
340
11
144
0.25
309
CONTENTFORMAT_END
171
     1
301
MARGIN
  1
CELLMARGIN_BEGIN
 40
0.06
 40
0.06
 40
0.06
 40
0.06
 40
0.06
 40
0.06
309
CELLMARGIN_END
 94
        6
 95
        1
302
GRIDFORMAT
  1
GRIDFORMAT_BEGIN
 90
        0
 91
        1
 62
     0
 92
       -2
340
14
 93
        0
 40
0.045
309
GRIDFORMAT_END
 95
        2
302
GRIDFORMAT
  1
GRIDFORMAT_BEGIN
 90
        0
 91
        1
 62
     0
 92
       -2
340
14
 93
        0
 40
0.045
309
GRIDFORMAT_END
 95
        4
302
GRIDFORMAT
  1
GRIDFORMAT_BEGIN
 90
        0
 91
        1
 62
     0
 92
       -2
340
14
 93
        0
 40
0.045
309
GRIDFORMAT_END
 95
        8
302
GRIDFORMAT
  1
GRIDFORMAT_BEGIN
 90
        0
 91
        1
 62
     0
 92
       -2
340
14
 93
        0
 40
0.045
309
GRIDFORMAT_END
 95
       16
302
GRIDFORMAT
  1
GRIDFORMAT_BEGIN
 90
        0
 91
        1
 62
     0
 92
       -2
340
14
 93
        0
 40
0.045
309
GRIDFORMAT_END
 95
       32
302
GRIDFORMAT
  1
GRIDFORMAT_BEGIN
 90
        0
 91
        1
 62
     0
 92
       -2
340
14
 93
        0
 40
0.045
309
GRIDFORMAT_END
309
TABLEFORMAT_END
  1
CELLSTYLE_BEGIN
 90
        1
 91
        1
300
_TITLE
309
CELLSTYLE_END
300
CELLSTYLE
  1
TABLEFORMAT_BEGIN
 90
        5
170
     1
 91
        0
 92
        0
 62
   257
 93
        1
300
CONTENTFORMAT
  1
CONTENTFORMAT_BEGIN
 90
        0
 91
        0
 92
        4
 93
        0
300

 40
0.0
140
1.0
 94
        5
 62
     0
340
11
144
0.18
309
CONTENTFORMAT_END
171
     1
301
MARGIN
  1
CELLMARGIN_BEGIN
 40
0.06
 40
0.06
 40
0.06
 40
0.06
 40
0.06
 40
0.06
309
CELLMARGIN_END
 94
        6
 95
        1
302
GRIDFORMAT
  1
GRIDFORMAT_BEGIN
 90
        0
 91
        1
 62
     0
 92
       -2
340
14
 93
        0
 40
0.045
309
GRIDFORMAT_END
 95
        2
302
GRIDFORMAT
  1
GRIDFORMAT_BEGIN
 90
        0
 91
        1
 62
     0
 92
       -2
340
14
 93
        0
 40
0.045
309
GRIDFORMAT_END
 95
        4
302
GRIDFORMAT
  1
GRIDFORMAT_BEGIN
 90
        0
 91
        1
 62
     0
 92
       -2
340
14
 93
        0
 40
0.045
309
GRIDFORMAT_END
 95
        8
302
GRIDFORMAT
  1
GRIDFORMAT_BEGIN
 90
        0
 91
        1
 62
     0
 92
       -2
340
14
 93
        0
 40
0.045
309
GRIDFORMAT_END
 95
       16
302
GRIDFORMAT
  1
GRIDFORMAT_BEGIN
 90
        0
 91
        1
 62
     0
 92
       -2
340
14
 93
        0
 40
0.045
309
GRIDFORMAT_END
 95
       32
302
GRIDFORMAT
  1
GRIDFORMAT_BEGIN
 90
        0
 91
        1
 62
     0
 92
       -2
340
14
 93
        0
 40
0.045
309
GRIDFORMAT_END
309
TABLEFORMAT_END
  1
CELLSTYLE_BEGIN
 90
        2
 91
        1
300
_HEADER
309
CELLSTYLE_END
300
CELLSTYLE
  1
TABLEFORMAT_BEGIN
 90
        5
170
     1
 91
        0
 92
        0
 62
   257
 93
        1
300
CONTENTFORMAT
  1
CONTENTFORMAT_BEGIN
 90
        0
 91
        0
 92
        4
 93
        0
300

 40
0.0
140
1.0
 94
        2
 62
     0
340
11
144
0.18
309
CONTENTFORMAT_END
171
     1
301
MARGIN
  1
CELLMARGIN_BEGIN
 40
0.06
 40
0.06
 40
0.06
 40
0.06
 40
0.06
 40
0.06
309
CELLMARGIN_END
 94
        6
 95
        1
302
GRIDFORMAT
  1
GRIDFORMAT_BEGIN
 90
        0
 91
        1
 62
     0
 92
       -2
340
14
 93
        0
 40
0.045
309
GRIDFORMAT_END
 95
        2
302
GRIDFORMAT
  1
GRIDFORMAT_BEGIN
 90
        0
 91
        1
 62
     0
 92
       -2
340
14
 93
        0
 40
0.045
309
GRIDFORMAT_END
 95
        4
302
GRIDFORMAT
  1
GRIDFORMAT_BEGIN
 90
        0
 91
        1
 62
     0
 92
       -2
340
14
 93
        0
 40
0.045
309
GRIDFORMAT_END
 95
        8
302
GRIDFORMAT
  1
GRIDFORMAT_BEGIN
 90
        0
 91
        1
 62
     0
 92
       -2
340
14
 93
        0
 40
0.045
309
GRIDFORMAT_END
 95
       16
302
GRIDFORMAT
  1
GRIDFORMAT_BEGIN
 90
        0
 91
        1
 62
     0
 92
       -2
340
14
 93
        0
 40
0.045
309
GRIDFORMAT_END
 95
       32
302
GRIDFORMAT
  1
GRIDFORMAT_BEGIN
 90
        0
 91
        1
 62
     0
 92
       -2
340
14
 93
        0
 40
0.045
309
GRIDFORMAT_END
309
TABLEFORMAT_END
  1
CELLSTYLE_BEGIN
 90
        3
 91
        2
300
_DATA
309
CELLSTYLE_END
  0
ENDSEC
  0
EOF