0
SECTION
  2
HEADER
  9
$ACADVER
  1
AC1027
  9
$ACADMAINTVER
 70
     8
  9
$DWGCODEPAGE
  3
ANSI_1252
  9
$REQUIREDVERSIONS
160
                 0
  9
$COMMENTS
  1
File was created by Cadenas
  9
$CUSTOMPROPERTYTAG
  1
NN
  9
$CUSTOMPROPERTY
  1
Grip Tight Two-Bolt Flange - Polymer Housing, Corrosion Resistant Insert Inch Bore
  9
$CUSTOMPROPERTYTAG
  1
NT
  9
$CUSTOMPROPERTY
  1
GTEZ Normal Duty Polymer Housed 2 Bolt Flange Bearings
  9
$CUSTOMPROPERTYTAG
  1
NB
  9
$CUSTOMPROPERTY
  1
129343
  9
$CUSTOMPROPERTYTAG
  1
NBSYN
  9
$CUSTOMPROPERTY
  1
$PN.$LUBE.
  9
$CUSTOMPROPERTYTAG
  1
LINA
  9
$CUSTOMPROPERTY
  1
129343
  9
$CUSTOMPROPERTYTAG
  1
SERIES
  9
$CUSTOMPROPERTY
  1
206
  9
$CUSTOMPROPERTYTAG
  1
SS
  9
$CUSTOMPROPERTY
  1
1-3/16
  9
$CUSTOMPROPERTYTAG
  1
PN
  9
$CUSTOMPROPERTY
  1
129343
  9
$CUSTOMPROPERTYTAG
  1
DESCRIPTION
  9
$CUSTOMPROPERTY
  1
F2B-GTEZ-103-PCR
  9
$CUSTOMPROPERTYTAG
  1
A
  9
$CUSTOMPROPERTY
  1
1-39/64
  9
$CUSTOMPROPERTYTAG
  1
B
  9
$CUSTOMPROPERTY
  1
5-19/32
  9
$CUSTOMPROPERTYTAG
  1
C
  9
$CUSTOMPROPERTY
  1
1-53/64
  9
$CUSTOMPROPERTYTAG
  1
D
  9
$CUSTOMPROPERTY
  1
4-19/32
  9
$CUSTOMPROPERTYTAG
  1
F
  9
$CUSTOMPROPERTY
  1
3/8
  9
$CUSTOMPROPERTYTAG
  1
H
  9
$CUSTOMPROPERTY
  1
39/64
  9
$CUSTOMPROPERTYTAG
  1
J
  9
$CUSTOMPROPERTY
  1
35/64
  9
$CUSTOMPROPERTYTAG
  1
L
  9
$CUSTOMPROPERTY
  1
2
  9
$CUSTOMPROPERTYTAG
  1
M
  9
$CUSTOMPROPERTY
  1
3-13/64
  9
$CUSTOMPROPERTYTAG
  1
Z
  9
$CUSTOMPROPERTY
  1
1-25/32
  9
$CUSTOMPROPERTYTAG
  1
COMPANY
  9
$CUSTOMPROPERTY
  1
baldor
  9
$INSBASE
 10
0.0
 20
0.0
 30
0.0
  9
$EXTMIN
 10
1.000000000000000E+20
 20
1.000000000000000E+20
 30
1.000000000000000E+20
  9
$EXTMAX
 10
-1.000000000000000E+20
 20
-1.000000000000000E+20
 30
-1.000000000000000E+20
  9
$LIMMIN
 10
0.0
 20
0.0
  9
$LIMMAX
 10
12.0
 20
9.0
  9
$ORTHOMODE
 70
     0
  9
$REGENMODE
 70
     1
  9
$FILLMODE
 70
     1
  9
$QTEXTMODE
 70
     0
  9
$MIRRTEXT
 70
     1
  9
$LTSCALE
 40
1.0
  9
$ATTMODE
 70
     1
  9
$TEXTSIZE
 40
0.2
  9
$TRACEWID
 40
0.05
  9
$TEXTSTYLE
  7
Standard
  9
$CLAYER
  8
0
  9
$CELTYPE
  6
ByLayer
  9
$CECOLOR
 62
   256
  9
$CELTSCALE
 40
1.0
  9
$DISPSILH
 70
     0
  9
$DIMSCALE
 40
1.0
  9
$DIMASZ
 40
0.18
  9
$DIMEXO
 40
0.0625
  9
$DIMDLI
 40
0.38
  9
$DIMRND
 40
0.0
  9
$DIMDLE
 40
0.0
  9
$DIMEXE
 40
0.18
  9
$DIMTP
 40
0.0
  9
$DIMTM
 40
0.0
  9
$DIMTXT
 40
0.18
  9
$DIMCEN
 40
0.09
  9
$DIMTSZ
 40
0.0
  9
$DIMTOL
 70
     0
  9
$DIMLIM
 70
     0
  9
$DIMTIH
 70
     1
  9
$DIMTOH
 70
     1
  9
$DIMSE1
 70
     0
  9
$DIMSE2
 70
     0
  9
$DIMTAD
 70
     0
  9
$DIMZIN
 70
     0
  9
$DIMBLK
  1

  9
$DIMASO
 70
     1
  9
$DIMSHO
 70
     1
  9
$DIMPOST
  1

  9
$DIMAPOST
  1

  9
$DIMALT
 70
     0
  9
$DIMALTD
 70
     2
  9
$DIMALTF
 40
25.4
  9
$DIMLFAC
 40
1.0
  9
$DIMTOFL
 70
     0
  9
$DIMTVP
 40
0.0
  9
$DIMTIX
 70
     0
  9
$DIMSOXD
 70
     0
  9
$DIMSAH
 70
     0
  9
$DIMBLK1
  1

  9
$DIMBLK2
  1

  9
$DIMSTYLE
  2
Standard
  9
$DIMCLRD
 70
     0
  9
$DIMCLRE
 70
     0
  9
$DIMCLRT
 70
     0
  9
$DIMTFAC
 40
1.0
  9
$DIMGAP
 40
0.09
  9
$DIMJUST
 70
     0
  9
$DIMSD1
 70
     0
  9
$DIMSD2
 70
     0
  9
$DIMTOLJ
 70
     1
  9
$DIMTZIN
 70
     0
  9
$DIMALTZ
 70
     0
  9
$DIMALTTZ
 70
     0
  9
$DIMUPT
 70
     0
  9
$DIMDEC
 70
     4
  9
$DIMTDEC
 70
     4
  9
$DIMALTU
 70
     2
  9
$DIMALTTD
 70
     2
  9
$DIMTXSTY
  7
Standard
  9
$DIMAUNIT
 70
     0
  9
$DIMADEC
 70
     0
  9
$DIMALTRND
 40
0.0
  9
$DIMAZIN
 70
     0
  9
$DIMDSEP
 70
    46
  9
$DIMATFIT
 70
     3
  9
$DIMFRAC
 70
     0
  9
$DIMLDRBLK
  1

  9
$DIMLUNIT
 70
     2
  9
$DIMLWD
 70
    -2
  9
$DIMLWE
 70
    -2
  9
$DIMTMOVE
 70
     0
  9
$DIMFXL
 40
1.0
  9
$DIMFXLON
 70
     0
  9
$DIMJOGANG
 40
0.7853981633974483
  9
$DIMTFILL
 70
     0
  9
$DIMTFILLCLR
 70
     0
  9
$DIMARCSYM
 70
     0
  9
$DIMLTYPE
  6

  9
$DIMLTEX1
  6

  9
$DIMLTEX2
  6

  9
$DIMTXTDIRECTION
 70
     0
  9
$LUNITS
 70
     2
  9
$LUPREC
 70
     4
  9
$SKETCHINC
 40
0.1
  9
$FILLETRAD
 40
0.5
  9
$AUNITS
 70
     0
  9
$AUPREC
 70
     0
  9
$MENU
  1
.
  9
$ELEVATION
 40
0.0
  9
$PELEVATION
 40
0.0
  9
$THICKNESS
 40
0.0
  9
$LIMCHECK
 70
     0
  9
$CHAMFERA
 40
0.0
  9
$CHAMFERB
 40
0.0
  9
$CHAMFERC
 40
0.0
  9
$CHAMFERD
 40
0.0
  9
$SKPOLY
 70
     0
  9
$TDCREATE
 40
2458168.992548611
  9
$TDUCREATE
 40
2458168.950881945
  9
$TDUPDATE
 40
2458168.992548611
  9
$TDUUPDATE
 40
2458168.950881945
  9
$TDINDWG
 40
0.0000000116
  9
$TDUSRTIMER
 40
0.0000000116
  9
$USRTIMER
 70
     1
  9
$ANGBASE
 50
0.0
  9
$ANGDIR
 70
     0
  9
$PDMODE
 70
     0
  9
$PDSIZE
 40
0.0
  9
$PLINEWID
 40
0.0
  9
$SPLFRAME
 70
     0
  9
$SPLINETYPE
 70
     6
  9
$SPLINESEGS
 70
     8
  9
$HANDSEED
  5
1B4
  9
$SURFTAB1
 70
     6
  9
$SURFTAB2
 70
     6
  9
$SURFTYPE
 70
     6
  9
$SURFU
 70
     6
  9
$SURFV
 70
     6
  9
$UCSBASE
  2

  9
$UCSNAME
  2

  9
$UCSORG
 10
0.0
 20
0.0
 30
0.0
  9
$UCSXDIR
 10
1.0
 20
0.0
 30
0.0
  9
$UCSYDIR
 10
0.0
 20
1.0
 30
0.0
  9
$UCSORTHOREF
  2

  9
$UCSORTHOVIEW
 70
     0
  9
$UCSORGTOP
 10
0.0
 20
0.0
 30
0.0
  9
$UCSORGBOTTOM
 10
0.0
 20
0.0
 30
0.0
  9
$UCSORGLEFT
 10
0.0
 20
0.0
 30
0.0
  9
$UCSORGRIGHT
 10
0.0
 20
0.0
 30
0.0
  9
$UCSORGFRONT
 10
0.0
 20
0.0
 30
0.0
  9
$UCSORGBACK
 10
0.0
 20
0.0
 30
0.0
  9
$PUCSBASE
  2

  9
$PUCSNAME
  2

  9
$PUCSORG
 10
0.0
 20
0.0
 30
0.0
  9
$PUCSXDIR
 10
1.0
 20
0.0
 30
0.0
  9
$PUCSYDIR
 10
0.0
 20
1.0
 30
0.0
  9
$PUCSORTHOREF
  2

  9
$PUCSORTHOVIEW
 70
     0
  9
$PUCSORGTOP
 10
0.0
 20
0.0
 30
0.0
  9
$PUCSORGBOTTOM
 10
0.0
 20
0.0
 30
0.0
  9
$PUCSORGLEFT
 10
0.0
 20
0.0
 30
0.0
  9
$PUCSORGRIGHT
 10
0.0
 20
0.0
 30
0.0
  9
$PUCSORGFRONT
 10
0.0
 20
0.0
 30
0.0
  9
$PUCSORGBACK
 10
0.0
 20
0.0
 30
0.0
  9
$USERI1
 70
     0
  9
$USERI2
 70
     0
  9
$USERI3
 70
     0
  9
$USERI4
 70
     0
  9
$USERI5
 70
     0
  9
$USERR1
 40
0.0
  9
$USERR2
 40
0.0
  9
$USERR3
 40
0.0
  9
$USERR4
 40
0.0
  9
$USERR5
 40
0.0
  9
$WORLDVIEW
 70
     1
  9
$SHADEDGE
 70
     3
  9
$SHADEDIF
 70
    70
  9
$TILEMODE
 70
     1
  9
$MAXACTVP
 70
    64
  9
$PINSBASE
 10
0.0
 20
0.0
 30
0.0
  9
$PLIMCHECK
 70
     0
  9
$PEXTMIN
 10
1.000000000000000E+20
 20
1.000000000000000E+20
 30
1.000000000000000E+20
  9
$PEXTMAX
 10
-1.000000000000000E+20
 20
-1.000000000000000E+20
 30
-1.000000000000000E+20
  9
$PLIMMIN
 10
0.0
 20
0.0
  9
$PLIMMAX
 10
12.0
 20
9.0
  9
$UNITMODE
 70
     0
  9
$VISRETAIN
 70
     1
  9
$PLINEGEN
 70
     0
  9
$PSLTSCALE
 70
     1
  9
$TREEDEPTH
 70
  3020
  9
$CMLSTYLE
  2
Standard
  9
$CMLJUST
 70
     0
  9
$CMLSCALE
 40
1.0
  9
$PROXYGRAPHICS
 70
     1
  9
$MEASUREMENT
 70
     0
  9
$CELWEIGHT
370
    -1
  9
$ENDCAPS
280
     0
  9
$JOINSTYLE
280
     0
  9
$LWDISPLAY
290
     0
  9
$INSUNITS
 70
     1
  9
$HYPERLINKBASE
  1

  9
$STYLESHEET
  1

  9
$XEDIT
290
     1
  9
$CEPSNTYPE
380
     0
  9
$PSTYLEMODE
290
     1
  9
$FINGERPRINTGUID
  2
{7FCF5CAD-2555-4465-974F-5C7723E9B52C}
  9
$VERSIONGUID
  2
{FAEB1C32-E019-11D5-929B-00C0DF256EC4}
  9
$EXTNAMES
290
     1
  9
$PSVPSCALE
 40
0.0
  9
$OLESTARTUP
290
     0
  9
$SORTENTS
280
   127
  9
$INDEXCTL
280
     0
  9
$HIDETEXT
280
     1
  9
$XCLIPFRAME
280
     2
  9
$HALOGAP
280
     0
  9
$OBSCOLOR
 70
   257
  9
$OBSLTYPE
280
     0
  9
$INTERSECTIONDISPLAY
280
     0
  9
$INTERSECTIONCOLOR
 70
   257
  9
$DIMASSOC
280
     2
  9
$PROJECTNAME
  1

  9
$CAMERADISPLAY
290
     0
  9
$LENSLENGTH
 40
50.0
  9
$CAMERAHEIGHT
 40
0.0
  9
$STEPSPERSEC
 40
2.0
  9
$STEPSIZE
 40
6.0
  9
$3DDWFPREC
 40
2.0
  9
$PSOLWIDTH
 40
0.25
  9
$PSOLHEIGHT
 40
4.0
  9
$LOFTANG1
 40
1.570796326794897
  9
$LOFTANG2
 40
1.570796326794897
  9
$LOFTMAG1
 40
0.0
  9
$LOFTMAG2
 40
0.0
  9
$LOFTPARAM
 70
     7
  9
$LOFTNORMALS
280
     1
  9
$LATITUDE
 40
37.795
  9
$LONGITUDE
 40
-122.394
  9
$NORTHDIRECTION
 40
0.0
  9
$TIMEZONE
 70
 -8000
  9
$LIGHTGLYPHDISPLAY
280
     1
  9
$TILEMODELIGHTSYNCH
280
     1
  9
$CMATERIAL
347
44
  9
$SOLIDHIST
280
     0
  9
$SHOWHIST
280
     1
  9
$DWFFRAME
280
     2
  9
$DGNFRAME
280
     2
  9
$REALWORLDSCALE
290
     1
  9
$INTERFERECOLOR
 62
   256
  9
$CSHADOW
280
     0
  9
$SHADOWPLANELOCATION
 40
0.0
  0
ENDSEC
  0
SECTION
  2
CLASSES
  0
CLASS
  1
ACDBDICTIONARYWDFLT
  2
AcDbDictionaryWithDefault
  3
ObjectDBX Classes
 90
        0
 91
        4
280
     0
281
     0
  0
CLASS
  1
VISUALSTYLE
  2
AcDbVisualStyle
  3
ObjectDBX Classes
 90
     4095
 91
        4
280
     0
281
     0
  0
CLASS
  1
MATERIAL
  2
AcDbMaterial
  3
ObjectDBX Classes
 90
     1153
 91
        4
280
     0
281
     0
  0
CLASS
  1
SCALE
  2
AcDbScale
  3
ObjectDBX Classes
 90
     1153
 91
        4
280
     0
281
     0
  0
CLASS
  1
TABLESTYLE
  2
AcDbTableStyle
  3
ObjectDBX Classes
 90
     4095
 91
        4
280
     0
281
     0
  0
CLASS
  1
MLEADERSTYLE
  2
AcDbMLeaderStyle
  3
ACDB_MLEADERSTYLE_CLASS
 90
     4095
 91
        4
280
     0
281
     0
  0
CLASS
  1
SUN
  2
AcDbSun
  3
SCENEOE
 90
     1153
 91
        4
280
     0
281
     0
  0
CLASS
  1
DICTIONARYVAR
  2
AcDbDictionaryVar
  3
ObjectDBX Classes
 90
        0
 91
        4
280
     0
281
     0
  0
CLASS
  1
CELLSTYLEMAP
  2
AcDbCellStyleMap
  3
ObjectDBX Classes
 90
     1152
 91
        4
280
     0
281
     0
  0
ENDSEC
  0
SECTION
  2
TABLES
  0
TABLE
  2
VPORT
  5
8
330
0
100
AcDbSymbolTable
 70
     1
  0
VPORT
  5
29
330
8
100
AcDbSymbolTableRecord
100
AcDbViewportTableRecord
  2
*Active
 70
     0
 10
0.0
 20
0.0
 11
1.0
 21
1.0
 12
-0.9072243749999984
 22
0.0
 13
0.0
 23
0.0
 14
0.5
 24
0.5
 15
0.5
 25
0.5
 16
0.0
 26
0.0
 36
1.0
 17
0.0
 27
0.0
 37
0.0
 40
5.705880000000001
 41
0.3581048891669648
 42
50.0
 43
0.0
 44
0.0
 50
0.0
 51
0.0
 71
     0
 72
   100
 73
     1
 74
     3
 75
     0
 76
     0
 77
     0
 78
     0
281
     0
 65
     1
110
0.0
120
0.0
130
0.0
111
1.0
121
0.0
131
0.0
112
0.0
122
1.0
132
0.0
 79
     0
146
0.0
348
2F
 60
     3
 61
     5
292
     1
282
     1
141
0.0
142
0.0
 63
   250
361
6D
  0
ENDTAB
  0
TABLE
  2
LTYPE
  5
5
330
0
100
AcDbSymbolTable
 70
     3
  0
LTYPE
  5
14
330
5
100
AcDbSymbolTableRecord
100
AcDbLinetypeTableRecord
  2
ByBlock
 70
     0
  3

 72
    65
 73
     0
 40
0.0
  0
LTYPE
  5
15
330
5
100
AcDbSymbolTableRecord
100
AcDbLinetypeTableRecord
  2
ByLayer
 70
     0
  3

 72
    65
 73
     0
 40
0.0
  0
LTYPE
  5
16
330
5
100
AcDbSymbolTableRecord
100
AcDbLinetypeTableRecord
  2
Continuous
 70
     0
  3
Solid line
 72
    65
 73
     0
 40
0.0
  0
LTYPE
  5
9D
330
5
100
AcDbSymbolTableRecord
100
AcDbLinetypeTableRecord
  2
Dashed
 70
     0
  3

 72
    65
 73
     2
 40
2.0
 49
1.0
 74
     0
 49
-1.0
 74
     0
  0
LTYPE
  5
10D
330
5
100
AcDbSymbolTableRecord
100
AcDbLinetypeTableRecord
  2
Center
 70
     0
  3

 72
    65
 73
     4
 40
1.5
 49
0.45
 74
     0
 49
-0.5
 74
     0
 49
0.05
 74
     0
 49
-0.5
 74
     0
  0
ENDTAB
  0
TABLE
  2
LAYER
  5
2
330
0
100
AcDbSymbolTable
 70
     7
  0
LAYER
  5
10
330
2
100
AcDbSymbolTableRecord
100
AcDbLayerTableRecord
  2
0
 70
     0
 62
     7
  6
Continuous
370
    -3
390
F
347
46
348
0
  0
LAYER
  5
72
330
2
100
AcDbSymbolTableRecord
100
AcDbLayerTableRecord
  2
AM_6
 70
     0
 62
    -2
  6
Continuous
370
    35
390
F
347
46
348
0
  0
LAYER
  5
9E
330
2
100
AcDbSymbolTableRecord
100
AcDbLayerTableRecord
  2
AM_9
 70
     0
 62
     6
  6
Dashed
370
    25
390
F
347
46
348
0
  0
LAYER
  5
CB
330
2
100
AcDbSymbolTableRecord
100
AcDbLayerTableRecord
  2
AM_4
 70
     0
 62
     7
  6
Continuous
370
    50
390
F
347
46
348
0
  0
LAYER
  5
10E
330
2
100
AcDbSymbolTableRecord
100
AcDbLayerTableRecord
  2
AM_7
 70
     0
 62
     7
  6
Center
370
    25
390
F
347
46
348
0
  0
LAYER
  5
121
330
2
100
AcDbSymbolTableRecord
100
AcDbLayerTableRecord
  2
AM_5
 70
     0
 62
     3
  6
Continuous
370
    25
390
F
347
46
348
0
  0
LAYER
  5
1A7
330
2
100
AcDbSymbolTableRecord
100
AcDbLayerTableRecord
  2
ConnectionPoints
 70
     0
 62
     7
  6
Continuous
370
    50
390
F
347
46
348
0
  0
ENDTAB
  0
TABLE
  2
STYLE
  5
3
330
0
100
AcDbSymbolTable
 70
     1
  0
STYLE
  5
11
330
3
100
AcDbSymbolTableRecord
100
AcDbTextStyleTableRecord
  2
Standard
 70
     0
 40
0.0
 41
1.0
 50
0.0
 71
     0
 42
0.2
  3
txt
  4

  0
ENDTAB
  0
TABLE
  2
VIEW
  5
6
330
0
100
AcDbSymbolTable
 70
     0
  0
ENDTAB
  0
TABLE
  2
UCS
  5
7
330
0
100
AcDbSymbolTable
 70
     0
  0
ENDTAB
  0
TABLE
  2
APPID
  5
9
330
0
100
AcDbSymbolTable
 70
     1
  0
APPID
  5
12
330
9
100
AcDbSymbolTableRecord
100
AcDbRegAppTableRecord
  2
ACAD
 70
     0
  0
ENDTAB
  0
TABLE
  2
DIMSTYLE
  5
A
330
0
100
AcDbSymbolTable
 70
     1
100
AcDbDimStyleTable
  0
DIMSTYLE
105
27
330
A
100
AcDbSymbolTableRecord
100
AcDbDimStyleTableRecord
  2
Standard
 70
     0
178
     0
340
11
  0
ENDTAB
  0
TABLE
  2
BLOCK_RECORD
  5
1
330
0
100
AcDbSymbolTable
 70
     5
  0
BLOCK_RECORD
  5
1F
330
1
100
AcDbSymbolTableRecord
100
AcDbBlockTableRecord
  2
*Model_Space
340
22
 70
     0
280
     1
281
     0
  0
BLOCK_RECORD
  5
1B
330
1
100
AcDbSymbolTableRecord
100
AcDbBlockTableRecord
  2
*Paper_Space
340
1E
 70
     0
280
     1
281
     0
  0
BLOCK_RECORD
  5
23
330
1
100
AcDbSymbolTableRecord
100
AcDbBlockTableRecord
  2
*Paper_Space0
340
26
 70
     0
280
     1
281
     0
  0
BLOCK_RECORD
  5
6E
330
1
100
AcDbSymbolTableRecord
100
AcDbBlockTableRecord
  2
1_129343_2
340
0
102
{BLKREFS
331
6F
102
}
 70
     0
280
     1
281
     0
  0
BLOCK_RECORD
  5
87
330
1
100
AcDbSymbolTableRecord
100
AcDbBlockTableRecord
  2
2_INS_GT_06_CRI_0_in_129343_2
340
0
102
{BLKREFS
331
88
102
}
 70
     0
280
     1
281
     0
  0
BLOCK_RECORD
  5
CF
330
1
100
AcDbSymbolTableRecord
100
AcDbBlockTableRecord
  2
3_129971_0_in_129343_2
340
0
102
{BLKREFS
331
D0
102
}
 70
     0
280
     1
281
     0
  0
BLOCK_RECORD
  5
123
330
1
100
AcDbSymbolTableRecord
100
AcDbBlockTableRecord
  2
4_F2B_GREZ_06_PCR_II_0_in_129343_2
340
0
102
{BLKREFS
331
124
102
}
 70
     0
280
     1
281
     0
  0
ENDTAB
  0
ENDSEC
  0
SECTION
  2
BLOCKS
  0
BLOCK
  5
20
330
1F
100
AcDbEntity
  8
0
100
AcDbBlockBegin
  2
*Model_Space
 70
     0
 10
0.0
 20
0.0
 30
0.0
  3
*Model_Space
  1

  0
ENDBLK
  5
21
330
1F
100
AcDbEntity
  8
0
100
AcDbBlockEnd
  0
BLOCK
  5
1C
330
1B
100
AcDbEntity
 67
     1
  8
0
100
AcDbBlockBegin
  2
*Paper_Space
 70
     0
 10
0.0
 20
0.0
 30
0.0
  3
*Paper_Space
  1

  0
ENDBLK
  5
1D
330
1B
100
AcDbEntity
 67
     1
  8
0
100
AcDbBlockEnd
  0
BLOCK
  5
24
330
23
100
AcDbEntity
  8
0
100
AcDbBlockBegin
  2
*Paper_Space0
 70
     0
 10
0.0
 20
0.0
 30
0.0
  3
*Paper_Space0
  1

  0
ENDBLK
  5
25
330
23
100
AcDbEntity
  8
0
100
AcDbBlockEnd
  0
BLOCK
  5
70
330
6E
100
AcDbEntity
  8
0
100
AcDbBlockBegin
  2
1_129343_2
 70
     2
 10
0.0
 20
0.0
 30
0.0
  3
1_129343_2
  1

  0
ATTDEF
  5
73
330
6E
100
AcDbEntity
  8
AM_6
100
AcDbText
 10
5.094395
 20
2.797
 30
0.0
 40
0.5
  1
Grip Tight Two-Bolt Flange - Polymer Housing, Corrosion Resistant Insert Inch Bore
100
AcDbAttributeDefinition
  3

  2
NN
 70
     8
280
     0
  0
ATTDEF
  5
74
330
6E
100
AcDbEntity
  8
AM_6
100
AcDbText
 10
5.094395
 20
2.297
 30
0.0
 40
0.5
  1
GTEZ Normal Duty Polymer Housed 2 Bolt Flange Bearings
100
AcDbAttributeDefinition
  3

  2
NT
 70
     8
280
     0
  0
ATTDEF
  5
75
330
6E
100
AcDbEntity
  8
AM_6
100
AcDbText
 10
5.094395
 20
1.797
 30
0.0
 40
0.5
  1
129343
100
AcDbAttributeDefinition
  3

  2
NB
 70
     8
280
     0
  0
ATTDEF
  5
76
330
6E
100
AcDbEntity
  8
AM_6
100
AcDbText
 10
5.094395
 20
1.297
 30
0.0
 40
0.5
  1
$PN.$LUBE.
100
AcDbAttributeDefinition
  3

  2
NBSYN
 70
     8
280
     0
  0
ATTDEF
  5
77
330
6E
100
AcDbEntity
  8
AM_6
100
AcDbText
 10
5.094395
 20
0.7970000000000002
 30
0.0
 40
0.5
  1
129343
100
AcDbAttributeDefinition
  3

  2
LINA
 70
     8
280
     0
  0
ATTDEF
  5
78
330
6E
100
AcDbEntity
  8
AM_6
100
AcDbText
 10
5.094395
 20
0.2970000000000002
 30
0.0
 40
0.5
  1
206
100
AcDbAttributeDefinition
  3

  2
SERIES
 70
     8
280
     0
  0
ATTDEF
  5
79
330
6E
100
AcDbEntity
  8
AM_6
100
AcDbText
 10
5.094395
 20
-0.2029999999999998
 30
0.0
 40
0.5
  1
1-3/16
100
AcDbAttributeDefinition
  3

  2
SS
 70
     8
280
     0
  0
ATTDEF
  5
7A
330
6E
100
AcDbEntity
  8
AM_6
100
AcDbText
 10
5.094395
 20
-0.7029999999999998
 30
0.0
 40
0.5
  1
129343
100
AcDbAttributeDefinition
  3

  2
PN
 70
     8
280
     0
  0
ATTDEF
  5
7B
330
6E
100
AcDbEntity
  8
AM_6
100
AcDbText
 10
5.094395
 20
-1.203
 30
0.0
 40
0.5
  1
F2B-GTEZ-103-PCR
100
AcDbAttributeDefinition
  3

  2
DESCRIPTION
 70
     8
280
     0
  0
ATTDEF
  5
7C
330
6E
100
AcDbEntity
  8
AM_6
100
AcDbText
 10
5.094395
 20
-1.703
 30
0.0
 40
0.5
  1
1-39/64
100
AcDbAttributeDefinition
  3

  2
A
 70
     8
280
     0
  0
ATTDEF
  5
7D
330
6E
100
AcDbEntity
  8
AM_6
100
AcDbText
 10
5.094395
 20
-2.203
 30
0.0
 40
0.5
  1
5-19/32
100
AcDbAttributeDefinition
  3

  2
B
 70
     8
280
     0
  0
ATTDEF
  5
7E
330
6E
100
AcDbEntity
  8
AM_6
100
AcDbText
 10
5.094395
 20
-2.703
 30
0.0
 40
0.5
  1
1-53/64
100
AcDbAttributeDefinition
  3

  2
C
 70
     8
280
     0
  0
ATTDEF
  5
7F
330
6E
100
AcDbEntity
  8
AM_6
100
AcDbText
 10
5.094395
 20
-3.203
 30
0.0
 40
0.5
  1
4-19/32
100
AcDbAttributeDefinition
  3

  2
D
 70
     8
280
     0
  0
ATTDEF
  5
80
330
6E
100
AcDbEntity
  8
AM_6
100
AcDbText
 10
5.094395
 20
-3.703
 30
0.0
 40
0.5
  1
3/8
100
AcDbAttributeDefinition
  3

  2
F
 70
     8
280
     0
  0
ATTDEF
  5
81
330
6E
100
AcDbEntity
  8
AM_6
100
AcDbText
 10
5.094395
 20
-4.202999999999999
 30
0.0
 40
0.5
  1
39/64
100
AcDbAttributeDefinition
  3

  2
H
 70
     8
280
     0
  0
ATTDEF
  5
82
330
6E
100
AcDbEntity
  8
AM_6
100
AcDbText
 10
5.094395
 20
-4.702999999999999
 30
0.0
 40
0.5
  1
35/64
100
AcDbAttributeDefinition
  3

  2
J
 70
     8
280
     0
  0
ATTDEF
  5
83
330
6E
100
AcDbEntity
  8
AM_6
100
AcDbText
 10
5.094395
 20
-5.202999999999999
 30
0.0
 40
0.5
  1
2
100
AcDbAttributeDefinition
  3

  2
L
 70
     8
280
     0
  0
ATTDEF
  5
84
330
6E
100
AcDbEntity
  8
AM_6
100
AcDbText
 10
5.094395
 20
-5.702999999999999
 30
0.0
 40
0.5
  1
3-13/64
100
AcDbAttributeDefinition
  3

  2
M
 70
     8
280
     0
  0
ATTDEF
  5
85
330
6E
100
AcDbEntity
  8
AM_6
100
AcDbText
 10
5.094395
 20
-6.202999999999999
 30
0.0
 40
0.5
  1
1-25/32
100
AcDbAttributeDefinition
  3

  2
Z
 70
     8
280
     0
  0
ATTDEF
  5
86
330
6E
100
AcDbEntity
  8
AM_6
100
AcDbText
 10
5.094395
 20
-6.702999999999999
 30
0.0
 40
0.5
  1
baldor
100
AcDbAttributeDefinition
  3

  2
COMPANY
 70
     8
280
     0
  0
INSERT
  5
88
330
6E
100
AcDbEntity
  8
0
100
AcDbBlockReference
  2
2_INS_GT_06_CRI_0_in_129343_2
 10
0.0
 20
0.0
 30
0.0
  0
INSERT
  5
D0
330
6E
100
AcDbEntity
  8
0
100
AcDbBlockReference
  2
3_129971_0_in_129343_2
 10
0.0
 20
0.0
 30
0.0
  0
INSERT
  5
124
330
6E
100
AcDbEntity
  8
0
100
AcDbBlockReference
  2
4_F2B_GREZ_06_PCR_II_0_in_129343_2
 10
0.0
 20
0.0
 30
0.0
  0
ENDBLK
  5
71
330
6E
100
AcDbEntity
  8
0
100
AcDbBlockEnd
  0
BLOCK
  5
89
330
87
100
AcDbEntity
  8
0
100
AcDbBlockBegin
  2
2_INS_GT_06_CRI_0_in_129343_2
 70
     2
 10
0.0
 20
0.0
 30
0.0
  3
2_INS_GT_06_CRI_0_in_129343_2
  1

  0
ATTDEF
  5
8B
330
87
100
AcDbEntity
  8
AM_6
100
AcDbText
 10
4.727875
 20
1.220427915332193
 30
0.0
 40
0.5
  1
INS-GT-CR-I
100
AcDbAttributeDefinition
  3

  2
NN
 70
     8
280
     0
  0
ATTDEF
  5
8C
330
87
100
AcDbEntity
  8
AM_6
100
AcDbText
 10
4.727875
 20
0.7204279153321926
 30
0.0
 40
0.5
  1
GT Normal Duty Corrosion Resistant Bearing Inserts
100
AcDbAttributeDefinition
  3

  2
NT
 70
     8
280
     0
  0
ATTDEF
  5
8D
330
87
100
AcDbEntity
  8
AM_6
100
AcDbText
 10
4.727875
 20
0.2204279153321926
 30
0.0
 40
0.5
  1
INS-GT-06-CRI
100
AcDbAttributeDefinition
  3

  2
NB
 70
     8
280
     0
  0
ATTDEF
  5
8E
330
87
100
AcDbEntity
  8
AM_6
100
AcDbText
 10
4.727875
 20
-0.2795720846678074
 30
0.0
 40
0.5
  1
$PN.I
100
AcDbAttributeDefinition
  3

  2
NBSYN
 70
     8
280
     0
  0
ATTDEF
  5
8F
330
87
100
AcDbEntity
  8
AM_6
100
AcDbText
 10
4.727875
 20
-0.7795720846678074
 30
0.0
 40
0.5
  1
INS-GT-06-CR
100
AcDbAttributeDefinition
  3

  2
LINA
 70
     8
280
     0
  0
ATTDEF
  5
90
330
87
100
AcDbEntity
  8
AM_6
100
AcDbText
 10
4.727875
 20
-1.279572084667807
 30
0.0
 40
0.5
  1
206
100
AcDbAttributeDefinition
  3

  2
SERIES
 70
     8
280
     0
  0
ATTDEF
  5
91
330
87
100
AcDbEntity
  8
AM_6
100
AcDbText
 10
4.727875
 20
-1.779572084667807
 30
0.0
 40
0.5
  1
INS-GT-06-CR
100
AcDbAttributeDefinition
  3

  2
PN
 70
     8
280
     0
  0
ATTDEF
  5
92
330
87
100
AcDbEntity
  8
AM_6
100
AcDbText
 10
4.727875
 20
-2.279572084667807
 30
0.0
 40
0.5
  1
INS-GT-06-CR
100
AcDbAttributeDefinition
  3

  2
DESCRIPTION
 70
     8
280
     0
  0
ATTDEF
  5
93
330
87
100
AcDbEntity
  8
AM_6
100
AcDbText
 10
4.727875
 20
-2.779572084667807
 30
0.0
 40
0.5
  1
1-39/64
100
AcDbAttributeDefinition
  3

  2
A
 70
     8
280
     0
  0
ATTDEF
  5
94
330
87
100
AcDbEntity
  8
AM_6
100
AcDbText
 10
4.727875
 20
-3.279572084667807
 30
0.0
 40
0.5
  1
0.7087
100
AcDbAttributeDefinition
  3

  2
C
 70
     8
280
     0
  0
ATTDEF
  5
95
330
87
100
AcDbEntity
  8
AM_6
100
AcDbText
 10
4.727875
 20
-3.779572084667807
 30
0.0
 40
0.5
  1
2.4409
100
AcDbAttributeDefinition
  3

  2
D
 70
     8
280
     0
  0
ATTDEF
  5
96
330
87
100
AcDbEntity
  8
AM_6
100
AcDbText
 10
4.727875
 20
-4.279572084667807
 30
0.0
 40
0.5
  1
0.190
100
AcDbAttributeDefinition
  3

  2
J
 70
     8
280
     0
  0
ATTDEF
  5
97
330
87
100
AcDbEntity
  8
AM_6
100
AcDbText
 10
4.727875
 20
-4.779572084667807
 30
0.0
 40
0.5
  1
2
100
AcDbAttributeDefinition
  3

  2
L
 70
     8
280
     0
  0
ATTDEF
  5
98
330
87
100
AcDbEntity
  8
AM_6
100
AcDbText
 10
4.727875
 20
-5.279572084667807
 30
0.0
 40
0.5
  1
10 - 32 x 1/4
100
AcDbAttributeDefinition
  3

  2
N
 70
     8
280
     0
  0
ATTDEF
  5
99
330
87
100
AcDbEntity
  8
AM_6
100
AcDbText
 10
4.727875
 20
-5.779572084667807
 30
0.0
 40
0.5
  1
17/32
100
AcDbAttributeDefinition
  3

  2
W
 70
     8
280
     0
  0
ATTDEF
  5
9A
330
87
100
AcDbEntity
  8
AM_6
100
AcDbText
 10
4.727875
 20
-6.279572084667807
 30
0.0
 40
0.5
  1
1-1/32
100
AcDbAttributeDefinition
  3

  2
X
 70
     8
280
     0
  0
ATTDEF
  5
9B
330
87
100
AcDbEntity
  8
AM_6
100
AcDbText
 10
4.727875
 20
-6.779572084667807
 30
0.0
 40
0.5
  1
1-5/64
100
AcDbAttributeDefinition
  3

  2
Y
 70
     8
280
     0
  0
ATTDEF
  5
9C
330
87
100
AcDbEntity
  8
AM_6
100
AcDbText
 10
4.727875
 20
-7.279572084667807
 30
0.0
 40
0.5
  1
baldor
100
AcDbAttributeDefinition
  3

  2
COMPANY
 70
     8
280
     0
  0
LINE
  5
9F
330
87
100
AcDbEntity
  8
AM_9
100
AcDbLine
 10
-1.523686845154941
 20
-0.7460316888888887
 30
0.0
 11
-1.136968095154943
 21
-0.7460316888888887
 31
0.0
  0
LINE
  5
A0
330
87
100
AcDbEntity
  8
AM_9
100
AcDbLine
 10
-1.136968095154943
 20
0.7460316888888887
 30
0.0
 11
-1.523686845154941
 21
0.7460316888888887
 31
0.0
  0
LINE
  5
A1
330
87
100
AcDbEntity
  8
AM_9
100
AcDbLine
 10
-1.136968095154943
 20
0.7460316888888887
 30
0.0
 11
-1.136968095154943
 21
-0.7460316888888887
 31
0.0
  0
LINE
  5
A2
330
87
100
AcDbEntity
  8
AM_9
100
AcDbLine
 10
-1.136968095154943
 20
-0.7460316888888887
 30
0.0
 11
-0.272125
 21
-0.7762326752613241
 31
0.0
  0
LINE
  5
A3
330
87
100
AcDbEntity
  8
AM_9
100
AcDbLine
 10
-0.272125
 20
0.7762326752613241
 30
0.0
 11
-1.136968095154943
 21
0.7460316888888887
 31
0.0
  0
LINE
  5
A4
330
87
100
AcDbEntity
  8
AM_9
100
AcDbLine
 10
-1.39478059515494
 20
-0.817460288888889
 30
0.0
 11
-1.265875
 21
-0.817460288888889
 31
0.0
  0
LINE
  5
A5
330
87
100
AcDbEntity
  8
AM_9
100
AcDbLine
 10
-1.265875
 20
0.817460288888889
 30
0.0
 11
-1.39478059515494
 21
0.817460288888889
 31
0.0
  0
LINE
  5
A6
330
87
100
AcDbEntity
  8
AM_9
100
AcDbLine
 10
-1.523686845154941
 20
0.8605408888888888
 30
0.0
 11
-1.523686845154941
 21
-0.8605408888888888
 31
0.0
  0
LINE
  5
A7
330
87
100
AcDbEntity
  8
AM_9
100
AcDbLine
 10
-1.523686845154941
 20
-0.8605408888888888
 30
0.0
 11
-1.495338845154941
 21
-0.8888888888888888
 31
0.0
  0
LINE
  5
A8
330
87
100
AcDbEntity
  8
AM_9
100
AcDbLine
 10
-1.495338845154941
 20
0.8888888888888888
 30
0.0
 11
-1.523686845154941
 21
0.8605408888888888
 31
0.0
  0
LINE
  5
A9
330
87
100
AcDbEntity
  8
AM_9
100
AcDbLine
 10
-0.3959
 20
-0.8888888888888886
 30
0.0
 11
-0.3004729999999999
 21
-0.8888888888888886
 31
0.0
  0
LINE
  5
AA
330
87
100
AcDbEntity
  8
AM_9
100
AcDbLine
 10
-0.3004729999999999
 20
0.8888888888888886
 30
0.0
 11
-0.3959
 21
0.8888888888888886
 31
0.0
  0
LINE
  5
AB
330
87
100
AcDbEntity
  8
AM_9
100
AcDbLine
 10
-1.39478059515494
 20
0.8888888888888888
 30
0.0
 11
-1.39478059515494
 21
-0.8888888888888888
 31
0.0
  0
LINE
  5
AC
330
87
100
AcDbEntity
  8
AM_9
100
AcDbLine
 10
-1.495338845154941
 20
0.8888888888888888
 30
0.0
 11
-1.495338845154941
 21
-0.8888888888888888
 31
0.0
  0
LINE
  5
AD
330
87
100
AcDbEntity
  8
AM_9
100
AcDbLine
 10
-1.495338845154941
 20
-0.8888888888888888
 30
0.0
 11
-1.39478059515494
 21
-0.8888888888888888
 31
0.0
  0
LINE
  5
AE
330
87
100
AcDbEntity
  8
AM_9
100
AcDbLine
 10
-1.39478059515494
 20
0.8888888888888888
 30
0.0
 11
-1.495338845154941
 21
0.8888888888888888
 31
0.0
  0
LINE
  5
AF
330
87
100
AcDbEntity
  8
AM_9
100
AcDbLine
 10
-0.3004729999999999
 20
0.8888888888888888
 30
0.0
 11
-0.3004729999999999
 21
-0.8888888888888888
 31
0.0
  0
LINE
  5
B0
330
87
100
AcDbEntity
  8
AM_9
100
AcDbLine
 10
-0.272125
 20
0.8605408888888888
 30
0.0
 11
-0.272125
 21
-0.8605408888888888
 31
0.0
  0
LINE
  5
B1
330
87
100
AcDbEntity
  8
AM_9
100
AcDbLine
 10
-0.272125
 20
0.8605408888888888
 30
0.0
 11
-0.3004729999999999
 21
0.8888888888888888
 31
0.0
  0
LINE
  5
B2
330
87
100
AcDbEntity
  8
AM_9
100
AcDbLine
 10
-0.3004729999999999
 20
-0.8888888888888888
 30
0.0
 11
-0.272125
 21
-0.8605408888888888
 31
0.0
  0
LINE
  5
B3
330
87
100
AcDbEntity
  8
AM_9
100
AcDbLine
 10
-1.233999969513556
 20
-0.8888888888888888
 30
0.0
 11
-1.1046
 21
-0.8888888888888888
 31
0.0
  0
LINE
  5
B4
330
87
100
AcDbEntity
  8
AM_9
100
AcDbLine
 10
-1.1046
 20
0.8888888888888888
 30
0.0
 11
-1.233999969513556
 21
0.8888888888888887
 31
0.0
  0
LINE
  5
B5
330
87
100
AcDbEntity
  8
AM_9
100
AcDbLine
 10
-0.9782500000000002
 20
-1.14958
 30
0.0
 11
-0.9022499999999999
 21
-1.14958
 31
0.0
  0
LINE
  5
B6
330
87
100
AcDbEntity
  8
AM_9
100
AcDbLine
 10
-0.9022499999999999
 20
1.14958
 30
0.0
 11
-0.9782500000000002
 21
1.14958
 31
0.0
  0
LINE
  5
B7
330
87
100
AcDbEntity
  8
AM_9
100
AcDbLine
 10
-0.3959
 20
1.130466548018286
 30
0.0
 11
-0.3959
 21
-1.130466548015305
 31
0.0
  0
ARC
  5
B8
330
87
100
AcDbEntity
  8
AM_9
100
AcDbCircle
 10
-0.4242479999999995
 20
-1.130466548018287
 30
0.0
 40
0.0283479999999993
100
AcDbArc
 50
291.4124670468838
 51
0.0
  0
ARC
  5
B9
330
87
100
AcDbEntity
  8
AM_9
100
AcDbCircle
 10
-0.4242479999999995
 20
1.130466548018287
 30
0.0
 40
0.0283479999999995
100
AcDbArc
 50
0.0
 51
68.58753295311617
  0
LINE
  5
BA
330
87
100
AcDbEntity
  8
AM_9
100
AcDbLine
 10
-1.1046
 20
1.130466548018286
 30
0.0
 11
-1.1046
 21
-1.130466548015305
 31
0.0
  0
ARC
  5
BB
330
87
100
AcDbEntity
  8
AM_9
100
AcDbCircle
 10
-1.076252
 20
-1.130466548018286
 30
0.0
 40
0.028348
100
AcDbArc
 50
180.0
 51
248.5875329531164
  0
ARC
  5
BC
330
87
100
AcDbEntity
  8
AM_9
100
AcDbCircle
 10
-1.076252
 20
1.130466548018286
 30
0.0
 40
0.0283480000000002
100
AcDbArc
 50
111.4124670468836
 51
180.0
  0
LINE
  5
BD
330
87
100
AcDbEntity
  8
AM_9
100
AcDbLine
 10
-1.08660126984127
 20
1.156857867002994
 30
0.0
 11
-1.08660126984127
 21
-1.156857867002994
 31
0.0
  0
ARC
  5
BE
330
87
100
AcDbEntity
  8
AM_9
100
AcDbCircle
 10
-0.7502499999999181
 20
-0.299139999999752
 30
0.0
 40
0.9213100000002608
100
AcDbArc
 50
248.5875329531168
 51
255.0993329992722
  0
ARC
  5
BF
330
87
100
AcDbEntity
  8
AM_9
100
AcDbCircle
 10
-0.7502500000017678
 20
0.2991400000053902
 30
0.0
 40
0.9213099999943366
100
AcDbArc
 50
104.9006670007068
 51
111.4124670469041
  0
LINE
  5
C0
330
87
100
AcDbEntity
  8
AM_9
100
AcDbLine
 10
-0.9871593783189284
 20
1.189469187752788
 30
0.0
 11
-0.9871593783189284
 21
-1.189469187752788
 31
0.0
  0
LINE
  5
C1
330
87
100
AcDbEntity
  8
AM_9
100
AcDbLine
 10
-0.9782500000000002
 20
1.18262050129021
 30
0.0
 11
-0.9782500000000002
 21
-1.182620501287584
 31
0.0
  0
ARC
  5
C2
330
87
100
AcDbEntity
  8
AM_9
100
AcDbCircle
 10
-0.985337
 20
-1.18262050129021
 30
0.0
 40
0.0070869999999998
100
AcDbArc
 50
255.0993456677845
 51
0.0
  0
ARC
  5
C3
330
87
100
AcDbEntity
  8
AM_9
100
AcDbCircle
 10
-0.985337
 20
1.18262050129021
 30
0.0
 40
0.0070869999999998
100
AcDbArc
 50
0.0
 51
104.9006543322155
  0
LINE
  5
C4
330
87
100
AcDbEntity
  8
AM_9
100
AcDbLine
 10
-0.9022499999999999
 20
1.201804896935735
 30
0.0
 11
-0.9022499999999999
 21
-1.201804896935508
 31
0.0
  0
ARC
  5
C5
330
87
100
AcDbEntity
  8
AM_9
100
AcDbCircle
 10
-0.8951630000000002
 20
-1.201804896935735
 30
0.0
 40
0.0070869999999997
100
AcDbArc
 50
179.9999991462263
 51
260.8796090875509
  0
ARC
  5
C6
330
87
100
AcDbEntity
  8
AM_9
100
AcDbCircle
 10
-0.8951630000000002
 20
1.201804896935735
 30
0.0
 40
0.0070869999999997
100
AcDbArc
 50
99.12039091244903
 51
179.9999991462263
  0
LINE
  5
C7
330
87
100
AcDbEntity
  8
AM_9
100
AcDbLine
 10
-0.8962863565891473
 20
1.208802299237562
 30
0.0
 11
-0.8962863565891473
 21
-1.208802299237562
 31
0.0
  0
LINE
  5
C8
330
87
100
AcDbEntity
  8
AM_9
100
AcDbLine
 10
-0.41389873015873
 20
1.156857867002994
 30
0.0
 11
-0.4138987301587301
 21
-1.156857867002994
 31
0.0
  0
ARC
  5
C9
330
87
100
AcDbEntity
  8
AM_9
100
AcDbCircle
 10
-0.75025
 20
-0.2991400000000022
 30
0.0
 40
0.9213099999999981
100
AcDbArc
 50
260.8796090875506
 51
291.412467046884
  0
ARC
  5
CA
330
87
100
AcDbEntity
  8
AM_9
100
AcDbCircle
 10
-0.7502500000000021
 20
0.2991399999999823
 30
0.0
 40
0.9213100000000173
100
AcDbArc
 50
68.58753295311621
 51
99.12039091244907
  0
LINE
  5
CC
330
87
100
AcDbEntity
  8
AM_4
100
AcDbLine
 10
-1.26587434515494
 20
0.8888888888888888
 30
0.0
 11
-1.26587434515494
 21
-0.8888888888888888
 31
0.0
  0
LINE
  5
CD
330
87
100
AcDbEntity
  8
AM_4
100
AcDbLine
 10
-1.26587434515494
 20
-0.8888888888888888
 30
0.0
 11
-1.233999969513556
 21
-0.8888888888888888
 31
0.0
  0
LINE
  5
CE
330
87
100
AcDbEntity
  8
AM_4
100
AcDbLine
 10
-1.233999969513556
 20
0.8888888888888887
 30
0.0
 11
-1.26587434515494
 21
0.8888888888888888
 31
0.0
  0
ENDBLK
  5
8A
330
87
100
AcDbEntity
  8
0
100
AcDbBlockEnd
  0
BLOCK
  5
D1
330
CF
100
AcDbEntity
  8
0
100
AcDbBlockBegin
  2
3_129971_0_in_129343_2
 70
     2
 10
0.0
 20
0.0
 30
0.0
  3
3_129971_0_in_129343_2
  1

  0
ATTDEF
  5
D3
330
CF
100
AcDbEntity
  8
AM_6
100
AcDbText
 10
4.781
 20
1.0
 30
0.0
 40
0.5
  1
Grip Tight Adapter and Nut - Corrosion Resistant Inch Bore
100
AcDbAttributeDefinition
  3

  2
NN
 70
     8
280
     0
  0
ATTDEF
  5
D4
330
CF
100
AcDbEntity
  8
AM_6
100
AcDbText
 10
4.781
 20
0.5
 30
0.0
 40
0.5
  1
GT and GTM Adapter & Lock Nut Assemblies
100
AcDbAttributeDefinition
  3

  2
NT
 70
     8
280
     0
  0
ATTDEF
  5
D5
330
CF
100
AcDbEntity
  8
AM_6
100
AcDbText
 10
4.781
 20
0.0
 30
0.0
 40
0.5
  1
129971
100
AcDbAttributeDefinition
  3

  2
NB
 70
     8
280
     0
  0
ATTDEF
  5
D6
330
CF
100
AcDbEntity
  8
AM_6
100
AcDbText
 10
4.781
 20
-0.5
 30
0.0
 40
0.5
  1
$PN.
100
AcDbAttributeDefinition
  3

  2
NBSYN
 70
     8
280
     0
  0
ATTDEF
  5
D7
330
CF
100
AcDbEntity
  8
AM_6
100
AcDbText
 10
4.781
 20
-1.0
 30
0.0
 40
0.5
  1
129971
100
AcDbAttributeDefinition
  3

  2
LINA
 70
     8
280
     0
  0
ATTDEF
  5
D8
330
CF
100
AcDbEntity
  8
AM_6
100
AcDbText
 10
4.781
 20
-1.5
 30
0.0
 40
0.5
  1
206
100
AcDbAttributeDefinition
  3

  2
SERIES
 70
     8
280
     0
  0
ATTDEF
  5
D9
330
CF
100
AcDbEntity
  8
AM_6
100
AcDbText
 10
4.781
 20
-2.0
 30
0.0
 40
0.5
  1
1-3/16
100
AcDbAttributeDefinition
  3

  2
SS
 70
     8
280
     0
  0
ATTDEF
  5
DA
330
CF
100
AcDbEntity
  8
AM_6
100
AcDbText
 10
4.781
 20
-2.5
 30
0.0
 40
0.5
  1
129971
100
AcDbAttributeDefinition
  3

  2
PN
 70
     8
280
     0
  0
ATTDEF
  5
DB
330
CF
100
AcDbEntity
  8
AM_6
100
AcDbText
 10
4.781
 20
-3.0
 30
0.0
 40
0.5
  1
AN-GT-06-103-CR
100
AcDbAttributeDefinition
  3

  2
DESCRIPTION
 70
     8
280
     0
  0
ATTDEF
  5
DC
330
CF
100
AcDbEntity
  8
AM_6
100
AcDbText
 10
4.781
 20
-3.5
 30
0.0
 40
0.5
  1
1-39/64
100
AcDbAttributeDefinition
  3

  2
A
 70
     8
280
     0
  0
ATTDEF
  5
DD
330
CF
100
AcDbEntity
  8
AM_6
100
AcDbText
 10
4.781
 20
-4.0
 30
0.0
 40
0.5
  1
0.7087
100
AcDbAttributeDefinition
  3

  2
C
 70
     8
280
     0
  0
ATTDEF
  5
DE
330
CF
100
AcDbEntity
  8
AM_6
100
AcDbText
 10
4.781
 20
-4.5
 30
0.0
 40
0.5
  1
2.4409
100
AcDbAttributeDefinition
  3

  2
D
 70
     8
280
     0
  0
ATTDEF
  5
DF
330
CF
100
AcDbEntity
  8
AM_6
100
AcDbText
 10
4.781
 20
-5.0
 30
0.0
 40
0.5
  1
0.190
100
AcDbAttributeDefinition
  3

  2
J
 70
     8
280
     0
  0
ATTDEF
  5
E0
330
CF
100
AcDbEntity
  8
AM_6
100
AcDbText
 10
4.781
 20
-5.5
 30
0.0
 40
0.5
  1
2
100
AcDbAttributeDefinition
  3

  2
L
 70
     8
280
     0
  0
ATTDEF
  5
E1
330
CF
100
AcDbEntity
  8
AM_6
100
AcDbText
 10
4.781
 20
-6.0
 30
0.0
 40
0.5
  1
10 - 32 x 1/4
100
AcDbAttributeDefinition
  3

  2
N
 70
     8
280
     0
  0
ATTDEF
  5
E2
330
CF
100
AcDbEntity
  8
AM_6
100
AcDbText
 10
4.781
 20
-6.5
 30
0.0
 40
0.5
  1
17/32
100
AcDbAttributeDefinition
  3

  2
W
 70
     8
280
     0
  0
ATTDEF
  5
E3
330
CF
100
AcDbEntity
  8
AM_6
100
AcDbText
 10
4.781
 20
-7.0
 30
0.0
 40
0.5
  1
1-1/32
100
AcDbAttributeDefinition
  3

  2
X
 70
     8
280
     0
  0
ATTDEF
  5
E4
330
CF
100
AcDbEntity
  8
AM_6
100
AcDbText
 10
4.781
 20
-7.5
 30
0.0
 40
0.5
  1
1-5/64
100
AcDbAttributeDefinition
  3

  2
Y
 70
     8
280
     0
  0
ATTDEF
  5
E5
330
CF
100
AcDbEntity
  8
AM_6
100
AcDbText
 10
4.781
 20
-8.0
 30
0.0
 40
0.5
  1
baldor
100
AcDbAttributeDefinition
  3

  2
COMPANY
 70
     8
280
     0
  0
LWPOLYLINE
  5
E6
330
CF
100
AcDbEntity
  8
AM_9
100
AcDbPolyline
 90
        3
 70
     0
 43
0.0
 10
-1.752500077644552
 20
0.0190491460168025
 10
-1.753101764853274
 20
0.0161383937230104
 10
-1.753152
 20
0.0158703105973887
  0
LWPOLYLINE
  5
E7
330
CF
100
AcDbEntity
  8
AM_9
100
AcDbPolyline
 90
       16
 70
     0
 43
0.0
 10
-1.571005609978735
 20
0.0327392260462692
 10
-1.577422388124226
 20
0.0455347933563623
 10
-1.586137895411363
 20
0.0575658683216009
 10
-1.5967500087709
 20
0.068098124463449
 10
-1.609242694260975
 20
0.0770200890611481
 10
-1.623243169215696
 20
0.0839296055697218
 10
-1.638587794356108
 20
0.0886059903482186
 10
-1.654597704327136
 20
0.0907363531918475
 10
-1.671195473523476
 20
0.0901845597792213
 10
-1.687246321783701
 20
0.0869286365424625
 10
-1.702961353225576
 20
0.080839004355361
 10
-1.714217572212725
 20
0.0743339182717424
 10
-1.724667138219051
 20
0.0661914838530925
 10
-1.734097143522554
 20
0.0563717191219233
 10
-1.742130500753524
 20
0.0449969718446752
 10
-1.74793040697262
 20
0.0334558306168865
  0
LWPOLYLINE
  5
E8
330
CF
100
AcDbEntity
  8
AM_9
100
AcDbPolyline
 90
       16
 70
     0
 43
0.0
 10
-1.748874693184774
 20
-0.0310820219615809
 10
-1.74434243373563
 20
-0.0410686133547605
 10
-1.736487478514448
 20
-0.0533568794269756
 10
-1.726491729146671
 20
-0.0645065077387399
 10
-1.71468663403167
 20
-0.0740165039993282
 10
-1.701150347016369
 20
-0.0817050574218657
 10
-1.686322404901613
 20
-0.0871927864940475
 10
-1.670368862318619
 20
-0.0902783063501798
 10
-1.65411252762463
 20
-0.0907105775652366
 10
-1.637551578125856
 20
-0.0883748352623504
 10
-1.621949921335387
 20
-0.0834055341526079
 10
-1.606993805568426
 20
-0.0756310552801185
 10
-1.594182021362121
 20
-0.065847637738867
 10
-1.582935038176189
 20
-0.0536102620432863
 10
-1.574589054812161
 20
-0.0405019117077695
 10
-1.568771053918874
 20
-0.0265615261431364
  0
LINE
  5
E9
330
CF
100
AcDbEntity
  8
AM_9
100
AcDbLine
 10
-1.753152
 20
-0.0158703105973891
 30
0.0
 11
-1.752295301034204
 21
-0.019939363383981
 31
0.0
  0
CIRCLE
  5
EA
330
CF
100
AcDbEntity
  8
AM_9
100
AcDbCircle
 10
-1.6596147333418
 20
0.0
 30
0.0
 40
0.078
  0
LINE
  5
EB
330
CF
100
AcDbEntity
  8
AM_9
100
AcDbLine
 10
-1.753152
 20
0.0158703105973887
 30
0.0
 11
-1.753152
 21
0.095
 31
0.0
  0
LINE
  5
EC
330
CF
100
AcDbEntity
  8
AM_9
100
AcDbLine
 10
-1.753152
 20
-0.095
 30
0.0
 11
-1.753152
 21
-0.0158703105973891
 31
0.0
  0
LINE
  5
ED
330
CF
100
AcDbEntity
  8
AM_9
100
AcDbLine
 10
-1.294223
 20
-0.095
 30
0.0
 11
-1.294223
 21
0.095
 31
0.0
  0
LINE
  5
EE
330
CF
100
AcDbEntity
  8
AM_9
100
AcDbLine
 10
-1.265875
 20
0.7607902302182141
 30
0.0
 11
-1.7815
 21
0.7607902302182141
 31
0.0
  0
LINE
  5
EF
330
CF
100
AcDbEntity
  8
AM_9
100
AcDbLine
 10
-1.265875
 20
0.7899437036768497
 30
0.0
 11
-1.294223
 21
0.8146086068471883
 31
0.0
  0
LINE
  5
F0
330
CF
100
AcDbEntity
  8
AM_9
100
AcDbLine
 10
-1.294223
 20
0.8146086068471883
 30
0.0
 11
-1.753152
 21
0.8146086068471882
 31
0.0
  0
LINE
  5
F1
330
CF
100
AcDbEntity
  8
AM_9
100
AcDbLine
 10
-1.753152
 20
0.8146086068471882
 30
0.0
 11
-1.7815
 21
0.7899437036768497
 31
0.0
  0
LINE
  5
F2
330
CF
100
AcDbEntity
  8
AM_9
100
AcDbLine
 10
-1.265875
 20
-0.7607902302182145
 30
0.0
 11
-1.7815
 21
-0.7607902302182145
 31
0.0
  0
LINE
  5
F3
330
CF
100
AcDbEntity
  8
AM_9
100
AcDbLine
 10
-1.7815
 20
-0.7899437036768503
 30
0.0
 11
-1.753152
 21
-0.8146086068471885
 31
0.0
  0
LINE
  5
F4
330
CF
100
AcDbEntity
  8
AM_9
100
AcDbLine
 10
-1.753152
 20
-0.8146086068471885
 30
0.0
 11
-1.294223
 21
-0.8146086068471885
 31
0.0
  0
LINE
  5
F5
330
CF
100
AcDbEntity
  8
AM_9
100
AcDbLine
 10
-1.294223
 20
-0.8146086068471885
 30
0.0
 11
-1.265875
 21
-0.7899437036768502
 31
0.0
  0
LINE
  5
F6
330
CF
100
AcDbEntity
  8
AM_9
100
AcDbLine
 10
-1.265875
 20
0.8557902302182141
 30
0.0
 11
-1.7815
 21
0.8557902302182141
 31
0.0
  0
LINE
  5
F7
330
CF
100
AcDbEntity
  8
AM_9
100
AcDbLine
 10
-1.265875
 20
-0.8557902302182143
 30
0.0
 11
-1.7815
 21
-0.8557902302182143
 31
0.0
  0
LINE
  5
F8
330
CF
100
AcDbEntity
  8
AM_9
100
AcDbLine
 10
-1.5236875
 20
0.7460317460317459
 30
0.0
 11
-1.7815
 21
0.7460317460317459
 31
0.0
  0
LINE
  5
F9
330
CF
100
AcDbEntity
  8
AM_9
100
AcDbLine
 10
-0.219
 20
0.5916409912269432
 30
0.0
 11
-1.828375
 21
0.5916409912269432
 31
0.0
  0
LINE
  5
FA
330
CF
100
AcDbEntity
  8
AM_9
100
AcDbLine
 10
-1.828375
 20
-0.5937499999999999
 30
0.0
 11
-0.2190000000000002
 21
-0.5937499999999999
 31
0.0
  0
LINE
  5
FB
330
CF
100
AcDbEntity
  8
AM_9
100
AcDbLine
 10
-1.523686845154941
 20
0.744354328318964
 30
0.0
 11
-1.13696875
 21
0.744354328318964
 31
0.0
  0
LINE
  5
FC
330
CF
100
AcDbEntity
  8
AM_9
100
AcDbLine
 10
-1.523686845154941
 20
-0.7460317460317463
 30
0.0
 11
-1.13696875
 21
-0.7460317460317463
 31
0.0
  0
LINE
  5
FD
330
CF
100
AcDbEntity
  8
AM_9
100
AcDbLine
 10
-0.219
 20
0.7764797570067602
 30
0.0
 11
-0.219
 21
-0.7780879211511239
 31
0.0
  0
LINE
  5
FE
330
CF
100
AcDbEntity
  8
AM_9
100
AcDbLine
 10
-1.13696875
 20
0.744354328318964
 30
0.0
 11
-0.219
 21
0.7764797570067602
 31
0.0
  0
LINE
  5
FF
330
CF
100
AcDbEntity
  8
AM_9
100
AcDbLine
 10
-1.13696875
 20
0.744354328318964
 30
0.0
 11
-1.13696875
 21
-0.7460317460317459
 31
0.0
  0
LINE
  5
100
330
CF
100
AcDbEntity
  8
AM_9
100
AcDbLine
 10
-1.13696875
 20
-0.7460317460317459
 30
0.0
 11
-0.219
 21
-0.7780879211511239
 31
0.0
  0
LINE
  5
101
330
CF
100
AcDbEntity
  8
AM_9
100
AcDbLine
 10
-1.39478125
 20
-0.8174603174603172
 30
0.0
 11
-1.265875
 21
-0.8174603174603172
 31
0.0
  0
LINE
  5
102
330
CF
100
AcDbEntity
  8
AM_9
100
AcDbLine
 10
-1.265875
 20
0.8174603174603172
 30
0.0
 11
-1.39478125
 21
0.8174603174603172
 31
0.0
  0
LINE
  5
103
330
CF
100
AcDbEntity
  8
AM_9
100
AcDbLine
 10
-1.5236875
 20
0.8888888888888888
 30
0.0
 11
-1.5236875
 21
-0.8888888888888888
 31
0.0
  0
LINE
  5
104
330
CF
100
AcDbEntity
  8
AM_9
100
AcDbLine
 10
-1.39478125
 20
0.8888888888888888
 30
0.0
 11
-1.39478125
 21
-0.8888888888888888
 31
0.0
  0
LINE
  5
105
330
CF
100
AcDbEntity
  8
AM_9
100
AcDbLine
 10
-1.5236875
 20
-0.8888888888888888
 30
0.0
 11
-1.39478125
 21
-0.8888888888888888
 31
0.0
  0
LINE
  5
106
330
CF
100
AcDbEntity
  8
AM_9
100
AcDbLine
 10
-1.39478125
 20
0.8888888888888888
 30
0.0
 11
-1.5236875
 21
0.8888888888888888
 31
0.0
  0
LINE
  5
107
330
CF
100
AcDbEntity
  8
AM_9
100
AcDbLine
 10
-1.294223
 20
0.9096086068471881
 30
0.0
 11
-1.265875
 21
0.88494370367685
 31
0.0
  0
LINE
  5
108
330
CF
100
AcDbEntity
  8
AM_9
100
AcDbLine
 10
-1.753152
 20
-0.9096086068471885
 30
0.0
 11
-1.7815
 21
-0.8849437036768503
 31
0.0
  0
LINE
  5
109
330
CF
100
AcDbEntity
  8
AM_9
100
AcDbLine
 10
-1.7815
 20
0.8849437036768502
 30
0.0
 11
-1.753152
 21
0.9096086068471881
 31
0.0
  0
LINE
  5
10A
330
CF
100
AcDbEntity
  8
AM_9
100
AcDbLine
 10
-1.265875
 20
-0.8849437036768503
 30
0.0
 11
-1.294223
 21
-0.9096086068471886
 31
0.0
  0
LINE
  5
10B
330
CF
100
AcDbEntity
  8
AM_9
100
AcDbLine
 10
-1.753152
 20
0.9096086068471881
 30
0.0
 11
-1.294223
 21
0.9096086068471881
 31
0.0
  0
LINE
  5
10C
330
CF
100
AcDbEntity
  8
AM_9
100
AcDbLine
 10
-1.294223
 20
-0.9096086068471886
 30
0.0
 11
-1.753152
 21
-0.9096086068471885
 31
0.0
  0
LINE
  5
10F
330
CF
100
AcDbEntity
  8
AM_7
100
AcDbLine
 10
-1.6596147333418
 20
-0.0997499999999999
 30
0.0
 11
-1.6596147333418
 21
0.0997499999999999
 31
0.0
  0
LINE
  5
110
330
CF
100
AcDbEntity
  8
AM_4
100
AcDbLine
 10
-1.828375
 20
0.7443543283189638
 30
0.0
 11
-1.828375
 21
-0.7460317460317459
 31
0.0
  0
LINE
  5
111
330
CF
100
AcDbEntity
  8
AM_4
100
AcDbLine
 10
-1.828375
 20
0.7443543283189638
 30
0.0
 11
-1.7815
 21
0.7443543283189638
 31
0.0
  0
LINE
  5
112
330
CF
100
AcDbEntity
  8
AM_4
100
AcDbLine
 10
-1.828375
 20
-0.7460317460317459
 30
0.0
 11
-1.7815
 21
-0.7460317460317459
 31
0.0
  0
LINE
  5
113
330
CF
100
AcDbEntity
  8
AM_4
100
AcDbLine
 10
-1.265875
 20
0.095
 30
0.0
 11
-1.7815
 21
0.095
 31
0.0
  0
LINE
  5
114
330
CF
100
AcDbEntity
  8
AM_4
100
AcDbLine
 10
-1.265875
 20
0.971652
 30
0.0
 11
-1.294223
 21
1.0
 31
0.0
  0
LINE
  5
115
330
CF
100
AcDbEntity
  8
AM_4
100
AcDbLine
 10
-1.265875
 20
0.971652
 30
0.0
 11
-1.265875
 21
-0.971652
 31
0.0
  0
LINE
  5
116
330
CF
100
AcDbEntity
  8
AM_4
100
AcDbLine
 10
-1.7815
 20
0.971652
 30
0.0
 11
-1.7815
 21
-0.971652
 31
0.0
  0
LINE
  5
117
330
CF
100
AcDbEntity
  8
AM_4
100
AcDbLine
 10
-1.7815
 20
-0.971652
 30
0.0
 11
-1.753152
 21
-1.0
 31
0.0
  0
LINE
  5
118
330
CF
100
AcDbEntity
  8
AM_4
100
AcDbLine
 10
-1.753152
 20
1.0
 30
0.0
 11
-1.7815
 21
0.971652
 31
0.0
  0
LINE
  5
119
330
CF
100
AcDbEntity
  8
AM_4
100
AcDbLine
 10
-1.7815
 20
-0.095
 30
0.0
 11
-1.265875
 21
-0.095
 31
0.0
  0
LINE
  5
11A
330
CF
100
AcDbEntity
  8
AM_4
100
AcDbLine
 10
-1.294223
 20
-1.0
 30
0.0
 11
-1.265875
 21
-0.971652
 31
0.0
  0
LINE
  5
11B
330
CF
100
AcDbEntity
  8
AM_4
100
AcDbLine
 10
-1.294223
 20
1.0
 30
0.0
 11
-1.753152
 21
1.0
 31
0.0
  0
LINE
  5
11C
330
CF
100
AcDbEntity
  8
AM_4
100
AcDbLine
 10
-1.294223
 20
1.0
 30
0.0
 11
-1.294223
 21
0.095
 31
0.0
  0
LINE
  5
11D
330
CF
100
AcDbEntity
  8
AM_4
100
AcDbLine
 10
-1.753152
 20
1.0
 30
0.0
 11
-1.753152
 21
0.095
 31
0.0
  0
LINE
  5
11E
330
CF
100
AcDbEntity
  8
AM_4
100
AcDbLine
 10
-1.294223
 20
-0.095
 30
0.0
 11
-1.294223
 21
-1.0
 31
0.0
  0
LINE
  5
11F
330
CF
100
AcDbEntity
  8
AM_4
100
AcDbLine
 10
-1.753152
 20
-0.095
 30
0.0
 11
-1.753152
 21
-1.0
 31
0.0
  0
LINE
  5
120
330
CF
100
AcDbEntity
  8
AM_4
100
AcDbLine
 10
-1.753152
 20
-1.0
 30
0.0
 11
-1.294223
 21
-1.0
 31
0.0
  0
ARC
  5
122
330
CF
100
AcDbEntity
  8
AM_5
100
AcDbCircle
 10
-1.6596147333418
 20
0.0000000000000002
 30
0.0
 40
0.0949999999999999
100
AcDbArc
 50
74.99999999999979
 51
14.99999999999982
  0
ENDBLK
  5
D2
330
CF
100
AcDbEntity
  8
0
100
AcDbBlockEnd
  0
BLOCK
  5
125
330
123
100
AcDbEntity
  8
0
100
AcDbBlockBegin
  2
4_F2B_GREZ_06_PCR_II_0_in_129343_2
 70
     2
 10
0.0
 20
0.0
 30
0.0
  3
4_F2B_GREZ_06_PCR_II_0_in_129343_2
  1

  0
ATTDEF
  5
127
330
123
100
AcDbEntity
  8
AM_6
100
AcDbText
 10
5.094395
 20
2.797
 30
0.0
 40
0.5
  1
F2B-GTEZ-PCR-B-I
100
AcDbAttributeDefinition
  3

  2
NN
 70
     8
280
     0
  0
ATTDEF
  5
128
330
123
100
AcDbEntity
  8
AM_6
100
AcDbText
 10
5.094395
 20
2.297
 30
0.0
 40
0.5
  1
GTEZ Normal Duty Polymer Housed 2 Bolt Flange Bearings
100
AcDbAttributeDefinition
  3

  2
NT
 70
     8
280
     0
  0
ATTDEF
  5
129
330
123
100
AcDbEntity
  8
AM_6
100
AcDbText
 10
5.094395
 20
1.797
 30
0.0
 40
0.5
  1
F2B-GREZ-06-PCR-II
100
AcDbAttributeDefinition
  3

  2
NB
 70
     8
280
     0
  0
ATTDEF
  5
12A
330
123
100
AcDbEntity
  8
AM_6
100
AcDbText
 10
5.094395
 20
1.297
 30
0.0
 40
0.5
  1
$PN.$LUBE.I
100
AcDbAttributeDefinition
  3

  2
NBSYN
 70
     8
280
     0
  0
ATTDEF
  5
12B
330
123
100
AcDbEntity
  8
AM_6
100
AcDbText
 10
5.094395
 20
0.7970000000000002
 30
0.0
 40
0.5
  1
F2B-GREZ-06-PCR-I
100
AcDbAttributeDefinition
  3

  2
LINA
 70
     8
280
     0
  0
ATTDEF
  5
12C
330
123
100
AcDbEntity
  8
AM_6
100
AcDbText
 10
5.094395
 20
0.2970000000000002
 30
0.0
 40
0.5
  1
206
100
AcDbAttributeDefinition
  3

  2
SERIES
 70
     8
280
     0
  0
ATTDEF
  5
12D
330
123
100
AcDbEntity
  8
AM_6
100
AcDbText
 10
5.094395
 20
-0.2029999999999998
 30
0.0
 40
0.5
  1
1-1/8
100
AcDbAttributeDefinition
  3

  2
SS
 70
     8
280
     0
  0
ATTDEF
  5
12E
330
123
100
AcDbEntity
  8
AM_6
100
AcDbText
 10
5.094395
 20
-0.7029999999999998
 30
0.0
 40
0.5
  1
F2B-GREZ-06-PCR-I
100
AcDbAttributeDefinition
  3

  2
PN
 70
     8
280
     0
  0
ATTDEF
  5
12F
330
123
100
AcDbEntity
  8
AM_6
100
AcDbText
 10
5.094395
 20
-1.203
 30
0.0
 40
0.5
  1
F2B-GREZ-06-PCR
100
AcDbAttributeDefinition
  3

  2
DESCRIPTION
 70
     8
280
     0
  0
ATTDEF
  5
130
330
123
100
AcDbEntity
  8
AM_6
100
AcDbText
 10
5.094395
 20
-1.703
 30
0.0
 40
0.5
  1
1.56
100
AcDbAttributeDefinition
  3

  2
WEIGHT
 70
     8
280
     0
  0
ATTDEF
  5
131
330
123
100
AcDbEntity
  8
AM_6
100
AcDbText
 10
5.094395
 20
-2.203
 30
0.0
 40
0.5
  1
1-39/64
100
AcDbAttributeDefinition
  3

  2
A
 70
     8
280
     0
  0
ATTDEF
  5
132
330
123
100
AcDbEntity
  8
AM_6
100
AcDbText
 10
5.094395
 20
-2.703
 30
0.0
 40
0.5
  1
5-19/32
100
AcDbAttributeDefinition
  3

  2
B
 70
     8
280
     0
  0
ATTDEF
  5
133
330
123
100
AcDbEntity
  8
AM_6
100
AcDbText
 10
5.094395
 20
-3.203
 30
0.0
 40
0.5
  1
1-53/64
100
AcDbAttributeDefinition
  3

  2
C
 70
     8
280
     0
  0
ATTDEF
  5
134
330
123
100
AcDbEntity
  8
AM_6
100
AcDbText
 10
5.094395
 20
-3.703
 30
0.0
 40
0.5
  1
4-19/32
100
AcDbAttributeDefinition
  3

  2
D
 70
     8
280
     0
  0
ATTDEF
  5
135
330
123
100
AcDbEntity
  8
AM_6
100
AcDbText
 10
5.094395
 20
-4.202999999999999
 30
0.0
 40
0.5
  1
3/8
100
AcDbAttributeDefinition
  3

  2
F
 70
     8
280
     0
  0
ATTDEF
  5
136
330
123
100
AcDbEntity
  8
AM_6
100
AcDbText
 10
5.094395
 20
-4.702999999999999
 30
0.0
 40
0.5
  1
0.625
100
AcDbAttributeDefinition
  3

  2
FMAJ1
 70
     8
280
     0
  0
ATTDEF
  5
137
330
123
100
AcDbEntity
  8
AM_6
100
AcDbText
 10
5.094395
 20
-5.202999999999999
 30
0.0
 40
0.5
  1
0.391
100
AcDbAttributeDefinition
  3

  2
FMIN1
 70
     8
280
     0
  0
ATTDEF
  5
138
330
123
100
AcDbEntity
  8
AM_6
100
AcDbText
 10
5.094395
 20
-5.702999999999999
 30
0.0
 40
0.5
  1
39/64
100
AcDbAttributeDefinition
  3

  2
H
 70
     8
280
     0
  0
ATTDEF
  5
139
330
123
100
AcDbEntity
  8
AM_6
100
AcDbText
 10
5.094395
 20
-6.202999999999999
 30
0.0
 40
0.5
  1
35/64
100
AcDbAttributeDefinition
  3

  2
J
 70
     8
280
     0
  0
ATTDEF
  5
13A
330
123
100
AcDbEntity
  8
AM_6
100
AcDbText
 10
5.094395
 20
-6.702999999999999
 30
0.0
 40
0.5
  1
2
100
AcDbAttributeDefinition
  3

  2
L
 70
     8
280
     0
  0
ATTDEF
  5
13B
330
123
100
AcDbEntity
  8
AM_6
100
AcDbText
 10
5.094395
 20
-7.202999999999999
 30
0.0
 40
0.5
  1
3-13/64
100
AcDbAttributeDefinition
  3

  2
M
 70
     8
280
     0
  0
ATTDEF
  5
13C
330
123
100
AcDbEntity
  8
AM_6
100
AcDbText
 10
5.094395
 20
-7.702999999999999
 30
0.0
 40
0.5
  1
1-25/32
100
AcDbAttributeDefinition
  3

  2
Z
 70
     8
280
     0
  0
ATTDEF
  5
13D
330
123
100
AcDbEntity
  8
AM_6
100
AcDbText
 10
5.094395
 20
-8.203
 30
0.0
 40
0.5
  1
Infotext
100
AcDbAttributeDefinition
  3

  2
INFO
 70
     8
280
     0
  0
ATTDEF
  5
13E
330
123
100
AcDbEntity
  8
AM_6
100
AcDbText
 10
5.094395
 20
-8.703
 30
0.0
 40
0.5
  1
baldor
100
AcDbAttributeDefinition
  3

  2
COMPANY
 70
     8
280
     0
  0
LINE
  5
13F
330
123
100
AcDbEntity
  8
AM_9
100
AcDbLine
 10
-1.233999969513556
 20
1.393034304400008
 30
0.0
 11
-1.234
 21
1.395947754500017
 31
0.0
  0
LINE
  5
140
330
123
100
AcDbEntity
  8
AM_9
100
AcDbLine
 10
-1.15525984
 20
1.4804378
 30
0.0
 11
-1.234
 21
1.4804378
 31
0.0
  0
LINE
  5
141
330
123
100
AcDbEntity
  8
AM_9
100
AcDbLine
 10
-1.15525984
 20
1.422168804699996
 30
0.0
 11
-1.234
 21
1.422168804699996
 31
0.0
  0
LINE
  5
142
330
123
100
AcDbEntity
  8
AM_9
100
AcDbLine
 10
-1.15525984
 20
1.46587055
 30
0.0
 11
-1.234
 21
1.46587055
 31
0.0
  0
LINE
  5
143
330
123
100
AcDbEntity
  8
AM_9
100
AcDbLine
 10
-1.15525984
 20
1.5095723
 30
0.0
 11
-1.234
 21
1.5095723
 31
0.0
  0
LINE
  5
144
330
123
100
AcDbEntity
  8
AM_9
100
AcDbLine
 10
-1.15525984
 20
1.378467059599987
 30
0.0
 11
-1.234
 21
1.378467059599987
 31
0.0
  0
LINE
  5
145
330
123
100
AcDbEntity
  8
AM_9
100
AcDbLine
 10
-1.15525984
 20
1.40177465720001
 30
0.0
 11
-1.234
 21
1.40177465720001
 31
0.0
  0
LINE
  5
146
330
123
100
AcDbEntity
  8
AM_9
100
AcDbLine
 10
-1.15525984
 20
1.410515004600004
 30
0.0
 11
-1.234
 21
1.410515004600004
 31
0.0
  0
LINE
  5
147
330
123
100
AcDbEntity
  8
AM_9
100
AcDbLine
 10
-1.15525984
 20
1.433822604200006
 30
0.0
 11
-1.234
 21
1.433822604200006
 31
0.0
  0
LINE
  5
148
330
123
100
AcDbEntity
  8
AM_9
100
AcDbLine
 10
-1.15525984
 20
1.4862647
 30
0.0
 11
-1.234
 21
1.4862647
 31
0.0
  0
LINE
  5
149
330
123
100
AcDbEntity
  8
AM_9
100
AcDbLine
 10
-0.6089999999999999
 20
-2.4925
 30
0.0
 11
0.0
 21
-2.4925
 31
0.0
  0
LINE
  5
14A
330
123
100
AcDbEntity
  8
AM_9
100
AcDbLine
 10
0.0
 20
-2.1015
 30
0.0
 11
-0.6089999999999999
 21
-2.1015
 31
0.0
  0
LINE
  5
14B
330
123
100
AcDbEntity
  8
AM_9
100
AcDbLine
 10
-0.609
 20
2.1015
 30
0.0
 11
0.0
 21
2.1015
 31
0.0
  0
LINE
  5
14C
330
123
100
AcDbEntity
  8
AM_9
100
AcDbLine
 10
0.0
 20
2.4925
 30
0.0
 11
-0.609
 21
2.4925
 31
0.0
  0
LINE
  5
14D
330
123
100
AcDbEntity
  8
AM_9
100
AcDbLine
 10
-1.15525984
 20
1.5037454
 30
0.0
 11
-1.234
 21
1.5037454
 31
0.0
  0
LINE
  5
14E
330
123
100
AcDbEntity
  8
AM_9
100
AcDbLine
 10
-1.15525984
 20
1.384293959699991
 30
0.0
 11
-1.234
 21
1.384293959699991
 31
0.0
  0
LINE
  5
14F
330
123
100
AcDbEntity
  8
AM_9
100
AcDbLine
 10
-1.15525984
 20
1.395947754500017
 30
0.0
 11
-1.234
 21
1.395947754500017
 31
0.0
  0
LINE
  5
150
330
123
100
AcDbEntity
  8
AM_9
100
AcDbLine
 10
-1.15525984
 20
1.4920916
 30
0.0
 11
-1.234
 21
1.4920916
 31
0.0
  0
LINE
  5
151
330
123
100
AcDbEntity
  8
AM_9
100
AcDbLine
 10
-1.15525984
 20
1.47752435
 30
0.0
 11
-1.234
 21
1.47752435
 31
0.0
  0
LINE
  5
152
330
123
100
AcDbEntity
  8
AM_9
100
AcDbLine
 10
-1.15525984
 20
1.4513033
 30
0.0
 11
-1.234
 21
1.4513033
 31
0.0
  0
LINE
  5
153
330
123
100
AcDbEntity
  8
AM_9
100
AcDbLine
 10
-1.15525984
 20
1.407601554600009
 30
0.0
 11
-1.234
 21
1.407601554600009
 31
0.0
  0
LINE
  5
154
330
123
100
AcDbEntity
  8
AM_9
100
AcDbLine
 10
-1.15525984
 20
1.439649503599983
 30
0.0
 11
-1.234
 21
1.439649503599983
 31
0.0
  0
LINE
  5
155
330
123
100
AcDbEntity
  8
AM_9
100
AcDbLine
 10
-1.15525984
 20
1.4571302
 30
0.0
 11
-1.234
 21
1.4571302
 31
0.0
  0
LINE
  5
156
330
123
100
AcDbEntity
  8
AM_9
100
AcDbLine
 10
-1.15525984
 20
1.49500505
 30
0.0
 11
-1.234
 21
1.49500505
 31
0.0
  0
LINE
  5
157
330
123
100
AcDbEntity
  8
AM_9
100
AcDbLine
 10
-1.15525984
 20
1.375553609599993
 30
0.0
 11
-1.15525984
 21
1.51248575
 31
0.0
  0
LINE
  5
158
330
123
100
AcDbEntity
  8
AM_9
100
AcDbLine
 10
-1.15525984
 20
1.51248575
 30
0.0
 11
-1.233999969513556
 21
1.51248575
 31
0.0
  0
LINE
  5
159
330
123
100
AcDbEntity
  8
AM_9
100
AcDbLine
 10
-1.15525984
 20
1.393034304400007
 30
0.0
 11
-1.234
 21
1.393034304400007
 31
0.0
  0
LINE
  5
15A
330
123
100
AcDbEntity
  8
AM_9
100
AcDbLine
 10
-1.15525984
 20
1.375553609599993
 30
0.0
 11
-1.234
 21
1.375553609599993
 31
0.0
  0
LWPOLYLINE
  5
15B
330
123
100
AcDbEntity
  8
AM_9
100
AcDbPolyline
 90
        6
 70
     0
 43
0.0
 10
-0.9214999999999998
 20
1.353933782188039
 10
-0.9602070648128724
 20
1.334774698090369
 10
-0.9992585201424196
 20
1.317573875349356
 10
-1.00122199485758
 20
1.316772290153523
 10
-1.040103758588363
 20
1.302146573451479
 10
-1.078980515
 20
1.28964263115792
  0
LINE
  5
15C
330
123
100
AcDbEntity
  8
AM_9
100
AcDbLine
 10
-0.9214999999999998
 20
1.353933782188039
 30
0.0
 11
-0.9214999999999998
 21
1.428218926321409
 31
0.0
  0
LWPOLYLINE
  5
15D
330
123
100
AcDbEntity
  8
AM_9
100
AcDbPolyline
 90
        6
 70
     0
 43
0.0
 10
-0.7640194849999997
 20
1.28964263115792
 10
-0.8027265498128744
 20
1.302087733137709
 10
-0.8417780051424236
 20
1.316772290153525
 10
-0.843741479857576
 20
1.317573875349355
 10
-0.8826232435883612
 20
1.334694985793936
 10
-0.9214999999999998
 20
1.353933782188039
  0
ELLIPSE
  5
15E
330
123
100
AcDbEntity
  8
AM_9
100
AcDbEllipse
 10
-0.9215
 20
1.220735472322785
 30
0.0
 11
0.1102358299999998
 21
0.0
 31
0.0
210
0.0
220
0.0
230
1.0
 40
0.70710678118655
 41
1.570796326794897
 42
6.283185307179586
  0
LINE
  5
15F
330
123
100
AcDbEntity
  8
AM_9
100
AcDbLine
 10
-0.8112641699999997
 20
1.208417575335128
 30
0.0
 11
-0.8112641699999997
 21
1.220735472322785
 31
0.0
  0
LINE
  5
160
330
123
100
AcDbEntity
  8
AM_9
100
AcDbLine
 10
-1.03173583
 20
1.220735472322785
 30
0.0
 11
-1.03173583
 21
1.208417575335128
 31
0.0
  0
ELLIPSE
  5
161
330
123
100
AcDbEntity
  8
AM_9
100
AcDbEllipse
 10
-0.9214999999999995
 20
1.220735472322785
 30
0.0
 11
0.1102358299999999
 21
0.0
 31
0.0
210
0.0
220
0.0
230
1.0
 40
0.7071067811865492
 41
0.0
 42
1.570796326794897
  0
ELLIPSE
  5
162
330
123
100
AcDbEntity
  8
AM_9
100
AcDbEllipse
 10
-0.9214999999999998
 20
1.220735472322785
 30
0.0
 11
-0.15747993
 21
1.928572922044493E-17
 31
0.0
210
0.0
220
0.0
230
1.0
 40
0.7071067811865476
 41
0.0
 42
6.283185307179586
  0
LINE
  5
163
330
123
100
AcDbEntity
  8
AM_9
100
AcDbLine
 10
-1.234
 20
-1.22045
 30
0.0
 11
0.0
 21
-1.22045
 31
0.0
  0
LINE
  5
164
330
123
100
AcDbEntity
  8
AM_9
100
AcDbLine
 10
0.0
 20
1.22045
 30
0.0
 11
-1.234
 21
1.22045
 31
0.0
  0
ELLIPSE
  5
165
330
123
100
AcDbEntity
  8
AM_9
100
AcDbEllipse
 10
-0.9215000000000001
 20
1.318172029053843
 30
0.0
 11
0.110235830000001
 21
1.642641872167603E-9
 31
0.0
210
0.0
220
0.0
230
1.0
 40
0.7071067811865522
 41
0.6119447758918675
 42
2.530404576839723
  0
ELLIPSE
  5
166
330
123
100
AcDbEntity
  8
AM_9
100
AcDbEllipse
 10
-0.9214999999999995
 20
1.304252632066187
 30
0.0
 11
0.1102358299999999
 21
0.0
 31
0.0
210
0.0
220
0.0
230
1.0
 40
0.7071067811865472
 41
0.0
 42
3.141592653589793
  0
ELLIPSE
  5
167
330
123
100
AcDbEntity
  8
AM_9
100
AcDbEllipse
 10
-0.9214999999999995
 20
1.304252632066186
 30
0.0
 11
0.1574799300000005
 21
0.0
 31
0.0
210
0.0
220
0.0
230
1.0
 40
0.7071067811865527
 41
0.8511163834466222
 42
2.290579806801162
  0
LWPOLYLINE
  5
168
330
123
100
AcDbEntity
  8
AM_9
100
AcDbPolyline
 90
        4
 70
     0
 43
0.0
 10
-0.9214999999999998
 20
1.428218926321409
 10
-0.8826818241172008
 20
1.415735301355115
 10
-0.8435170650846382
 20
1.400997963401499
 10
-0.8175067354274481
 20
1.389872561565968
  0
LWPOLYLINE
  5
169
330
123
100
AcDbEntity
  8
AM_9
100
AcDbPolyline
 90
        4
 70
     0
 43
0.0
 10
-1.025595038463414
 20
1.389826950699714
 10
-1.000997580084638
 20
1.400379612100482
 10
-0.9612508179018828
 20
1.415411256514111
 10
-0.9214999999999998
 20
1.428218926321409
  0
LWPOLYLINE
  5
16A
330
123
100
AcDbEntity
  8
AM_9
100
AcDbPolyline
 90
        3
 70
     0
 43
0.0
 10
-0.9219034111638589
 20
1.325081365036481
 10
-0.92267656725078
 20
1.325085702867993
 10
-0.9295083954332557
 20
1.325308982625564
  0
LWPOLYLINE
  5
16B
330
123
100
AcDbEntity
  8
AM_9
100
AcDbPolyline
 90
        3
 70
     0
 43
0.0
 10
-0.8703430740635921
 20
1.335332361379133
 10
-0.8757032461634865
 20
1.333113214994628
 10
-0.8776353728232241
 20
1.332397543844356
  0
LWPOLYLINE
  5
16C
330
123
100
AcDbEntity
  8
AM_9
100
AcDbPolyline
 90
       25
 70
     0
 43
0.0
 10
-0.9214999999999998
 20
1.394779546802508
 10
-0.9165909510960459
 20
1.394693910315226
 10
-0.9065447212378849
 20
1.393979659861512
 10
-0.8967733013626172
 20
1.392564668380566
 10
-0.8874677210590817
 20
1.390502662900035
 10
-0.8787995202888762
 20
1.387874023515856
 10
-0.8709202703297555
 20
1.384784550306552
 10
-0.8639548472620134
 20
1.38136296687428
 10
-0.857994605983488
 20
1.377757004859425
 10
-0.8530912943479668
 20
1.374128041830912
 10
-0.8492599257158606
 20
1.370652204734281
 10
-0.8464536214186653
 20
1.367494816434616
 10
-0.8445723151161225
 20
1.364801952210059
 10
-0.8434652376886449
 20
1.362682626508449
 10
-0.8429373967978179
 20
1.361179030427941
 10
-0.8427687027044127
 20
1.360191471826483
 10
-0.8428367411039012
 20
1.359135851934171
 10
-0.8431871417245875
 20
1.357878544575401
 10
-0.8440442658886368
 20
1.355983632739868
 10
-0.8455731216396448
 20
1.353539735643194
 10
-0.8479001224564551
 20
1.350649704646127
 10
-0.851432113819916
 20
1.347150009991206
 10
-0.8559944476645489
 20
1.343496620725268
 10
-0.8615891374158108
 20
1.339841819797175
 10
-0.8650118849073379
 20
1.337929161698046
  0
LWPOLYLINE
  5
16D
330
123
100
AcDbEntity
  8
AM_9
100
AcDbPolyline
 90
       25
 70
     0
 43
0.0
 10
-0.978430379148506
 20
1.338164570787663
 10
-0.9829344074863522
 20
1.340765687244113
 10
-0.988229850716565
 20
1.344405645722121
 10
-0.9924530504084674
 20
1.347957619719854
 10
-0.9956277221823455
 20
1.351250526364754
 10
-0.9978344737092513
 20
1.354129428376997
 10
-0.9992059188278078
 20
1.356469148774545
 10
-0.9999219192109317
 20
1.35819790700062
 10
-1.000197608786282
 20
1.359347895463155
 10
-1.000228291587498
 20
1.360233045286876
 10
-1.000028003018887
 20
1.36130863868097
 10
-0.9994303039824205
 20
1.362918506631241
 10
-0.9982333211191404
 20
1.365117064366205
 10
-0.996292220353684
 20
1.367813146237308
 10
-0.9931831541553681
 20
1.37120538135307
 10
-0.9890564838245777
 20
1.374813832336327
 10
-0.9838956123297984
 20
1.37848614959936
 10
-0.977716079266203
 20
1.382074341818094
 10
-0.9705739196560609
 20
1.385433229859875
 10
-0.9625679955896665
 20
1.388426330253413
 10
-0.9538148164991342
 20
1.390939247120649
 10
-0.9444570941326256
 20
1.392875771087368
 10
-0.9346586345580645
 20
1.39416131285179
 10
-0.9245988093450745
 20
1.394745438930294
 10
-0.9214999999999998
 20
1.394779546802508
  0
LWPOLYLINE
  5
16E
330
123
100
AcDbEntity
  8
AM_9
100
AcDbPolyline
 90
        3
 70
     0
 43
0.0
 10
-0.9651370156207456
 20
1.332315979931433
 10
-0.9692822111043926
 20
1.333893659087116
 10
-0.9730777647167637
 20
1.335522282295788
  0
LWPOLYLINE
  5
16F
330
123
100
AcDbEntity
  8
AM_9
100
AcDbPolyline
 90
        4
 70
     0
 43
0.0
 10
-0.9295083954332557
 20
1.325308982625564
 10
-0.9327808583459527
 20
1.325534494058356
 10
-0.9426775843976196
 20
1.326696617684898
 10
-0.9445394214289671
 20
1.32699848543294
  0
ELLIPSE
  5
170
330
123
100
AcDbEntity
  8
AM_9
100
AcDbEllipse
 10
-0.9214999999999995
 20
1.396005385354578
 30
0.0
 11
0.1003134042469418
 21
0.0
 31
0.0
210
0.0
220
0.0
230
1.0
 40
0.7071067811865469
 41
5.200756832406101
 42
10.50973069119455
  0
ELLIPSE
  5
171
330
123
100
AcDbEntity
  8
AM_9
100
AcDbEllipse
 10
-0.9214999999999993
 20
1.411161043634282
 30
0.0
 11
0.1048773068047363
 21
0.0
 31
0.0
210
0.0
220
0.0
230
1.0
 40
0.7071067811865516
 41
0.4115113864807762
 42
1.570796326794897
  0
ELLIPSE
  5
172
330
123
100
AcDbEntity
  8
AM_9
100
AcDbEllipse
 10
-0.9214999999999994
 20
1.411161043634281
 30
0.0
 11
0.1048773068047374
 21
0.0
 31
0.0
210
0.0
220
0.0
230
1.0
 40
0.7071067811865505
 41
1.570796326794897
 42
2.730081267109007
  0
ELLIPSE
  5
173
330
123
100
AcDbEntity
  8
AM_9
100
AcDbEllipse
 10
-0.921500000000186
 20
1.448616087527074
 30
0.0
 11
0.08368979943210052
 21
1.247075191618510E-9
 31
0.0
210
0.0
220
0.0
230
1.0
 40
0.7071067811856927
 41
-3.640669606920327
 42
-3.566265012435272
  0
ELLIPSE
  5
174
330
123
100
AcDbEntity
  8
AM_9
100
AcDbEllipse
 10
-0.9214999999999989
 20
1.448616087526847
 30
0.0
 11
0.0836897994323107
 21
0.0
 31
0.0
210
0.0
220
0.0
230
1.0
 40
0.7071067811865384
 41
1.570796326794897
 42
2.618099259555342
  0
ELLIPSE
  5
175
330
123
100
AcDbEntity
  8
AM_9
100
AcDbEllipse
 10
-0.9215
 20
1.448616087526847
 30
0.0
 11
0.08368979943230981
 21
0.0
 31
0.0
210
0.0
220
0.0
230
1.0
 40
0.7071067811865486
 41
0.4271326605822683
 42
1.570796326794897
  0
ELLIPSE
  5
176
330
123
100
AcDbEntity
  8
AM_9
100
AcDbEllipse
 10
-0.9214999999999997
 20
1.208417575335128
 30
0.0
 11
-0.1102358299999998
 21
1.349999563608515E-17
 31
0.0
210
0.0
220
0.0
230
1.0
 40
0.707106781186548
 41
0.0
 42
6.283185307179586
  0
LINE
  5
177
330
123
100
AcDbEntity
  8
AM_7
100
AcDbLine
 10
0.0617
 20
0.0
 30
0.0
 11
-1.90884375
 21
0.0
 31
0.0
  0
LINE
  5
178
330
123
100
AcDbEntity
  8
AM_7
100
AcDbLine
 10
0.0624225
 20
2.297
 30
0.0
 11
-0.6409725
 21
2.297
 31
0.0
  0
LINE
  5
179
330
123
100
AcDbEntity
  8
AM_7
100
AcDbLine
 10
0.094395
 20
-2.297
 30
0.0
 11
-0.642495
 21
-2.297
 31
0.0
  0
LINE
  5
17A
330
123
100
AcDbEntity
  8
AM_4
100
AcDbLine
 10
0.0
 20
-2.797
 30
0.0
 11
-0.609
 21
-2.797
 31
0.0
  0
LINE
  5
17B
330
123
100
AcDbEntity
  8
AM_4
100
AcDbLine
 10
-0.609
 20
-2.797
 30
0.0
 11
-0.6089999999999999
 21
-1.6015
 31
0.0
  0
LINE
  5
17C
330
123
100
AcDbEntity
  8
AM_4
100
AcDbLine
 10
0.0
 20
2.797
 30
0.0
 11
-0.609
 21
2.797
 31
0.0
  0
LINE
  5
17D
330
123
100
AcDbEntity
  8
AM_4
100
AcDbLine
 10
-0.6089999999999999
 20
1.6015
 30
0.0
 11
-0.609
 21
2.797
 31
0.0
  0
LINE
  5
17E
330
123
100
AcDbEntity
  8
AM_4
100
AcDbLine
 10
-0.54809996955
 20
-1.68157483985
 30
0.0
 11
-0.609
 21
-1.68157483985
 31
0.0
  0
LINE
  5
17F
330
123
100
AcDbEntity
  8
AM_4
100
AcDbLine
 10
-0.54809996955
 20
1.68157483985
 30
0.0
 11
-0.609
 21
1.68157483985
 31
0.0
  0
LINE
  5
180
330
123
100
AcDbEntity
  8
AM_4
100
AcDbLine
 10
-0.8112641699999996
 20
1.304252632066188
 30
0.0
 11
-0.8112641699999996
 21
1.318172029053845
 31
0.0
  0
LINE
  5
181
330
123
100
AcDbEntity
  8
AM_4
100
AcDbLine
 10
-1.031735829999999
 20
1.318172029053845
 30
0.0
 11
-1.031735829999999
 21
1.304252632066188
 31
0.0
  0
ELLIPSE
  5
182
330
123
100
AcDbEntity
  8
AM_4
100
AcDbEllipse
 10
-0.9214999999999995
 20
1.318172029053845
 30
0.0
 11
0.11023583
 21
0.0
 31
0.0
210
0.0
220
0.0
230
1.0
 40
0.7071067811865486
 41
2.530404594443493
 42
6.283185307179586
  0
ELLIPSE
  5
183
330
123
100
AcDbEntity
  8
AM_4
100
AcDbEllipse
 10
-0.9215000000000011
 20
1.318172029053842
 30
0.0
 11
0.1102358300000015
 21
0.0
 31
0.0
210
0.0
220
0.0
230
1.0
 40
0.7071067811865535
 41
0.0
 42
0.6119447934881336
  0
ELLIPSE
  5
184
330
123
100
AcDbEntity
  8
AM_4
100
AcDbEllipse
 10
-0.9214999999999995
 20
1.304252632066188
 30
0.0
 11
0.1102358299999999
 21
0.0
 31
0.0
210
0.0
220
0.0
230
1.0
 40
0.7071067811865472
 41
3.141592653589793
 42
6.283185307179586
  0
ELLIPSE
  5
185
330
123
100
AcDbEntity
  8
AM_4
100
AcDbEllipse
 10
-0.9214999999999993
 20
1.304252632066188
 30
0.0
 11
0.1574799299999999
 21
0.0
 31
0.0
210
0.0
220
0.0
230
1.0
 40
0.7071067811865481
 41
2.290579806801169
 42
7.134301690626204
  0
LINE
  5
186
330
123
100
AcDbEntity
  8
AM_4
100
AcDbLine
 10
-0.7640194849999997
 20
1.36392777529129
 30
0.0
 11
-0.7640194849999996
 21
1.161060329097682
 31
0.0
  0
LWPOLYLINE
  5
187
330
123
100
AcDbEntity
  8
AM_4
100
AcDbPolyline
 90
        3
 70
     0
 43
0.0
 10
-0.8175067354274481
 20
1.389872561565968
 10
-0.8037703029018828
 20
1.38357651238996
 10
-0.7640194849999997
 20
1.36392777529129
  0
LWPOLYLINE
  5
188
330
123
100
AcDbEntity
  8
AM_4
100
AcDbPolyline
 90
        3
 70
     0
 43
0.0
 10
-1.078980515
 20
1.36392777529129
 10
-1.040162339117201
 20
1.383139058211152
 10
-1.025595038463414
 20
1.389826950699714
  0
LINE
  5
189
330
123
100
AcDbEntity
  8
AM_4
100
AcDbLine
 10
-1.078980515
 20
1.161060329097682
 30
0.0
 11
-1.078980515
 21
1.36392777529129
 31
0.0
  0
LWPOLYLINE
  5
18A
330
123
100
AcDbEntity
  8
AM_4
100
AcDbPolyline
 90
        6
 70
     0
 43
0.0
 10
-1.078980515
 20
1.161060329097682
 10
-1.040273450187101
 20
1.141901245
 10
-1.001221994857528
 20
1.124700422258979
 10
-0.9992585201424716
 20
1.123898837063188
 10
-0.9603767564116621
 20
1.109273120361132
 10
-0.9214999999999995
 20
1.096769178067564
  0
LWPOLYLINE
  5
18B
330
123
100
AcDbEntity
  8
AM_4
100
AcDbPolyline
 90
        5
 70
     0
 43
0.0
 10
-0.9214999999999995
 20
1.171054322200934
 10
-0.9603181758827987
 20
1.190265605120796
 10
-0.9994829349153612
 20
1.207506159010126
 10
-1.039229697098117
 20
1.222537803423754
 10
-1.078980515
 20
1.235345473231053
  0
LINE
  5
18C
330
123
100
AcDbEntity
  8
AM_4
100
AcDbLine
 10
-0.9214999999999995
 20
1.096769178067564
 30
0.0
 11
-0.9214999999999995
 21
1.171054322200934
 31
0.0
  0
LWPOLYLINE
  5
18D
330
123
100
AcDbEntity
  8
AM_4
100
AcDbPolyline
 90
        6
 70
     0
 43
0.0
 10
-0.9214999999999995
 20
1.096769178067564
 10
-0.8827929351871031
 20
1.10921428004736
 10
-0.8437414798575316
 20
1.123898837063186
 10
-0.8417780051424674
 20
1.12470042225898
 10
-0.8028962414116602
 20
1.141821532703569
 10
-0.7640194849999996
 20
1.161060329097682
  0
LWPOLYLINE
  5
18E
330
123
100
AcDbEntity
  8
AM_4
100
AcDbPolyline
 90
        5
 70
     0
 43
0.0
 10
-0.7640194849999996
 20
1.235345473231053
 10
-0.8028376608827988
 20
1.222861848264758
 10
-0.8420024199153612
 20
1.208124510311142
 10
-0.8817491820981167
 20
1.190703059299604
 10
-0.9214999999999995
 20
1.171054322200934
  0
ELLIPSE
  5
18F
330
123
100
AcDbEntity
  8
AM_4
100
AcDbEllipse
 10
-0.9214999999999979
 20
1.396005385354576
 30
0.0
 11
0.1003134042469357
 21
0.0
 31
0.0
210
0.0
220
0.0
230
1.0
 40
0.7071067811865744
 41
4.226545384014921
 42
5.200756832406115
  0
LWPOLYLINE
  5
190
330
123
100
AcDbEntity
  8
AM_4
100
AcDbPolyline
 90
       16
 70
     0
 43
0.0
 10
-1.019047095350206
 20
1.438413345207757
 10
-1.020665653295224
 20
1.435383427607535
 10
-1.024390250449776
 20
1.42648870295881
 10
-1.026749307088601
 20
1.417384098394461
 10
-1.027746236272964
 20
1.408207131508011
 10
-1.027404942422132
 20
1.399077251171321
 10
-1.025759366903059
 20
1.390101010205596
 10
-1.022850157596528
 20
1.381378846281202
 10
-1.018714415751721
 20
1.37298771668272
 10
-1.013387675089231
 20
1.365004379889673
 10
-1.0069120469818
 20
1.35751188266545
 10
-0.9993466830668183
 20
1.350601021891327
 10
-0.9907754761846294
 20
1.344365842095069
 10
-0.9813079492383596
 20
1.338895371650746
 10
-0.9710734713951539
 20
1.334265947528832
 10
-0.9698120601269586
 20
1.333774416604376
  0
LWPOLYLINE
  5
191
330
123
100
AcDbEntity
  8
AM_4
100
AcDbPolyline
 90
       16
 70
     0
 43
0.0
 10
-0.8731995973425671
 20
1.333769949359435
 10
-0.8680017812575721
 20
1.335901757058831
 10
-0.8578992828394323
 20
1.340933647139075
 10
-0.8485738514843691
 20
1.346849808994501
 10
-0.8401680007737692
 20
1.353588493252707
 10
-0.8328190390733996
 20
1.36106500315325
 10
-0.8266514489236864
 20
1.369167280997664
 10
-0.8217640000392306
 20
1.37775884075451
 10
-0.8182191574300625
 20
1.386689749785413
 10
-0.8160410327364315
 20
1.395811455432383
 10
-0.8152227736349923
 20
1.404988638909885
 10
-0.8157386974272812
 20
1.414104328011369
 10
-0.8175536346380384
 20
1.423051629418927
 10
-0.8206270526642009
 20
1.431734349876777
 10
-0.8249223438447804
 20
1.440076053463668
 10
-0.8264287419793878
 20
1.442477418566498
  0
LINE
  5
192
330
123
100
AcDbEntity
  8
AM_4
100
AcDbLine
 10
-0.998203150922389
 20
1.47228684129175
 30
0.0
 11
-1.01762186845643
 21
1.440824454488899
 31
0.0
  0
LINE
  5
193
330
123
100
AcDbEntity
  8
AM_4
100
AcDbLine
 10
-0.8253781315435691
 20
1.440824454488899
 30
0.0
 11
-0.8447968490776102
 21
1.47228684129175
 31
0.0
  0
ELLIPSE
  5
194
330
123
100
AcDbEntity
  8
AM_4
100
AcDbEllipse
 10
-0.9214999999999995
 20
1.448616087526847
 30
0.0
 11
0.08368979943230946
 21
1.247075191621624E-9
 31
0.0
210
0.0
220
0.0
230
1.0
 40
0.7071067811865487
 41
2.730081247721424
 42
6.69469667427277
  0
ELLIPSE
  5
195
330
123
100
AcDbEntity
  8
AM_4
100
AcDbEllipse
 10
-0.9214999999999995
 20
1.411161043634282
 30
0.0
 11
0.1048773068047371
 21
0.0
 31
0.0
210
0.0
220
0.0
230
1.0
 40
0.7071067811865461
 41
2.730081267109011
 42
6.69469669366037
  0
ELLIPSE
  5
196
330
123
100
AcDbEntity
  8
AM_4
100
AcDbEllipse
 10
-0.9214999999999995
 20
1.457366006001485
 30
0.0
 11
-0.0654127042362217
 21
8.010745886646141E-18
 31
0.0
210
0.0
220
0.0
230
1.0
 40
0.7071067811865483
 41
0.0
 42
6.283185307179586
  0
LWPOLYLINE
  5
197
330
123
100
AcDbEntity
  8
AM_4
100
AcDbPolyline
 90
       11
 70
     0
 43
0.0
 10
-0.9214999999999995
 20
1.50938537575501
 10
-0.9274108750072839
 20
1.509229470609329
 10
-0.938016632392983
 20
1.508157360896774
 10
-0.9483986798893482
 20
1.506071763481125
 10
-0.9584005861083033
 20
1.502985487053639
 10
-0.967869749334758
 20
1.498918988182774
 10
-0.9766485966372498
 20
1.493904657363439
 10
-0.984567129779027
 20
1.48799960757561
 10
-0.9914578420538671
 20
1.481291737743595
 10
-0.9971662157089164
 20
1.473908942546867
 10
-0.9976850858056252
 20
1.473111348586903
  0
LWPOLYLINE
  5
198
330
123
100
AcDbEntity
  8
AM_4
100
AcDbPolyline
 90
       11
 70
     0
 43
0.0
 10
-0.8454215358335818
 20
1.473277472282901
 10
-0.848613001773114
 20
1.477780191098877
 10
-0.8545652738676629
 20
1.484461448179022
 10
-0.8615825788978558
 20
1.490537360256186
 10
-0.8695735919614765
 20
1.495905921560421
 10
-0.8784128534291484
 20
1.500469430707934
 10
-0.8879488434838768
 20
1.504146293829064
 10
-0.8980160817357556
 20
1.506876480733334
 10
-0.9084461477657231
 20
1.508621207573667
 10
-0.9185359747703942
 20
1.509346209849749
 10
-0.9214999999999995
 20
1.50938537575501
  0
LINE
  5
199
330
123
100
AcDbEntity
  8
AM_4
100
AcDbLine
 10
0.0
 20
-2.797
 30
0.0
 11
0.0
 21
2.797
 31
0.0
  0
LINE
  5
19A
330
123
100
AcDbEntity
  8
AM_4
100
AcDbLine
 10
-0.5480999695499998
 20
0.5405832960229855
 30
0.0
 11
-0.54809996955
 21
2.797
 31
0.0
  0
LINE
  5
19B
330
123
100
AcDbEntity
  8
AM_4
100
AcDbLine
 10
-0.54809996955
 20
-2.797
 30
0.0
 11
-0.5480999695499998
 21
-0.5405832960229878
 31
0.0
  0
LINE
  5
19C
330
123
100
AcDbEntity
  8
AM_4
100
AcDbLine
 10
-0.54809996955
 20
1.6015
 30
0.0
 11
-1.233999969513556
 21
1.6015
 31
0.0
  0
LINE
  5
19D
330
123
100
AcDbEntity
  8
AM_4
100
AcDbLine
 10
-1.233999969513556
 20
-1.6015
 30
0.0
 11
-1.233999969513556
 21
1.6015
 31
0.0
  0
LINE
  5
19E
330
123
100
AcDbEntity
  8
AM_4
100
AcDbLine
 10
-0.54809996955
 20
-1.6015
 30
0.0
 11
-1.233999969513556
 21
-1.6015
 31
0.0
  0
LINE
  5
19F
330
123
100
AcDbEntity
  8
AM_4
100
AcDbLine
 10
-0.54809996955
 20
0.7110807581063052
 30
0.0
 11
-1.233999969513556
 21
0.7110807581063056
 31
0.0
  0
LINE
  5
1A0
330
123
100
AcDbEntity
  8
AM_4
100
AcDbLine
 10
-1.233999969513556
 20
0.5486586553126106
 30
0.0
 11
-0.5480999695499998
 21
0.5486586553126106
 31
0.0
  0
LINE
  5
1A1
330
123
100
AcDbEntity
  8
AM_4
100
AcDbLine
 10
-0.5480999695499998
 20
0.5405832960229855
 30
0.0
 11
0.0000000000000001
 21
0.5405832960229855
 31
0.0
  0
LINE
  5
1A2
330
123
100
AcDbEntity
  8
AM_4
100
AcDbLine
 10
-0.54809996955
 20
0.9433589070804945
 30
0.0
 11
0.0000000000000001
 21
0.9433589070804945
 31
0.0
  0
LINE
  5
1A3
330
123
100
AcDbEntity
  8
AM_4
100
AcDbLine
 10
-0.54809996955
 20
-0.943358907080495
 30
0.0
 11
0.0000000000000001
 21
-0.943358907080495
 31
0.0
  0
LINE
  5
1A4
330
123
100
AcDbEntity
  8
AM_4
100
AcDbLine
 10
-0.5480999695499998
 20
-0.5405832960229878
 30
0.0
 11
0.0000000000000001
 21
-0.5405832960229878
 31
0.0
  0
LINE
  5
1A5
330
123
100
AcDbEntity
  8
AM_4
100
AcDbLine
 10
-1.233999969513556
 20
-0.5486586553126108
 30
0.0
 11
-0.5480999695499998
 21
-0.5486586553126108
 31
0.0
  0
LINE
  5
1A6
330
123
100
AcDbEntity
  8
AM_4
100
AcDbLine
 10
-0.54809996955
 20
-0.7110807581063048
 30
0.0
 11
-1.233999969513556
 21
-0.7110807581063056
 31
0.0
  0
ENDBLK
  5
126
330
123
100
AcDbEntity
  8
0
100
AcDbBlockEnd
  0
ENDSEC
  0
SECTION
  2
ENTITIES
  0
INSERT
  5
6F
330
1F
100
AcDbEntity
  8
0
100
AcDbBlockReference
  2
1_129343_2
 10
0.0
 20
0.0
 30
0.0
  0
POINT
  5
1A8
330
1F
100
AcDbEntity
  8
ConnectionPoints
100
AcDbPoint
 10
-0.75025
 20
0.0
 30
0.0000000000000001
  0
POINT
  5
1A9
330
1F
100
AcDbEntity
  8
ConnectionPoints
100
AcDbPoint
 10
-0.219
 20
0.0
 30
0.0000000000000001
  0
POINT
  5
1AA
330
1F
100
AcDbEntity
  8
ConnectionPoints
100
AcDbPoint
 10
-0.219
 20
0.0
 30
0.0
  0
ENDSEC
  0
SECTION
  2
OBJECTS
  0
DICTIONARY
  5
C
330
0
100
AcDbDictionary
281
     1
  3
ACAD_DETAILVIEWSTYLE
350
1B2
  3
ACAD_GROUP
350
D
  3
ACAD_LAYOUT
350
1A
  3
ACAD_MATERIAL
350
43
  3
ACAD_MLEADERSTYLE
350
6B
  3
ACAD_MLINESTYLE
350
17
  3
ACAD_PLOTSETTINGS
350
19
  3
ACAD_PLOTSTYLENAME
350
E
  3
ACAD_SCALELIST
350
47
  3
ACAD_SECTIONVIEWSTYLE
350
1B3
  3
ACAD_TABLESTYLE
350
69
  3
ACAD_VISUALSTYLE
350
2A
  3
ACDB_RECOMPOSE_DATA
350
1AF
  3
AcDbVariableDictionary
350
1AB
  0
SUN
  5
6D
330
29
100
AcDbSun
 90
        1
290
     0
 63
     7
421
 16777215
 40
1.0
291
     1
 91
  2455826
 92
 54000000
292
     0
 70
     2
 71
   256
280
     1
  0
DICTIONARY
  5
1B2
102
{ACAD_REACTORS
330
C
102
}
330
C
100
AcDbDictionary
281
     1
  0
DICTIONARY
  5
D
102
{ACAD_REACTORS
330
C
102
}
330
C
100
AcDbDictionary
281
     1
  0
DICTIONARY
  5
1A
102
{ACAD_REACTORS
330
C
102
}
330
C
100
AcDbDictionary
281
     1
  3
Layout1
350
1E
  3
Layout2
350
26
  3
Model
350
22
  0
DICTIONARY
  5
43
102
{ACAD_REACTORS
330
C
102
}
330
C
100
AcDbDictionary
281
     1
  3
ByBlock
350
45
  3
ByLayer
350
44
  3
Global
350
46
  0
DICTIONARY
  5
6B
102
{ACAD_REACTORS
330
C
102
}
330
C
100
AcDbDictionary
281
     1
  3
Standard
350
6C
  0
DICTIONARY
  5
17
102
{ACAD_REACTORS
330
C
102
}
330
C
100
AcDbDictionary
281
     1
  3
Standard
350
18
  0
DICTIONARY
  5
19
102
{ACAD_REACTORS
330
C
102
}
330
C
100
AcDbDictionary
281
     1
  0
ACDBDICTIONARYWDFLT
  5
E
102
{ACAD_REACTORS
330
C
102
}
330
C
100
AcDbDictionary
281
     1
  3
Normal
350
F
100
AcDbDictionaryWithDefault
340
F
  0
DICTIONARY
  5
47
102
{ACAD_REACTORS
330
C
102
}
330
C
100
AcDbDictionary
281
     1
  3
A0
350
48
  3
A1
350
49
  3
A2
350
4A
  3
A3
350
4B
  3
A4
350
4C
  3
A5
350
4D
  3
A6
350
4E
  3
A7
350
4F
  3
A8
350
50
  3
A9
350
51
  3
B0
350
52
  3
B1
350
53
  3
B2
350
54
  3
B3
350
55
  3
B4
350
56
  3
B5
350
57
  3
B6
350
58
  3
B7
350
59
  3
B8
350
5A
  3
B9
350
5B
  3
C0
350
5C
  3
C1
350
5D
  3
C2
350
5E
  3
C3
350
5F
  3
C4
350
60
  3
C5
350
61
  3
C6
350
62
  3
C7
350
63
  3
C8
350
64
  3
C9
350
65
  3
D0
350
66
  3
D1
350
67
  3
D2
350
68
  0
DICTIONARY
  5
1B3
102
{ACAD_REACTORS
330
C
102
}
330
C
100
AcDbDictionary
281
     1
  0
DICTIONARY
  5
69
102
{ACAD_REACTORS
330
C
102
}
330
C
100
AcDbDictionary
281
     1
  3
Standard
350
6A
  0
DICTIONARY
  5
2A
102
{ACAD_REACTORS
330
C
102
}
330
C
100
AcDbDictionary
281
     1
  3
2dWireframe
350
2F
  3
Basic
350
32
  3
Brighten
350
36
  3
ColorChange
350
3A
  3
Conceptual
350
34
  3
Dim
350
35
  3
EdgeColorOff
350
3D
  3
Facepattern
350
39
  3
Flat
350
2B
  3
FlatWithEdges
350
2C
  3
Gouraud
350
2D
  3
GouraudWithEdges
350
2E
  3
Hidden
350
31
  3
JitterOff
350
3B
  3
Linepattern
350
38
  3
OverhangOff
350
3C
  3
Realistic
350
33
  3
Shaded
350
42
  3
Shaded with edges
350
41
  3
Shades of Gray
350
3E
  3
Sketchy
350
3F
  3
Thicken
350
37
  3
Wireframe
350
30
  3
X-Ray
350
40
  0
XRECORD
  5
1AF
102
{ACAD_REACTORS
330
C
102
}
330
C
100
AcDbXrecord
280
     1
 90
        1
330
6A
  0
DICTIONARY
  5
1AB
102
{ACAD_REACTORS
330
C
102
}
330
C
100
AcDbDictionary
281
     1
  3
CANNOSCALE
350
1AC
  3
CMLEADERSTYLE
350
1B1
  3
CTABLESTYLE
350
1B0
  0
LAYOUT
  5
1E
102
{ACAD_REACTORS
330
1A
102
}
330
1A
100
AcDbPlotSettings
  1

  2
none_device
  4

  6

 40
0.0
 41
0.0
 42
0.0
 43
0.0
 44
0.0
 45
0.0
 46
0.0
 47
0.0
 48
0.0
 49
0.0
140
0.0
141
0.0
142
1.0
143
1.0
 70
   688
 72
     0
 73
     0
 74
     5
  7

 75
    16
 76
     0
 77
     2
 78
   300
147
1.0
148
0.0
149
0.0
100
AcDbLayout
  1
Layout1
 70
     1
 71
     1
 10
0.0
 20
0.0
 11
12.0
 21
9.0
 12
0.0
 22
0.0
 32
0.0
 14
1.000000000000000E+20
 24
1.000000000000000E+20
 34
1.000000000000000E+20
 15
-1.000000000000000E+20
 25
-1.000000000000000E+20
 35
-1.000000000000000E+20
146
0.0
 13
0.0
 23
0.0
 33
0.0
 16
1.0
 26
0.0
 36
0.0
 17
0.0
 27
1.0
 37
0.0
 76
     0
330
1B
  0
LAYOUT
  5
26
102
{ACAD_REACTORS
330
1A
102
}
330
1A
100
AcDbPlotSettings
  1

  2
none_device
  4

  6

 40
0.0
 41
0.0
 42
0.0
 43
0.0
 44
0.0
 45
0.0
 46
0.0
 47
0.0
 48
0.0
 49
0.0
140
0.0
141
0.0
142
1.0
143
1.0
 70
   688
 72
     0
 73
     0
 74
     5
  7

 75
    16
 76
     0
 77
     2
 78
   300
147
1.0
148
0.0
149
0.0
100
AcDbLayout
  1
Layout2
 70
     1
 71
     2
 10
0.0
 20
0.0
 11
0.0
 21
0.0
 12
0.0
 22
0.0
 32
0.0
 14
0.0
 24
0.0
 34
0.0
 15
0.0
 25
0.0
 35
0.0
146
0.0
 13
0.0
 23
0.0
 33
0.0
 16
1.0
 26
0.0
 36
0.0
 17
0.0
 27
1.0
 37
0.0
 76
     0
330
23
  0
LAYOUT
  5
22
102
{ACAD_REACTORS
330
1A
102
}
330
1A
100
AcDbPlotSettings
  1

  2
none_device
  4
Letter_(8.50_x_11.00_Inches)
  6

 40
6.35
 41
6.35
 42
6.35000508
 43
6.35000508
 44
215.9
 45
279.4
 46
0.0
 47
0.0
 48
0.0
 49
0.0
140
0.0
141
0.0
142
1.0
143
1.0
 70
  1712
 72
     0
 73
     0
 74
     0
  7

 75
     0
 76
     0
 77
     2
 78
   300
147
1.0
148
0.0
149
0.0
100
AcDbLayout
  1
Model
 70
     1
 71
     0
 10
0.0
 20
0.0
 11
12.0
 21
9.0
 12
0.0
 22
0.0
 32
0.0
 14
1.000000000000000E+20
 24
1.000000000000000E+20
 34
1.000000000000000E+20
 15
-1.000000000000000E+20
 25
-1.000000000000000E+20
 35
-1.000000000000000E+20
146
0.0
 13
0.0
 23
0.0
 33
0.0
 16
1.0
 26
0.0
 36
0.0
 17
0.0
 27
1.0
 37
0.0
 76
     0
330
1F
331
29
  0
MATERIAL
  5
45
102
{ACAD_REACTORS
330
43
102
}
330
43
100
AcDbMaterial
  1
ByBlock
 72
     1
 94
      127
  0
MATERIAL
  5
44
102
{ACAD_REACTORS
330
43
102
}
330
43
100
AcDbMaterial
  1
ByLayer
 72
     1
 94
      127
  0
MATERIAL
  5
46
102
{ACAD_REACTORS
330
43
102
}
330
43
100
AcDbMaterial
  1
Global
 72
     1
 94
      127
  0
MLEADERSTYLE
  5
6C
102
{ACAD_REACTORS
330
6B
102
}
330
6B
100
AcDbMLeaderStyle
179
     2
170
     2
171
     1
172
     0
 90
        2
 40
0.0
 41
0.0
173
     1
 91
-1056964608
340
14
 92
       -2
290
     1
 42
0.09
291
     1
 43
0.36
  3
Standard
341
0
 44
0.18
300

342
11
174
     1
178
     6
175
     1
176
     0
 93
-1056964608
 45
0.18
292
     0
297
     0
 46
0.18
343
0
 94
-1056964608
 47
1.0
 49
1.0
140
1.0
293
     1
141
0.0
294
     1
177
     0
142
1.0
295
     0
296
     0
143
0.125
271
     0
272
     9
273
     9
298
     0
  0
MLINESTYLE
  5
18
102
{ACAD_REACTORS
330
17
102
}
330
17
100
AcDbMlineStyle
  2
Standard
 70
     0
  3

 62
   256
 51
90.0
 52
90.0
 71
     2
 49
0.5
 62
   256
  6
BYLAYER
 49
-0.5
 62
   256
  6
BYLAYER
  0
ACDBPLACEHOLDER
  5
F
102
{ACAD_REACTORS
330
E
102
}
330
E
  0
SCALE
  5
48
102
{ACAD_REACTORS
330
47
102
}
330
47
100
AcDbScale
 70
     0
300
1:1
140
1.0
141
1.0
290
     1
  0
SCALE
  5
49
102
{ACAD_REACTORS
330
47
102
}
330
47
100
AcDbScale
 70
     0
300
1:2
140
1.0
141
2.0
290
     0
  0
SCALE
  5
4A
102
{ACAD_REACTORS
330
47
102
}
330
47
100
AcDbScale
 70
     0
300
1:4
140
1.0
141
4.0
290
     0
  0
SCALE
  5
4B
102
{ACAD_REACTORS
330
47
102
}
330
47
100
AcDbScale
 70
     0
300
1:5
140
1.0
141
5.0
290
     0
  0
SCALE
  5
4C
102
{ACAD_REACTORS
330
47
102
}
330
47
100
AcDbScale
 70
     0
300
1:8
140
1.0
141
8.0
290
     0
  0
SCALE
  5
4D
102
{ACAD_REACTORS
330
47
102
}
330
47
100
AcDbScale
 70
     0
300
1:10
140
1.0
141
10.0
290
     0
  0
SCALE
  5
4E
102
{ACAD_REACTORS
330
47
102
}
330
47
100
AcDbScale
 70
     0
300
1:16
140
1.0
141
16.0
290
     0
  0
SCALE
  5
4F
102
{ACAD_REACTORS
330
47
102
}
330
47
100
AcDbScale
 70
     0
300
1:20
140
1.0
141
20.0
290
     0
  0
SCALE
  5
50
102
{ACAD_REACTORS
330
47
102
}
330
47
100
AcDbScale
 70
     0
300
1:30
140
1.0
141
30.0
290
     0
  0
SCALE
  5
51
102
{ACAD_REACTORS
330
47
102
}
330
47
100
AcDbScale
 70
     0
300
1:40
140
1.0
141
40.0
290
     0
  0
SCALE
  5
52
102
{ACAD_REACTORS
330
47
102
}
330
47
100
AcDbScale
 70
     0
300
1:50
140
1.0
141
50.0
290
     0
  0
SCALE
  5
53
102
{ACAD_REACTORS
330
47
102
}
330
47
100
AcDbScale
 70
     0
300
1:100
140
1.0
141
100.0
290
     0
  0
SCALE
  5
54
102
{ACAD_REACTORS
330
47
102
}
330
47
100
AcDbScale
 70
     0
300
2:1
140
2.0
141
1.0
290
     0
  0
SCALE
  5
55
102
{ACAD_REACTORS
330
47
102
}
330
47
100
AcDbScale
 70
     0
300
4:1
140
4.0
141
1.0
290
     0
  0
SCALE
  5
56
102
{ACAD_REACTORS
330
47
102
}
330
47
100
AcDbScale
 70
     0
300
8:1
140
8.0
141
1.0
290
     0
  0
SCALE
  5
57
102
{ACAD_REACTORS
330
47
102
}
330
47
100
AcDbScale
 70
     0
300
10:1
140
10.0
141
1.0
290
     0
  0
SCALE
  5
58
102
{ACAD_REACTORS
330
47
102
}
330
47
100
AcDbScale
 70
     0
300
100:1
140
100.0
141
1.0
290
     0
  0
SCALE
  5
59
102
{ACAD_REACTORS
330
47
102
}
330
47
100
AcDbScale
 70
     0
300
1/128" = 1'-0"
140
0.0078125
141
12.0
290
     0
  0
SCALE
  5
5A
102
{ACAD_REACTORS
330
47
102
}
330
47
100
AcDbScale
 70
     0
300
1/64" = 1'-0"
140
0.015625
141
12.0
290
     0
  0
SCALE
  5
5B
102
{ACAD_REACTORS
330
47
102
}
330
47
100
AcDbScale
 70
     0
300
1/32" = 1'-0"
140
0.03125
141
12.0
290
     0
  0
SCALE
  5
5C
102
{ACAD_REACTORS
330
47
102
}
330
47
100
AcDbScale
 70
     0
300
1/16" = 1'-0"
140
0.0625
141
12.0
290
     0
  0
SCALE
  5
5D
102
{ACAD_REACTORS
330
47
102
}
330
47
100
AcDbScale
 70
     0
300
3/32" = 1'-0"
140
0.09375
141
12.0
290
     0
  0
SCALE
  5
5E
102
{ACAD_REACTORS
330
47
102
}
330
47
100
AcDbScale
 70
     0
300
1/8" = 1'-0"
140
0.125
141
12.0
290
     0
  0
SCALE
  5
5F
102
{ACAD_REACTORS
330
47
102
}
330
47
100
AcDbScale
 70
     0
300
3/16" = 1'-0"
140
0.1875
141
12.0
290
     0
  0
SCALE
  5
60
102
{ACAD_REACTORS
330
47
102
}
330
47
100
AcDbScale
 70
     0
300
1/4" = 1'-0"
140
0.25
141
12.0
290
     0
  0
SCALE
  5
61
102
{ACAD_REACTORS
330
47
102
}
330
47
100
AcDbScale
 70
     0
300
3/8" = 1'-0"
140
0.375
141
12.0
290
     0
  0
SCALE
  5
62
102
{ACAD_REACTORS
330
47
102
}
330
47
100
AcDbScale
 70
     0
300
1/2" = 1'-0"
140
0.5
141
12.0
290
     0
  0
SCALE
  5
63
102
{ACAD_REACTORS
330
47
102
}
330
47
100
AcDbScale
 70
     0
300
3/4" = 1'-0"
140
0.75
141
12.0
290
     0
  0
SCALE
  5
64
102
{ACAD_REACTORS
330
47
102
}
330
47
100
AcDbScale
 70
     0
300
1" = 1'-0"
140
1.0
141
12.0
290
     0
  0
SCALE
  5
65
102
{ACAD_REACTORS
330
47
102
}
330
47
100
AcDbScale
 70
     0
300
1-1/2" = 1'-0"
140
1.5
141
12.0
290
     0
  0
SCALE
  5
66
102
{ACAD_REACTORS
330
47
102
}
330
47
100
AcDbScale
 70
     0
300
3" = 1'-0"
140
3.0
141
12.0
290
     0
  0
SCALE
  5
67
102
{ACAD_REACTORS
330
47
102
}
330
47
100
AcDbScale
 70
     0
300
6" = 1'-0"
140
6.0
141
12.0
290
     0
  0
SCALE
  5
68
102
{ACAD_REACTORS
330
47
102
}
330
47
100
AcDbScale
 70
     0
300
1'-0" = 1'-0"
140
12.0
141
12.0
290
     0
  0
TABLESTYLE
  5
6A
102
{ACAD_REACTORS
330
69
102
}
102
{ACAD_XDICTIONARY
360
1AD
102
}
330
69
100
AcDbTableStyle
  3
Standard
 70
     0
 71
     0
 40
0.06
 41
0.06
280
     0
281
     0
  7
Standard
140
0.18
170
     2
 62
     0
 63
   257
283
     0
 90
        4
 91
        0
  1

274
    -2
284
     1
 64
     0
275
    -2
285
     1
 65
     0
276
    -2
286
     1
 66
     0
277
    -2
287
     1
 67
     0
278
    -2
288
     1
 68
     0
279
    -2
289
     1
 69
     0
  7
Standard
140
0.25
170
     5
 62
     0
 63
   257
283
     0
 90
        4
 91
        0
  1

274
    -2
284
     1
 64
     0
275
    -2
285
     1
 65
     0
276
    -2
286
     1
 66
     0
277
    -2
287
     1
 67
     0
278
    -2
288
     1
 68
     0
279
    -2
289
     1
 69
     0
  7
Standard
140
0.18
170
     5
 62
     0
 63
   257
283
     0
 90
        4
 91
        0
  1

274
    -2
284
     1
 64
     0
275
    -2
285
     1
 65
     0
276
    -2
286
     1
 66
     0
277
    -2
287
     1
 67
     0
278
    -2
288
     1
 68
     0
279
    -2
289
     1
 69
     0
  0
VISUALSTYLE
  5
2F
102
{ACAD_REACTORS
330
2A
102
}
330
2A
100
AcDbVisualStyle
  2
2dWireframe
 70
     4
177
     3
291
     0
 70
    58
 90
        0
176
     1
 90
        2
176
     1
 90
        0
176
     1
 90
        0
176
     1
 40
0.6
176
     1
 40
30.0
176
     1
 62
     7
420
 16777215
176
     1
 90
        1
176
     1
 90
        4
176
     1
 62
     7
176
     1
 62
   257
176
     1
 90
        1
176
     1
 90
        1
176
     1
 40
1.0
176
     1
 90
        0
176
     1
 62
   257
176
     1
 40
1.0
176
     1
 90
        1
176
     1
 90
        6
176
     1
 90
        2
176
     1
 62
     7
176
     1
 90
        5
176
     1
 90
        0
176
     1
 90
        0
176
     1
290
     0
176
     1
 90
        1
176
     1
 40
0.0
176
     1
 90
        0
176
     1
290
     1
176
     1
290
     1
176
     1
290
     0
176
     1
290
     0
176
     1
290
     0
176
     1
290
     0
176
     1
290
     0
176
     1
290
     0
176
     1
290
     0
176
     1
 90
       50
176
     1
 40
0.0
176
     1
 40
1.0
176
     1
 90
        0
176
     1
 62
    18
420
        0
176
     1
 90
       50
176
     1
 90
        3
176
     1
 62
     5
420
      255
176
     1
290
     0
176
     1
 90
       50
176
     1
 90
       50
176
     1
 90
       50
176
     1
290
     0
176
     1
 90
       50
176
     1
 62
   256
176
     0
 40
1.0
176
     0
 90
        2
176
     1
  1
strokes_ogs.tif
176
     1
290
     0
176
     1
 40
1.0
176
     1
 40
1.0
176
     1
  0
VISUALSTYLE
  5
32
102
{ACAD_REACTORS
330
2A
102
}
330
2A
100
AcDbVisualStyle
  2
Basic
 70
     7
177
     3
291
     1
 70
    58
 90
        1
176
     1
 90
        0
176
     1
 90
        1
176
     1
 90
        0
176
     1
 40
0.6
176
     1
 40
30.0
176
     1
 62
     7
420
 16777215
176
     1
 90
        0
176
     1
 90
        4
176
     1
 62
     7
176
     1
 62
   257
176
     1
 90
        1
176
     1
 90
        1
176
     1
 40
1.0
176
     1
 90
        8
176
     1
 62
     7
176
     1
 40
1.0
176
     1
 90
        1
176
     1
 90
        6
176
     1
 90
        2
176
     1
 62
     7
176
     1
 90
        5
176
     1
 90
        0
176
     1
 90
        0
176
     1
290
     0
176
     1
 90
        1
176
     1
 40
0.0
176
     1
 90
        0
176
     1
290
     0
176
     1
290
     1
176
     1
290
     1
176
     1
290
     0
176
     1
290
     0
176
     1
290
     0
176
     1
290
     0
176
     1
290
     0
176
     1
290
     0
176
     1
 90
       50
176
     1
 40
0.0
176
     1
 40
1.0
176
     1
 90
        0
176
     1
 62
    18
420
        0
176
     1
 90
       50
176
     1
 90
        3
176
     1
 62
     5
420
      255
176
     1
290
     0
176
     1
 90
       50
176
     1
 90
       50
176
     1
 90
       50
176
     1
290
     0
176
     1
 90
       50
176
     1
 62
   256
176
     0
 40
1.0
176
     0
 90
        2
176
     1
  1
strokes_ogs.tif
176
     1
290
     0
176
     1
 40
1.0
176
     1
 40
1.0
176
     1
  0
VISUALSTYLE
  5
36
102
{ACAD_REACTORS
330
2A
102
}
330
2A
100
AcDbVisualStyle
  2
Brighten
 70
    12
177
     3
291
     1
 70
    58
 90
        2
176
     1
 90
        2
176
     1
 90
        0
176
     1
 90
        0
176
     1
 40
0.6
176
     1
 40
30.0
176
     1
 62
     7
420
 16777215
176
     1
 90
        1
176
     1
 90
        4
176
     1
 62
     7
176
     1
 62
   257
176
     1
 90
        1
176
     1
 90
        1
176
     1
 40
1.0
176
     1
 90
        8
176
     1
 62
     7
176
     1
 40
1.0
176
     1
 90
        1
176
     1
 90
        6
176
     1
 90
        2
176
     1
 62
     7
176
     1
 90
        5
176
     1
 90
        0
176
     1
 90
        0
176
     1
290
     0
176
     1
 90
        1
176
     1
 40
50.0
176
     1
 90
        0
176
     1
290
     0
176
     1
290
     1
176
     1
290
     1
176
     1
290
     0
176
     1
290
     0
176
     1
290
     0
176
     1
290
     0
176
     1
290
     0
176
     1
290
     0
176
     1
 90
       50
176
     1
 40
0.0
176
     1
 40
1.0
176
     1
 90
        0
176
     1
 62
    18
420
        0
176
     1
 90
       50
176
     1
 90
        3
176
     1
 62
     5
420
      255
176
     1
290
     0
176
     1
 90
       50
176
     1
 90
       50
176
     1
 90
       50
176
     1
290
     0
176
     1
 90
       50
176
     1
 62
   256
176
     0
 40
1.0
176
     0
 90
        2
176
     1
  1
strokes_ogs.tif
176
     1
290
     0
176
     1
 40
1.0
176
     1
 40
1.0
176
     1
  0
VISUALSTYLE
  5
3A
102
{ACAD_REACTORS
330
2A
102
}
330
2A
100
AcDbVisualStyle
  2
ColorChange
 70
    16
177
     3
291
     1
 70
    58
 90
        2
176
     1
 90
        2
176
     1
 90
        3
176
     1
 90
        0
176
     1
 40
0.6
176
     1
 40
30.0
176
     1
 62
     8
420
  8421504
176
     1
 90
        1
176
     1
 90
        4
176
     1
 62
     7
176
     1
 62
   257
176
     1
 90
        1
176
     1
 90
        1
176
     1
 40
1.0
176
     1
 90
        8
176
     1
 62
     8
420
  8421504
176
     1
 40
1.0
176
     1
 90
        1
176
     1
 90
        6
176
     1
 90
        2
176
     1
 62
     7
176
     1
 90
        5
176
     1
 90
        0
176
     1
 90
        0
176
     1
290
     0
176
     1
 90
        1
176
     1
 40
0.0
176
     1
 90
        0
176
     1
290
     0
176
     1
290
     1
176
     1
290
     1
176
     1
290
     0
176
     1
290
     0
176
     1
290
     0
176
     1
290
     0
176
     1
290
     0
176
     1
290
     0
176
     1
 90
       50
176
     1
 40
0.0
176
     1
 40
1.0
176
     1
 90
        0
176
     1
 62
    18
420
        0
176
     1
 90
       50
176
     1
 90
        3
176
     1
 62
     5
420
      255
176
     1
290
     0
176
     1
 90
       50
176
     1
 90
       50
176
     1
 90
       50
176
     1
290
     0
176
     1
 90
       50
176
     1
 62
   256
176
     0
 40
1.0
176
     0
 90
        2
176
     1
  1
strokes_ogs.tif
176
     1
290
     0
176
     1
 40
1.0
176
     1
 40
1.0
176
     1
  0
VISUALSTYLE
  5
34
102
{ACAD_REACTORS
330
2A
102
}
330
2A
100
AcDbVisualStyle
  2
Conceptual
 70
     9
177
     3
291
     0
 70
    58
 90
        3
176
     1
 90
        2
176
     1
 90
        0
176
     1
 90
        0
176
     1
 40
0.6
176
     1
 40
30.0
176
     1
 62
     7
420
 16777215
176
     1
 90
        2
176
     1
 90
        2
176
     1
 62
     7
176
     1
 62
   257
176
     1
 90
        1
176
     1
 90
        1
176
     1
 40
179.0
176
     1
 90
        8
176
     1
 62
     7
176
     1
 40
1.0
176
     1
 90
        1
176
     1
 90
        6
176
     1
 90
        2
176
     1
 62
     7
176
     1
 90
        3
176
     1
 90
        0
176
     1
 90
        0
176
     1
290
     0
176
     1
 90
        1
176
     1
 40
0.0
176
     1
 90
        0
176
     1
290
     0
176
     1
290
     1
176
     1
290
     1
176
     1
290
     0
176
     1
290
     0
176
     1
290
     0
176
     1
290
     0
176
     1
290
     0
176
     1
290
     0
176
     1
 90
       50
176
     1
 40
0.0
176
     1
 40
1.0
176
     1
 90
        0
176
     1
 62
    18
420
        0
176
     1
 90
       50
176
     1
 90
        3
176
     1
 62
     5
420
      255
176
     1
290
     0
176
     1
 90
       50
176
     1
 90
       50
176
     1
 90
       50
176
     1
290
     0
176
     1
 90
       50
176
     1
 62
   256
176
     0
 40
1.0
176
     0
 90
        2
176
     1
  1
strokes_ogs.tif
176
     1
290
     0
176
     1
 40
1.0
176
     1
 40
1.0
176
     1
  0
VISUALSTYLE
  5
35
102
{ACAD_REACTORS
330
2A
102
}
330
2A
100
AcDbVisualStyle
  2
Dim
 70
    11
177
     3
291
     1
 70
    58
 90
        2
176
     1
 90
        2
176
     1
 90
        0
176
     1
 90
        0
176
     1
 40
0.6
176
     1
 40
30.0
176
     1
 62
     7
420
 16777215
176
     1
 90
        1
176
     1
 90
        4
176
     1
 62
     7
176
     1
 62
   257
176
     1
 90
        1
176
     1
 90
        1
176
     1
 40
1.0
176
     1
 90
        8
176
     1
 62
     7
176
     1
 40
1.0
176
     1
 90
        1
176
     1
 90
        6
176
     1
 90
        2
176
     1
 62
     7
176
     1
 90
        5
176
     1
 90
        0
176
     1
 90
        0
176
     1
290
     0
176
     1
 90
        1
176
     1
 40
-50.0
176
     1
 90
        0
176
     1
290
     0
176
     1
290
     1
176
     1
290
     1
176
     1
290
     0
176
     1
290
     0
176
     1
290
     0
176
     1
290
     0
176
     1
290
     0
176
     1
290
     0
176
     1
 90
       50
176
     1
 40
0.0
176
     1
 40
1.0
176
     1
 90
        0
176
     1
 62
    18
420
        0
176
     1
 90
       50
176
     1
 90
        3
176
     1
 62
     5
420
      255
176
     1
290
     0
176
     1
 90
       50
176
     1
 90
       50
176
     1
 90
       50
176
     1
290
     0
176
     1
 90
       50
176
     1
 62
   256
176
     0
 40
1.0
176
     0
 90
        2
176
     1
  1
strokes_ogs.tif
176
     1
290
     0
176
     1
 40
1.0
176
     1
 40
1.0
176
     1
  0
VISUALSTYLE
  5
3D
102
{ACAD_REACTORS
330
2A
102
}
330
2A
100
AcDbVisualStyle
  2
EdgeColorOff
 70
    22
177
     3
291
     1
 70
    58
 90
        2
176
     0
 90
        2
176
     0
 90
        0
176
     0
 90
        0
176
     0
 40
0.6
176
     0
 40
30.0
176
     0
 62
     7
420
 16777215
176
     0
 90
        1
176
     0
 90
        4
176
     0
 62
     7
176
     0
 62
   257
176
     0
 90
        1
176
     0
 90
        1
176
     0
 40
1.0
176
     0
 90
        8
176
     2
 62
     7
176
     0
 40
1.0
176
     0
 90
        1
176
     0
 90
        6
176
     0
 90
        2
176
     0
 62
     7
176
     0
 90
        5
176
     0
 90
        0
176
     0
 90
        0
176
     0
290
     0
176
     0
 90
        1
176
     0
 40
0.0
176
     0
 90
        0
176
     0
290
     0
176
     0
290
     1
176
     0
290
     1
176
     0
290
     0
176
     0
290
     0
176
     0
290
     0
176
     0
290
     0
176
     0
290
     0
176
     0
290
     0
176
     0
 90
       50
176
     0
 40
0.0
176
     0
 40
1.0
176
     0
 90
        0
176
     0
 62
    18
420
        0
176
     0
 90
       50
176
     0
 90
        3
176
     0
 62
     5
420
      255
176
     0
290
     0
176
     0
 90
       50
176
     0
 90
       50
176
     0
 90
       50
176
     0
290
     0
176
     0
 90
       50
176
     0
 62
   256
176
     0
 40
1.0
176
     0
 90
        2
176
     0
  1
strokes_ogs.tif
176
     0
290
     0
176
     0
 40
1.0
176
     0
 40
1.0
176
     0
  0
VISUALSTYLE
  5
39
102
{ACAD_REACTORS
330
2A
102
}
330
2A
100
AcDbVisualStyle
  2
Facepattern
 70
    15
177
     3
291
     1
 70
    58
 90
        2
176
     1
 90
        2
176
     1
 90
        0
176
     1
 90
        0
176
     1
 40
0.6
176
     1
 40
30.0
176
     1
 62
     7
420
 16777215
176
     1
 90
        1
176
     1
 90
        4
176
     1
 62
     7
176
     1
 62
   257
176
     1
 90
        1
176
     1
 90
        1
176
     1
 40
1.0
176
     1
 90
        8
176
     1
 62
     7
176
     1
 40
1.0
176
     1
 90
        1
176
     1
 90
        6
176
     1
 90
        2
176
     1
 62
     7
176
     1
 90
        5
176
     1
 90
        0
176
     1
 90
        0
176
     1
290
     0
176
     1
 90
        1
176
     1
 40
0.0
176
     1
 90
        0
176
     1
290
     0
176
     1
290
     1
176
     1
290
     1
176
     1
290
     0
176
     1
290
     0
176
     1
290
     0
176
     1
290
     0
176
     1
290
     0
176
     1
290
     0
176
     1
 90
       50
176
     1
 40
0.0
176
     1
 40
1.0
176
     1
 90
        0
176
     1
 62
    18
420
        0
176
     1
 90
       50
176
     1
 90
        3
176
     1
 62
     5
420
      255
176
     1
290
     0
176
     1
 90
       50
176
     1
 90
       50
176
     1
 90
       50
176
     1
290
     0
176
     1
 90
       50
176
     1
 62
   256
176
     0
 40
1.0
176
     0
 90
        2
176
     1
  1
strokes_ogs.tif
176
     1
290
     0
176
     1
 40
1.0
176
     1
 40
1.0
176
     1
  0
VISUALSTYLE
  5
2B
102
{ACAD_REACTORS
330
2A
102
}
330
2A
100
AcDbVisualStyle
  2
Flat
 70
     0
177
     3
291
     1
 70
    58
 90
        2
176
     1
 90
        1
176
     1
 90
        1
176
     1
 90
        2
176
     1
 40
0.6
176
     1
 40
30.0
176
     1
 62
     7
420
 16777215
176
     1
 90
        0
176
     1
 90
        0
176
     1
 62
     7
176
     1
 62
   257
176
     1
 90
        1
176
     1
 90
        1
176
     1
 40
1.0
176
     1
 90
        8
176
     1
 62
     7
176
     1
 40
1.0
176
     1
 90
        1
176
     1
 90
        6
176
     1
 90
        2
176
     1
 62
     7
176
     1
 90
        5
176
     1
 90
        0
176
     1
 90
        0
176
     1
290
     0
176
     1
 90
       13
176
     1
 40
0.0
176
     1
 90
        0
176
     1
290
     0
176
     1
290
     1
176
     1
290
     1
176
     1
290
     0
176
     1
290
     0
176
     1
290
     0
176
     1
290
     0
176
     1
290
     0
176
     1
290
     0
176
     1
 90
       50
176
     1
 40
0.0
176
     1
 40
1.0
176
     1
 90
        0
176
     1
 62
    18
420
        0
176
     1
 90
       50
176
     1
 90
        3
176
     1
 62
     5
420
      255
176
     1
290
     0
176
     1
 90
       50
176
     1
 90
       50
176
     1
 90
       50
176
     1
290
     0
176
     1
 90
       50
176
     1
 62
   256
176
     0
 40
1.0
176
     0
 90
        2
176
     1
  1
strokes_ogs.tif
176
     1
290
     0
176
     1
 40
1.0
176
     1
 40
1.0
176
     1
  0
VISUALSTYLE
  5
2C
102
{ACAD_REACTORS
330
2A
102
}
330
2A
100
AcDbVisualStyle
  2
FlatWithEdges
 70
     1
177
     3
291
     1
 70
    58
 90
        2
176
     1
 90
        1
176
     1
 90
        1
176
     1
 90
        2
176
     1
 40
0.6
176
     1
 40
30.0
176
     1
 62
     7
420
 16777215
176
     1
 90
        1
176
     1
 90
        0
176
     1
 62
     7
176
     1
 62
   257
176
     1
 90
        1
176
     1
 90
        1
176
     1
 40
1.0
176
     1
 90
        0
176
     1
 62
   257
176
     1
 40
1.0
176
     1
 90
        1
176
     1
 90
        6
176
     1
 90
        2
176
     1
 62
     7
176
     1
 90
        5
176
     1
 90
        0
176
     1
 90
        0
176
     1
290
     0
176
     1
 90
       13
176
     1
 40
0.0
176
     1
 90
        0
176
     1
290
     0
176
     1
290
     1
176
     1
290
     1
176
     1
290
     0
176
     1
290
     0
176
     1
290
     0
176
     1
290
     0
176
     1
290
     0
176
     1
290
     0
176
     1
 90
       50
176
     1
 40
0.0
176
     1
 40
1.0
176
     1
 90
        0
176
     1
 62
    18
420
        0
176
     1
 90
       50
176
     1
 90
        3
176
     1
 62
     5
420
      255
176
     1
290
     0
176
     1
 90
       50
176
     1
 90
       50
176
     1
 90
       50
176
     1
290
     0
176
     1
 90
       50
176
     1
 62
   256
176
     0
 40
1.0
176
     0
 90
        2
176
     1
  1
strokes_ogs.tif
176
     1
290
     0
176
     1
 40
1.0
176
     1
 40
1.0
176
     1
  0
VISUALSTYLE
  5
2D
102
{ACAD_REACTORS
330
2A
102
}
330
2A
100
AcDbVisualStyle
  2
Gouraud
 70
     2
177
     3
291
     1
 70
    58
 90
        2
176
     1
 90
        2
176
     1
 90
        1
176
     1
 90
        2
176
     1
 40
0.6
176
     1
 40
30.0
176
     1
 62
     7
420
 16777215
176
     1
 90
        0
176
     1
 90
        0
176
     1
 62
     7
176
     1
 62
   257
176
     1
 90
        1
176
     1
 90
        1
176
     1
 40
1.0
176
     1
 90
        0
176
     1
 62
     7
176
     1
 40
1.0
176
     1
 90
        1
176
     1
 90
        6
176
     1
 90
        2
176
     1
 62
     7
176
     1
 90
        5
176
     1
 90
        0
176
     1
 90
        0
176
     1
290
     0
176
     1
 90
       13
176
     1
 40
0.0
176
     1
 90
        0
176
     1
290
     0
176
     1
290
     1
176
     1
290
     1
176
     1
290
     0
176
     1
290
     0
176
     1
290
     0
176
     1
290
     0
176
     1
290
     0
176
     1
290
     0
176
     1
 90
       50
176
     1
 40
0.0
176
     1
 40
1.0
176
     1
 90
        0
176
     1
 62
    18
420
        0
176
     1
 90
       50
176
     1
 90
        3
176
     1
 62
     5
420
      255
176
     1
290
     0
176
     1
 90
       50
176
     1
 90
       50
176
     1
 90
       50
176
     1
290
     0
176
     1
 90
       50
176
     1
 62
   256
176
     0
 40
1.0
176
     0
 90
        2
176
     1
  1
strokes_ogs.tif
176
     1
290
     0
176
     1
 40
1.0
176
     1
 40
1.0
176
     1
  0
VISUALSTYLE
  5
2E
102
{ACAD_REACTORS
330
2A
102
}
330
2A
100
AcDbVisualStyle
  2
GouraudWithEdges
 70
     3
177
     3
291
     1
 70
    58
 90
        2
176
     1
 90
        2
176
     1
 90
        1
176
     1
 90
        2
176
     1
 40
0.6
176
     1
 40
30.0
176
     1
 62
     7
420
 16777215
176
     1
 90
        1
176
     1
 90
        0
176
     1
 62
     7
176
     1
 62
   257
176
     1
 90
        1
176
     1
 90
        1
176
     1
 40
1.0
176
     1
 90
        0
176
     1
 62
   257
176
     1
 40
1.0
176
     1
 90
        1
176
     1
 90
        6
176
     1
 90
        2
176
     1
 62
     7
176
     1
 90
        5
176
     1
 90
        0
176
     1
 90
        0
176
     1
290
     0
176
     1
 90
       13
176
     1
 40
0.0
176
     1
 90
        0
176
     1
290
     0
176
     1
290
     1
176
     1
290
     1
176
     1
290
     0
176
     1
290
     0
176
     1
290
     0
176
     1
290
     0
176
     1
290
     0
176
     1
290
     0
176
     1
 90
       50
176
     1
 40
0.0
176
     1
 40
1.0
176
     1
 90
        0
176
     1
 62
    18
420
        0
176
     1
 90
       50
176
     1
 90
        3
176
     1
 62
     5
420
      255
176
     1
290
     0
176
     1
 90
       50
176
     1
 90
       50
176
     1
 90
       50
176
     1
290
     0
176
     1
 90
       50
176
     1
 62
   256
176
     0
 40
1.0
176
     0
 90
        2
176
     1
  1
strokes_ogs.tif
176
     1
290
     0
176
     1
 40
1.0
176
     1
 40
1.0
176
     1
  0
VISUALSTYLE
  5
31
102
{ACAD_REACTORS
330
2A
102
}
330
2A
100
AcDbVisualStyle
  2
Hidden
 70
     6
177
     3
291
     0
 70
    58
 90
        1
176
     1
 90
        2
176
     1
 90
        2
176
     1
 90
        0
176
     1
 40
0.6
176
     1
 40
30.0
176
     1
 62
     7
420
 16777215
176
     1
 90
        2
176
     1
 90
        2
176
     1
 62
     7
176
     1
 62
   257
176
     1
 90
        2
176
     1
 90
        1
176
     1
 40
40.0
176
     1
 90
        0
176
     1
 62
   257
176
     1
 40
1.0
176
     1
 90
        1
176
     1
 90
        6
176
     1
 90
        2
176
     1
 62
     7
176
     1
 90
        3
176
     1
 90
        0
176
     1
 90
        0
176
     1
290
     0
176
     1
 90
        1
176
     1
 40
0.0
176
     1
 90
        0
176
     1
290
     0
176
     1
290
     1
176
     1
290
     1
176
     1
290
     0
176
     1
290
     0
176
     1
290
     0
176
     1
290
     0
176
     1
290
     0
176
     1
290
     0
176
     1
 90
       50
176
     1
 40
0.0
176
     1
 40
1.0
176
     1
 90
        0
176
     1
 62
    18
420
        0
176
     1
 90
       50
176
     1
 90
        3
176
     1
 62
     5
420
      255
176
     1
290
     0
176
     1
 90
       50
176
     1
 90
       50
176
     1
 90
       50
176
     1
290
     0
176
     1
 90
       50
176
     1
 62
   256
176
     0
 40
1.0
176
     0
 90
        2
176
     1
  1
strokes_ogs.tif
176
     1
290
     0
176
     1
 40
1.0
176
     1
 40
1.0
176
     1
  0
VISUALSTYLE
  5
3B
102
{ACAD_REACTORS
330
2A
102
}
330
2A
100
AcDbVisualStyle
  2
JitterOff
 70
    20
177
     3
291
     1
 70
    58
 90
        2
176
     0
 90
        2
176
     0
 90
        0
176
     0
 90
        0
176
     0
 40
0.6
176
     0
 40
30.0
176
     0
 62
     7
420
 16777215
176
     0
 90
        1
176
     0
 90
        4
176
     0
 62
     7
176
     0
 62
   257
176
     0
 90
        1
176
     0
 90
        1
176
     0
 40
1.0
176
     0
 90
       10
176
     2
 62
     7
176
     0
 40
1.0
176
     0
 90
        1
176
     0
 90
        6
176
     0
 90
        2
176
     0
 62
     7
176
     0
 90
        5
176
     0
 90
        0
176
     0
 90
        0
176
     0
290
     0
176
     0
 90
        1
176
     0
 40
0.0
176
     0
 90
        0
176
     0
290
     0
176
     0
290
     1
176
     0
290
     1
176
     0
290
     0
176
     0
290
     0
176
     0
290
     0
176
     0
290
     0
176
     0
290
     0
176
     0
290
     0
176
     0
 90
       50
176
     0
 40
0.0
176
     0
 40
1.0
176
     0
 90
        0
176
     0
 62
    18
420
        0
176
     0
 90
       50
176
     0
 90
        3
176
     0
 62
     5
420
      255
176
     0
290
     0
176
     0
 90
       50
176
     0
 90
       50
176
     0
 90
       50
176
     0
290
     0
176
     0
 90
       50
176
     0
 62
   256
176
     0
 40
1.0
176
     0
 90
        2
176
     0
  1
strokes_ogs.tif
176
     0
290
     0
176
     0
 40
1.0
176
     0
 40
1.0
176
     0
  0
VISUALSTYLE
  5
38
102
{ACAD_REACTORS
330
2A
102
}
330
2A
100
AcDbVisualStyle
  2
Linepattern
 70
    14
177
     3
291
     1
 70
    58
 90
        2
176
     1
 90
        2
176
     1
 90
        0
176
     1
 90
        0
176
     1
 40
0.6
176
     1
 40
30.0
176
     1
 62
     7
420
 16777215
176
     1
 90
        1
176
     1
 90
        4
176
     1
 62
     7
176
     1
 62
   257
176
     1
 90
        7
176
     1
 90
        7
176
     1
 40
1.0
176
     1
 90
        8
176
     1
 62
     7
176
     1
 40
1.0
176
     1
 90
        1
176
     1
 90
        6
176
     1
 90
        2
176
     1
 62
     7
176
     1
 90
        5
176
     1
 90
        0
176
     1
 90
        0
176
     1
290
     0
176
     1
 90
        1
176
     1
 40
0.0
176
     1
 90
        0
176
     1
290
     0
176
     1
290
     1
176
     1
290
     1
176
     1
290
     0
176
     1
290
     0
176
     1
290
     0
176
     1
290
     0
176
     1
290
     0
176
     1
290
     0
176
     1
 90
       50
176
     1
 40
0.0
176
     1
 40
1.0
176
     1
 90
        0
176
     1
 62
    18
420
        0
176
     1
 90
       50
176
     1
 90
        3
176
     1
 62
     5
420
      255
176
     1
290
     0
176
     1
 90
       50
176
     1
 90
       50
176
     1
 90
       50
176
     1
290
     0
176
     1
 90
       50
176
     1
 62
   256
176
     0
 40
1.0
176
     0
 90
        2
176
     1
  1
strokes_ogs.tif
176
     1
290
     0
176
     1
 40
1.0
176
     1
 40
1.0
176
     1
  0
VISUALSTYLE
  5
3C
102
{ACAD_REACTORS
330
2A
102
}
330
2A
100
AcDbVisualStyle
  2
OverhangOff
 70
    21
177
     3
291
     1
 70
    58
 90
        2
176
     0
 90
        2
176
     0
 90
        0
176
     0
 90
        0
176
     0
 40
0.6
176
     0
 40
30.0
176
     0
 62
     7
420
 16777215
176
     0
 90
        1
176
     0
 90
        4
176
     0
 62
     7
176
     0
 62
   257
176
     0
 90
        1
176
     0
 90
        1
176
     0
 40
1.0
176
     0
 90
        9
176
     2
 62
     7
176
     0
 40
1.0
176
     0
 90
        1
176
     0
 90
        6
176
     0
 90
        2
176
     0
 62
     7
176
     0
 90
        5
176
     0
 90
        0
176
     0
 90
        0
176
     0
290
     0
176
     0
 90
        1
176
     0
 40
0.0
176
     0
 90
        0
176
     0
290
     0
176
     0
290
     1
176
     0
290
     1
176
     0
290
     0
176
     0
290
     0
176
     0
290
     0
176
     0
290
     0
176
     0
290
     0
176
     0
290
     0
176
     0
 90
       50
176
     0
 40
0.0
176
     0
 40
1.0
176
     0
 90
        0
176
     0
 62
    18
420
        0
176
     0
 90
       50
176
     0
 90
        3
176
     0
 62
     5
420
      255
176
     0
290
     0
176
     0
 90
       50
176
     0
 90
       50
176
     0
 90
       50
176
     0
290
     0
176
     0
 90
       50
176
     0
 62
   256
176
     0
 40
1.0
176
     0
 90
        2
176
     0
  1
strokes_ogs.tif
176
     0
290
     0
176
     0
 40
1.0
176
     0
 40
1.0
176
     0
  0
VISUALSTYLE
  5
33
102
{ACAD_REACTORS
330
2A
102
}
330
2A
100
AcDbVisualStyle
  2
Realistic
 70
     8
177
     3
291
     0
 70
    58
 90
        2
176
     1
 90
        3
176
     1
 90
        0
176
     1
 90
        2
176
     1
 40
0.6
176
     1
 40
30.0
176
     1
 62
     7
420
 16777215
176
     1
 90
        0
176
     1
 90
        0
176
     1
 62
     7
176
     1
 62
   257
176
     1
 90
        1
176
     1
 90
        1
176
     1
 40
1.0
176
     1
 90
        8
176
     1
 62
   257
176
     1
 40
1.0
176
     1
 90
        1
176
     1
 90
        6
176
     1
 90
        2
176
     1
 62
     7
176
     1
 90
        3
176
     1
 90
        0
176
     1
 90
        0
176
     1
290
     0
176
     1
 90
       13
176
     1
 40
0.0
176
     1
 90
        0
176
     1
290
     0
176
     1
290
     1
176
     1
290
     1
176
     1
290
     0
176
     1
290
     0
176
     1
290
     0
176
     1
290
     0
176
     1
290
     0
176
     1
290
     0
176
     1
 90
       50
176
     1
 40
0.0
176
     1
 40
1.0
176
     1
 90
        0
176
     1
 62
    18
420
        0
176
     1
 90
       50
176
     1
 90
        3
176
     1
 62
     5
420
      255
176
     1
290
     0
176
     1
 90
       50
176
     1
 90
       50
176
     1
 90
       50
176
     1
290
     0
176
     1
 90
       50
176
     1
 62
   256
176
     0
 40
1.0
176
     0
 90
        2
176
     1
  1
strokes_ogs.tif
176
     1
290
     0
176
     1
 40
1.0
176
     1
 40
1.0
176
     1
  0
VISUALSTYLE
  5
42
102
{ACAD_REACTORS
330
2A
102
}
330
2A
100
AcDbVisualStyle
  2
Shaded
 70
    27
177
     3
291
     0
 70
    58
 90
        2
176
     1
 90
        2
176
     1
 90
        1
176
     1
 90
        2
176
     1
 40
0.6
176
     1
 40
30.0
176
     1
 62
     7
420
 16777215
176
     1
 90
        0
176
     1
 90
        4
176
     1
 62
     7
176
     1
 62
   257
176
     1
 90
        1
176
     1
 90
        1
176
     1
 40
1.0
176
     1
 90
        8
176
     1
 62
   257
176
     1
 40
1.0
176
     1
 90
        1
176
     1
 90
        6
176
     1
 90
        2
176
     1
 62
     8
420
  7895160
176
     1
 90
        3
176
     1
 90
        0
176
     1
 90
        0
176
     1
290
     0
176
     1
 90
        5
176
     1
 40
0.0
176
     1
 90
        0
176
     1
290
     0
176
     1
290
     1
176
     1
290
     1
176
     1
290
     0
176
     1
290
     0
176
     1
290
     0
176
     1
290
     0
176
     1
290
     0
176
     1
290
     0
176
     1
 90
       50
176
     1
 40
0.0
176
     1
 40
1.0
176
     1
 90
        0
176
     1
 62
    18
420
        0
176
     1
 90
       50
176
     1
 90
        3
176
     1
 62
     5
420
      255
176
     1
290
     0
176
     1
 90
       50
176
     1
 90
       50
176
     1
 90
       50
176
     1
290
     0
176
     1
 90
       50
176
     1
 62
   256
176
     0
 40
1.0
176
     0
 90
        2
176
     1
  1
strokes_ogs.tif
176
     1
290
     0
176
     1
 40
1.0
176
     1
 40
1.0
176
     1
  0
VISUALSTYLE
  5
41
102
{ACAD_REACTORS
330
2A
102
}
330
2A
100
AcDbVisualStyle
  2
Shaded with edges
 70
    26
177
     3
291
     0
 70
    58
 90
        2
176
     1
 90
        2
176
     1
 90
        1
176
     1
 90
        2
176
     1
 40
0.6
176
     1
 40
30.0
176
     1
 62
     7
420
 16777215
176
     1
 90
        1
176
     1
 90
       10
176
     1
 62
     7
176
     1
 62
   257
176
     1
 90
        2
176
     1
 90
        1
176
     1
 40
1.0
176
     1
 90
        8
176
     1
 62
   257
176
     1
 40
1.0
176
     1
 90
        1
176
     1
 90
        6
176
     1
 90
        2
176
     1
 62
     7
176
     1
 90
        3
176
     1
 90
        0
176
     1
 90
        0
176
     1
290
     0
176
     1
 90
        5
176
     1
 40
0.0
176
     1
 90
        0
176
     1
290
     0
176
     1
290
     1
176
     1
290
     1
176
     1
290
     0
176
     1
290
     0
176
     1
290
     0
176
     1
290
     0
176
     1
290
     0
176
     1
290
     0
176
     1
 90
       50
176
     1
 40
0.0
176
     1
 40
1.0
176
     1
 90
        0
176
     1
 62
    18
420
        0
176
     1
 90
       50
176
     1
 90
        3
176
     1
 62
     5
420
      255
176
     1
290
     0
176
     1
 90
       50
176
     1
 90
       50
176
     1
 90
       50
176
     1
290
     0
176
     1
 90
       50
176
     1
 62
   256
176
     0
 40
1.0
176
     0
 90
        2
176
     1
  1
strokes_ogs.tif
176
     1
290
     0
176
     1
 40
1.0
176
     1
 40
1.0
176
     1
  0
VISUALSTYLE
  5
3E
102
{ACAD_REACTORS
330
2A
102
}
330
2A
100
AcDbVisualStyle
  2
Shades of Gray
 70
    23
177
     3
291
     0
 70
    58
 90
        2
176
     1
 90
        2
176
     1
 90
        3
176
     1
 90
        0
176
     1
 40
0.6
176
     1
 40
30.0
176
     1
 62
     7
420
 16777215
176
     1
 90
        2
176
     1
 90
        2
176
     1
 62
     7
176
     1
 62
     7
176
     1
 90
        1
176
     1
 90
        1
176
     1
 40
40.0
176
     1
 90
        8
176
     1
 62
     7
176
     1
 40
1.0
176
     1
 90
        1
176
     1
 90
        6
176
     1
 90
        2
176
     1
 62
     7
176
     1
 90
        3
176
     1
 90
        0
176
     1
 90
        0
176
     1
290
     0
176
     1
 90
        1
176
     1
 40
0.0
176
     1
 90
        0
176
     1
290
     0
176
     1
290
     1
176
     1
290
     1
176
     1
290
     0
176
     1
290
     0
176
     1
290
     0
176
     1
290
     0
176
     1
290
     0
176
     1
290
     0
176
     1
 90
       50
176
     1
 40
0.0
176
     1
 40
1.0
176
     1
 90
        0
176
     1
 62
    18
420
        0
176
     1
 90
       50
176
     1
 90
        3
176
     1
 62
     5
420
      255
176
     1
290
     0
176
     1
 90
       50
176
     1
 90
       50
176
     1
 90
       50
176
     1
290
     0
176
     1
 90
       50
176
     1
 62
   256
176
     0
 40
1.0
176
     0
 90
        2
176
     1
  1
strokes_ogs.tif
176
     1
290
     0
176
     1
 40
1.0
176
     1
 40
1.0
176
     1
  0
VISUALSTYLE
  5
3F
102
{ACAD_REACTORS
330
2A
102
}
330
2A
100
AcDbVisualStyle
  2
Sketchy
 70
    24
177
     3
291
     0
 70
    58
 90
        1
176
     1
 90
        2
176
     1
 90
        2
176
     1
 90
        0
176
     1
 40
0.6
176
     1
 40
30.0
176
     1
 62
     7
420
 16777215
176
     1
 90
        2
176
     1
 90
        2
176
     1
 62
     7
176
     1
 62
     7
176
     1
 90
        1
176
     1
 90
        1
176
     1
 40
40.0
176
     1
 90
       11
176
     1
 62
     7
176
     1
 40
1.0
176
     1
 90
        1
176
     1
 90
        6
176
     1
 90
        2
176
     1
 62
     7
176
     1
 90
        6
176
     1
 90
        0
176
     1
 90
        0
176
     1
290
     0
176
     1
 90
        1
176
     1
 40
0.0
176
     1
 90
        0
176
     1
290
     0
176
     1
290
     1
176
     1
290
     1
176
     1
290
     0
176
     1
290
     0
176
     1
290
     0
176
     1
290
     0
176
     1
290
     0
176
     1
290
     0
176
     1
 90
       50
176
     1
 40
0.0
176
     1
 40
1.0
176
     1
 90
        0
176
     1
 62
    18
420
        0
176
     1
 90
       50
176
     1
 90
        3
176
     1
 62
     5
420
      255
176
     1
290
     0
176
     1
 90
       50
176
     1
 90
       50
176
     1
 90
       50
176
     1
290
     0
176
     1
 90
       50
176
     1
 62
   256
176
     0
 40
1.0
176
     0
 90
        2
176
     1
  1
strokes_ogs.tif
176
     1
290
     0
176
     1
 40
1.0
176
     1
 40
1.0
176
     1
  0
VISUALSTYLE
  5
37
102
{ACAD_REACTORS
330
2A
102
}
330
2A
100
AcDbVisualStyle
  2
Thicken
 70
    13
177
     3
291
     1
 70
    58
 90
        2
176
     1
 90
        2
176
     1
 90
        0
176
     1
 90
        0
176
     1
 40
0.6
176
     1
 40
30.0
176
     1
 62
     7
420
 16777215
176
     1
 90
        1
176
     1
 90
        4
176
     1
 62
     7
176
     1
 62
   257
176
     1
 90
        1
176
     1
 90
        1
176
     1
 40
1.0
176
     1
 90
       12
176
     1
 62
     7
176
     1
 40
1.0
176
     1
 90
        1
176
     1
 90
        6
176
     1
 90
        2
176
     1
 62
     7
176
     1
 90
        5
176
     1
 90
        0
176
     1
 90
        0
176
     1
290
     0
176
     1
 90
        1
176
     1
 40
0.0
176
     1
 90
        0
176
     1
290
     0
176
     1
290
     1
176
     1
290
     1
176
     1
290
     0
176
     1
290
     0
176
     1
290
     0
176
     1
290
     0
176
     1
290
     0
176
     1
290
     0
176
     1
 90
       50
176
     1
 40
0.0
176
     1
 40
1.0
176
     1
 90
        0
176
     1
 62
    18
420
        0
176
     1
 90
       50
176
     1
 90
        3
176
     1
 62
     5
420
      255
176
     1
290
     0
176
     1
 90
       50
176
     1
 90
       50
176
     1
 90
       50
176
     1
290
     0
176
     1
 90
       50
176
     1
 62
   256
176
     0
 40
1.0
176
     0
 90
        2
176
     1
  1
strokes_ogs.tif
176
     1
290
     0
176
     1
 40
1.0
176
     1
 40
1.0
176
     1
  0
VISUALSTYLE
  5
30
102
{ACAD_REACTORS
330
2A
102
}
330
2A
100
AcDbVisualStyle
  2
Wireframe
 70
     5
177
     3
291
     0
 70
    58
 90
        0
176
     1
 90
        2
176
     1
 90
        0
176
     1
 90
        0
176
     1
 40
0.6
176
     1
 40
30.0
176
     1
 62
     7
420
 16777215
176
     1
 90
        1
176
     1
 90
        4
176
     1
 62
     7
176
     1
 62
   257
176
     1
 90
        1
176
     1
 90
        1
176
     1
 40
1.0
176
     1
 90
        0
176
     1
 62
   257
176
     1
 40
1.0
176
     1
 90
        1
176
     1
 90
        6
176
     1
 90
        2
176
     1
 62
     7
176
     1
 90
        3
176
     1
 90
        0
176
     1
 90
        0
176
     1
290
     0
176
     1
 90
        1
176
     1
 40
0.0
176
     1
 90
        0
176
     1
290
     0
176
     1
290
     1
176
     1
290
     1
176
     1
290
     0
176
     1
290
     0
176
     1
290
     0
176
     1
290
     0
176
     1
290
     0
176
     1
290
     0
176
     1
 90
       50
176
     1
 40
0.0
176
     1
 40
1.0
176
     1
 90
        0
176
     1
 62
    18
420
        0
176
     1
 90
       50
176
     1
 90
        3
176
     1
 62
     5
420
      255
176
     1
290
     0
176
     1
 90
       50
176
     1
 90
       50
176
     1
 90
       50
176
     1
290
     0
176
     1
 90
       50
176
     1
 62
   256
176
     0
 40
1.0
176
     0
 90
        2
176
     1
  1
strokes_ogs.tif
176
     1
290
     0
176
     1
 40
1.0
176
     1
 40
1.0
176
     1
  0
VISUALSTYLE
  5
40
102
{ACAD_REACTORS
330
2A
102
}
330
2A
100
AcDbVisualStyle
  2
X-Ray
 70
    25
177
     3
291
     0
 70
    58
 90
        2
176
     1
 90
        2
176
     1
 90
        1
176
     1
 90
        1
176
     1
 40
0.5
176
     1
 40
30.0
176
     1
 62
     7
420
 16777215
176
     1
 90
        1
176
     1
 90
        0
176
     1
 62
     7
176
     1
 62
   257
176
     1
 90
        1
176
     1
 90
        1
176
     1
 40
1.0
176
     1
 90
        8
176
     1
 62
     7
176
     1
 40
1.0
176
     1
 90
        1
176
     1
 90
        6
176
     1
 90
        2
176
     1
 62
     7
176
     1
 90
        3
176
     1
 90
        0
176
     1
 90
        0
176
     1
290
     0
176
     1
 90
       13
176
     1
 40
0.0
176
     1
 90
        0
176
     1
290
     0
176
     1
290
     1
176
     1
290
     1
176
     1
290
     0
176
     1
290
     0
176
     1
290
     0
176
     1
290
     0
176
     1
290
     0
176
     1
290
     0
176
     1
 90
       50
176
     1
 40
0.0
176
     1
 40
1.0
176
     1
 90
        0
176
     1
 62
    18
420
        0
176
     1
 90
       50
176
     1
 90
        3
176
     1
 62
     5
420
      255
176
     1
290
     0
176
     1
 90
       50
176
     1
 90
       50
176
     1
 90
       50
176
     1
290
     0
176
     1
 90
       50
176
     1
 62
   256
176
     0
 40
1.0
176
     0
 90
        2
176
     1
  1
strokes_ogs.tif
176
     1
290
     0
176
     1
 40
1.0
176
     1
 40
1.0
176
     1
  0
DICTIONARYVAR
  5
1AC
102
{ACAD_REACTORS
330
1AB
102
}
330
1AB
100
DictionaryVariables
280
     0
  1
1:1
  0
DICTIONARYVAR
  5
1B1
102
{ACAD_REACTORS
330
1AB
102
}
330
1AB
100
DictionaryVariables
280
     0
  1
Standard
  0
DICTIONARYVAR
  5
1B0
102
{ACAD_REACTORS
330
1AB
102
}
330
1AB
100
DictionaryVariables
280
     0
  1
Standard
  0
DICTIONARY
  5
1AD
330
6A
100
AcDbDictionary
280
     1
281
     1
  3
ACAD_ROUNDTRIP_2008_TABLESTYLE_CELLSTYLEMAP
360
1AE
  0
CELLSTYLEMAP
  5
1AE
102
{ACAD_REACTORS
330
1AD
102
}
330
1AD
100
AcDbCellStyleMap
 90
        3
300
CELLSTYLE
  1
TABLEFORMAT_BEGIN
 90
        5
170
     1
 91
        0
 92
    32768
 62
   257
 93
        1
300
CONTENTFORMAT
  1
CONTENTFORMAT_BEGIN
 90
        0
 91
        0
 92
        4
 93
        0
300

 40
0.0
140
1.0
 94
        5
 62
     0
340
11
144
0.25
309
CONTENTFORMAT_END
171
     1
301
MARGIN
  1
CELLMARGIN_BEGIN
 40
0.06
 40
0.06
 40
0.06
 40
0.06
 40
0.06
 40
0.06
309
CELLMARGIN_END
 94
        6
 95
        1
302
GRIDFORMAT
  1
GRIDFORMAT_BEGIN
 90
        0
 91
        1
 62
     0
 92
       -2
340
14
 93
        0
 40
0.045
309
GRIDFORMAT_END
 95
        2
302
GRIDFORMAT
  1
GRIDFORMAT_BEGIN
 90
        0
 91
        1
 62
     0
 92
       -2
340
14
 93
        0
 40
0.045
309
GRIDFORMAT_END
 95
        4
302
GRIDFORMAT
  1
GRIDFORMAT_BEGIN
 90
        0
 91
        1
 62
     0
 92
       -2
340
14
 93
        0
 40
0.045
309
GRIDFORMAT_END
 95
        8
302
GRIDFORMAT
  1
GRIDFORMAT_BEGIN
 90
        0
 91
        1
 62
     0
 92
       -2
340
14
 93
        0
 40
0.045
309
GRIDFORMAT_END
 95
       16
302
GRIDFORMAT
  1
GRIDFORMAT_BEGIN
 90
        0
 91
        1
 62
     0
 92
       -2
340
14
 93
        0
 40
0.045
309
GRIDFORMAT_END
 95
       32
302
GRIDFORMAT
  1
GRIDFORMAT_BEGIN
 90
        0
 91
        1
 62
     0
 92
       -2
340
14
 93
        0
 40
0.045
309
GRIDFORMAT_END
309
TABLEFORMAT_END
  1
CELLSTYLE_BEGIN
 90
        1
 91
        1
300
_TITLE
309
CELLSTYLE_END
300
CELLSTYLE
  1
TABLEFORMAT_BEGIN
 90
        5
170
     1
 91
        0
 92
        0
 62
   257
 93
        1
300
CONTENTFORMAT
  1
CONTENTFORMAT_BEGIN
 90
        0
 91
        0
 92
        4
 93
        0
300

 40
0.0
140
1.0
 94
        5
 62
     0
340
11
144
0.18
309
CONTENTFORMAT_END
171
     1
301
MARGIN
  1
CELLMARGIN_BEGIN
 40
0.06
 40
0.06
 40
0.06
 40
0.06
 40
0.06
 40
0.06
309
CELLMARGIN_END
 94
        6
 95
        1
302
GRIDFORMAT
  1
GRIDFORMAT_BEGIN
 90
        0
 91
        1
 62
     0
 92
       -2
340
14
 93
        0
 40
0.045
309
GRIDFORMAT_END
 95
        2
302
GRIDFORMAT
  1
GRIDFORMAT_BEGIN
 90
        0
 91
        1
 62
     0
 92
       -2
340
14
 93
        0
 40
0.045
309
GRIDFORMAT_END
 95
        4
302
GRIDFORMAT
  1
GRIDFORMAT_BEGIN
 90
        0
 91
        1
 62
     0
 92
       -2
340
14
 93
        0
 40
0.045
309
GRIDFORMAT_END
 95
        8
302
GRIDFORMAT
  1
GRIDFORMAT_BEGIN
 90
        0
 91
        1
 62
     0
 92
       -2
340
14
 93
        0
 40
0.045
309
GRIDFORMAT_END
 95
       16
302
GRIDFORMAT
  1
GRIDFORMAT_BEGIN
 90
        0
 91
        1
 62
     0
 92
       -2
340
14
 93
        0
 40
0.045
309
GRIDFORMAT_END
 95
       32
302
GRIDFORMAT
  1
GRIDFORMAT_BEGIN
 90
        0
 91
        1
 62
     0
 92
       -2
340
14
 93
        0
 40
0.045
309
GRIDFORMAT_END
309
TABLEFORMAT_END
  1
CELLSTYLE_BEGIN
 90
        2
 91
        1
300
_HEADER
309
CELLSTYLE_END
300
CELLSTYLE
  1
TABLEFORMAT_BEGIN
 90
        5
170
     1
 91
        0
 92
        0
 62
   257
 93
        1
300
CONTENTFORMAT
  1
CONTENTFORMAT_BEGIN
 90
        0
 91
        0
 92
        4
 93
        0
300

 40
0.0
140
1.0
 94
        2
 62
     0
340
11
144
0.18
309
CONTENTFORMAT_END
171
     1
301
MARGIN
  1
CELLMARGIN_BEGIN
 40
0.06
 40
0.06
 40
0.06
 40
0.06
 40
0.06
 40
0.06
309
CELLMARGIN_END
 94
        6
 95
        1
302
GRIDFORMAT
  1
GRIDFORMAT_BEGIN
 90
        0
 91
        1
 62
     0
 92
       -2
340
14
 93
        0
 40
0.045
309
GRIDFORMAT_END
 95
        2
302
GRIDFORMAT
  1
GRIDFORMAT_BEGIN
 90
        0
 91
        1
 62
     0
 92
       -2
340
14
 93
        0
 40
0.045
309
GRIDFORMAT_END
 95
        4
302
GRIDFORMAT
  1
GRIDFORMAT_BEGIN
 90
        0
 91
        1
 62
     0
 92
       -2
340
14
 93
        0
 40
0.045
309
GRIDFORMAT_END
 95
        8
302
GRIDFORMAT
  1
GRIDFORMAT_BEGIN
 90
        0
 91
        1
 62
     0
 92
       -2
340
14
 93
        0
 40
0.045
309
GRIDFORMAT_END
 95
       16
302
GRIDFORMAT
  1
GRIDFORMAT_BEGIN
 90
        0
 91
        1
 62
     0
 92
       -2
340
14
 93
        0
 40
0.045
309
GRIDFORMAT_END
 95
       32
302
GRIDFORMAT
  1
GRIDFORMAT_BEGIN
 90
        0
 91
        1
 62
     0
 92
       -2
340
14
 93
        0
 40
0.045
309
GRIDFORMAT_END
309
TABLEFORMAT_END
  1
CELLSTYLE_BEGIN
 90
        3
 91
        2
300
_DATA
309
CELLSTYLE_END
  0
ENDSEC
  0
EOF