0
SECTION
  2
HEADER
  9
$ACADVER
  1
AC1027
  9
$ACADMAINTVER
 70
     8
  9
$DWGCODEPAGE
  3
ANSI_1252
  9
$REQUIREDVERSIONS
160
                 0
  9
$COMMENTS
  1
File was created by Cadenas
  9
$CUSTOMPROPERTYTAG
  1
NN
  9
$CUSTOMPROPERTY
  1
Grip Tight Medium Duty Two-Bolt Flange Inch Bore
  9
$CUSTOMPROPERTYTAG
  1
NT
  9
$CUSTOMPROPERTY
  1
GTM Medium Duty 2 Bolt Flange Bearings
  9
$CUSTOMPROPERTYTAG
  1
NB
  9
$CUSTOMPROPERTY
  1
129335
  9
$CUSTOMPROPERTYTAG
  1
NBSYN
  9
$CUSTOMPROPERTY
  1
$PN.$LUBE.
  9
$CUSTOMPROPERTYTAG
  1
LINA
  9
$CUSTOMPROPERTY
  1
129335
  9
$CUSTOMPROPERTYTAG
  1
SERIES
  9
$CUSTOMPROPERTY
  1
210
  9
$CUSTOMPROPERTYTAG
  1
SS
  9
$CUSTOMPROPERTY
  1
1-3/4
  9
$CUSTOMPROPERTYTAG
  1
PN
  9
$CUSTOMPROPERTY
  1
129335
  9
$CUSTOMPROPERTYTAG
  1
DESCRIPTION
  9
$CUSTOMPROPERTY
  1
F2B-GTM-112
  9
$CUSTOMPROPERTYTAG
  1
A
  9
$CUSTOMPROPERTY
  1
1-55/64
  9
$CUSTOMPROPERTYTAG
  1
B
  9
$CUSTOMPROPERTY
  1
7-7/16
  9
$CUSTOMPROPERTYTAG
  1
C
  9
$CUSTOMPROPERTY
  1
2-3/64
  9
$CUSTOMPROPERTYTAG
  1
D
  9
$CUSTOMPROPERTY
  1
6-3/16
  9
$CUSTOMPROPERTYTAG
  1
F
  9
$CUSTOMPROPERTY
  1
1/2
  9
$CUSTOMPROPERTYTAG
  1
H
  9
$CUSTOMPROPERTY
  1
5/8
  9
$CUSTOMPROPERTYTAG
  1
J
  9
$CUSTOMPROPERTY
  1
17/32
  9
$CUSTOMPROPERTYTAG
  1
L
  9
$CUSTOMPROPERTY
  1
2-15/16
  9
$CUSTOMPROPERTYTAG
  1
M
  9
$CUSTOMPROPERTY
  1
4-9/16
  9
$CUSTOMPROPERTYTAG
  1
N
  9
$CUSTOMPROPERTY
  1
2-1/32
  9
$CUSTOMPROPERTYTAG
  1
Z
  9
$CUSTOMPROPERTY
  1
2
  9
$CUSTOMPROPERTYTAG
  1
COMPANY
  9
$CUSTOMPROPERTY
  1
baldor
  9
$INSBASE
 10
0.0
 20
0.0
 30
0.0
  9
$EXTMIN
 10
1.000000000000000E+20
 20
1.000000000000000E+20
 30
1.000000000000000E+20
  9
$EXTMAX
 10
-1.000000000000000E+20
 20
-1.000000000000000E+20
 30
-1.000000000000000E+20
  9
$LIMMIN
 10
0.0
 20
0.0
  9
$LIMMAX
 10
12.0
 20
9.0
  9
$ORTHOMODE
 70
     0
  9
$REGENMODE
 70
     1
  9
$FILLMODE
 70
     1
  9
$QTEXTMODE
 70
     0
  9
$MIRRTEXT
 70
     1
  9
$LTSCALE
 40
1.0
  9
$ATTMODE
 70
     1
  9
$TEXTSIZE
 40
0.2
  9
$TRACEWID
 40
0.05
  9
$TEXTSTYLE
  7
Standard
  9
$CLAYER
  8
0
  9
$CELTYPE
  6
ByLayer
  9
$CECOLOR
 62
   256
  9
$CELTSCALE
 40
1.0
  9
$DISPSILH
 70
     0
  9
$DIMSCALE
 40
1.0
  9
$DIMASZ
 40
0.18
  9
$DIMEXO
 40
0.0625
  9
$DIMDLI
 40
0.38
  9
$DIMRND
 40
0.0
  9
$DIMDLE
 40
0.0
  9
$DIMEXE
 40
0.18
  9
$DIMTP
 40
0.0
  9
$DIMTM
 40
0.0
  9
$DIMTXT
 40
0.18
  9
$DIMCEN
 40
0.09
  9
$DIMTSZ
 40
0.0
  9
$DIMTOL
 70
     0
  9
$DIMLIM
 70
     0
  9
$DIMTIH
 70
     1
  9
$DIMTOH
 70
     1
  9
$DIMSE1
 70
     0
  9
$DIMSE2
 70
     0
  9
$DIMTAD
 70
     0
  9
$DIMZIN
 70
     0
  9
$DIMBLK
  1

  9
$DIMASO
 70
     1
  9
$DIMSHO
 70
     1
  9
$DIMPOST
  1

  9
$DIMAPOST
  1

  9
$DIMALT
 70
     0
  9
$DIMALTD
 70
     2
  9
$DIMALTF
 40
25.4
  9
$DIMLFAC
 40
1.0
  9
$DIMTOFL
 70
     0
  9
$DIMTVP
 40
0.0
  9
$DIMTIX
 70
     0
  9
$DIMSOXD
 70
     0
  9
$DIMSAH
 70
     0
  9
$DIMBLK1
  1

  9
$DIMBLK2
  1

  9
$DIMSTYLE
  2
Standard
  9
$DIMCLRD
 70
     0
  9
$DIMCLRE
 70
     0
  9
$DIMCLRT
 70
     0
  9
$DIMTFAC
 40
1.0
  9
$DIMGAP
 40
0.09
  9
$DIMJUST
 70
     0
  9
$DIMSD1
 70
     0
  9
$DIMSD2
 70
     0
  9
$DIMTOLJ
 70
     1
  9
$DIMTZIN
 70
     0
  9
$DIMALTZ
 70
     0
  9
$DIMALTTZ
 70
     0
  9
$DIMUPT
 70
     0
  9
$DIMDEC
 70
     4
  9
$DIMTDEC
 70
     4
  9
$DIMALTU
 70
     2
  9
$DIMALTTD
 70
     2
  9
$DIMTXSTY
  7
Standard
  9
$DIMAUNIT
 70
     0
  9
$DIMADEC
 70
     0
  9
$DIMALTRND
 40
0.0
  9
$DIMAZIN
 70
     0
  9
$DIMDSEP
 70
    46
  9
$DIMATFIT
 70
     3
  9
$DIMFRAC
 70
     0
  9
$DIMLDRBLK
  1

  9
$DIMLUNIT
 70
     2
  9
$DIMLWD
 70
    -2
  9
$DIMLWE
 70
    -2
  9
$DIMTMOVE
 70
     0
  9
$DIMFXL
 40
1.0
  9
$DIMFXLON
 70
     0
  9
$DIMJOGANG
 40
0.7853981633974483
  9
$DIMTFILL
 70
     0
  9
$DIMTFILLCLR
 70
     0
  9
$DIMARCSYM
 70
     0
  9
$DIMLTYPE
  6

  9
$DIMLTEX1
  6

  9
$DIMLTEX2
  6

  9
$DIMTXTDIRECTION
 70
     0
  9
$LUNITS
 70
     2
  9
$LUPREC
 70
     4
  9
$SKETCHINC
 40
0.1
  9
$FILLETRAD
 40
0.5
  9
$AUNITS
 70
     0
  9
$AUPREC
 70
     0
  9
$MENU
  1
.
  9
$ELEVATION
 40
0.0
  9
$PELEVATION
 40
0.0
  9
$THICKNESS
 40
0.0
  9
$LIMCHECK
 70
     0
  9
$CHAMFERA
 40
0.0
  9
$CHAMFERB
 40
0.0
  9
$CHAMFERC
 40
0.0
  9
$CHAMFERD
 40
0.0
  9
$SKPOLY
 70
     0
  9
$TDCREATE
 40
2458168.993157176
  9
$TDUCREATE
 40
2458168.951490509
  9
$TDUPDATE
 40
2458168.99315735
  9
$TDUUPDATE
 40
2458168.951490683
  9
$TDINDWG
 40
0.0000000116
  9
$TDUSRTIMER
 40
0.0000000116
  9
$USRTIMER
 70
     1
  9
$ANGBASE
 50
0.0
  9
$ANGDIR
 70
     0
  9
$PDMODE
 70
     0
  9
$PDSIZE
 40
0.0
  9
$PLINEWID
 40
0.0
  9
$SPLFRAME
 70
     0
  9
$SPLINETYPE
 70
     6
  9
$SPLINESEGS
 70
     8
  9
$HANDSEED
  5
1F8
  9
$SURFTAB1
 70
     6
  9
$SURFTAB2
 70
     6
  9
$SURFTYPE
 70
     6
  9
$SURFU
 70
     6
  9
$SURFV
 70
     6
  9
$UCSBASE
  2

  9
$UCSNAME
  2

  9
$UCSORG
 10
0.0
 20
0.0
 30
0.0
  9
$UCSXDIR
 10
1.0
 20
0.0
 30
0.0
  9
$UCSYDIR
 10
0.0
 20
1.0
 30
0.0
  9
$UCSORTHOREF
  2

  9
$UCSORTHOVIEW
 70
     0
  9
$UCSORGTOP
 10
0.0
 20
0.0
 30
0.0
  9
$UCSORGBOTTOM
 10
0.0
 20
0.0
 30
0.0
  9
$UCSORGLEFT
 10
0.0
 20
0.0
 30
0.0
  9
$UCSORGRIGHT
 10
0.0
 20
0.0
 30
0.0
  9
$UCSORGFRONT
 10
0.0
 20
0.0
 30
0.0
  9
$UCSORGBACK
 10
0.0
 20
0.0
 30
0.0
  9
$PUCSBASE
  2

  9
$PUCSNAME
  2

  9
$PUCSORG
 10
0.0
 20
0.0
 30
0.0
  9
$PUCSXDIR
 10
1.0
 20
0.0
 30
0.0
  9
$PUCSYDIR
 10
0.0
 20
1.0
 30
0.0
  9
$PUCSORTHOREF
  2

  9
$PUCSORTHOVIEW
 70
     0
  9
$PUCSORGTOP
 10
0.0
 20
0.0
 30
0.0
  9
$PUCSORGBOTTOM
 10
0.0
 20
0.0
 30
0.0
  9
$PUCSORGLEFT
 10
0.0
 20
0.0
 30
0.0
  9
$PUCSORGRIGHT
 10
0.0
 20
0.0
 30
0.0
  9
$PUCSORGFRONT
 10
0.0
 20
0.0
 30
0.0
  9
$PUCSORGBACK
 10
0.0
 20
0.0
 30
0.0
  9
$USERI1
 70
     0
  9
$USERI2
 70
     0
  9
$USERI3
 70
     0
  9
$USERI4
 70
     0
  9
$USERI5
 70
     0
  9
$USERR1
 40
0.0
  9
$USERR2
 40
0.0
  9
$USERR3
 40
0.0
  9
$USERR4
 40
0.0
  9
$USERR5
 40
0.0
  9
$WORLDVIEW
 70
     1
  9
$SHADEDGE
 70
     3
  9
$SHADEDIF
 70
    70
  9
$TILEMODE
 70
     1
  9
$MAXACTVP
 70
    64
  9
$PINSBASE
 10
0.0
 20
0.0
 30
0.0
  9
$PLIMCHECK
 70
     0
  9
$PEXTMIN
 10
1.000000000000000E+20
 20
1.000000000000000E+20
 30
1.000000000000000E+20
  9
$PEXTMAX
 10
-1.000000000000000E+20
 20
-1.000000000000000E+20
 30
-1.000000000000000E+20
  9
$PLIMMIN
 10
0.0
 20
0.0
  9
$PLIMMAX
 10
12.0
 20
9.0
  9
$UNITMODE
 70
     0
  9
$VISRETAIN
 70
     1
  9
$PLINEGEN
 70
     0
  9
$PSLTSCALE
 70
     1
  9
$TREEDEPTH
 70
  3020
  9
$CMLSTYLE
  2
Standard
  9
$CMLJUST
 70
     0
  9
$CMLSCALE
 40
1.0
  9
$PROXYGRAPHICS
 70
     1
  9
$MEASUREMENT
 70
     0
  9
$CELWEIGHT
370
    -1
  9
$ENDCAPS
280
     0
  9
$JOINSTYLE
280
     0
  9
$LWDISPLAY
290
     0
  9
$INSUNITS
 70
     1
  9
$HYPERLINKBASE
  1

  9
$STYLESHEET
  1

  9
$XEDIT
290
     1
  9
$CEPSNTYPE
380
     0
  9
$PSTYLEMODE
290
     1
  9
$FINGERPRINTGUID
  2
{7780D565-1B42-4499-82BA-B1FA5263FBDB}
  9
$VERSIONGUID
  2
{FAEB1C32-E019-11D5-929B-00C0DF256EC4}
  9
$EXTNAMES
290
     1
  9
$PSVPSCALE
 40
0.0
  9
$OLESTARTUP
290
     0
  9
$SORTENTS
280
   127
  9
$INDEXCTL
280
     0
  9
$HIDETEXT
280
     1
  9
$XCLIPFRAME
280
     2
  9
$HALOGAP
280
     0
  9
$OBSCOLOR
 70
   257
  9
$OBSLTYPE
280
     0
  9
$INTERSECTIONDISPLAY
280
     0
  9
$INTERSECTIONCOLOR
 70
   257
  9
$DIMASSOC
280
     2
  9
$PROJECTNAME
  1

  9
$CAMERADISPLAY
290
     0
  9
$LENSLENGTH
 40
50.0
  9
$CAMERAHEIGHT
 40
0.0
  9
$STEPSPERSEC
 40
2.0
  9
$STEPSIZE
 40
6.0
  9
$3DDWFPREC
 40
2.0
  9
$PSOLWIDTH
 40
0.25
  9
$PSOLHEIGHT
 40
4.0
  9
$LOFTANG1
 40
1.570796326794897
  9
$LOFTANG2
 40
1.570796326794897
  9
$LOFTMAG1
 40
0.0
  9
$LOFTMAG2
 40
0.0
  9
$LOFTPARAM
 70
     7
  9
$LOFTNORMALS
280
     1
  9
$LATITUDE
 40
37.795
  9
$LONGITUDE
 40
-122.394
  9
$NORTHDIRECTION
 40
0.0
  9
$TIMEZONE
 70
 -8000
  9
$LIGHTGLYPHDISPLAY
280
     1
  9
$TILEMODELIGHTSYNCH
280
     1
  9
$CMATERIAL
347
44
  9
$SOLIDHIST
280
     0
  9
$SHOWHIST
280
     1
  9
$DWFFRAME
280
     2
  9
$DGNFRAME
280
     2
  9
$REALWORLDSCALE
290
     1
  9
$INTERFERECOLOR
 62
   256
  9
$CSHADOW
280
     0
  9
$SHADOWPLANELOCATION
 40
0.0
  0
ENDSEC
  0
SECTION
  2
CLASSES
  0
CLASS
  1
ACDBDICTIONARYWDFLT
  2
AcDbDictionaryWithDefault
  3
ObjectDBX Classes
 90
        0
 91
        4
280
     0
281
     0
  0
CLASS
  1
VISUALSTYLE
  2
AcDbVisualStyle
  3
ObjectDBX Classes
 90
     4095
 91
        4
280
     0
281
     0
  0
CLASS
  1
MATERIAL
  2
AcDbMaterial
  3
ObjectDBX Classes
 90
     1153
 91
        4
280
     0
281
     0
  0
CLASS
  1
SCALE
  2
AcDbScale
  3
ObjectDBX Classes
 90
     1153
 91
        4
280
     0
281
     0
  0
CLASS
  1
TABLESTYLE
  2
AcDbTableStyle
  3
ObjectDBX Classes
 90
     4095
 91
        4
280
     0
281
     0
  0
CLASS
  1
MLEADERSTYLE
  2
AcDbMLeaderStyle
  3
ACDB_MLEADERSTYLE_CLASS
 90
     4095
 91
        4
280
     0
281
     0
  0
CLASS
  1
SUN
  2
AcDbSun
  3
SCENEOE
 90
     1153
 91
        4
280
     0
281
     0
  0
CLASS
  1
DICTIONARYVAR
  2
AcDbDictionaryVar
  3
ObjectDBX Classes
 90
        0
 91
        4
280
     0
281
     0
  0
CLASS
  1
CELLSTYLEMAP
  2
AcDbCellStyleMap
  3
ObjectDBX Classes
 90
     1152
 91
        4
280
     0
281
     0
  0
ENDSEC
  0
SECTION
  2
TABLES
  0
TABLE
  2
VPORT
  5
8
330
0
100
AcDbSymbolTable
 70
     1
  0
VPORT
  5
29
330
8
100
AcDbSymbolTableRecord
100
AcDbViewportTableRecord
  2
*Active
 70
     0
 10
0.0
 20
0.0
 11
1.0
 21
1.0
 12
0.0
 22
-1.033446874999999
 13
0.0
 23
0.0
 14
0.5
 24
0.5
 15
0.5
 25
0.5
 16
0.0
 26
0.0
 36
1.0
 17
0.0
 27
0.0
 37
0.0
 40
2.258069625000001
 41
2.061167622322541
 42
50.0
 43
0.0
 44
0.0
 50
0.0
 51
0.0
 71
     0
 72
   100
 73
     1
 74
     3
 75
     0
 76
     0
 77
     0
 78
     0
281
     0
 65
     1
110
0.0
120
0.0
130
0.0
111
1.0
121
0.0
131
0.0
112
0.0
122
1.0
132
0.0
 79
     0
146
0.0
348
2F
 60
     3
 61
     5
292
     1
282
     1
141
0.0
142
0.0
 63
   250
361
6D
  0
ENDTAB
  0
TABLE
  2
LTYPE
  5
5
330
0
100
AcDbSymbolTable
 70
     3
  0
LTYPE
  5
14
330
5
100
AcDbSymbolTableRecord
100
AcDbLinetypeTableRecord
  2
ByBlock
 70
     0
  3

 72
    65
 73
     0
 40
0.0
  0
LTYPE
  5
15
330
5
100
AcDbSymbolTableRecord
100
AcDbLinetypeTableRecord
  2
ByLayer
 70
     0
  3

 72
    65
 73
     0
 40
0.0
  0
LTYPE
  5
16
330
5
100
AcDbSymbolTableRecord
100
AcDbLinetypeTableRecord
  2
Continuous
 70
     0
  3
Solid line
 72
    65
 73
     0
 40
0.0
  0
LTYPE
  5
9E
330
5
100
AcDbSymbolTableRecord
100
AcDbLinetypeTableRecord
  2
Dashed
 70
     0
  3

 72
    65
 73
     2
 40
2.0
 49
1.0
 74
     0
 49
-1.0
 74
     0
  0
LTYPE
  5
116
330
5
100
AcDbSymbolTableRecord
100
AcDbLinetypeTableRecord
  2
Center
 70
     0
  3

 72
    65
 73
     4
 40
1.5
 49
0.45
 74
     0
 49
-0.5
 74
     0
 49
0.05
 74
     0
 49
-0.5
 74
     0
  0
ENDTAB
  0
TABLE
  2
LAYER
  5
2
330
0
100
AcDbSymbolTable
 70
     7
  0
LAYER
  5
10
330
2
100
AcDbSymbolTableRecord
100
AcDbLayerTableRecord
  2
0
 70
     0
 62
     7
  6
Continuous
370
    -3
390
F
347
46
348
0
  0
LAYER
  5
72
330
2
100
AcDbSymbolTableRecord
100
AcDbLayerTableRecord
  2
AM_6
 70
     0
 62
    -2
  6
Continuous
370
    35
390
F
347
46
348
0
  0
LAYER
  5
9F
330
2
100
AcDbSymbolTableRecord
100
AcDbLayerTableRecord
  2
AM_9
 70
     0
 62
     6
  6
Dashed
370
    25
390
F
347
46
348
0
  0
LAYER
  5
D0
330
2
100
AcDbSymbolTableRecord
100
AcDbLayerTableRecord
  2
AM_4
 70
     0
 62
     7
  6
Continuous
370
    50
390
F
347
46
348
0
  0
LAYER
  5
113
330
2
100
AcDbSymbolTableRecord
100
AcDbLayerTableRecord
  2
AM_5
 70
     0
 62
     3
  6
Continuous
370
    25
390
F
347
46
348
0
  0
LAYER
  5
117
330
2
100
AcDbSymbolTableRecord
100
AcDbLayerTableRecord
  2
AM_7
 70
     0
 62
     7
  6
Center
370
    25
390
F
347
46
348
0
  0
LAYER
  5
1EB
330
2
100
AcDbSymbolTableRecord
100
AcDbLayerTableRecord
  2
ConnectionPoints
 70
     0
 62
     7
  6
Continuous
370
    50
390
F
347
46
348
0
  0
ENDTAB
  0
TABLE
  2
STYLE
  5
3
330
0
100
AcDbSymbolTable
 70
     1
  0
STYLE
  5
11
330
3
100
AcDbSymbolTableRecord
100
AcDbTextStyleTableRecord
  2
Standard
 70
     0
 40
0.0
 41
1.0
 50
0.0
 71
     0
 42
0.2
  3
txt
  4

  0
ENDTAB
  0
TABLE
  2
VIEW
  5
6
330
0
100
AcDbSymbolTable
 70
     0
  0
ENDTAB
  0
TABLE
  2
UCS
  5
7
330
0
100
AcDbSymbolTable
 70
     0
  0
ENDTAB
  0
TABLE
  2
APPID
  5
9
330
0
100
AcDbSymbolTable
 70
     1
  0
APPID
  5
12
330
9
100
AcDbSymbolTableRecord
100
AcDbRegAppTableRecord
  2
ACAD
 70
     0
  0
ENDTAB
  0
TABLE
  2
DIMSTYLE
  5
A
330
0
100
AcDbSymbolTable
 70
     1
100
AcDbDimStyleTable
  0
DIMSTYLE
105
27
330
A
100
AcDbSymbolTableRecord
100
AcDbDimStyleTableRecord
  2
Standard
 70
     0
178
     0
340
11
  0
ENDTAB
  0
TABLE
  2
BLOCK_RECORD
  5
1
330
0
100
AcDbSymbolTable
 70
     5
  0
BLOCK_RECORD
  5
1F
330
1
100
AcDbSymbolTableRecord
100
AcDbBlockTableRecord
  2
*Model_Space
340
22
 70
     0
280
     1
281
     0
  0
BLOCK_RECORD
  5
1B
330
1
100
AcDbSymbolTableRecord
100
AcDbBlockTableRecord
  2
*Paper_Space
340
1E
 70
     0
280
     1
281
     0
  0
BLOCK_RECORD
  5
23
330
1
100
AcDbSymbolTableRecord
100
AcDbBlockTableRecord
  2
*Paper_Space0
340
26
 70
     0
280
     1
281
     0
  0
BLOCK_RECORD
  5
6E
330
1
100
AcDbSymbolTableRecord
100
AcDbBlockTableRecord
  2
1_129335_4
340
0
102
{BLKREFS
331
6F
102
}
 70
     0
280
     1
281
     0
  0
BLOCK_RECORD
  5
88
330
1
100
AcDbSymbolTableRecord
100
AcDbBlockTableRecord
  2
2_129523I_0_in_129335_4
340
0
102
{BLKREFS
331
89
102
}
 70
     0
280
     1
281
     0
  0
BLOCK_RECORD
  5
D4
330
1
100
AcDbSymbolTableRecord
100
AcDbBlockTableRecord
  2
3_129930_0_in_129335_4
340
0
102
{BLKREFS
331
D5
102
}
 70
     0
280
     1
281
     0
  0
BLOCK_RECORD
  5
12D
330
1
100
AcDbSymbolTableRecord
100
AcDbBlockTableRecord
  2
4_129497I_0_in_129335_4
340
0
102
{BLKREFS
331
12E
102
}
 70
     0
280
     1
281
     0
  0
ENDTAB
  0
ENDSEC
  0
SECTION
  2
BLOCKS
  0
BLOCK
  5
20
330
1F
100
AcDbEntity
  8
0
100
AcDbBlockBegin
  2
*Model_Space
 70
     0
 10
0.0
 20
0.0
 30
0.0
  3
*Model_Space
  1

  0
ENDBLK
  5
21
330
1F
100
AcDbEntity
  8
0
100
AcDbBlockEnd
  0
BLOCK
  5
1C
330
1B
100
AcDbEntity
 67
     1
  8
0
100
AcDbBlockBegin
  2
*Paper_Space
 70
     0
 10
0.0
 20
0.0
 30
0.0
  3
*Paper_Space
  1

  0
ENDBLK
  5
1D
330
1B
100
AcDbEntity
 67
     1
  8
0
100
AcDbBlockEnd
  0
BLOCK
  5
24
330
23
100
AcDbEntity
  8
0
100
AcDbBlockBegin
  2
*Paper_Space0
 70
     0
 10
0.0
 20
0.0
 30
0.0
  3
*Paper_Space0
  1

  0
ENDBLK
  5
25
330
23
100
AcDbEntity
  8
0
100
AcDbBlockEnd
  0
BLOCK
  5
70
330
6E
100
AcDbEntity
  8
0
100
AcDbBlockBegin
  2
1_129335_4
 70
     2
 10
0.0
 20
0.0
 30
0.0
  3
1_129335_4
  1

  0
ATTDEF
  5
73
330
6E
100
AcDbEntity
  8
AM_6
100
AcDbText
 10
7.281500000000001
 20
0.0734499999999998
 30
0.0
 40
0.5
  1
Grip Tight Medium Duty Two-Bolt Flange Inch Bore
100
AcDbAttributeDefinition
  3

  2
NN
 70
     8
280
     0
  0
ATTDEF
  5
74
330
6E
100
AcDbEntity
  8
AM_6
100
AcDbText
 10
7.281500000000001
 20
-0.4265500000000002
 30
0.0
 40
0.5
  1
GTM Medium Duty 2 Bolt Flange Bearings
100
AcDbAttributeDefinition
  3

  2
NT
 70
     8
280
     0
  0
ATTDEF
  5
75
330
6E
100
AcDbEntity
  8
AM_6
100
AcDbText
 10
7.281500000000001
 20
-0.9265500000000002
 30
0.0
 40
0.5
  1
129335
100
AcDbAttributeDefinition
  3

  2
NB
 70
     8
280
     0
  0
ATTDEF
  5
76
330
6E
100
AcDbEntity
  8
AM_6
100
AcDbText
 10
7.281500000000001
 20
-1.42655
 30
0.0
 40
0.5
  1
$PN.$LUBE.
100
AcDbAttributeDefinition
  3

  2
NBSYN
 70
     8
280
     0
  0
ATTDEF
  5
77
330
6E
100
AcDbEntity
  8
AM_6
100
AcDbText
 10
7.281500000000001
 20
-1.92655
 30
0.0
 40
0.5
  1
129335
100
AcDbAttributeDefinition
  3

  2
LINA
 70
     8
280
     0
  0
ATTDEF
  5
78
330
6E
100
AcDbEntity
  8
AM_6
100
AcDbText
 10
7.281500000000001
 20
-2.42655
 30
0.0
 40
0.5
  1
210
100
AcDbAttributeDefinition
  3

  2
SERIES
 70
     8
280
     0
  0
ATTDEF
  5
79
330
6E
100
AcDbEntity
  8
AM_6
100
AcDbText
 10
7.281500000000001
 20
-2.92655
 30
0.0
 40
0.5
  1
1-3/4
100
AcDbAttributeDefinition
  3

  2
SS
 70
     8
280
     0
  0
ATTDEF
  5
7A
330
6E
100
AcDbEntity
  8
AM_6
100
AcDbText
 10
7.281500000000001
 20
-3.42655
 30
0.0
 40
0.5
  1
129335
100
AcDbAttributeDefinition
  3

  2
PN
 70
     8
280
     0
  0
ATTDEF
  5
7B
330
6E
100
AcDbEntity
  8
AM_6
100
AcDbText
 10
7.281500000000001
 20
-3.92655
 30
0.0
 40
0.5
  1
F2B-GTM-112
100
AcDbAttributeDefinition
  3

  2
DESCRIPTION
 70
     8
280
     0
  0
ATTDEF
  5
7C
330
6E
100
AcDbEntity
  8
AM_6
100
AcDbText
 10
7.281500000000001
 20
-4.426550000000001
 30
0.0
 40
0.5
  1
1-55/64
100
AcDbAttributeDefinition
  3

  2
A
 70
     8
280
     0
  0
ATTDEF
  5
7D
330
6E
100
AcDbEntity
  8
AM_6
100
AcDbText
 10
7.281500000000001
 20
-4.926550000000001
 30
0.0
 40
0.5
  1
7-7/16
100
AcDbAttributeDefinition
  3

  2
B
 70
     8
280
     0
  0
ATTDEF
  5
7E
330
6E
100
AcDbEntity
  8
AM_6
100
AcDbText
 10
7.281500000000001
 20
-5.426550000000001
 30
0.0
 40
0.5
  1
2-3/64
100
AcDbAttributeDefinition
  3

  2
C
 70
     8
280
     0
  0
ATTDEF
  5
7F
330
6E
100
AcDbEntity
  8
AM_6
100
AcDbText
 10
7.281500000000001
 20
-5.926550000000001
 30
0.0
 40
0.5
  1
6-3/16
100
AcDbAttributeDefinition
  3

  2
D
 70
     8
280
     0
  0
ATTDEF
  5
80
330
6E
100
AcDbEntity
  8
AM_6
100
AcDbText
 10
7.281500000000001
 20
-6.426550000000001
 30
0.0
 40
0.5
  1
1/2
100
AcDbAttributeDefinition
  3

  2
F
 70
     8
280
     0
  0
ATTDEF
  5
81
330
6E
100
AcDbEntity
  8
AM_6
100
AcDbText
 10
7.281500000000001
 20
-6.926550000000001
 30
0.0
 40
0.5
  1
5/8
100
AcDbAttributeDefinition
  3

  2
H
 70
     8
280
     0
  0
ATTDEF
  5
82
330
6E
100
AcDbEntity
  8
AM_6
100
AcDbText
 10
7.281500000000001
 20
-7.426550000000001
 30
0.0
 40
0.5
  1
17/32
100
AcDbAttributeDefinition
  3

  2
J
 70
     8
280
     0
  0
ATTDEF
  5
83
330
6E
100
AcDbEntity
  8
AM_6
100
AcDbText
 10
7.281500000000001
 20
-7.926550000000001
 30
0.0
 40
0.5
  1
2-15/16
100
AcDbAttributeDefinition
  3

  2
L
 70
     8
280
     0
  0
ATTDEF
  5
84
330
6E
100
AcDbEntity
  8
AM_6
100
AcDbText
 10
7.281500000000001
 20
-8.42655
 30
0.0
 40
0.5
  1
4-9/16
100
AcDbAttributeDefinition
  3

  2
M
 70
     8
280
     0
  0
ATTDEF
  5
85
330
6E
100
AcDbEntity
  8
AM_6
100
AcDbText
 10
7.281500000000001
 20
-8.92655
 30
0.0
 40
0.5
  1
2-1/32
100
AcDbAttributeDefinition
  3

  2
N
 70
     8
280
     0
  0
ATTDEF
  5
86
330
6E
100
AcDbEntity
  8
AM_6
100
AcDbText
 10
7.281500000000001
 20
-9.42655
 30
0.0
 40
0.5
  1
2
100
AcDbAttributeDefinition
  3

  2
Z
 70
     8
280
     0
  0
ATTDEF
  5
87
330
6E
100
AcDbEntity
  8
AM_6
100
AcDbText
 10
7.281500000000001
 20
-9.92655
 30
0.0
 40
0.5
  1
baldor
100
AcDbAttributeDefinition
  3

  2
COMPANY
 70
     8
280
     0
  0
INSERT
  5
89
330
6E
100
AcDbEntity
  8
0
100
AcDbBlockReference
  2
2_129523I_0_in_129335_4
 10
0.0
 20
0.0
 30
0.0
  0
INSERT
  5
D5
330
6E
100
AcDbEntity
  8
0
100
AcDbBlockReference
  2
3_129930_0_in_129335_4
 10
0.0
 20
0.0
 30
0.0
  0
INSERT
  5
12E
330
6E
100
AcDbEntity
  8
0
100
AcDbBlockReference
  2
4_129497I_0_in_129335_4
 10
0.0
 20
0.0
 30
0.0
  0
ENDBLK
  5
71
330
6E
100
AcDbEntity
  8
0
100
AcDbBlockEnd
  0
BLOCK
  5
8A
330
88
100
AcDbEntity
  8
0
100
AcDbBlockBegin
  2
2_129523I_0_in_129335_4
 70
     2
 10
0.0
 20
0.0
 30
0.0
  3
2_129523I_0_in_129335_4
  1

  0
ATTDEF
  5
8C
330
88
100
AcDbEntity
  8
AM_6
100
AcDbText
 10
6.771512852384941
 20
-0.2772500000000002
 30
0.0
 40
0.5
  1
INS-GT B
100
AcDbAttributeDefinition
  3

  2
NN
 70
     8
280
     0
  0
ATTDEF
  5
8D
330
88
100
AcDbEntity
  8
AM_6
100
AcDbText
 10
6.771512852384941
 20
-0.7772500000000002
 30
0.0
 40
0.5
  1
GT Normal Duty Bearing Inserts
100
AcDbAttributeDefinition
  3

  2
NT
 70
     8
280
     0
  0
ATTDEF
  5
8E
330
88
100
AcDbEntity
  8
AM_6
100
AcDbText
 10
6.771512852384941
 20
-1.27725
 30
0.0
 40
0.5
  1
129523I
100
AcDbAttributeDefinition
  3

  2
NB
 70
     8
280
     0
  0
ATTDEF
  5
8F
330
88
100
AcDbEntity
  8
AM_6
100
AcDbText
 10
6.771512852384941
 20
-1.77725
 30
0.0
 40
0.5
  1
$PN.I
100
AcDbAttributeDefinition
  3

  2
NBSYN
 70
     8
280
     0
  0
ATTDEF
  5
90
330
88
100
AcDbEntity
  8
AM_6
100
AcDbText
 10
6.771512852384941
 20
-2.27725
 30
0.0
 40
0.5
  1
129523
100
AcDbAttributeDefinition
  3

  2
LINA
 70
     8
280
     0
  0
ATTDEF
  5
91
330
88
100
AcDbEntity
  8
AM_6
100
AcDbText
 10
6.771512852384941
 20
-2.77725
 30
0.0
 40
0.5
  1
210
100
AcDbAttributeDefinition
  3

  2
SERIES
 70
     8
280
     0
  0
ATTDEF
  5
92
330
88
100
AcDbEntity
  8
AM_6
100
AcDbText
 10
6.771512852384941
 20
-3.27725
 30
0.0
 40
0.5
  1
129523
100
AcDbAttributeDefinition
  3

  2
PN
 70
     8
280
     0
  0
ATTDEF
  5
93
330
88
100
AcDbEntity
  8
AM_6
100
AcDbText
 10
6.771512852384941
 20
-3.77725
 30
0.0
 40
0.5
  1
INS-GT-10
100
AcDbAttributeDefinition
  3

  2
DESCRIPTION
 70
     8
280
     0
  0
ATTDEF
  5
94
330
88
100
AcDbEntity
  8
AM_6
100
AcDbText
 10
6.771512852384941
 20
-4.27725
 30
0.0
 40
0.5
  1
1.86
100
AcDbAttributeDefinition
  3

  2
A
 70
     8
280
     0
  0
ATTDEF
  5
95
330
88
100
AcDbEntity
  8
AM_6
100
AcDbText
 10
6.771512852384941
 20
-4.77725
 30
0.0
 40
0.5
  1
0.87
100
AcDbAttributeDefinition
  3

  2
C
 70
     8
280
     0
  0
ATTDEF
  5
96
330
88
100
AcDbEntity
  8
AM_6
100
AcDbText
 10
6.771512852384941
 20
-5.27725
 30
0.0
 40
0.5
  1
3.5433
100
AcDbAttributeDefinition
  3

  2
D
 70
     8
280
     0
  0
ATTDEF
  5
97
330
88
100
AcDbEntity
  8
AM_6
100
AcDbText
 10
6.771512852384941
 20
-5.77725
 30
0.0
 40
0.5
  1
0.25
100
AcDbAttributeDefinition
  3

  2
J
 70
     8
280
     0
  0
ATTDEF
  5
98
330
88
100
AcDbEntity
  8
AM_6
100
AcDbText
 10
6.771512852384941
 20
-6.27725
 30
0.0
 40
0.5
  1
3.13
100
AcDbAttributeDefinition
  3

  2
L
 70
     8
280
     0
  0
ATTDEF
  5
99
330
88
100
AcDbEntity
  8
AM_6
100
AcDbText
 10
6.771512852384941
 20
-6.77725
 30
0.0
 40
0.5
  1
#10 - 32 x 1/4
100
AcDbAttributeDefinition
  3

  2
N
 70
     8
280
     0
  0
ATTDEF
  5
9A
330
88
100
AcDbEntity
  8
AM_6
100
AcDbText
 10
6.771512852384941
 20
-7.27725
 30
0.0
 40
0.5
  1
0.63000
100
AcDbAttributeDefinition
  3

  2
W
 70
     8
280
     0
  0
ATTDEF
  5
9B
330
88
100
AcDbEntity
  8
AM_6
100
AcDbText
 10
6.771512852384941
 20
-7.77725
 30
0.0
 40
0.5
  1
1.26
100
AcDbAttributeDefinition
  3

  2
X
 70
     8
280
     0
  0
ATTDEF
  5
9C
330
88
100
AcDbEntity
  8
AM_6
100
AcDbText
 10
6.771512852384941
 20
-8.27725
 30
0.0
 40
0.5
  1
1.23
100
AcDbAttributeDefinition
  3

  2
Y
 70
     8
280
     0
  0
ATTDEF
  5
9D
330
88
100
AcDbEntity
  8
AM_6
100
AcDbText
 10
6.771512852384941
 20
-8.77725
 30
0.0
 40
0.5
  1
baldor
100
AcDbAttributeDefinition
  3

  2
COMPANY
 70
     8
280
     0
  0
LINE
  5
A0
330
88
100
AcDbEntity
  8
AM_9
100
AcDbLine
 10
1.167539593111111
 20
-1.7892491998984
 30
0.0
 11
1.167539593111111
 21
-1.3167491998984
 31
0.0
  0
LINE
  5
A1
330
88
100
AcDbEntity
  8
AM_9
100
AcDbLine
 10
-1.167539593111111
 20
-1.3167491998984
 30
0.0
 11
-1.167539593111111
 21
-1.7892491998984
 31
0.0
  0
LINE
  5
A2
330
88
100
AcDbEntity
  8
AM_9
100
AcDbLine
 10
-1.167539593111111
 20
-1.3167491998984
 30
0.0
 11
1.167539593111111
 21
-1.3167491998984
 31
0.0
  0
LINE
  5
A3
330
88
100
AcDbEntity
  8
AM_9
100
AcDbLine
 10
1.167539593111111
 20
-1.3167491998984
 30
0.0
 11
1.203839705057619
 21
-0.2772500000000003
 31
0.0
  0
LINE
  5
A4
330
88
100
AcDbEntity
  8
AM_9
100
AcDbLine
 10
-1.203839705057619
 20
-0.2772500000000003
 30
0.0
 11
-1.167539593111111
 21
-1.3167491998984
 31
0.0
  0
LINE
  5
A5
330
88
100
AcDbEntity
  8
AM_9
100
AcDbLine
 10
1.279325352111111
 20
-1.6317491998984
 30
0.0
 11
1.279325352111111
 21
-1.4742491998984
 31
0.0
  0
LINE
  5
A6
330
88
100
AcDbEntity
  8
AM_9
100
AcDbLine
 10
-1.279325352111111
 20
-1.4742491998984
 30
0.0
 11
-1.279325352111111
 21
-1.6317491998984
 31
0.0
  0
LINE
  5
A7
330
88
100
AcDbEntity
  8
AM_9
100
AcDbLine
 10
1.356311111111111
 20
-1.7892491998984
 30
0.0
 11
1.391111111111111
 21
-1.7544491998984
 31
0.0
  0
LINE
  5
A8
330
88
100
AcDbEntity
  8
AM_9
100
AcDbLine
 10
-1.391111111111111
 20
-1.7544491998984
 30
0.0
 11
-1.356311111111111
 21
-1.7892491998984
 31
0.0
  0
LINE
  5
A9
330
88
100
AcDbEntity
  8
AM_9
100
AcDbLine
 10
-1.356311111111111
 20
-1.7892491998984
 30
0.0
 11
1.356311111111111
 21
-1.7892491998984
 31
0.0
  0
LINE
  5
AA
330
88
100
AcDbEntity
  8
AM_9
100
AcDbLine
 10
-0.6243659781269818
 20
-1.4742491998984
 30
0.0
 11
1.391111111111111
 21
-1.4742491998984
 31
0.0
  0
LINE
  5
AB
330
88
100
AcDbEntity
  8
AM_9
100
AcDbLine
 10
1.391111111111111
 20
-1.4742491998984
 30
0.0
 11
1.391111111111111
 21
-1.27925
 31
0.0
  0
LINE
  5
AC
330
88
100
AcDbEntity
  8
AM_9
100
AcDbLine
 10
-1.391111111111111
 20
-1.27925
 30
0.0
 11
-1.391111111111111
 21
-1.4742491998984
 31
0.0
  0
LINE
  5
AD
330
88
100
AcDbEntity
  8
AM_9
100
AcDbLine
 10
-1.391111111111111
 20
-1.4742491998984
 30
0.0
 11
-0.8001739360750356
 21
-1.4742491998984
 31
0.0
  0
LINE
  5
AE
330
88
100
AcDbEntity
  8
AM_9
100
AcDbLine
 10
-1.356311111111111
 20
-0.2772500000000002
 30
0.0
 11
1.356311111111111
 21
-0.2772500000000002
 31
0.0
  0
LINE
  5
AF
330
88
100
AcDbEntity
  8
AM_9
100
AcDbLine
 10
-1.356311111111111
 20
-0.2772500000000002
 30
0.0
 11
-1.391111111111111
 21
-0.3120500000000002
 31
0.0
  0
LINE
  5
B0
330
88
100
AcDbEntity
  8
AM_9
100
AcDbLine
 10
1.391111111111111
 20
-0.3120500000000002
 30
0.0
 11
1.356311111111111
 21
-0.2772500000000002
 31
0.0
  0
LINE
  5
B1
330
88
100
AcDbEntity
  8
AM_9
100
AcDbLine
 10
-1.391111111111111
 20
-0.3120500000000002
 30
0.0
 11
1.391111111111111
 21
-0.3120500000000002
 31
0.0
  0
LINE
  5
B2
330
88
100
AcDbEntity
  8
AM_9
100
AcDbLine
 10
1.391111111111111
 20
-0.4092500000000002
 30
0.0
 11
1.391111111111111
 21
-0.3120500000000002
 31
0.0
  0
LINE
  5
B3
330
88
100
AcDbEntity
  8
AM_9
100
AcDbLine
 10
-1.391111111111111
 20
-0.3120500000000002
 30
0.0
 11
-1.391111111111111
 21
-0.4092500000000002
 31
0.0
  0
LINE
  5
B4
330
88
100
AcDbEntity
  8
AM_9
100
AcDbLine
 10
-0.6243659781269811
 20
-1.6317491998984
 30
0.0
 11
1.391111111111111
 21
-1.6317491998984
 31
0.0
  0
LINE
  5
B5
330
88
100
AcDbEntity
  8
AM_9
100
AcDbLine
 10
-0.6243659781269818
 20
-1.7544491998984
 30
0.0
 11
1.391111111111111
 21
-1.7544491998984
 31
0.0
  0
LINE
  5
B6
330
88
100
AcDbEntity
  8
AM_9
100
AcDbLine
 10
1.391111111111111
 20
-1.7544491998984
 30
0.0
 11
1.391111111111111
 21
-1.6317491998984
 31
0.0
  0
LINE
  5
B7
330
88
100
AcDbEntity
  8
AM_9
100
AcDbLine
 10
-1.391111111111111
 20
-1.6317491998984
 30
0.0
 11
-1.391111111111111
 21
-1.7544491998984
 31
0.0
  0
LINE
  5
B8
330
88
100
AcDbEntity
  8
AM_9
100
AcDbLine
 10
-1.391111111111111
 20
-1.7544491998984
 30
0.0
 11
-0.8001739360750356
 21
-1.7544491998984
 31
0.0
  0
LINE
  5
B9
330
88
100
AcDbEntity
  8
AM_9
100
AcDbLine
 10
-1.391111111111111
 20
-1.6317491998984
 30
0.0
 11
-0.8001739360750356
 21
-1.6317491998984
 31
0.0
  0
LINE
  5
BA
330
88
100
AcDbEntity
  8
AM_9
100
AcDbLine
 10
1.68465
 20
-1.14425
 30
0.0
 11
1.68465
 21
-1.04425
 31
0.0
  0
LINE
  5
BB
330
88
100
AcDbEntity
  8
AM_9
100
AcDbLine
 10
-1.68465
 20
-1.04425
 30
0.0
 11
-1.68465
 21
-1.14425
 31
0.0
  0
LINE
  5
BC
330
88
100
AcDbEntity
  8
AM_9
100
AcDbLine
 10
-1.661186329583616
 20
-0.4092500000000002
 30
0.0
 11
1.661186329583616
 21
-0.4092500000000002
 31
0.0
  0
ARC
  5
BD
330
88
100
AcDbEntity
  8
AM_9
100
AcDbCircle
 10
1.661186329583616
 20
-0.4440500000000003
 30
0.0
 40
0.0348000000000003
100
AcDbArc
 50
21.41246958967037
 51
90.0
  0
ARC
  5
BE
330
88
100
AcDbEntity
  8
AM_9
100
AcDbCircle
 10
-1.661186329583616
 20
-0.4440500000000003
 30
0.0
 40
0.0348000000000001
100
AcDbArc
 50
90.0
 51
158.5875304103296
  0
LINE
  5
BF
330
88
100
AcDbEntity
  8
AM_9
100
AcDbLine
 10
-1.661186329583617
 20
-1.27925
 30
0.0
 11
1.661186329583617
 21
-1.27925
 31
0.0
  0
ARC
  5
C0
330
88
100
AcDbEntity
  8
AM_9
100
AcDbCircle
 10
1.661186329583617
 20
-1.24445
 30
0.0
 40
0.0347999999999999
100
AcDbArc
 50
270.0
 51
338.5875329531153
  0
ARC
  5
C1
330
88
100
AcDbEntity
  8
AM_9
100
AcDbCircle
 10
-1.661186329583617
 20
-1.24445
 30
0.0
 40
0.0347999999999999
100
AcDbArc
 50
201.4124670468847
 51
270.0
  0
LINE
  5
C2
330
88
100
AcDbEntity
  8
AM_9
100
AcDbLine
 10
-1.693584308300557
 20
-1.257154761904762
 30
0.0
 11
1.693584308300557
 21
-1.257154761904762
 31
0.0
  0
ARC
  5
C3
330
88
100
AcDbEntity
  8
AM_9
100
AcDbCircle
 10
0.6406499999999764
 20
-0.8442499999999951
 30
0.0
 40
1.131000000000024
100
AcDbArc
 50
338.5875329531161
 51
344.0344017040173
  0
ARC
  5
C4
330
88
100
AcDbEntity
  8
AM_9
100
AcDbCircle
 10
-0.6406500000000925
 20
-0.8442500000000343
 30
0.0
 40
1.130999999999901
100
AcDbArc
 50
195.9655982959824
 51
201.4124670468842
  0
LINE
  5
C5
330
88
100
AcDbEntity
  8
AM_9
100
AcDbLine
 10
-1.728023961504525
 20
-1.155343021204198
 30
0.0
 11
1.728023961504525
 21
-1.155343021204198
 31
0.0
  0
LINE
  5
C6
330
88
100
AcDbEntity
  8
AM_9
100
AcDbLine
 10
-1.719659545833585
 20
-1.14425
 30
0.0
 11
1.719659545833585
 21
-1.14425
 31
0.0
  0
ARC
  5
C7
330
88
100
AcDbEntity
  8
AM_9
100
AcDbCircle
 10
1.719659545833581
 20
-1.152950000000001
 30
0.0
 40
0.0087000000000046
100
AcDbArc
 50
344.0344156493833
 51
21.39281118916113
  0
ARC
  5
C8
330
88
100
AcDbEntity
  8
AM_9
100
AcDbCircle
 10
-1.719659545833585
 20
-1.15295
 30
0.0
 40
0.0087000000000002
100
AcDbArc
 50
90.0
 51
195.965584350628
  0
LINE
  5
C9
330
88
100
AcDbEntity
  8
AM_9
100
AcDbLine
 10
-1.746525942539095
 20
-1.04425
 30
0.0
 11
1.746525942539095
 21
-1.04425
 31
0.0
  0
ARC
  5
CA
330
88
100
AcDbEntity
  8
AM_9
100
AcDbCircle
 10
1.746525942409455
 20
-1.03555
 30
0.0
 40
0.0087000000000004
100
AcDbArc
 50
270.0
 51
350.1858105424258
  0
ARC
  5
CB
330
88
100
AcDbEntity
  8
AM_9
100
AcDbCircle
 10
-1.746525942409455
 20
-1.03555
 30
0.0
 40
0.0087000000000003
100
AcDbArc
 50
189.8141894575743
 51
270.0
  0
LINE
  5
CC
330
88
100
AcDbEntity
  8
AM_9
100
AcDbLine
 10
-1.693584307736719
 20
-0.4313452366574162
 30
0.0
 11
1.693584307736719
 21
-0.4313452366574162
 31
0.0
  0
ARC
  5
CD
330
88
100
AcDbEntity
  8
AM_9
100
AcDbCircle
 10
0.64064999999999
 20
-0.8442500000000016
 30
0.0
 40
1.13100000000001
100
AcDbArc
 50
350.1858105424295
 51
21.41246712512352
  0
ARC
  5
CE
330
88
100
AcDbEntity
  8
AM_9
100
AcDbCircle
 10
-0.6406500000001412
 20
-0.8442499999999863
 30
0.0
 40
1.130999999999863
100
AcDbArc
 50
158.5875328748744
 51
189.8141894575726
  0
LINE
  5
CF
330
88
100
AcDbEntity
  8
AM_9
100
AcDbLine
 10
-1.755098624133559
 20
-1.037032945736434
 30
0.0
 11
1.755098624133559
 21
-1.037032945736434
 31
0.0
  0
LINE
  5
D1
330
88
100
AcDbEntity
  8
AM_4
100
AcDbLine
 10
-0.8001739360750356
 20
-1.4742491998984
 30
0.0
 11
-0.6243659781269818
 21
-1.4742491998984
 31
0.0
  0
LINE
  5
D2
330
88
100
AcDbEntity
  8
AM_4
100
AcDbLine
 10
-0.8001739360750356
 20
-1.7544491998984
 30
0.0
 11
-0.6243659781269818
 21
-1.7544491998984
 31
0.0
  0
LINE
  5
D3
330
88
100
AcDbEntity
  8
AM_4
100
AcDbLine
 10
-0.8001739360750356
 20
-1.6317491998984
 30
0.0
 11
-0.6243659781269811
 21
-1.6317491998984
 31
0.0
  0
ENDBLK
  5
8B
330
88
100
AcDbEntity
  8
0
100
AcDbBlockEnd
  0
BLOCK
  5
D6
330
D4
100
AcDbEntity
  8
0
100
AcDbBlockBegin
  2
3_129930_0_in_129335_4
 70
     2
 10
0.0
 20
0.0
 30
0.0
  3
3_129930_0_in_129335_4
  1

  0
ATTDEF
  5
D8
330
D4
100
AcDbEntity
  8
AM_6
100
AcDbText
 10
6.463506256392503
 20
-0.188
 30
0.0
 40
0.5
  1
Grip Tight Normal Duty Adapter and Nut Inch Bore
100
AcDbAttributeDefinition
  3

  2
NN
 70
     8
280
     0
  0
ATTDEF
  5
D9
330
D4
100
AcDbEntity
  8
AM_6
100
AcDbText
 10
6.463506256392503
 20
-0.6880000000000001
 30
0.0
 40
0.5
  1
GT and GTM Adapter & Lock Nut Assemblies
100
AcDbAttributeDefinition
  3

  2
NT
 70
     8
280
     0
  0
ATTDEF
  5
DA
330
D4
100
AcDbEntity
  8
AM_6
100
AcDbText
 10
6.463506256392503
 20
-1.188
 30
0.0
 40
0.5
  1
129930
100
AcDbAttributeDefinition
  3

  2
NB
 70
     8
280
     0
  0
ATTDEF
  5
DB
330
D4
100
AcDbEntity
  8
AM_6
100
AcDbText
 10
6.463506256392503
 20
-1.688
 30
0.0
 40
0.5
  1
$PN.
100
AcDbAttributeDefinition
  3

  2
NBSYN
 70
     8
280
     0
  0
ATTDEF
  5
DC
330
D4
100
AcDbEntity
  8
AM_6
100
AcDbText
 10
6.463506256392503
 20
-2.188
 30
0.0
 40
0.5
  1
129930
100
AcDbAttributeDefinition
  3

  2
LINA
 70
     8
280
     0
  0
ATTDEF
  5
DD
330
D4
100
AcDbEntity
  8
AM_6
100
AcDbText
 10
6.463506256392503
 20
-2.688
 30
0.0
 40
0.5
  1
210
100
AcDbAttributeDefinition
  3

  2
SERIES
 70
     8
280
     0
  0
ATTDEF
  5
DE
330
D4
100
AcDbEntity
  8
AM_6
100
AcDbText
 10
6.463506256392503
 20
-3.188
 30
0.0
 40
0.5
  1
1-3/4
100
AcDbAttributeDefinition
  3

  2
SS
 70
     8
280
     0
  0
ATTDEF
  5
DF
330
D4
100
AcDbEntity
  8
AM_6
100
AcDbText
 10
6.463506256392503
 20
-3.688
 30
0.0
 40
0.5
  1
129930
100
AcDbAttributeDefinition
  3

  2
PN
 70
     8
280
     0
  0
ATTDEF
  5
E0
330
D4
100
AcDbEntity
  8
AM_6
100
AcDbText
 10
6.463506256392503
 20
-4.188000000000001
 30
0.0
 40
0.5
  1
AN-GTM-10-112
100
AcDbAttributeDefinition
  3

  2
DESCRIPTION
 70
     8
280
     0
  0
ATTDEF
  5
E1
330
D4
100
AcDbEntity
  8
AM_6
100
AcDbText
 10
6.463506256392503
 20
-4.688000000000001
 30
0.0
 40
0.5
  1
1-55/64
100
AcDbAttributeDefinition
  3

  2
A
 70
     8
280
     0
  0
ATTDEF
  5
E2
330
D4
100
AcDbEntity
  8
AM_6
100
AcDbText
 10
6.463506256392503
 20
-5.188000000000001
 30
0.0
 40
0.5
  1
0.8661
100
AcDbAttributeDefinition
  3

  2
C
 70
     8
280
     0
  0
ATTDEF
  5
E3
330
D4
100
AcDbEntity
  8
AM_6
100
AcDbText
 10
6.463506256392503
 20
-5.688000000000001
 30
0.0
 40
0.5
  1
3.5433
100
AcDbAttributeDefinition
  3

  2
D
 70
     8
280
     0
  0
ATTDEF
  5
E4
330
D4
100
AcDbEntity
  8
AM_6
100
AcDbText
 10
6.463506256392503
 20
-6.188000000000001
 30
0.0
 40
0.5
  1
0.248
100
AcDbAttributeDefinition
  3

  2
J
 70
     8
280
     0
  0
ATTDEF
  5
E5
330
D4
100
AcDbEntity
  8
AM_6
100
AcDbText
 10
6.463506256392503
 20
-6.688000000000001
 30
0.0
 40
0.5
  1
2-15/16
100
AcDbAttributeDefinition
  3

  2
L
 70
     8
280
     0
  0
ATTDEF
  5
E6
330
D4
100
AcDbEntity
  8
AM_6
100
AcDbText
 10
6.463506256392503
 20
-7.188000000000001
 30
0.0
 40
0.5
  1
10 - 32 x 1/4
100
AcDbAttributeDefinition
  3

  2
N
 70
     8
280
     0
  0
ATTDEF
  5
E7
330
D4
100
AcDbEntity
  8
AM_6
100
AcDbText
 10
6.463506256392503
 20
-7.688000000000001
 30
0.0
 40
0.5
  1
21/32
100
AcDbAttributeDefinition
  3

  2
W
 70
     8
280
     0
  0
ATTDEF
  5
E8
330
D4
100
AcDbEntity
  8
AM_6
100
AcDbText
 10
6.463506256392503
 20
-8.188
 30
0.0
 40
0.5
  1
1-5/32
100
AcDbAttributeDefinition
  3

  2
X
 70
     8
280
     0
  0
ATTDEF
  5
E9
330
D4
100
AcDbEntity
  8
AM_6
100
AcDbText
 10
6.463506256392503
 20
-8.688
 30
0.0
 40
0.5
  1
1-13/64
100
AcDbAttributeDefinition
  3

  2
Y
 70
     8
280
     0
  0
ATTDEF
  5
EA
330
D4
100
AcDbEntity
  8
AM_6
100
AcDbText
 10
6.463506256392503
 20
-9.188
 30
0.0
 40
0.5
  1
baldor
100
AcDbAttributeDefinition
  3

  2
COMPANY
 70
     8
280
     0
  0
LINE
  5
EB
330
D4
100
AcDbEntity
  8
AM_9
100
AcDbLine
 10
-1.4462
 20
-1.952606433324867
 30
0.0
 11
-1.1241125
 21
-1.952606433324867
 31
0.0
  0
LINE
  5
EC
330
D4
100
AcDbEntity
  8
AM_9
100
AcDbLine
 10
-1.1241125
 20
-1.807706433324867
 30
0.0
 11
-1.4462
 21
-1.807706433324867
 31
0.0
  0
LINE
  5
ED
330
D4
100
AcDbEntity
  8
AM_9
100
AcDbLine
 10
-1.1241125
 20
-1.952606433324867
 30
0.0
 11
-1.1015625
 21
-1.975156433324867
 31
0.0
  0
LINE
  5
EE
330
D4
100
AcDbEntity
  8
AM_9
100
AcDbLine
 10
-1.1015625
 20
-1.785156433324867
 30
0.0
 11
-1.1241125
 21
-1.807706433324867
 31
0.0
  0
LINE
  5
EF
330
D4
100
AcDbEntity
  8
AM_9
100
AcDbLine
 10
-1.1015625
 20
-1.785156433324867
 30
0.0
 11
-1.1015625
 21
-1.975156433324867
 31
0.0
  0
LINE
  5
F0
330
D4
100
AcDbEntity
  8
AM_9
100
AcDbLine
 10
-1.1241125
 20
-1.807706433324867
 30
0.0
 11
-1.1241125
 21
-1.952606433324867
 31
0.0
  0
LINE
  5
F1
330
D4
100
AcDbEntity
  8
AM_9
100
AcDbLine
 10
-1.4462
 20
-1.807706433324867
 30
0.0
 11
-1.468697669688398
 21
-1.785208763636469
 31
0.0
  0
LINE
  5
F2
330
D4
100
AcDbEntity
  8
AM_9
100
AcDbLine
 10
-1.464083848736283
 20
-1.97049028206115
 30
0.0
 11
-1.4462
 21
-1.952606433324867
 31
0.0
  0
LINE
  5
F3
330
D4
100
AcDbEntity
  8
AM_9
100
AcDbLine
 10
-1.4462
 20
-1.807706433324867
 30
0.0
 11
-1.4462
 21
-1.952606433324867
 31
0.0
  0
LINE
  5
F4
330
D4
100
AcDbEntity
  8
AM_9
100
AcDbLine
 10
1.370833084624502
 20
-1.422375
 30
0.0
 11
1.370833084624502
 21
-2.0005
 31
0.0
  0
LINE
  5
F5
330
D4
100
AcDbEntity
  8
AM_9
100
AcDbLine
 10
0.8750000000000002
 20
-2.047375
 30
0.0
 11
0.8750000000000002
 21
-0.1880000000000003
 31
0.0
  0
LINE
  5
F6
330
D4
100
AcDbEntity
  8
AM_9
100
AcDbLine
 10
-0.875
 20
-0.1880000000000003
 30
0.0
 11
-0.875
 21
-2.047375
 31
0.0
  0
LINE
  5
F7
330
D4
100
AcDbEntity
  8
AM_9
100
AcDbLine
 10
1.095734126984127
 20
-1.7114375
 30
0.0
 11
1.095734126984127
 21
-1.277843750000001
 31
0.0
  0
LINE
  5
F8
330
D4
100
AcDbEntity
  8
AM_9
100
AcDbLine
 10
-1.095734126984127
 20
-1.277843750000001
 30
0.0
 11
-1.095734126984127
 21
-1.7114375
 31
0.0
  0
LINE
  5
F9
330
D4
100
AcDbEntity
  8
AM_9
100
AcDbLine
 10
-0.0499999999999999
 20
-0.188
 30
0.0
 11
-0.0499999999999999
 21
-2.0005
 31
0.0
  0
LINE
  5
FA
330
D4
100
AcDbEntity
  8
AM_9
100
AcDbLine
 10
0.0500000000000001
 20
-0.188
 30
0.0
 11
0.0500000000000001
 21
-2.0005
 31
0.0
  0
LINE
  5
FB
330
D4
100
AcDbEntity
  8
AM_9
100
AcDbLine
 10
-1.095734126984127
 20
-1.277843750000001
 30
0.0
 11
1.095734126984127
 21
-1.277843750000001
 31
0.0
  0
LINE
  5
FC
330
D4
100
AcDbEntity
  8
AM_9
100
AcDbLine
 10
1.095734126984127
 20
-1.277843750000001
 30
0.0
 11
1.133792309359899
 21
-0.1880000000000001
 31
0.0
  0
LINE
  5
FD
330
D4
100
AcDbEntity
  8
AM_9
100
AcDbLine
 10
-1.133792309359899
 20
-0.1880000000000001
 30
0.0
 11
-1.095734126984127
 21
-1.277843750000001
 31
0.0
  0
LINE
  5
FE
330
D4
100
AcDbEntity
  8
AM_9
100
AcDbLine
 10
-1.133792309359899
 20
-0.1880000000000001
 30
0.0
 11
1.133792309359899
 21
-0.1880000000000001
 31
0.0
  0
LINE
  5
FF
330
D4
100
AcDbEntity
  8
AM_9
100
AcDbLine
 10
1.200644841269842
 20
-1.56690625
 30
0.0
 11
1.200644841269842
 21
-1.422375
 31
0.0
  0
LINE
  5
100
330
D4
100
AcDbEntity
  8
AM_9
100
AcDbLine
 10
-1.200644841269842
 20
-1.422375
 30
0.0
 11
-1.200644841269842
 21
-1.56690625
 31
0.0
  0
LINE
  5
101
330
D4
100
AcDbEntity
  8
AM_9
100
AcDbLine
 10
-1.434106000000001
 20
-1.422375
 30
0.0
 11
-1.46875
 21
-1.457019
 31
0.0
  0
LINE
  5
102
330
D4
100
AcDbEntity
  8
AM_9
100
AcDbLine
 10
-1.46875
 20
-1.457019
 30
0.0
 11
-1.46875
 21
-1.469000000000001
 31
0.0
  0
LINE
  5
103
330
D4
100
AcDbEntity
  8
AM_9
100
AcDbLine
 10
-1.46875
 20
-1.457019
 30
0.0
 11
-0.8391402782655227
 21
-1.457019
 31
0.0
  0
LINE
  5
104
330
D4
100
AcDbEntity
  8
AM_9
100
AcDbLine
 10
-0.8217547058898027
 20
-1.422375
 30
0.0
 11
-0.8391402782655227
 21
-1.457019
 31
0.0
  0
LINE
  5
105
330
D4
100
AcDbEntity
  8
AM_9
100
AcDbLine
 10
-0.8391402782655227
 20
-1.457019
 30
0.0
 11
-0.8391402782655227
 21
-1.469
 31
0.0
  0
LINE
  5
106
330
D4
100
AcDbEntity
  8
AM_9
100
AcDbLine
 10
-0.5780293922429813
 20
-1.422375
 30
0.0
 11
-0.5780293922429813
 21
-2.0005
 31
0.0
  0
LINE
  5
107
330
D4
100
AcDbEntity
  8
AM_9
100
AcDbLine
 10
-0.7928036923815222
 20
-1.6317491998984
 30
0.0
 11
-0.7928036923815222
 21
-1.769130383297559
 31
0.0
  0
LINE
  5
108
330
D4
100
AcDbEntity
  8
AM_9
100
AcDbLine
 10
-0.7928036923815222
 20
-1.422375
 30
0.0
 11
-0.7928036923815222
 21
-1.4742491998984
 31
0.0
  0
LINE
  5
109
330
D4
100
AcDbEntity
  8
AM_9
100
AcDbLine
 10
-1.305555555555557
 20
-1.7114375
 30
0.0
 11
1.305555555555557
 21
-1.7114375
 31
0.0
  0
LINE
  5
10A
330
D4
100
AcDbEntity
  8
AM_9
100
AcDbLine
 10
-1.305555555555557
 20
-1.56690625
 30
0.0
 11
1.305555555555557
 21
-1.56690625
 31
0.0
  0
LINE
  5
10B
330
D4
100
AcDbEntity
  8
AM_9
100
AcDbLine
 10
1.305555555555557
 20
-1.7114375
 30
0.0
 11
1.305555555555557
 21
-1.56690625
 31
0.0
  0
LINE
  5
10C
330
D4
100
AcDbEntity
  8
AM_9
100
AcDbLine
 10
-1.305555555555557
 20
-1.56690625
 30
0.0
 11
-1.305555555555557
 21
-1.7114375
 31
0.0
  0
LINE
  5
10D
330
D4
100
AcDbEntity
  8
AM_9
100
AcDbLine
 10
1.463506256392504
 20
-1.457019000000001
 30
0.0
 11
1.463506256392504
 21
-1.469
 31
0.0
  0
LINE
  5
10E
330
D4
100
AcDbEntity
  8
AM_9
100
AcDbLine
 10
-0.6243659781269819
 20
-1.469
 30
0.0
 11
-0.6243659781269819
 21
-1.457019
 31
0.0
  0
LINE
  5
10F
330
D4
100
AcDbEntity
  8
AM_9
100
AcDbLine
 10
1.428735111641063
 20
-1.422375
 30
0.0
 11
1.463506256392504
 21
-1.457019000000001
 31
0.0
  0
LINE
  5
110
330
D4
100
AcDbEntity
  8
AM_9
100
AcDbLine
 10
-1.434106000000001
 20
-1.422375
 30
0.0
 11
1.428735111641063
 21
-1.422375
 31
0.0
  0
LINE
  5
111
330
D4
100
AcDbEntity
  8
AM_9
100
AcDbLine
 10
-0.6243659781269819
 20
-1.457019
 30
0.0
 11
-0.6069804057512618
 21
-1.422375
 31
0.0
  0
LINE
  5
112
330
D4
100
AcDbEntity
  8
AM_9
100
AcDbLine
 10
-0.6243659781269819
 20
-1.457019
 30
0.0
 11
1.463506256392504
 21
-1.457019000000001
 31
0.0
  0
LINE
  5
114
330
D4
100
AcDbEntity
  8
AM_5
100
AcDbLine
 10
-1.459449566675133
 20
-1.975156433324867
 30
0.0
 11
-1.1015625
 21
-1.975156433324867
 31
0.0
  0
LINE
  5
115
330
D4
100
AcDbEntity
  8
AM_5
100
AcDbLine
 10
-1.360403877684644
 20
-1.785156433324867
 30
0.0
 11
-1.167539593111111
 21
-1.785156433324867
 31
0.0
  0
LINE
  5
118
330
D4
100
AcDbEntity
  8
AM_7
100
AcDbLine
 10
-1.083203125
 20
-1.880156433324867
 30
0.0
 11
-1.487109375
 21
-1.880156433324867
 31
0.0
  0
LINE
  5
119
330
D4
100
AcDbEntity
  8
AM_4
100
AcDbLine
 10
-0.0499999999999999
 20
-2.047375
 30
0.0
 11
-0.0499999999999999
 21
-2.0005
 31
0.0
  0
LINE
  5
11A
330
D4
100
AcDbEntity
  8
AM_4
100
AcDbLine
 10
0.0500000000000001
 20
-2.047375
 30
0.0
 11
0.0500000000000001
 21
-2.0005
 31
0.0
  0
LINE
  5
11B
330
D4
100
AcDbEntity
  8
AM_4
100
AcDbLine
 10
1.095734126984127
 20
-2.047375
 30
0.0
 11
1.095734126984127
 21
-2.0005
 31
0.0
  0
LINE
  5
11C
330
D4
100
AcDbEntity
  8
AM_4
100
AcDbLine
 10
-1.095734126984127
 20
-2.0005
 30
0.0
 11
-1.095734126984127
 21
-2.047375
 31
0.0
  0
LINE
  5
11D
330
D4
100
AcDbEntity
  8
AM_4
100
AcDbLine
 10
-1.095734126984127
 20
-2.047375
 30
0.0
 11
1.095734126984127
 21
-2.047375
 31
0.0
  0
LINE
  5
11E
330
D4
100
AcDbEntity
  8
AM_4
100
AcDbLine
 10
-1.468212458137745
 20
-1.965856000000001
 30
0.0
 11
-1.464099783337579
 21
-1.97050621666242
 31
0.0
  0
LINE
  5
11F
330
D4
100
AcDbEntity
  8
AM_4
100
AcDbLine
 10
-1.464358872857403
 20
-1.970247127142597
 30
0.0
 11
-1.434106
 21
-2.0005
 31
0.0
  0
LINE
  5
120
330
D4
100
AcDbEntity
  8
AM_4
100
AcDbLine
 10
-1.468212458137745
 20
-1.965856000000001
 30
0.0
 11
-0.8391402782655227
 21
-1.965856
 31
0.0
  0
LINE
  5
121
330
D4
100
AcDbEntity
  8
AM_4
100
AcDbLine
 10
-1.46875
 20
-1.469000000000001
 30
0.0
 11
-1.46875
 21
-1.785255337633869
 31
0.0
  0
LWPOLYLINE
  5
122
330
D4
100
AcDbEntity
  8
AM_4
100
AcDbPolyline
 90
       18
 70
     0
 43
0.0
 10
-1.46875
 20
-1.78515643332487
 10
-1.468749436055799
 20
-1.78516571659346
 10
-1.468655954284611
 20
-1.786717203264294
 10
-1.468425131796331
 20
-1.790662378931718
 10
-1.468070037255858
 20
-1.797094160201852
 10
-1.467642129668022
 20
-1.805573658570355
 10
-1.467168923284019
 20
-1.816241003435574
 10
-1.466712315685218
 20
-1.828576915876067
 10
-1.466310895316392
 20
-1.842625132183927
 10
-1.466020795075286
 20
-1.857699614382769
 10
-1.465871882133133
 20
-1.873811869014893
 10
-1.465889798407187
 20
-1.889958526202406
 10
-1.466078054355621
 20
-1.906286274201842
 10
-1.466406784050065
 20
-1.921479228953375
 10
-1.466855885270024
 20
-1.93590884603697
 10
-1.467226412658242
 20
-1.945460516087176
 10
-1.467610173913806
 20
-1.954067132638993
 10
-1.468212458137746
 20
-1.965856000000001
  0
LINE
  5
123
330
D4
100
AcDbEntity
  8
AM_4
100
AcDbLine
 10
-0.8391402782655227
 20
-1.469
 30
0.0
 11
-0.8391402782655227
 21
-1.965856
 31
0.0
  0
LINE
  5
124
330
D4
100
AcDbEntity
  8
AM_4
100
AcDbLine
 10
-0.8391402782655227
 20
-1.965856
 30
0.0
 11
-0.8217547058898026
 21
-2.0005
 31
0.0
  0
LINE
  5
125
330
D4
100
AcDbEntity
  8
AM_4
100
AcDbLine
 10
-0.7928036923815222
 20
-1.769130383297559
 30
0.0
 11
-0.7928036923815222
 21
-2.0005
 31
0.0
  0
LINE
  5
126
330
D4
100
AcDbEntity
  8
AM_4
100
AcDbLine
 10
-0.7928036923815222
 20
-1.4742491998984
 30
0.0
 11
-0.7928036923815222
 21
-1.6317491998984
 31
0.0
  0
LINE
  5
127
330
D4
100
AcDbEntity
  8
AM_4
100
AcDbLine
 10
1.463506256392503
 20
-1.965856
 30
0.0
 11
1.428735111641063
 21
-2.0005
 31
0.0
  0
LINE
  5
128
330
D4
100
AcDbEntity
  8
AM_4
100
AcDbLine
 10
-0.6069804057512616
 20
-2.0005
 30
0.0
 11
-0.6243659781269818
 21
-1.965856
 31
0.0
  0
LINE
  5
129
330
D4
100
AcDbEntity
  8
AM_4
100
AcDbLine
 10
-1.434106
 20
-2.0005
 30
0.0
 11
1.428735111641063
 21
-2.0005
 31
0.0
  0
LINE
  5
12A
330
D4
100
AcDbEntity
  8
AM_4
100
AcDbLine
 10
1.463506256392504
 20
-1.469
 30
0.0
 11
1.463506256392503
 21
-1.965856
 31
0.0
  0
LINE
  5
12B
330
D4
100
AcDbEntity
  8
AM_4
100
AcDbLine
 10
-0.6243659781269818
 20
-1.965856
 30
0.0
 11
-0.6243659781269819
 21
-1.469
 31
0.0
  0
LINE
  5
12C
330
D4
100
AcDbEntity
  8
AM_4
100
AcDbLine
 10
-0.6243659781269818
 20
-1.965856
 30
0.0
 11
1.463506256392503
 21
-1.965856
 31
0.0
  0
ENDBLK
  5
D7
330
D4
100
AcDbEntity
  8
0
100
AcDbBlockEnd
  0
BLOCK
  5
12F
330
12D
100
AcDbEntity
  8
0
100
AcDbBlockBegin
  2
4_129497I_0_in_129335_4
 70
     2
 10
0.0
 20
0.0
 30
0.0
  3
4_129497I_0_in_129335_4
  1

  0
ATTDEF
  5
131
330
12D
100
AcDbEntity
  8
AM_6
100
AcDbText
 10
7.281500000000001
 20
0.0734499999999998
 30
0.0
 40
0.5
  1
F2B-GT-B
100
AcDbAttributeDefinition
  3

  2
NN
 70
     8
280
     0
  0
ATTDEF
  5
132
330
12D
100
AcDbEntity
  8
AM_6
100
AcDbText
 10
7.281500000000001
 20
-0.4265500000000002
 30
0.0
 40
0.5
  1
GT Normal Duty 2 Bolt Flange Bearings
100
AcDbAttributeDefinition
  3

  2
NT
 70
     8
280
     0
  0
ATTDEF
  5
133
330
12D
100
AcDbEntity
  8
AM_6
100
AcDbText
 10
7.281500000000001
 20
-0.9265500000000002
 30
0.0
 40
0.5
  1
129497I
100
AcDbAttributeDefinition
  3

  2
NB
 70
     8
280
     0
  0
ATTDEF
  5
134
330
12D
100
AcDbEntity
  8
AM_6
100
AcDbText
 10
7.281500000000001
 20
-1.42655
 30
0.0
 40
0.5
  1
$PN.$LUBE.I
100
AcDbAttributeDefinition
  3

  2
NBSYN
 70
     8
280
     0
  0
ATTDEF
  5
135
330
12D
100
AcDbEntity
  8
AM_6
100
AcDbText
 10
7.281500000000001
 20
-1.92655
 30
0.0
 40
0.5
  1
129497
100
AcDbAttributeDefinition
  3

  2
LINA
 70
     8
280
     0
  0
ATTDEF
  5
136
330
12D
100
AcDbEntity
  8
AM_6
100
AcDbText
 10
7.281500000000001
 20
-2.42655
 30
0.0
 40
0.5
  1
210
100
AcDbAttributeDefinition
  3

  2
SERIES
 70
     8
280
     0
  0
ATTDEF
  5
137
330
12D
100
AcDbEntity
  8
AM_6
100
AcDbText
 10
7.281500000000001
 20
-2.92655
 30
0.0
 40
0.5
  1
129497
100
AcDbAttributeDefinition
  3

  2
PN
 70
     8
280
     0
  0
ATTDEF
  5
138
330
12D
100
AcDbEntity
  8
AM_6
100
AcDbText
 10
7.281500000000001
 20
-3.42655
 30
0.0
 40
0.5
  1
F2B-GT-10
100
AcDbAttributeDefinition
  3

  2
DESCRIPTION
 70
     8
280
     0
  0
ATTDEF
  5
139
330
12D
100
AcDbEntity
  8
AM_6
100
AcDbText
 10
7.281500000000001
 20
-3.92655
 30
0.0
 40
0.5
  1
1-55/64
100
AcDbAttributeDefinition
  3

  2
A
 70
     8
280
     0
  0
ATTDEF
  5
13A
330
12D
100
AcDbEntity
  8
AM_6
100
AcDbText
 10
7.281500000000001
 20
-4.426550000000001
 30
0.0
 40
0.5
  1
7-7/16
100
AcDbAttributeDefinition
  3

  2
B
 70
     8
280
     0
  0
ATTDEF
  5
13B
330
12D
100
AcDbEntity
  8
AM_6
100
AcDbText
 10
7.281500000000001
 20
-4.926550000000001
 30
0.0
 40
0.5
  1
2-3/64
100
AcDbAttributeDefinition
  3

  2
C
 70
     8
280
     0
  0
ATTDEF
  5
13C
330
12D
100
AcDbEntity
  8
AM_6
100
AcDbText
 10
7.281500000000001
 20
-5.426550000000001
 30
0.0
 40
0.5
  1
6-3/16
100
AcDbAttributeDefinition
  3

  2
D
 70
     8
280
     0
  0
ATTDEF
  5
13D
330
12D
100
AcDbEntity
  8
AM_6
100
AcDbText
 10
7.281500000000001
 20
-5.926550000000001
 30
0.0
 40
0.5
  1
1/2
100
AcDbAttributeDefinition
  3

  2
F
 70
     8
280
     0
  0
ATTDEF
  5
13E
330
12D
100
AcDbEntity
  8
AM_6
100
AcDbText
 10
7.281500000000001
 20
-6.426550000000001
 30
0.0
 40
0.5
  1
5/8
100
AcDbAttributeDefinition
  3

  2
H
 70
     8
280
     0
  0
ATTDEF
  5
13F
330
12D
100
AcDbEntity
  8
AM_6
100
AcDbText
 10
7.281500000000001
 20
-6.926550000000001
 30
0.0
 40
0.5
  1
17/32
100
AcDbAttributeDefinition
  3

  2
J
 70
     8
280
     0
  0
ATTDEF
  5
140
330
12D
100
AcDbEntity
  8
AM_6
100
AcDbText
 10
7.281500000000001
 20
-7.426550000000001
 30
0.0
 40
0.5
  1
2-15/16
100
AcDbAttributeDefinition
  3

  2
L
 70
     8
280
     0
  0
ATTDEF
  5
141
330
12D
100
AcDbEntity
  8
AM_6
100
AcDbText
 10
7.281500000000001
 20
-7.926550000000001
 30
0.0
 40
0.5
  1
4-9/16
100
AcDbAttributeDefinition
  3

  2
M
 70
     8
280
     0
  0
ATTDEF
  5
142
330
12D
100
AcDbEntity
  8
AM_6
100
AcDbText
 10
7.281500000000001
 20
-8.42655
 30
0.0
 40
0.5
  1
2-1/32
100
AcDbAttributeDefinition
  3

  2
N
 70
     8
280
     0
  0
ATTDEF
  5
143
330
12D
100
AcDbEntity
  8
AM_6
100
AcDbText
 10
7.281500000000001
 20
-8.92655
 30
0.0
 40
0.5
  1
2
100
AcDbAttributeDefinition
  3

  2
Z
 70
     8
280
     0
  0
ATTDEF
  5
144
330
12D
100
AcDbEntity
  8
AM_6
100
AcDbText
 10
7.281500000000001
 20
-9.42655
 30
0.0
 40
0.5
  1
baldor
100
AcDbAttributeDefinition
  3

  2
COMPANY
 70
     8
280
     0
  0
LINE
  5
145
330
12D
100
AcDbEntity
  8
AM_9
100
AcDbLine
 10
1.85000698122
 20
-1.39025984
 30
0.0
 11
1.85000698122
 21
-1.469
 31
0.0
  0
LINE
  5
146
330
12D
100
AcDbEntity
  8
AM_9
100
AcDbLine
 10
1.841266647479842
 20
-1.39025984
 30
0.0
 11
1.841266647479842
 21
-1.469
 31
0.0
  0
LINE
  5
147
330
12D
100
AcDbEntity
  8
AM_9
100
AcDbLine
 10
1.838353182912913
 20
-1.39025984
 30
0.0
 11
1.838353182912913
 21
-1.469
 31
0.0
  0
LINE
  5
148
330
12D
100
AcDbEntity
  8
AM_9
100
AcDbLine
 10
1.84709353622
 20
-1.39025984
 30
0.0
 11
1.84709353622
 21
-1.469
 31
0.0
  0
LINE
  5
149
330
12D
100
AcDbEntity
  8
AM_9
100
AcDbLine
 10
1.83436867110189
 20
-1.39025984
 30
0.0
 11
1.83436867110189
 21
-1.469
 31
0.0
  0
LINE
  5
14A
330
12D
100
AcDbEntity
  8
AM_9
100
AcDbLine
 10
1.87078678122
 20
-1.39025984
 30
0.0
 11
1.87078678122
 21
-1.469
 31
0.0
  0
LINE
  5
14B
330
12D
100
AcDbEntity
  8
AM_9
100
AcDbLine
 10
1.86350316122
 20
-1.39025984
 30
0.0
 11
1.86350316122
 21
-1.469
 31
0.0
  0
LINE
  5
14C
330
12D
100
AcDbEntity
  8
AM_9
100
AcDbLine
 10
1.841652293149134
 20
-1.39025984
 30
0.0
 11
1.841652293149134
 21
-1.469
 31
0.0
  0
LINE
  5
14D
330
12D
100
AcDbEntity
  8
AM_9
100
AcDbLine
 10
1.835825383700315
 20
-1.39025984
 30
0.0
 11
1.835825383700315
 21
-1.469
 31
0.0
  0
LINE
  5
14E
330
12D
100
AcDbEntity
  8
AM_9
100
AcDbLine
 10
1.86933007122
 20
-1.39025984
 30
0.0
 11
1.86933007122
 21
-1.469
 31
0.0
  0
LINE
  5
14F
330
12D
100
AcDbEntity
  8
AM_9
100
AcDbLine
 10
1.87370016622
 20
-1.39025984
 30
0.0
 11
1.87370016622
 21
-1.469
 31
0.0
  0
LINE
  5
150
330
12D
100
AcDbEntity
  8
AM_9
100
AcDbLine
 10
1.831455285275118
 20
-1.39025984
 30
0.0
 11
1.831455285275118
 21
-1.469
 31
0.0
  0
LINE
  5
151
330
12D
100
AcDbEntity
  8
AM_9
100
AcDbLine
 10
1.822714930944409
 20
-1.39025984
 30
0.0
 11
1.822714930944409
 21
-1.469
 31
0.0
  0
LINE
  5
152
330
12D
100
AcDbEntity
  8
AM_9
100
AcDbLine
 10
1.88244052122
 20
-1.39025984
 30
0.0
 11
1.88244052122
 21
-1.469
 31
0.0
  0
LINE
  5
153
330
12D
100
AcDbEntity
  8
AM_9
100
AcDbLine
 10
1.87661375122
 20
-1.39025984
 30
0.0
 11
1.87661375122
 21
-1.469
 31
0.0
  0
LINE
  5
154
330
12D
100
AcDbEntity
  8
AM_9
100
AcDbLine
 10
1.828541702597953
 20
-1.39025984
 30
0.0
 11
1.828541702597953
 21
-1.469
 31
0.0
  0
LINE
  5
155
330
12D
100
AcDbEntity
  8
AM_9
100
AcDbLine
 10
1.819801348267244
 20
-1.39025984
 30
0.0
 11
1.819801348267244
 21
-1.469
 31
0.0
  0
LINE
  5
156
330
12D
100
AcDbEntity
  8
AM_9
100
AcDbLine
 10
1.88535410622
 20
-1.39025984
 30
0.0
 11
1.88535410622
 21
-1.469
 31
0.0
  0
LINE
  5
157
330
12D
100
AcDbEntity
  8
AM_9
100
AcDbLine
 10
1.827085009684567
 20
-1.39025984
 30
0.0
 11
1.827085009684567
 21
-1.469
 31
0.0
  0
LINE
  5
158
330
12D
100
AcDbEntity
  8
AM_9
100
AcDbLine
 10
1.87807044122
 20
-1.39025984
 30
0.0
 11
1.87807044122
 21
-1.469
 31
0.0
  0
LINE
  5
159
330
12D
100
AcDbEntity
  8
AM_9
100
AcDbLine
 10
1.818344655353858
 20
-1.39025984
 30
0.0
 11
1.818344655353858
 21
-1.469
 31
0.0
  0
LINE
  5
15A
330
12D
100
AcDbEntity
  8
AM_9
100
AcDbLine
 10
1.88681079622
 20
-1.39025984
 30
0.0
 11
1.809218655353858
 21
-1.39025984
 31
0.0
  0
LINE
  5
15B
330
12D
100
AcDbEntity
  8
AM_9
100
AcDbLine
 10
1.88681079622
 20
-1.39025984
 30
0.0
 11
1.88681079622
 21
-1.469
 31
0.0
  0
LINE
  5
15C
330
12D
100
AcDbEntity
  8
AM_9
100
AcDbLine
 10
1.825242671101889
 20
-1.39025984
 30
0.0
 11
1.825242671101889
 21
-1.469
 31
0.0
  0
LINE
  5
15D
330
12D
100
AcDbEntity
  8
AM_9
100
AcDbLine
 10
1.86166078122
 20
-1.39025984
 30
0.0
 11
1.86166078122
 21
-1.469
 31
0.0
  0
LINE
  5
15E
330
12D
100
AcDbEntity
  8
AM_9
100
AcDbLine
 10
1.85437716122
 20
-1.39025984
 30
0.0
 11
1.85437716122
 21
-1.469
 31
0.0
  0
LINE
  5
15F
330
12D
100
AcDbEntity
  8
AM_9
100
AcDbLine
 10
1.832526293149134
 20
-1.39025984
 30
0.0
 11
1.832526293149134
 21
-1.469
 31
0.0
  0
LINE
  5
160
330
12D
100
AcDbEntity
  8
AM_9
100
AcDbLine
 10
1.826699383700315
 20
-1.39025984
 30
0.0
 11
1.826699383700315
 21
-1.469
 31
0.0
  0
LINE
  5
161
330
12D
100
AcDbEntity
  8
AM_9
100
AcDbLine
 10
1.86020407122
 20
-1.39025984
 30
0.0
 11
1.86020407122
 21
-1.469
 31
0.0
  0
LINE
  5
162
330
12D
100
AcDbEntity
  8
AM_9
100
AcDbLine
 10
1.86457416622
 20
-1.39025984
 30
0.0
 11
1.86457416622
 21
-1.469
 31
0.0
  0
LINE
  5
163
330
12D
100
AcDbEntity
  8
AM_9
100
AcDbLine
 10
1.822329285275118
 20
-1.39025984
 30
0.0
 11
1.822329285275118
 21
-1.469
 31
0.0
  0
LINE
  5
164
330
12D
100
AcDbEntity
  8
AM_9
100
AcDbLine
 10
1.813588930944409
 20
-1.39025984
 30
0.0
 11
1.813588930944409
 21
-1.469
 31
0.0
  0
LINE
  5
165
330
12D
100
AcDbEntity
  8
AM_9
100
AcDbLine
 10
1.87331452122
 20
-1.39025984
 30
0.0
 11
1.87331452122
 21
-1.469
 31
0.0
  0
LINE
  5
166
330
12D
100
AcDbEntity
  8
AM_9
100
AcDbLine
 10
1.86748775122
 20
-1.39025984
 30
0.0
 11
1.86748775122
 21
-1.469
 31
0.0
  0
LINE
  5
167
330
12D
100
AcDbEntity
  8
AM_9
100
AcDbLine
 10
1.819415702597952
 20
-1.39025984
 30
0.0
 11
1.819415702597952
 21
-1.469
 31
0.0
  0
LINE
  5
168
330
12D
100
AcDbEntity
  8
AM_9
100
AcDbLine
 10
1.87622810622
 20
-1.39025984
 30
0.0
 11
1.87622810622
 21
-1.469
 31
0.0
  0
LINE
  5
169
330
12D
100
AcDbEntity
  8
AM_9
100
AcDbLine
 10
1.810675348267244
 20
-1.39025984
 30
0.0
 11
1.810675348267244
 21
-1.469
 31
0.0
  0
LINE
  5
16A
330
12D
100
AcDbEntity
  8
AM_9
100
AcDbLine
 10
1.86894444122
 20
-1.39025984
 30
0.0
 11
1.86894444122
 21
-1.469
 31
0.0
  0
LINE
  5
16B
330
12D
100
AcDbEntity
  8
AM_9
100
AcDbLine
 10
1.817959009684567
 20
-1.39025984
 30
0.0
 11
1.817959009684567
 21
-1.469
 31
0.0
  0
LINE
  5
16C
330
12D
100
AcDbEntity
  8
AM_9
100
AcDbLine
 10
1.87768479622
 20
-1.39025984
 30
0.0
 11
1.87768479622
 21
-1.469
 31
0.0
  0
LINE
  5
16D
330
12D
100
AcDbEntity
  8
AM_9
100
AcDbLine
 10
1.809218655353858
 20
-1.39025984
 30
0.0
 11
1.809218655353858
 21
-1.469
 31
0.0
  0
LINE
  5
16E
330
12D
100
AcDbEntity
  8
AM_9
100
AcDbLine
 10
1.805567823450782
 20
-0.5357142875660851
 30
0.0
 11
1.805567823450782
 21
-0.7344999999999966
 31
0.0
  0
LINE
  5
16F
330
12D
100
AcDbEntity
  8
AM_9
100
AcDbLine
 10
1.812672035182324
 20
-0.1562499999999999
 30
0.0
 11
1.812672035182324
 21
-0.5357142875660851
 31
0.0
  0
LINE
  5
170
330
12D
100
AcDbEntity
  8
AM_9
100
AcDbLine
 10
1.407456634863796
 20
-0.5357142875660851
 30
0.0
 11
1.926964667775403
 21
-0.5357142875660851
 31
0.0
  0
LINE
  5
171
330
12D
100
AcDbEntity
  8
AM_9
100
AcDbLine
 10
1.926964667775403
 20
-0.1562499999999999
 30
0.0
 11
1.926964667775403
 21
-0.5357142875660851
 31
0.0
  0
LINE
  5
172
330
12D
100
AcDbEntity
  8
AM_9
100
AcDbLine
 10
1.953272779826525
 20
-1.078491924744628
 30
0.0
 11
1.953272779826525
 21
-0.8803408933547692
 31
0.0
  0
LINE
  5
173
330
12D
100
AcDbEntity
  8
AM_9
100
AcDbLine
 10
1.77165
 20
-1.469
 30
0.0
 11
1.77165
 21
-0.15625
 31
0.0
  0
LINE
  5
174
330
12D
100
AcDbEntity
  8
AM_9
100
AcDbLine
 10
-1.77165
 20
-0.15625
 30
0.0
 11
-1.77165
 21
-1.469
 31
0.0
  0
LWPOLYLINE
  5
175
330
12D
100
AcDbEntity
  8
AM_9
100
AcDbPolyline
 90
        3
 70
     0
 43
0.0
 10
1.794369770377217
 20
-1.115715291049436
 10
1.82342697922908
 20
-1.092984964763418
 10
1.854663362715135
 20
-1.070254638477402
  0
LWPOLYLINE
  5
176
330
12D
100
AcDbEntity
  8
AM_9
100
AcDbPolyline
 90
        3
 70
     0
 43
0.0
 10
1.854663362715135
 20
-1.070254638477402
 10
1.851276593278999
 20
-1.024998389240644
 10
1.85004747146493
 20
-0.9793333333333332
  0
LWPOLYLINE
  5
177
330
12D
100
AcDbEntity
  8
AM_9
100
AcDbPolyline
 90
        3
 70
     0
 43
0.0
 10
1.854663362715135
 20
-0.8884120281892647
 10
1.823562913703429
 20
-0.8657839035708859
 10
1.794369770377217
 20
-0.8429513756172307
  0
LWPOLYLINE
  5
178
330
12D
100
AcDbEntity
  8
AM_9
100
AcDbPolyline
 90
        3
 70
     0
 43
0.0
 10
1.85004747146493
 20
-0.9793333333333332
 10
1.851265829772937
 20
-0.9338726807612988
 10
1.854663362715135
 20
-0.8884120281892647
  0
LINE
  5
179
330
12D
100
AcDbEntity
  8
AM_9
100
AcDbLine
 10
1.854663362715135
 20
-0.8884120281892647
 30
0.0
 11
1.928948131846296
 21
-0.8884120281892647
 31
0.0
  0
LINE
  5
17A
330
12D
100
AcDbEntity
  8
AM_9
100
AcDbLine
 10
1.854663362715135
 20
-1.070254638477402
 30
0.0
 11
1.928948131846296
 21
-1.070254638477402
 31
0.0
  0
LINE
  5
17B
330
12D
100
AcDbEntity
  8
AM_9
100
AcDbLine
 10
1.913794541748252
 20
-0.8741082150082159
 30
0.0
 11
1.928948131846296
 21
-0.8884120281892647
 31
0.0
  0
LWPOLYLINE
  5
17C
330
12D
100
AcDbEntity
  8
AM_9
100
AcDbPolyline
 90
        3
 70
     0
 43
0.0
 10
1.928948131846296
 20
-0.8884120281892647
 10
1.932334901282432
 20
-0.9336682774260225
 10
1.933564023096501
 20
-0.9793333333333332
  0
LINE
  5
17D
330
12D
100
AcDbEntity
  8
AM_9
100
AcDbLine
 10
1.928948131846296
 20
-1.070254638477402
 30
0.0
 11
1.913763776124434
 21
-1.0845867972622
 31
0.0
  0
LWPOLYLINE
  5
17E
330
12D
100
AcDbEntity
  8
AM_9
100
AcDbPolyline
 90
        3
 70
     0
 43
0.0
 10
1.933564023096501
 20
-0.9793333333333332
 10
1.932345664788494
 20
-1.024793985905367
 10
1.928948131846296
 20
-1.070254638477402
  0
LWPOLYLINE
  5
17F
330
12D
100
AcDbEntity
  8
AM_9
100
AcDbPolyline
 90
        3
 70
     0
 43
0.0
 10
1.743307960539707
 20
-1.16117594362147
 10
1.767634870679141
 20
-1.138547819003091
 10
1.794369770377217
 20
-1.115715291049436
  0
LWPOLYLINE
  5
180
330
12D
100
AcDbEntity
  8
AM_9
100
AcDbPolyline
 90
        3
 70
     0
 43
0.0
 10
1.794369770377217
 20
-0.8429513756172307
 10
1.767749278141366
 20
-0.8202210493312136
 10
1.743307960539707
 20
-0.7974907230451964
  0
LINE
  5
181
330
12D
100
AcDbEntity
  8
AM_9
100
AcDbLine
 10
1.738692069289503
 20
-0.8690971133333331
 30
0.0
 11
1.724772644017574
 21
-0.8690971133333331
 31
0.0
  0
LINE
  5
182
330
12D
100
AcDbEntity
  8
AM_9
100
AcDbLine
 10
1.724772644017574
 20
-1.089569553333333
 30
0.0
 11
1.738692069289503
 21
-1.089569553333333
 31
0.0
  0
ELLIPSE
  5
183
330
12D
100
AcDbEntity
  8
AM_9
100
AcDbEllipse
 10
1.822208620921073
 20
-0.9793333333333335
 30
0.0
 11
6.750021698655199E-18
 21
0.1102362200000004
 31
0.0
210
0.0
220
0.0
230
1.0
 40
0.7071067811865477
 41
3.141592653589793
 42
6.283185307179586
  0
ELLIPSE
  5
184
330
12D
100
AcDbEntity
  8
AM_9
100
AcDbEllipse
 10
1.836128046193
 20
-0.9793333333333343
 30
0.0
 11
6.750021698655287E-18
 21
0.1102362200000019
 31
0.0
210
0.0
220
0.0
230
1.0
 40
0.7071067811865526
 41
3.753768772916153
 42
5.672320823085646
  0
LINE
  5
185
330
12D
100
AcDbEntity
  8
AM_9
100
AcDbLine
 10
1.930210320914239
 20
-1.085123118986444
 30
0.0
 11
1.930210320914239
 21
-0.8734669459943062
 31
0.0
  0
ELLIPSE
  5
186
330
12D
100
AcDbEntity
  8
AM_9
100
AcDbEllipse
 10
1.822208620921076
 20
-0.9793333333333342
 30
0.0
 11
9.642888490834863E-18
 21
0.157480319999997
 31
0.0
210
0.0
220
0.0
230
1.0
 40
0.7071067811865412
 41
3.991229565153219
 42
5.432770553516153
  0
LWPOLYLINE
  5
187
330
12D
100
AcDbEntity
  8
AM_9
100
AcDbPolyline
 90
        3
 70
     0
 43
0.0
 10
1.84317545594771
 20
-0.9855759879987948
 10
1.843071820594562
 20
-0.9824685812951928
 10
1.84305666454172
 20
-0.9769746098525266
  0
LWPOLYLINE
  5
188
330
12D
100
AcDbEntity
  8
AM_9
100
AcDbPolyline
 90
        4
 70
     0
 43
0.0
 10
1.847132558568476
 20
-1.012665204093065
 10
1.845139577259445
 20
-1.003437936321829
 10
1.843714562991348
 20
-0.9931061777016248
 10
1.84317545594771
 20
-0.9855759879987948
  0
LWPOLYLINE
  5
189
330
12D
100
AcDbEntity
  8
AM_9
100
AcDbPolyline
 90
        5
 70
     0
 43
0.0
 10
1.853481380312287
 20
-1.03091764816332
 10
1.853338694229524
 20
-1.030602041127026
 10
1.850056906574473
 20
-1.022362084726064
 10
1.847284423205885
 20
-1.013253265862407
 10
1.847132558568476
 20
-1.012665204093065
  0
LWPOLYLINE
  5
18A
330
12D
100
AcDbEntity
  8
AM_9
100
AcDbPolyline
 90
       24
 70
     0
 43
0.0
 10
1.912735738417723
 20
-0.9793333333333332
 10
1.912639880187214
 20
-0.9845268651098318
 10
1.911840789639681
 20
-0.9951455778283829
 10
1.910261030791674
 20
-1.005439013231297
 10
1.907967960299633
 20
-1.015182221681328
 10
1.905062207867482
 20
-1.024175357471297
 10
1.901675830320682
 20
-1.032245262024873
 10
1.897968617957521
 20
-1.039254486830917
 10
1.89412227028384
 20
-1.045110325938658
 10
1.890336135895127
 20
-1.049768493830159
 10
1.886816127648208
 20
-1.053244076709363
 10
1.88374837805204
 20
-1.055626539206088
 10
1.881282450430018
 20
-1.057071212588152
 10
1.879500252517174
 20
-1.057792546037715
 10
1.878348582282522
 20
-1.058046281194572
 10
1.877383301359339
 20
-1.058041423036787
 10
1.876012060698935
 20
-1.057708238506008
 10
1.87407333022754
 20
-1.056859807701856
 10
1.871509138999169
 20
-1.055269640183181
 10
1.868443632816816
 20
-1.052786786111001
 10
1.864716578509761
 20
-1.048958830586994
 10
1.860838347529763
 20
-1.043975813218289
 10
1.856988228212259
 20
-1.037841492953698
 10
1.853481380312287
 20
-1.03091764816332
  0
LWPOLYLINE
  5
18B
330
12D
100
AcDbEntity
  8
AM_9
100
AcDbPolyline
 90
       23
 70
     0
 43
0.0
 10
1.856060697802724
 20
-0.9225150822103867
 10
1.858660523958941
 20
-0.9179975629731366
 10
1.862511552599817
 20
-0.9124076248420265
 10
1.866255327022822
 20
-0.9080187254734849
 10
1.869689253741293
 20
-0.9047982417056301
 10
1.872633363544861
 20
-0.9026416520738666
 10
1.874949935672295
 20
-0.9013795737645528
 10
1.876579031556075
 20
-0.9007860264653572
 10
1.8776244291046
 20
-0.9006020754466494
 10
1.878741657285612
 20
-0.9006815494094186
 10
1.880115599777275
 20
-0.9010861399278846
 10
1.882198608365305
 20
-0.9020785274672696
 10
1.88488122498399
 20
-0.903848417195719
 10
1.888401342490076
 20
-0.906889845396409
 10
1.892195107130287
 20
-0.9110601892504675
 10
1.896083240809001
 20
-0.9163855658239601
 10
1.899891743715493
 20
-0.9228535162753286
 10
1.90344947711516
 20
-0.930402356149205
 10
1.906594353149159
 20
-0.9389142238385271
 10
1.909192477004999
 20
-0.9482502395681817
 10
1.911132793943292
 20
-0.9582391308494062
 10
1.912331586240023
 20
-0.9686839833360388
 10
1.912735738417723
 20
-0.9793333333333332
  0
LINE
  5
18C
330
12D
100
AcDbEntity
  8
AM_9
100
AcDbLine
 10
1.849171740788947
 20
-0.93893450054381
 30
0.0
 11
1.850843548472553
 21
-0.9341339711907733
 31
0.0
  0
LWPOLYLINE
  5
18D
330
12D
100
AcDbEntity
  8
AM_9
100
AcDbPolyline
 90
        3
 70
     0
 43
0.0
 10
1.84305666454172
 20
-0.9769746098525266
 10
1.843241541457823
 20
-0.9717488075196412
 10
1.844194615119314
 20
-0.9613702987507775
  0
ELLIPSE
  5
18E
330
12D
100
AcDbEntity
  8
AM_9
100
AcDbEllipse
 10
1.913961650779766
 20
-0.9793333333333331
 30
0.0
 11
6.142437648020296E-18
 21
0.1003136194418979
 31
0.0
210
0.0
220
0.0
230
1.0
 40
0.7071067811865481
 41
1.97219662166523
 42
7.386280588721228
  0
ELLIPSE
  5
18F
330
12D
100
AcDbEntity
  8
AM_9
100
AcDbEllipse
 10
1.929117443158965
 20
-0.9793333333333335
 30
0.0
 11
6.421899028842786E-18
 21
0.1048775701420844
 31
0.0
210
0.0
220
0.0
230
1.0
 40
0.707106781186554
 41
3.553109444229953
 42
5.871668516539429
  0
LWPOLYLINE
  5
190
330
12D
100
AcDbEntity
  8
AM_9
100
AcDbPolyline
 90
        6
 70
     0
 43
0.0
 10
1.745097870723858
 20
-1.425093467170258
 10
1.741695217121421
 20
-1.441086110336983
 10
1.734744686917528
 20
-1.454593881315345
 10
1.724992303121074
 20
-1.464166752141443
 10
1.713458151824685
 20
-1.468720094603718
 10
1.709687773674666
 20
-1.469
  0
LINE
  5
191
330
12D
100
AcDbEntity
  8
AM_9
100
AcDbLine
 10
1.745097870723858
 20
-1.425093467170258
 30
0.0
 11
1.805567823450782
 21
-0.7344999999999966
 31
0.0
  0
LINE
  5
192
330
12D
100
AcDbEntity
  8
AM_9
100
AcDbLine
 10
1.265061302210585
 20
-0.7344999999999726
 30
0.0
 11
1.953272779826525
 21
-0.7344999999999725
 31
0.0
  0
LINE
  5
193
330
12D
100
AcDbEntity
  8
AM_9
100
AcDbLine
 10
1.203864775177757
 20
-1.425093467170258
 30
0.0
 11
1.953272779826525
 21
-1.425093467170258
 31
0.0
  0
LINE
  5
194
330
12D
100
AcDbEntity
  8
AM_9
100
AcDbLine
 10
0.2405260173127677
 20
-0.1562499999999999
 30
0.0
 11
0.2405260173127677
 21
0.0000000000000001
 31
0.0
  0
LINE
  5
195
330
12D
100
AcDbEntity
  8
AM_9
100
AcDbLine
 10
-0.2405260173127674
 20
-0.1562499999999999
 30
0.0
 11
-0.2405260173127674
 21
0.0000000000000001
 31
0.0
  0
LINE
  5
196
330
12D
100
AcDbEntity
  8
AM_9
100
AcDbLine
 10
-0.8826322014733522
 20
-0.1562499999999998
 30
0.0
 11
0.8826322014733528
 21
-0.1562499999999998
 31
0.0
  0
LINE
  5
197
330
12D
100
AcDbEntity
  8
AM_9
100
AcDbLine
 10
0.25
 20
-0.6249999999999999
 30
0.0
 11
0.25
 21
0.0000000000000002
 31
0.0
  0
LINE
  5
198
330
12D
100
AcDbEntity
  8
AM_9
100
AcDbLine
 10
-0.25
 20
0.0000000000000002
 30
0.0
 11
-0.25
 21
-0.6249999999999999
 31
0.0
  0
ELLIPSE
  5
199
330
12D
100
AcDbEntity
  8
AM_9
100
AcDbEllipse
 10
1.738692069289504
 20
-0.979333333333335
 30
0.0
 11
9.642888490835236E-18
 21
0.1574803200000031
 31
0.0
210
0.0
220
0.0
230
1.0
 40
0.7071067811865464
 41
0.0
 42
6.283185307179586
  0
ELLIPSE
  5
19A
330
12D
100
AcDbEntity
  8
AM_9
100
AcDbEllipse
 10
1.738692069289503
 20
-0.9793333333333331
 30
0.0
 11
6.750021698655178E-18
 21
0.1102362200000001
 31
0.0
210
0.0
220
0.0
230
1.0
 40
0.7071067811865478
 41
0.0
 42
6.283185307179586
  0
ELLIPSE
  5
19B
330
12D
100
AcDbEntity
  8
AM_9
100
AcDbEllipse
 10
1.724772644017574
 20
-0.9793333333333332
 30
0.0
 11
-2.025006509596555E-17
 21
-0.1102362200000002
 31
0.0
210
0.0
220
0.0
230
1.0
 40
0.7071067811865471
 41
0.0
 42
6.283185307179586
  0
LINE
  5
19C
330
12D
100
AcDbEntity
  8
AM_7
100
AcDbLine
 10
0.0
 20
0.0734499999999998
 30
0.0
 11
0.0000000000000001
 21
-2.14034375
 31
0.0
  0
LINE
  5
19D
330
12D
100
AcDbEntity
  8
AM_4
100
AcDbLine
 10
2.281499999999999
 20
-0.7344999999999726
 30
0.0
 11
2.281499999999999
 21
-0.15625
 31
0.0
  0
LINE
  5
19E
330
12D
100
AcDbEntity
  8
AM_4
100
AcDbLine
 10
1.953272779826525
 20
-0.8803408933547692
 30
0.0
 11
1.953272779826525
 21
-0.1562499999999999
 31
0.0
  0
LINE
  5
19F
330
12D
100
AcDbEntity
  8
AM_4
100
AcDbLine
 10
1.953272779826525
 20
-1.469
 30
0.0
 11
1.953272779826525
 21
-1.078491924744628
 31
0.0
  0
LWPOLYLINE
  5
1A0
330
12D
100
AcDbEntity
  8
AM_4
100
AcDbPolyline
 90
        3
 70
     0
 43
0.0
 10
1.877886322008786
 20
-0.8429513756172297
 10
1.904506814244637
 20
-0.8656817019032471
 10
1.913794541748252
 20
-0.8741082150082159
  0
LWPOLYLINE
  5
1A1
330
12D
100
AcDbEntity
  8
AM_4
100
AcDbPolyline
 90
        3
 70
     0
 43
0.0
 10
1.913763776124434
 20
-1.0845867972622
 10
1.904621221706862
 20
-1.092882763095781
 10
1.877886322008786
 20
-1.115715291049437
  0
LWPOLYLINE
  5
1A2
330
12D
100
AcDbEntity
  8
AM_4
100
AcDbPolyline
 90
        3
 70
     0
 43
0.0
 10
1.877886322008786
 20
-1.115715291049437
 10
1.848829113156923
 20
-1.138445617335453
 10
1.817592729670869
 20
-1.16117594362147
  0
LWPOLYLINE
  5
1A3
330
12D
100
AcDbEntity
  8
AM_4
100
AcDbPolyline
 90
        3
 70
     0
 43
0.0
 10
1.817592729670869
 20
-0.7974907230451964
 10
1.848693178682574
 20
-0.820118847663575
 10
1.877886322008786
 20
-0.8429513756172297
  0
LINE
  5
1A4
330
12D
100
AcDbEntity
  8
AM_4
100
AcDbLine
 10
1.836128046193002
 20
-0.8690971133333331
 30
0.0
 11
1.822208620921073
 21
-0.8690971133333331
 31
0.0
  0
LINE
  5
1A5
330
12D
100
AcDbEntity
  8
AM_4
100
AcDbLine
 10
1.822208620921073
 20
-1.089569553333333
 30
0.0
 11
1.836128046193002
 21
-1.089569553333333
 31
0.0
  0
ELLIPSE
  5
1A6
330
12D
100
AcDbEntity
  8
AM_4
100
AcDbEllipse
 10
1.822208620921073
 20
-0.9793333333333332
 30
0.0
 11
6.750021698655185E-18
 21
0.1102362200000002
 31
0.0
210
0.0
220
0.0
230
1.0
 40
0.7071067811865471
 41
0.0
 42
3.141592653589793
  0
ELLIPSE
  5
1A7
330
12D
100
AcDbEntity
  8
AM_4
100
AcDbEllipse
 10
1.836128046193002
 20
-0.9793333333333332
 30
0.0
 11
6.750021698655185E-18
 21
0.1102362200000002
 31
0.0
210
0.0
220
0.0
230
1.0
 40
0.7071067811865471
 41
5.672320823085655
 42
10.03695408009572
  0
LWPOLYLINE
  5
1A8
330
12D
100
AcDbEntity
  8
AM_4
100
AcDbPolyline
 90
        3
 70
     0
 43
0.0
 10
1.817592729670869
 20
-1.16117594362147
 10
1.793265819531435
 20
-1.138547819003091
 10
1.766530919833359
 20
-1.115715291049435
  0
LWPOLYLINE
  5
1A9
330
12D
100
AcDbEntity
  8
AM_4
100
AcDbPolyline
 90
        3
 70
     0
 43
0.0
 10
1.63195255836428
 20
-1.070254638477402
 10
1.656279468503713
 20
-1.092882763095781
 10
1.683014368201789
 20
-1.115715291049436
  0
LWPOLYLINE
  5
1AA
330
12D
100
AcDbEntity
  8
AM_4
100
AcDbPolyline
 90
        3
 70
     0
 43
0.0
 10
1.683014368201789
 20
-1.115715291049436
 10
1.712071577053653
 20
-1.138445617335453
 10
1.743307960539707
 20
-1.16117594362147
  0
LINE
  5
1AB
330
12D
100
AcDbEntity
  8
AM_4
100
AcDbLine
 10
1.743307960539707
 20
-1.16117594362147
 30
0.0
 11
1.817592729670869
 21
-1.16117594362147
 31
0.0
  0
LWPOLYLINE
  5
1AC
330
12D
100
AcDbEntity
  8
AM_4
100
AcDbPolyline
 90
        3
 70
     0
 43
0.0
 10
1.766530919833359
 20
-0.8429513756172312
 10
1.793151412069209
 20
-0.8202210493312139
 10
1.817592729670869
 20
-0.7974907230451964
  0
LINE
  5
1AD
330
12D
100
AcDbEntity
  8
AM_4
100
AcDbLine
 10
1.743307960539707
 20
-0.7974907230451964
 30
0.0
 11
1.817592729670869
 21
-0.7974907230451964
 31
0.0
  0
LWPOLYLINE
  5
1AE
330
12D
100
AcDbEntity
  8
AM_4
100
AcDbPolyline
 90
        3
 70
     0
 43
0.0
 10
1.743307960539707
 20
-0.7974907230451964
 10
1.712207511528002
 20
-0.8201188476635752
 10
1.683014368201789
 20
-0.8429513756172304
  0
LWPOLYLINE
  5
1AF
330
12D
100
AcDbEntity
  8
AM_4
100
AcDbPolyline
 90
        3
 70
     0
 43
0.0
 10
1.683014368201789
 20
-0.8429513756172304
 10
1.656393875965939
 20
-0.8656817019032474
 10
1.63195255836428
 20
-0.8884120281892647
  0
LINE
  5
1B0
330
12D
100
AcDbEntity
  8
AM_4
100
AcDbLine
 10
1.930210320914239
 20
-0.8734669459943062
 30
0.0
 11
1.930210320914239
 21
-0.1562499999999999
 31
0.0
  0
LINE
  5
1B1
330
12D
100
AcDbEntity
  8
AM_4
100
AcDbLine
 10
1.930210320914239
 20
-1.469
 30
0.0
 11
1.930210320914239
 21
-1.085123118986444
 31
0.0
  0
LINE
  5
1B2
330
12D
100
AcDbEntity
  8
AM_4
100
AcDbLine
 10
1.63195255836428
 20
-0.8884120281892647
 30
0.0
 11
1.706237327495441
 21
-0.8884120281892647
 31
0.0
  0
LWPOLYLINE
  5
1B3
330
12D
100
AcDbEntity
  8
AM_4
100
AcDbPolyline
 90
        3
 70
     0
 43
0.0
 10
1.63195255836428
 20
-0.8884120281892647
 10
1.628565788928144
 20
-0.9336682774260227
 10
1.627336667114075
 20
-0.9793333333333332
  0
LWPOLYLINE
  5
1B4
330
12D
100
AcDbEntity
  8
AM_4
100
AcDbPolyline
 90
        3
 70
     0
 43
0.0
 10
1.627336667114075
 20
-0.9793333333333332
 10
1.628555025422082
 20
-1.024793985905367
 10
1.63195255836428
 20
-1.070254638477402
  0
LINE
  5
1B5
330
12D
100
AcDbEntity
  8
AM_4
100
AcDbLine
 10
1.63195255836428
 20
-1.070254638477402
 30
0.0
 11
1.706237327495441
 21
-1.070254638477402
 31
0.0
  0
LWPOLYLINE
  5
1B6
330
12D
100
AcDbEntity
  8
AM_4
100
AcDbPolyline
 90
        3
 70
     0
 43
0.0
 10
1.706237327495441
 20
-1.070254638477402
 10
1.709624096931577
 20
-1.024998389240644
 10
1.710853218745646
 20
-0.9793333333333332
  0
LWPOLYLINE
  5
1B7
330
12D
100
AcDbEntity
  8
AM_4
100
AcDbPolyline
 90
        3
 70
     0
 43
0.0
 10
1.766530919833359
 20
-1.115715291049435
 10
1.737473710981496
 20
-1.092984964763418
 10
1.706237327495441
 20
-1.070254638477402
  0
ELLIPSE
  5
1B8
330
12D
100
AcDbEntity
  8
AM_4
100
AcDbEllipse
 10
1.822208620921076
 20
-0.9793333333333313
 30
0.0
 11
9.642888490835210E-18
 21
0.1574803200000027
 31
0.0
210
0.0
220
0.0
230
1.0
 40
0.7071067811865511
 41
5.432770553516143
 42
10.27441487233279
  0
LWPOLYLINE
  5
1B9
330
12D
100
AcDbEntity
  8
AM_4
100
AcDbPolyline
 90
        3
 70
     0
 43
0.0
 10
1.710853218745646
 20
-0.9793333333333332
 10
1.709634860437639
 20
-0.9338726807612988
 10
1.706237327495441
 20
-0.8884120281892647
  0
LWPOLYLINE
  5
1BA
330
12D
100
AcDbEntity
  8
AM_4
100
AcDbPolyline
 90
        3
 70
     0
 43
0.0
 10
1.706237327495441
 20
-0.8884120281892647
 10
1.737337776507146
 20
-0.865783903570886
 10
1.766530919833359
 20
-0.8429513756172312
  0
LINE
  5
1BB
330
12D
100
AcDbEntity
  8
AM_4
100
AcDbLine
 10
1.519334970684282
 20
-1.469
 30
0.0
 11
1.519334970684282
 21
-0.1562499999999999
 31
0.0
  0
LINE
  5
1BC
330
12D
100
AcDbEntity
  8
AM_4
100
AcDbLine
 10
1.407979568508855
 20
-1.469
 30
0.0
 11
1.407979568508855
 21
-0.1562499999999999
 31
0.0
  0
ELLIPSE
  5
1BD
330
12D
100
AcDbEntity
  8
AM_4
100
AcDbEllipse
 10
1.913961650779765
 20
-0.9793333333333322
 30
0.0
 11
6.142437648020222E-18
 21
0.1003136194418967
 31
0.0
210
0.0
220
0.0
230
1.0
 40
0.7071067811865478
 41
1.103095281541643
 42
1.972196621665246
  0
LWPOLYLINE
  5
1BE
330
12D
100
AcDbEntity
  8
AM_4
100
AcDbPolyline
 90
       15
 70
     0
 43
0.0
 10
1.950097442476515
 20
-0.8786377110190718
 10
1.947862305384337
 20
-0.8776998477611988
 10
1.93827723225319
 20
-0.874691858040568
 10
1.92856610805719
 20
-0.8732172821452076
 10
1.918878856711443
 20
-0.8732520192249656
 10
1.909341826982682
 20
-0.8747565511934909
 10
1.900081729048457
 20
-0.8776806301862706
 10
1.89118881519322
 20
-0.8819778278924179
 10
1.882751463087299
 20
-0.8876053715693576
 10
1.874865616072866
 20
-0.8945138854412008
 10
1.86763728200627
 20
-0.9026334050065958
 10
1.861176678815944
 20
-0.9118630338558276
 10
1.855587257749292
 20
-0.9220701074743106
 10
1.850955917844756
 20
-0.9330983482558665
 10
1.850783209212319
 20
-0.9335776159366725
  0
LWPOLYLINE
  5
1BF
330
12D
100
AcDbEntity
  8
AM_4
100
AcDbPolyline
 90
        3
 70
     0
 43
0.0
 10
1.960698212495578
 20
-0.8844355495727186
 10
1.957149594341067
 20
-0.8822333048244326
 10
1.950843148023421
 20
-0.8789715282847376
  0
LWPOLYLINE
  5
1C0
330
12D
100
AcDbEntity
  8
AM_4
100
AcDbPolyline
 90
        3
 70
     0
 43
0.0
 10
1.952218002133447
 20
-1.079051669936675
 10
1.953776763268382
 20
-1.078277364654485
 10
1.959211539483415
 20
-1.075187622617493
  0
LWPOLYLINE
  5
1C1
330
12D
100
AcDbEntity
  8
AM_4
100
AcDbPolyline
 90
       15
 70
     0
 43
0.0
 10
1.848740279782865
 20
-1.018877433386772
 10
1.848774937091509
 20
-1.018992542787318
 10
1.852867992536284
 20
-1.030504101207695
 10
1.858008319754691
 20
-1.041337449700881
 10
1.864149627773596
 20
-1.051328079162979
 10
1.871222365654482
 20
-1.060306216239039
 10
1.879129124891109
 20
-1.068108015971049
 10
1.887737841468378
 20
-1.074584481890963
 10
1.89688501023998
 20
-1.079618631671328
 10
1.906390418001882
 20
-1.083139806452539
 10
1.916077285802125
 20
-1.085125822615578
 10
1.925787669169488
 20
-1.085591969183191
 10
1.935387961545637
 20
-1.08457423158386
 10
1.944751263158347
 20
-1.082119776837825
 10
1.952218002133447
 20
-1.079051669936675
  0
LINE
  5
1C2
330
12D
100
AcDbEntity
  8
AM_4
100
AcDbLine
 10
1.997593376518945
 20
-0.9071667829010034
 30
0.0
 11
1.958781295808391
 21
-0.8832114502322714
 31
0.0
  0
LINE
  5
1C3
330
12D
100
AcDbEntity
  8
AM_4
100
AcDbLine
 10
1.958781295808391
 20
-1.075455216434395
 30
0.0
 11
1.997593376518945
 21
-1.051499883765663
 31
0.0
  0
ELLIPSE
  5
1C4
330
12D
100
AcDbEntity
  8
AM_4
100
AcDbEllipse
 10
1.929117443158966
 20
-0.9793333333333332
 30
0.0
 11
6.421899028842752E-18
 21
0.1048775701420839
 31
0.0
210
0.0
220
0.0
230
1.0
 40
0.7071067811865492
 41
5.871668516539436
 42
9.836294751409529
  0
LINE
  5
1C5
330
12D
100
AcDbEntity
  8
AM_4
100
AcDbLine
 10
1.265061302210585
 20
-0.7344999999999966
 30
0.0
 11
1.265061302210585
 21
-0.535714287566085
 31
0.0
  0
LINE
  5
1C6
330
12D
100
AcDbEntity
  8
AM_4
100
AcDbLine
 10
-2.281499999999999
 20
-0.15625
 30
0.0
 11
-2.281499999999999
 21
-0.7344999999999703
 31
0.0
  0
LINE
  5
1C7
330
12D
100
AcDbEntity
  8
AM_4
100
AcDbLine
 10
-2.281499999999999
 20
-0.15625
 30
0.0
 11
-0.8826322014733522
 21
-0.1562499999999998
 31
0.0
  0
LINE
  5
1C8
330
12D
100
AcDbEntity
  8
AM_4
100
AcDbLine
 10
2.147078476789019
 20
-1.469
 30
0.0
 11
-2.147078476789019
 21
-1.469
 31
0.0
  0
LWPOLYLINE
  5
1C9
330
12D
100
AcDbEntity
  8
AM_4
100
AcDbPolyline
 90
        6
 70
     0
 43
0.0
 10
1.168001570243699
 20
-1.469
 10
1.176168672172549
 20
-1.467707030550962
 10
1.187624779255504
 20
-1.460987764944319
 10
1.196727545143386
 20
-1.449334589188491
 10
1.202397393734879
 20
-1.434318036893939
 10
1.203864775177757
 20
-1.425093467170258
  0
ARC
  5
1CA
330
12D
100
AcDbEntity
  8
AM_4
100
AcDbCircle
 10
-2.147078476789019
 20
-1.419
 30
0.0
 40
0.0499999999999995
100
AcDbArc
 50
186.9999999999997
 51
270.0
  0
ARC
  5
1CB
330
12D
100
AcDbEntity
  8
AM_4
100
AcDbCircle
 10
2.147078476789019
 20
-1.419
 30
0.0
 40
0.0499999999999998
100
AcDbArc
 50
270.0
 51
353.0000000000003
  0
LINE
  5
1CC
330
12D
100
AcDbEntity
  8
AM_4
100
AcDbLine
 10
1.203864775177757
 20
-1.425093467170258
 30
0.0
 11
-2.196705784371084
 21
-1.425093467170258
 31
0.0
  0
LINE
  5
1CD
330
12D
100
AcDbEntity
  8
AM_4
100
AcDbLine
 10
1.265061302210585
 20
-0.7344999999999966
 30
0.0
 11
1.203864775177757
 21
-1.425093467170258
 31
0.0
  0
LINE
  5
1CE
330
12D
100
AcDbEntity
  8
AM_4
100
AcDbLine
 10
0.7636752294384893
 20
-0.7344999999999813
 30
0.0
 11
1.265061302210585
 21
-0.7344999999999966
 31
0.0
  0
LINE
  5
1CF
330
12D
100
AcDbEntity
  8
AM_4
100
AcDbLine
 10
1.953272779826525
 20
-0.7344999999999725
 30
0.0
 11
2.281500000000001
 21
-0.7344999999999726
 31
0.0
  0
LINE
  5
1D0
330
12D
100
AcDbEntity
  8
AM_4
100
AcDbLine
 10
2.196705784371084
 20
-1.425093467170258
 30
0.0
 11
2.281500000000001
 21
-0.7344999999999726
 31
0.0
  0
LINE
  5
1D1
330
12D
100
AcDbEntity
  8
AM_4
100
AcDbLine
 10
-2.281500000000002
 20
-0.7344999999999703
 30
0.0
 11
-2.196705784371084
 21
-1.425093467170258
 31
0.0
  0
LINE
  5
1D2
330
12D
100
AcDbEntity
  8
AM_4
100
AcDbLine
 10
2.196705784371084
 20
-1.425093467170258
 30
0.0
 11
1.953272779826525
 21
-1.425093467170258
 31
0.0
  0
LINE
  5
1D3
330
12D
100
AcDbEntity
  8
AM_4
100
AcDbLine
 10
-2.281500000000002
 20
-0.7344999999999703
 30
0.0
 11
-0.7636752294384868
 21
-0.7344999999999768
 31
0.0
  0
LINE
  5
1D4
330
12D
100
AcDbEntity
  8
AM_4
100
AcDbLine
 10
0.7620683916167796
 20
-0.6689065328297426
 30
0.0
 11
-0.7620683916167785
 21
-0.6689065328297426
 31
0.0
  0
LINE
  5
1D5
330
12D
100
AcDbEntity
  8
AM_4
100
AcDbLine
 10
0.932835351590982
 20
-0.1562499999999998
 30
0.0
 11
0.932835351590982
 21
0.0000000000000002
 31
0.0
  0
LINE
  5
1D6
330
12D
100
AcDbEntity
  8
AM_4
100
AcDbLine
 10
0.932835351590982
 20
0.0000000000000002
 30
0.0
 11
-0.9328353515909822
 21
0.0000000000000002
 31
0.0
  0
LINE
  5
1D7
330
12D
100
AcDbEntity
  8
AM_4
100
AcDbLine
 10
-0.9328353515909822
 20
0.0000000000000002
 30
0.0
 11
-0.9328353515909822
 21
-0.1562499999999998
 31
0.0
  0
LINE
  5
1D8
330
12D
100
AcDbEntity
  8
AM_4
100
AcDbLine
 10
0.7620683916167796
 20
-0.6689065328297426
 30
0.0
 11
0.7636752294384893
 21
-0.7344999999999813
 31
0.0
  0
LINE
  5
1D9
330
12D
100
AcDbEntity
  8
AM_4
100
AcDbLine
 10
0.7636752294384893
 20
-0.535714287566085
 30
0.0
 11
0.7636752294384893
 21
-0.7344999999999813
 31
0.0
  0
LWPOLYLINE
  5
1DA
330
12D
100
AcDbEntity
  8
AM_4
100
AcDbPolyline
 90
        9
 70
     0
 43
0.0
 10
0.7522059677762435
 20
-0.625
 10
0.7539535110168709
 20
-0.6257836108585926
 10
0.7557689894870347
 20
-0.6283396240906978
 10
0.757532156771671
 20
-0.6328158824100976
 10
0.7590179193482647
 20
-0.6386320059604825
 10
0.7603301636083888
 20
-0.646245789957174
 10
0.7612065606305924
 20
-0.653844402129761
 10
0.7618317428826767
 20
-0.6626093743328078
 10
0.7620683916167796
 20
-0.6689065328297426
  0
LINE
  5
1DB
330
12D
100
AcDbEntity
  8
AM_4
100
AcDbLine
 10
-0.7522059677762428
 20
-0.625
 30
0.0
 11
0.7522059677762435
 21
-0.625
 31
0.0
  0
LINE
  5
1DC
330
12D
100
AcDbEntity
  8
AM_4
100
AcDbLine
 10
-0.7636752294384868
 20
-0.7344999999999768
 30
0.0
 11
-0.7620683916167785
 21
-0.6689065328297426
 31
0.0
  0
LWPOLYLINE
  5
1DD
330
12D
100
AcDbEntity
  8
AM_4
100
AcDbPolyline
 90
        6
 70
     0
 43
0.0
 10
-0.7620683916167785
 20
-0.6689065328297426
 10
-0.761221082093492
 20
-0.6540011553067658
 10
-0.7595808827624271
 20
-0.6415260134025981
 10
-0.7572058481902177
 20
-0.6318150456892716
 10
-0.7540806840336839
 20
-0.625902820884439
 10
-0.7522059677762428
 20
-0.625
  0
LINE
  5
1DE
330
12D
100
AcDbEntity
  8
AM_4
100
AcDbLine
 10
-0.7636752294384868
 20
-0.535714287566085
 30
0.0
 11
-0.7636752294384868
 21
-0.7344999999999768
 31
0.0
  0
LINE
  5
1DF
330
12D
100
AcDbEntity
  8
AM_4
100
AcDbLine
 10
0.8826322014733524
 20
0.0000000000000002
 30
0.0
 11
0.8826322014733528
 21
-0.1562499999999998
 31
0.0
  0
LINE
  5
1E0
330
12D
100
AcDbEntity
  8
AM_4
100
AcDbLine
 10
0.5421796582202761
 20
-0.6249999999999998
 30
0.0
 11
0.5421796582202766
 21
-0.5357142875660849
 31
0.0
  0
LINE
  5
1E1
330
12D
100
AcDbEntity
  8
AM_4
100
AcDbLine
 10
0.5421796582202766
 20
-0.5357142875660849
 30
0.0
 11
1.407456634863796
 21
-0.535714287566085
 31
0.0
  0
LINE
  5
1E2
330
12D
100
AcDbEntity
  8
AM_4
100
AcDbLine
 10
1.407456634863796
 20
-0.535714287566085
 30
0.0
 11
1.407456634863796
 21
-0.1562499999999999
 31
0.0
  0
LINE
  5
1E3
330
12D
100
AcDbEntity
  8
AM_4
100
AcDbLine
 10
0.8826322014733528
 20
-0.1562499999999998
 30
0.0
 11
2.281499999999999
 21
-0.15625
 31
0.0
  0
LINE
  5
1E4
330
12D
100
AcDbEntity
  8
AM_4
100
AcDbLine
 10
-0.8826322014733522
 20
-0.1562499999999998
 30
0.0
 11
-0.8826322014733523
 21
0.0000000000000002
 31
0.0
  0
LINE
  5
1E5
330
12D
100
AcDbEntity
  8
AM_4
100
AcDbLine
 10
-1.926964667775403
 20
-0.1562499999999999
 30
0.0
 11
-1.926964667775402
 21
-0.5357142875660851
 31
0.0
  0
LINE
  5
1E6
330
12D
100
AcDbEntity
  8
AM_4
100
AcDbLine
 10
-1.926964667775402
 20
-0.5357142875660851
 30
0.0
 11
-0.5421796582202743
 21
-0.5357142875660849
 31
0.0
  0
LINE
  5
1E7
330
12D
100
AcDbEntity
  8
AM_4
100
AcDbLine
 10
-0.5421796582202743
 20
-0.5357142875660849
 30
0.0
 11
-0.5421796582202743
 21
-0.6249999999999998
 31
0.0
  0
LINE
  5
1E8
330
12D
100
AcDbEntity
  8
AM_4
100
AcDbLine
 10
0.5278776758096106
 20
0.0000000000000002
 30
0.0
 11
0.5278776758096106
 21
-0.6249999999999998
 31
0.0
  0
LINE
  5
1E9
330
12D
100
AcDbEntity
  8
AM_4
100
AcDbLine
 10
-0.5278776758096105
 20
0.0000000000000002
 30
0.0
 11
-0.5278776758096105
 21
-0.6249999999999998
 31
0.0
  0
ELLIPSE
  5
1EA
330
12D
100
AcDbEntity
  8
AM_4
100
AcDbEllipse
 10
1.975322298912286
 20
-0.9793333333333332
 30
0.0
 11
4.821444245417540E-18
 21
0.07874016000000028
 31
0.0
210
0.0
220
0.0
230
1.0
 40
0.7071067811865493
 41
0.0
 42
6.283185307179586
  0
ENDBLK
  5
130
330
12D
100
AcDbEntity
  8
0
100
AcDbBlockEnd
  0
ENDSEC
  0
SECTION
  2
ENTITIES
  0
INSERT
  5
6F
330
1F
100
AcDbEntity
  8
0
100
AcDbBlockReference
  2
1_129335_4
 10
0.0
 20
0.0
 30
0.0
  0
POINT
  5
1EC
330
1F
100
AcDbEntity
  8
ConnectionPoints
100
AcDbPoint
 10
0.0000000000000001
 20
-0.8442500000000002
 30
0.0000000000000001
  0
POINT
  5
1ED
330
1F
100
AcDbEntity
  8
ConnectionPoints
100
AcDbPoint
 10
0.0000000000000001
 20
-0.1880000000000002
 30
0.0
  0
POINT
  5
1EE
330
1F
100
AcDbEntity
  8
ConnectionPoints
100
AcDbPoint
 10
0.0
 20
-0.1880000000000002
 30
0.0
  0
ENDSEC
  0
SECTION
  2
OBJECTS
  0
DICTIONARY
  5
C
330
0
100
AcDbDictionary
281
     1
  3
ACAD_DETAILVIEWSTYLE
350
1F6
  3
ACAD_GROUP
350
D
  3
ACAD_LAYOUT
350
1A
  3
ACAD_MATERIAL
350
43
  3
ACAD_MLEADERSTYLE
350
6B
  3
ACAD_MLINESTYLE
350
17
  3
ACAD_PLOTSETTINGS
350
19
  3
ACAD_PLOTSTYLENAME
350
E
  3
ACAD_SCALELIST
350
47
  3
ACAD_SECTIONVIEWSTYLE
350
1F7
  3
ACAD_TABLESTYLE
350
69
  3
ACAD_VISUALSTYLE
350
2A
  3
ACDB_RECOMPOSE_DATA
350
1F3
  3
AcDbVariableDictionary
350
1EF
  0
SUN
  5
6D
330
29
100
AcDbSun
 90
        1
290
     0
 63
     7
421
 16777215
 40
1.0
291
     1
 91
  2455826
 92
 54000000
292
     0
 70
     2
 71
   256
280
     1
  0
DICTIONARY
  5
1F6
102
{ACAD_REACTORS
330
C
102
}
330
C
100
AcDbDictionary
281
     1
  0
DICTIONARY
  5
D
102
{ACAD_REACTORS
330
C
102
}
330
C
100
AcDbDictionary
281
     1
  0
DICTIONARY
  5
1A
102
{ACAD_REACTORS
330
C
102
}
330
C
100
AcDbDictionary
281
     1
  3
Layout1
350
1E
  3
Layout2
350
26
  3
Model
350
22
  0
DICTIONARY
  5
43
102
{ACAD_REACTORS
330
C
102
}
330
C
100
AcDbDictionary
281
     1
  3
ByBlock
350
45
  3
ByLayer
350
44
  3
Global
350
46
  0
DICTIONARY
  5
6B
102
{ACAD_REACTORS
330
C
102
}
330
C
100
AcDbDictionary
281
     1
  3
Standard
350
6C
  0
DICTIONARY
  5
17
102
{ACAD_REACTORS
330
C
102
}
330
C
100
AcDbDictionary
281
     1
  3
Standard
350
18
  0
DICTIONARY
  5
19
102
{ACAD_REACTORS
330
C
102
}
330
C
100
AcDbDictionary
281
     1
  0
ACDBDICTIONARYWDFLT
  5
E
102
{ACAD_REACTORS
330
C
102
}
330
C
100
AcDbDictionary
281
     1
  3
Normal
350
F
100
AcDbDictionaryWithDefault
340
F
  0
DICTIONARY
  5
47
102
{ACAD_REACTORS
330
C
102
}
330
C
100
AcDbDictionary
281
     1
  3
A0
350
48
  3
A1
350
49
  3
A2
350
4A
  3
A3
350
4B
  3
A4
350
4C
  3
A5
350
4D
  3
A6
350
4E
  3
A7
350
4F
  3
A8
350
50
  3
A9
350
51
  3
B0
350
52
  3
B1
350
53
  3
B2
350
54
  3
B3
350
55
  3
B4
350
56
  3
B5
350
57
  3
B6
350
58
  3
B7
350
59
  3
B8
350
5A
  3
B9
350
5B
  3
C0
350
5C
  3
C1
350
5D
  3
C2
350
5E
  3
C3
350
5F
  3
C4
350
60
  3
C5
350
61
  3
C6
350
62
  3
C7
350
63
  3
C8
350
64
  3
C9
350
65
  3
D0
350
66
  3
D1
350
67
  3
D2
350
68
  0
DICTIONARY
  5
1F7
102
{ACAD_REACTORS
330
C
102
}
330
C
100
AcDbDictionary
281
     1
  0
DICTIONARY
  5
69
102
{ACAD_REACTORS
330
C
102
}
330
C
100
AcDbDictionary
281
     1
  3
Standard
350
6A
  0
DICTIONARY
  5
2A
102
{ACAD_REACTORS
330
C
102
}
330
C
100
AcDbDictionary
281
     1
  3
2dWireframe
350
2F
  3
Basic
350
32
  3
Brighten
350
36
  3
ColorChange
350
3A
  3
Conceptual
350
34
  3
Dim
350
35
  3
EdgeColorOff
350
3D
  3
Facepattern
350
39
  3
Flat
350
2B
  3
FlatWithEdges
350
2C
  3
Gouraud
350
2D
  3
GouraudWithEdges
350
2E
  3
Hidden
350
31
  3
JitterOff
350
3B
  3
Linepattern
350
38
  3
OverhangOff
350
3C
  3
Realistic
350
33
  3
Shaded
350
42
  3
Shaded with edges
350
41
  3
Shades of Gray
350
3E
  3
Sketchy
350
3F
  3
Thicken
350
37
  3
Wireframe
350
30
  3
X-Ray
350
40
  0
XRECORD
  5
1F3
102
{ACAD_REACTORS
330
C
102
}
330
C
100
AcDbXrecord
280
     1
 90
        1
330
6A
  0
DICTIONARY
  5
1EF
102
{ACAD_REACTORS
330
C
102
}
330
C
100
AcDbDictionary
281
     1
  3
CANNOSCALE
350
1F0
  3
CMLEADERSTYLE
350
1F5
  3
CTABLESTYLE
350
1F4
  0
LAYOUT
  5
1E
102
{ACAD_REACTORS
330
1A
102
}
330
1A
100
AcDbPlotSettings
  1

  2
none_device
  4

  6

 40
0.0
 41
0.0
 42
0.0
 43
0.0
 44
0.0
 45
0.0
 46
0.0
 47
0.0
 48
0.0
 49
0.0
140
0.0
141
0.0
142
1.0
143
1.0
 70
   688
 72
     0
 73
     0
 74
     5
  7

 75
    16
 76
     0
 77
     2
 78
   300
147
1.0
148
0.0
149
0.0
100
AcDbLayout
  1
Layout1
 70
     1
 71
     1
 10
0.0
 20
0.0
 11
12.0
 21
9.0
 12
0.0
 22
0.0
 32
0.0
 14
1.000000000000000E+20
 24
1.000000000000000E+20
 34
1.000000000000000E+20
 15
-1.000000000000000E+20
 25
-1.000000000000000E+20
 35
-1.000000000000000E+20
146
0.0
 13
0.0
 23
0.0
 33
0.0
 16
1.0
 26
0.0
 36
0.0
 17
0.0
 27
1.0
 37
0.0
 76
     0
330
1B
  0
LAYOUT
  5
26
102
{ACAD_REACTORS
330
1A
102
}
330
1A
100
AcDbPlotSettings
  1

  2
none_device
  4

  6

 40
0.0
 41
0.0
 42
0.0
 43
0.0
 44
0.0
 45
0.0
 46
0.0
 47
0.0
 48
0.0
 49
0.0
140
0.0
141
0.0
142
1.0
143
1.0
 70
   688
 72
     0
 73
     0
 74
     5
  7

 75
    16
 76
     0
 77
     2
 78
   300
147
1.0
148
0.0
149
0.0
100
AcDbLayout
  1
Layout2
 70
     1
 71
     2
 10
0.0
 20
0.0
 11
0.0
 21
0.0
 12
0.0
 22
0.0
 32
0.0
 14
0.0
 24
0.0
 34
0.0
 15
0.0
 25
0.0
 35
0.0
146
0.0
 13
0.0
 23
0.0
 33
0.0
 16
1.0
 26
0.0
 36
0.0
 17
0.0
 27
1.0
 37
0.0
 76
     0
330
23
  0
LAYOUT
  5
22
102
{ACAD_REACTORS
330
1A
102
}
330
1A
100
AcDbPlotSettings
  1

  2
none_device
  4
Letter_(8.50_x_11.00_Inches)
  6

 40
6.35
 41
6.35
 42
6.35000508
 43
6.35000508
 44
215.9
 45
279.4
 46
0.0
 47
0.0
 48
0.0
 49
0.0
140
0.0
141
0.0
142
1.0
143
1.0
 70
  1712
 72
     0
 73
     0
 74
     0
  7

 75
     0
 76
     0
 77
     2
 78
   300
147
1.0
148
0.0
149
0.0
100
AcDbLayout
  1
Model
 70
     1
 71
     0
 10
0.0
 20
0.0
 11
12.0
 21
9.0
 12
0.0
 22
0.0
 32
0.0
 14
1.000000000000000E+20
 24
1.000000000000000E+20
 34
1.000000000000000E+20
 15
-1.000000000000000E+20
 25
-1.000000000000000E+20
 35
-1.000000000000000E+20
146
0.0
 13
0.0
 23
0.0
 33
0.0
 16
1.0
 26
0.0
 36
0.0
 17
0.0
 27
1.0
 37
0.0
 76
     0
330
1F
331
29
  0
MATERIAL
  5
45
102
{ACAD_REACTORS
330
43
102
}
330
43
100
AcDbMaterial
  1
ByBlock
 72
     1
 94
      127
  0
MATERIAL
  5
44
102
{ACAD_REACTORS
330
43
102
}
330
43
100
AcDbMaterial
  1
ByLayer
 72
     1
 94
      127
  0
MATERIAL
  5
46
102
{ACAD_REACTORS
330
43
102
}
330
43
100
AcDbMaterial
  1
Global
 72
     1
 94
      127
  0
MLEADERSTYLE
  5
6C
102
{ACAD_REACTORS
330
6B
102
}
330
6B
100
AcDbMLeaderStyle
179
     2
170
     2
171
     1
172
     0
 90
        2
 40
0.0
 41
0.0
173
     1
 91
-1056964608
340
14
 92
       -2
290
     1
 42
0.09
291
     1
 43
0.36
  3
Standard
341
0
 44
0.18
300

342
11
174
     1
178
     6
175
     1
176
     0
 93
-1056964608
 45
0.18
292
     0
297
     0
 46
0.18
343
0
 94
-1056964608
 47
1.0
 49
1.0
140
1.0
293
     1
141
0.0
294
     1
177
     0
142
1.0
295
     0
296
     0
143
0.125
271
     0
272
     9
273
     9
298
     0
  0
MLINESTYLE
  5
18
102
{ACAD_REACTORS
330
17
102
}
330
17
100
AcDbMlineStyle
  2
Standard
 70
     0
  3

 62
   256
 51
90.0
 52
90.0
 71
     2
 49
0.5
 62
   256
  6
BYLAYER
 49
-0.5
 62
   256
  6
BYLAYER
  0
ACDBPLACEHOLDER
  5
F
102
{ACAD_REACTORS
330
E
102
}
330
E
  0
SCALE
  5
48
102
{ACAD_REACTORS
330
47
102
}
330
47
100
AcDbScale
 70
     0
300
1:1
140
1.0
141
1.0
290
     1
  0
SCALE
  5
49
102
{ACAD_REACTORS
330
47
102
}
330
47
100
AcDbScale
 70
     0
300
1:2
140
1.0
141
2.0
290
     0
  0
SCALE
  5
4A
102
{ACAD_REACTORS
330
47
102
}
330
47
100
AcDbScale
 70
     0
300
1:4
140
1.0
141
4.0
290
     0
  0
SCALE
  5
4B
102
{ACAD_REACTORS
330
47
102
}
330
47
100
AcDbScale
 70
     0
300
1:5
140
1.0
141
5.0
290
     0
  0
SCALE
  5
4C
102
{ACAD_REACTORS
330
47
102
}
330
47
100
AcDbScale
 70
     0
300
1:8
140
1.0
141
8.0
290
     0
  0
SCALE
  5
4D
102
{ACAD_REACTORS
330
47
102
}
330
47
100
AcDbScale
 70
     0
300
1:10
140
1.0
141
10.0
290
     0
  0
SCALE
  5
4E
102
{ACAD_REACTORS
330
47
102
}
330
47
100
AcDbScale
 70
     0
300
1:16
140
1.0
141
16.0
290
     0
  0
SCALE
  5
4F
102
{ACAD_REACTORS
330
47
102
}
330
47
100
AcDbScale
 70
     0
300
1:20
140
1.0
141
20.0
290
     0
  0
SCALE
  5
50
102
{ACAD_REACTORS
330
47
102
}
330
47
100
AcDbScale
 70
     0
300
1:30
140
1.0
141
30.0
290
     0
  0
SCALE
  5
51
102
{ACAD_REACTORS
330
47
102
}
330
47
100
AcDbScale
 70
     0
300
1:40
140
1.0
141
40.0
290
     0
  0
SCALE
  5
52
102
{ACAD_REACTORS
330
47
102
}
330
47
100
AcDbScale
 70
     0
300
1:50
140
1.0
141
50.0
290
     0
  0
SCALE
  5
53
102
{ACAD_REACTORS
330
47
102
}
330
47
100
AcDbScale
 70
     0
300
1:100
140
1.0
141
100.0
290
     0
  0
SCALE
  5
54
102
{ACAD_REACTORS
330
47
102
}
330
47
100
AcDbScale
 70
     0
300
2:1
140
2.0
141
1.0
290
     0
  0
SCALE
  5
55
102
{ACAD_REACTORS
330
47
102
}
330
47
100
AcDbScale
 70
     0
300
4:1
140
4.0
141
1.0
290
     0
  0
SCALE
  5
56
102
{ACAD_REACTORS
330
47
102
}
330
47
100
AcDbScale
 70
     0
300
8:1
140
8.0
141
1.0
290
     0
  0
SCALE
  5
57
102
{ACAD_REACTORS
330
47
102
}
330
47
100
AcDbScale
 70
     0
300
10:1
140
10.0
141
1.0
290
     0
  0
SCALE
  5
58
102
{ACAD_REACTORS
330
47
102
}
330
47
100
AcDbScale
 70
     0
300
100:1
140
100.0
141
1.0
290
     0
  0
SCALE
  5
59
102
{ACAD_REACTORS
330
47
102
}
330
47
100
AcDbScale
 70
     0
300
1/128" = 1'-0"
140
0.0078125
141
12.0
290
     0
  0
SCALE
  5
5A
102
{ACAD_REACTORS
330
47
102
}
330
47
100
AcDbScale
 70
     0
300
1/64" = 1'-0"
140
0.015625
141
12.0
290
     0
  0
SCALE
  5
5B
102
{ACAD_REACTORS
330
47
102
}
330
47
100
AcDbScale
 70
     0
300
1/32" = 1'-0"
140
0.03125
141
12.0
290
     0
  0
SCALE
  5
5C
102
{ACAD_REACTORS
330
47
102
}
330
47
100
AcDbScale
 70
     0
300
1/16" = 1'-0"
140
0.0625
141
12.0
290
     0
  0
SCALE
  5
5D
102
{ACAD_REACTORS
330
47
102
}
330
47
100
AcDbScale
 70
     0
300
3/32" = 1'-0"
140
0.09375
141
12.0
290
     0
  0
SCALE
  5
5E
102
{ACAD_REACTORS
330
47
102
}
330
47
100
AcDbScale
 70
     0
300
1/8" = 1'-0"
140
0.125
141
12.0
290
     0
  0
SCALE
  5
5F
102
{ACAD_REACTORS
330
47
102
}
330
47
100
AcDbScale
 70
     0
300
3/16" = 1'-0"
140
0.1875
141
12.0
290
     0
  0
SCALE
  5
60
102
{ACAD_REACTORS
330
47
102
}
330
47
100
AcDbScale
 70
     0
300
1/4" = 1'-0"
140
0.25
141
12.0
290
     0
  0
SCALE
  5
61
102
{ACAD_REACTORS
330
47
102
}
330
47
100
AcDbScale
 70
     0
300
3/8" = 1'-0"
140
0.375
141
12.0
290
     0
  0
SCALE
  5
62
102
{ACAD_REACTORS
330
47
102
}
330
47
100
AcDbScale
 70
     0
300
1/2" = 1'-0"
140
0.5
141
12.0
290
     0
  0
SCALE
  5
63
102
{ACAD_REACTORS
330
47
102
}
330
47
100
AcDbScale
 70
     0
300
3/4" = 1'-0"
140
0.75
141
12.0
290
     0
  0
SCALE
  5
64
102
{ACAD_REACTORS
330
47
102
}
330
47
100
AcDbScale
 70
     0
300
1" = 1'-0"
140
1.0
141
12.0
290
     0
  0
SCALE
  5
65
102
{ACAD_REACTORS
330
47
102
}
330
47
100
AcDbScale
 70
     0
300
1-1/2" = 1'-0"
140
1.5
141
12.0
290
     0
  0
SCALE
  5
66
102
{ACAD_REACTORS
330
47
102
}
330
47
100
AcDbScale
 70
     0
300
3" = 1'-0"
140
3.0
141
12.0
290
     0
  0
SCALE
  5
67
102
{ACAD_REACTORS
330
47
102
}
330
47
100
AcDbScale
 70
     0
300
6" = 1'-0"
140
6.0
141
12.0
290
     0
  0
SCALE
  5
68
102
{ACAD_REACTORS
330
47
102
}
330
47
100
AcDbScale
 70
     0
300
1'-0" = 1'-0"
140
12.0
141
12.0
290
     0
  0
TABLESTYLE
  5
6A
102
{ACAD_REACTORS
330
69
102
}
102
{ACAD_XDICTIONARY
360
1F1
102
}
330
69
100
AcDbTableStyle
  3
Standard
 70
     0
 71
     0
 40
0.06
 41
0.06
280
     0
281
     0
  7
Standard
140
0.18
170
     2
 62
     0
 63
   257
283
     0
 90
        4
 91
        0
  1

274
    -2
284
     1
 64
     0
275
    -2
285
     1
 65
     0
276
    -2
286
     1
 66
     0
277
    -2
287
     1
 67
     0
278
    -2
288
     1
 68
     0
279
    -2
289
     1
 69
     0
  7
Standard
140
0.25
170
     5
 62
     0
 63
   257
283
     0
 90
        4
 91
        0
  1

274
    -2
284
     1
 64
     0
275
    -2
285
     1
 65
     0
276
    -2
286
     1
 66
     0
277
    -2
287
     1
 67
     0
278
    -2
288
     1
 68
     0
279
    -2
289
     1
 69
     0
  7
Standard
140
0.18
170
     5
 62
     0
 63
   257
283
     0
 90
        4
 91
        0
  1

274
    -2
284
     1
 64
     0
275
    -2
285
     1
 65
     0
276
    -2
286
     1
 66
     0
277
    -2
287
     1
 67
     0
278
    -2
288
     1
 68
     0
279
    -2
289
     1
 69
     0
  0
VISUALSTYLE
  5
2F
102
{ACAD_REACTORS
330
2A
102
}
330
2A
100
AcDbVisualStyle
  2
2dWireframe
 70
     4
177
     3
291
     0
 70
    58
 90
        0
176
     1
 90
        2
176
     1
 90
        0
176
     1
 90
        0
176
     1
 40
0.6
176
     1
 40
30.0
176
     1
 62
     7
420
 16777215
176
     1
 90
        1
176
     1
 90
        4
176
     1
 62
     7
176
     1
 62
   257
176
     1
 90
        1
176
     1
 90
        1
176
     1
 40
1.0
176
     1
 90
        0
176
     1
 62
   257
176
     1
 40
1.0
176
     1
 90
        1
176
     1
 90
        6
176
     1
 90
        2
176
     1
 62
     7
176
     1
 90
        5
176
     1
 90
        0
176
     1
 90
        0
176
     1
290
     0
176
     1
 90
        1
176
     1
 40
0.0
176
     1
 90
        0
176
     1
290
     1
176
     1
290
     1
176
     1
290
     0
176
     1
290
     0
176
     1
290
     0
176
     1
290
     0
176
     1
290
     0
176
     1
290
     0
176
     1
290
     0
176
     1
 90
       50
176
     1
 40
0.0
176
     1
 40
1.0
176
     1
 90
        0
176
     1
 62
    18
420
        0
176
     1
 90
       50
176
     1
 90
        3
176
     1
 62
     5
420
      255
176
     1
290
     0
176
     1
 90
       50
176
     1
 90
       50
176
     1
 90
       50
176
     1
290
     0
176
     1
 90
       50
176
     1
 62
   256
176
     0
 40
1.0
176
     0
 90
        2
176
     1
  1
strokes_ogs.tif
176
     1
290
     0
176
     1
 40
1.0
176
     1
 40
1.0
176
     1
  0
VISUALSTYLE
  5
32
102
{ACAD_REACTORS
330
2A
102
}
330
2A
100
AcDbVisualStyle
  2
Basic
 70
     7
177
     3
291
     1
 70
    58
 90
        1
176
     1
 90
        0
176
     1
 90
        1
176
     1
 90
        0
176
     1
 40
0.6
176
     1
 40
30.0
176
     1
 62
     7
420
 16777215
176
     1
 90
        0
176
     1
 90
        4
176
     1
 62
     7
176
     1
 62
   257
176
     1
 90
        1
176
     1
 90
        1
176
     1
 40
1.0
176
     1
 90
        8
176
     1
 62
     7
176
     1
 40
1.0
176
     1
 90
        1
176
     1
 90
        6
176
     1
 90
        2
176
     1
 62
     7
176
     1
 90
        5
176
     1
 90
        0
176
     1
 90
        0
176
     1
290
     0
176
     1
 90
        1
176
     1
 40
0.0
176
     1
 90
        0
176
     1
290
     0
176
     1
290
     1
176
     1
290
     1
176
     1
290
     0
176
     1
290
     0
176
     1
290
     0
176
     1
290
     0
176
     1
290
     0
176
     1
290
     0
176
     1
 90
       50
176
     1
 40
0.0
176
     1
 40
1.0
176
     1
 90
        0
176
     1
 62
    18
420
        0
176
     1
 90
       50
176
     1
 90
        3
176
     1
 62
     5
420
      255
176
     1
290
     0
176
     1
 90
       50
176
     1
 90
       50
176
     1
 90
       50
176
     1
290
     0
176
     1
 90
       50
176
     1
 62
   256
176
     0
 40
1.0
176
     0
 90
        2
176
     1
  1
strokes_ogs.tif
176
     1
290
     0
176
     1
 40
1.0
176
     1
 40
1.0
176
     1
  0
VISUALSTYLE
  5
36
102
{ACAD_REACTORS
330
2A
102
}
330
2A
100
AcDbVisualStyle
  2
Brighten
 70
    12
177
     3
291
     1
 70
    58
 90
        2
176
     1
 90
        2
176
     1
 90
        0
176
     1
 90
        0
176
     1
 40
0.6
176
     1
 40
30.0
176
     1
 62
     7
420
 16777215
176
     1
 90
        1
176
     1
 90
        4
176
     1
 62
     7
176
     1
 62
   257
176
     1
 90
        1
176
     1
 90
        1
176
     1
 40
1.0
176
     1
 90
        8
176
     1
 62
     7
176
     1
 40
1.0
176
     1
 90
        1
176
     1
 90
        6
176
     1
 90
        2
176
     1
 62
     7
176
     1
 90
        5
176
     1
 90
        0
176
     1
 90
        0
176
     1
290
     0
176
     1
 90
        1
176
     1
 40
50.0
176
     1
 90
        0
176
     1
290
     0
176
     1
290
     1
176
     1
290
     1
176
     1
290
     0
176
     1
290
     0
176
     1
290
     0
176
     1
290
     0
176
     1
290
     0
176
     1
290
     0
176
     1
 90
       50
176
     1
 40
0.0
176
     1
 40
1.0
176
     1
 90
        0
176
     1
 62
    18
420
        0
176
     1
 90
       50
176
     1
 90
        3
176
     1
 62
     5
420
      255
176
     1
290
     0
176
     1
 90
       50
176
     1
 90
       50
176
     1
 90
       50
176
     1
290
     0
176
     1
 90
       50
176
     1
 62
   256
176
     0
 40
1.0
176
     0
 90
        2
176
     1
  1
strokes_ogs.tif
176
     1
290
     0
176
     1
 40
1.0
176
     1
 40
1.0
176
     1
  0
VISUALSTYLE
  5
3A
102
{ACAD_REACTORS
330
2A
102
}
330
2A
100
AcDbVisualStyle
  2
ColorChange
 70
    16
177
     3
291
     1
 70
    58
 90
        2
176
     1
 90
        2
176
     1
 90
        3
176
     1
 90
        0
176
     1
 40
0.6
176
     1
 40
30.0
176
     1
 62
     8
420
  8421504
176
     1
 90
        1
176
     1
 90
        4
176
     1
 62
     7
176
     1
 62
   257
176
     1
 90
        1
176
     1
 90
        1
176
     1
 40
1.0
176
     1
 90
        8
176
     1
 62
     8
420
  8421504
176
     1
 40
1.0
176
     1
 90
        1
176
     1
 90
        6
176
     1
 90
        2
176
     1
 62
     7
176
     1
 90
        5
176
     1
 90
        0
176
     1
 90
        0
176
     1
290
     0
176
     1
 90
        1
176
     1
 40
0.0
176
     1
 90
        0
176
     1
290
     0
176
     1
290
     1
176
     1
290
     1
176
     1
290
     0
176
     1
290
     0
176
     1
290
     0
176
     1
290
     0
176
     1
290
     0
176
     1
290
     0
176
     1
 90
       50
176
     1
 40
0.0
176
     1
 40
1.0
176
     1
 90
        0
176
     1
 62
    18
420
        0
176
     1
 90
       50
176
     1
 90
        3
176
     1
 62
     5
420
      255
176
     1
290
     0
176
     1
 90
       50
176
     1
 90
       50
176
     1
 90
       50
176
     1
290
     0
176
     1
 90
       50
176
     1
 62
   256
176
     0
 40
1.0
176
     0
 90
        2
176
     1
  1
strokes_ogs.tif
176
     1
290
     0
176
     1
 40
1.0
176
     1
 40
1.0
176
     1
  0
VISUALSTYLE
  5
34
102
{ACAD_REACTORS
330
2A
102
}
330
2A
100
AcDbVisualStyle
  2
Conceptual
 70
     9
177
     3
291
     0
 70
    58
 90
        3
176
     1
 90
        2
176
     1
 90
        0
176
     1
 90
        0
176
     1
 40
0.6
176
     1
 40
30.0
176
     1
 62
     7
420
 16777215
176
     1
 90
        2
176
     1
 90
        2
176
     1
 62
     7
176
     1
 62
   257
176
     1
 90
        1
176
     1
 90
        1
176
     1
 40
179.0
176
     1
 90
        8
176
     1
 62
     7
176
     1
 40
1.0
176
     1
 90
        1
176
     1
 90
        6
176
     1
 90
        2
176
     1
 62
     7
176
     1
 90
        3
176
     1
 90
        0
176
     1
 90
        0
176
     1
290
     0
176
     1
 90
        1
176
     1
 40
0.0
176
     1
 90
        0
176
     1
290
     0
176
     1
290
     1
176
     1
290
     1
176
     1
290
     0
176
     1
290
     0
176
     1
290
     0
176
     1
290
     0
176
     1
290
     0
176
     1
290
     0
176
     1
 90
       50
176
     1
 40
0.0
176
     1
 40
1.0
176
     1
 90
        0
176
     1
 62
    18
420
        0
176
     1
 90
       50
176
     1
 90
        3
176
     1
 62
     5
420
      255
176
     1
290
     0
176
     1
 90
       50
176
     1
 90
       50
176
     1
 90
       50
176
     1
290
     0
176
     1
 90
       50
176
     1
 62
   256
176
     0
 40
1.0
176
     0
 90
        2
176
     1
  1
strokes_ogs.tif
176
     1
290
     0
176
     1
 40
1.0
176
     1
 40
1.0
176
     1
  0
VISUALSTYLE
  5
35
102
{ACAD_REACTORS
330
2A
102
}
330
2A
100
AcDbVisualStyle
  2
Dim
 70
    11
177
     3
291
     1
 70
    58
 90
        2
176
     1
 90
        2
176
     1
 90
        0
176
     1
 90
        0
176
     1
 40
0.6
176
     1
 40
30.0
176
     1
 62
     7
420
 16777215
176
     1
 90
        1
176
     1
 90
        4
176
     1
 62
     7
176
     1
 62
   257
176
     1
 90
        1
176
     1
 90
        1
176
     1
 40
1.0
176
     1
 90
        8
176
     1
 62
     7
176
     1
 40
1.0
176
     1
 90
        1
176
     1
 90
        6
176
     1
 90
        2
176
     1
 62
     7
176
     1
 90
        5
176
     1
 90
        0
176
     1
 90
        0
176
     1
290
     0
176
     1
 90
        1
176
     1
 40
-50.0
176
     1
 90
        0
176
     1
290
     0
176
     1
290
     1
176
     1
290
     1
176
     1
290
     0
176
     1
290
     0
176
     1
290
     0
176
     1
290
     0
176
     1
290
     0
176
     1
290
     0
176
     1
 90
       50
176
     1
 40
0.0
176
     1
 40
1.0
176
     1
 90
        0
176
     1
 62
    18
420
        0
176
     1
 90
       50
176
     1
 90
        3
176
     1
 62
     5
420
      255
176
     1
290
     0
176
     1
 90
       50
176
     1
 90
       50
176
     1
 90
       50
176
     1
290
     0
176
     1
 90
       50
176
     1
 62
   256
176
     0
 40
1.0
176
     0
 90
        2
176
     1
  1
strokes_ogs.tif
176
     1
290
     0
176
     1
 40
1.0
176
     1
 40
1.0
176
     1
  0
VISUALSTYLE
  5
3D
102
{ACAD_REACTORS
330
2A
102
}
330
2A
100
AcDbVisualStyle
  2
EdgeColorOff
 70
    22
177
     3
291
     1
 70
    58
 90
        2
176
     0
 90
        2
176
     0
 90
        0
176
     0
 90
        0
176
     0
 40
0.6
176
     0
 40
30.0
176
     0
 62
     7
420
 16777215
176
     0
 90
        1
176
     0
 90
        4
176
     0
 62
     7
176
     0
 62
   257
176
     0
 90
        1
176
     0
 90
        1
176
     0
 40
1.0
176
     0
 90
        8
176
     2
 62
     7
176
     0
 40
1.0
176
     0
 90
        1
176
     0
 90
        6
176
     0
 90
        2
176
     0
 62
     7
176
     0
 90
        5
176
     0
 90
        0
176
     0
 90
        0
176
     0
290
     0
176
     0
 90
        1
176
     0
 40
0.0
176
     0
 90
        0
176
     0
290
     0
176
     0
290
     1
176
     0
290
     1
176
     0
290
     0
176
     0
290
     0
176
     0
290
     0
176
     0
290
     0
176
     0
290
     0
176
     0
290
     0
176
     0
 90
       50
176
     0
 40
0.0
176
     0
 40
1.0
176
     0
 90
        0
176
     0
 62
    18
420
        0
176
     0
 90
       50
176
     0
 90
        3
176
     0
 62
     5
420
      255
176
     0
290
     0
176
     0
 90
       50
176
     0
 90
       50
176
     0
 90
       50
176
     0
290
     0
176
     0
 90
       50
176
     0
 62
   256
176
     0
 40
1.0
176
     0
 90
        2
176
     0
  1
strokes_ogs.tif
176
     0
290
     0
176
     0
 40
1.0
176
     0
 40
1.0
176
     0
  0
VISUALSTYLE
  5
39
102
{ACAD_REACTORS
330
2A
102
}
330
2A
100
AcDbVisualStyle
  2
Facepattern
 70
    15
177
     3
291
     1
 70
    58
 90
        2
176
     1
 90
        2
176
     1
 90
        0
176
     1
 90
        0
176
     1
 40
0.6
176
     1
 40
30.0
176
     1
 62
     7
420
 16777215
176
     1
 90
        1
176
     1
 90
        4
176
     1
 62
     7
176
     1
 62
   257
176
     1
 90
        1
176
     1
 90
        1
176
     1
 40
1.0
176
     1
 90
        8
176
     1
 62
     7
176
     1
 40
1.0
176
     1
 90
        1
176
     1
 90
        6
176
     1
 90
        2
176
     1
 62
     7
176
     1
 90
        5
176
     1
 90
        0
176
     1
 90
        0
176
     1
290
     0
176
     1
 90
        1
176
     1
 40
0.0
176
     1
 90
        0
176
     1
290
     0
176
     1
290
     1
176
     1
290
     1
176
     1
290
     0
176
     1
290
     0
176
     1
290
     0
176
     1
290
     0
176
     1
290
     0
176
     1
290
     0
176
     1
 90
       50
176
     1
 40
0.0
176
     1
 40
1.0
176
     1
 90
        0
176
     1
 62
    18
420
        0
176
     1
 90
       50
176
     1
 90
        3
176
     1
 62
     5
420
      255
176
     1
290
     0
176
     1
 90
       50
176
     1
 90
       50
176
     1
 90
       50
176
     1
290
     0
176
     1
 90
       50
176
     1
 62
   256
176
     0
 40
1.0
176
     0
 90
        2
176
     1
  1
strokes_ogs.tif
176
     1
290
     0
176
     1
 40
1.0
176
     1
 40
1.0
176
     1
  0
VISUALSTYLE
  5
2B
102
{ACAD_REACTORS
330
2A
102
}
330
2A
100
AcDbVisualStyle
  2
Flat
 70
     0
177
     3
291
     1
 70
    58
 90
        2
176
     1
 90
        1
176
     1
 90
        1
176
     1
 90
        2
176
     1
 40
0.6
176
     1
 40
30.0
176
     1
 62
     7
420
 16777215
176
     1
 90
        0
176
     1
 90
        0
176
     1
 62
     7
176
     1
 62
   257
176
     1
 90
        1
176
     1
 90
        1
176
     1
 40
1.0
176
     1
 90
        8
176
     1
 62
     7
176
     1
 40
1.0
176
     1
 90
        1
176
     1
 90
        6
176
     1
 90
        2
176
     1
 62
     7
176
     1
 90
        5
176
     1
 90
        0
176
     1
 90
        0
176
     1
290
     0
176
     1
 90
       13
176
     1
 40
0.0
176
     1
 90
        0
176
     1
290
     0
176
     1
290
     1
176
     1
290
     1
176
     1
290
     0
176
     1
290
     0
176
     1
290
     0
176
     1
290
     0
176
     1
290
     0
176
     1
290
     0
176
     1
 90
       50
176
     1
 40
0.0
176
     1
 40
1.0
176
     1
 90
        0
176
     1
 62
    18
420
        0
176
     1
 90
       50
176
     1
 90
        3
176
     1
 62
     5
420
      255
176
     1
290
     0
176
     1
 90
       50
176
     1
 90
       50
176
     1
 90
       50
176
     1
290
     0
176
     1
 90
       50
176
     1
 62
   256
176
     0
 40
1.0
176
     0
 90
        2
176
     1
  1
strokes_ogs.tif
176
     1
290
     0
176
     1
 40
1.0
176
     1
 40
1.0
176
     1
  0
VISUALSTYLE
  5
2C
102
{ACAD_REACTORS
330
2A
102
}
330
2A
100
AcDbVisualStyle
  2
FlatWithEdges
 70
     1
177
     3
291
     1
 70
    58
 90
        2
176
     1
 90
        1
176
     1
 90
        1
176
     1
 90
        2
176
     1
 40
0.6
176
     1
 40
30.0
176
     1
 62
     7
420
 16777215
176
     1
 90
        1
176
     1
 90
        0
176
     1
 62
     7
176
     1
 62
   257
176
     1
 90
        1
176
     1
 90
        1
176
     1
 40
1.0
176
     1
 90
        0
176
     1
 62
   257
176
     1
 40
1.0
176
     1
 90
        1
176
     1
 90
        6
176
     1
 90
        2
176
     1
 62
     7
176
     1
 90
        5
176
     1
 90
        0
176
     1
 90
        0
176
     1
290
     0
176
     1
 90
       13
176
     1
 40
0.0
176
     1
 90
        0
176
     1
290
     0
176
     1
290
     1
176
     1
290
     1
176
     1
290
     0
176
     1
290
     0
176
     1
290
     0
176
     1
290
     0
176
     1
290
     0
176
     1
290
     0
176
     1
 90
       50
176
     1
 40
0.0
176
     1
 40
1.0
176
     1
 90
        0
176
     1
 62
    18
420
        0
176
     1
 90
       50
176
     1
 90
        3
176
     1
 62
     5
420
      255
176
     1
290
     0
176
     1
 90
       50
176
     1
 90
       50
176
     1
 90
       50
176
     1
290
     0
176
     1
 90
       50
176
     1
 62
   256
176
     0
 40
1.0
176
     0
 90
        2
176
     1
  1
strokes_ogs.tif
176
     1
290
     0
176
     1
 40
1.0
176
     1
 40
1.0
176
     1
  0
VISUALSTYLE
  5
2D
102
{ACAD_REACTORS
330
2A
102
}
330
2A
100
AcDbVisualStyle
  2
Gouraud
 70
     2
177
     3
291
     1
 70
    58
 90
        2
176
     1
 90
        2
176
     1
 90
        1
176
     1
 90
        2
176
     1
 40
0.6
176
     1
 40
30.0
176
     1
 62
     7
420
 16777215
176
     1
 90
        0
176
     1
 90
        0
176
     1
 62
     7
176
     1
 62
   257
176
     1
 90
        1
176
     1
 90
        1
176
     1
 40
1.0
176
     1
 90
        0
176
     1
 62
     7
176
     1
 40
1.0
176
     1
 90
        1
176
     1
 90
        6
176
     1
 90
        2
176
     1
 62
     7
176
     1
 90
        5
176
     1
 90
        0
176
     1
 90
        0
176
     1
290
     0
176
     1
 90
       13
176
     1
 40
0.0
176
     1
 90
        0
176
     1
290
     0
176
     1
290
     1
176
     1
290
     1
176
     1
290
     0
176
     1
290
     0
176
     1
290
     0
176
     1
290
     0
176
     1
290
     0
176
     1
290
     0
176
     1
 90
       50
176
     1
 40
0.0
176
     1
 40
1.0
176
     1
 90
        0
176
     1
 62
    18
420
        0
176
     1
 90
       50
176
     1
 90
        3
176
     1
 62
     5
420
      255
176
     1
290
     0
176
     1
 90
       50
176
     1
 90
       50
176
     1
 90
       50
176
     1
290
     0
176
     1
 90
       50
176
     1
 62
   256
176
     0
 40
1.0
176
     0
 90
        2
176
     1
  1
strokes_ogs.tif
176
     1
290
     0
176
     1
 40
1.0
176
     1
 40
1.0
176
     1
  0
VISUALSTYLE
  5
2E
102
{ACAD_REACTORS
330
2A
102
}
330
2A
100
AcDbVisualStyle
  2
GouraudWithEdges
 70
     3
177
     3
291
     1
 70
    58
 90
        2
176
     1
 90
        2
176
     1
 90
        1
176
     1
 90
        2
176
     1
 40
0.6
176
     1
 40
30.0
176
     1
 62
     7
420
 16777215
176
     1
 90
        1
176
     1
 90
        0
176
     1
 62
     7
176
     1
 62
   257
176
     1
 90
        1
176
     1
 90
        1
176
     1
 40
1.0
176
     1
 90
        0
176
     1
 62
   257
176
     1
 40
1.0
176
     1
 90
        1
176
     1
 90
        6
176
     1
 90
        2
176
     1
 62
     7
176
     1
 90
        5
176
     1
 90
        0
176
     1
 90
        0
176
     1
290
     0
176
     1
 90
       13
176
     1
 40
0.0
176
     1
 90
        0
176
     1
290
     0
176
     1
290
     1
176
     1
290
     1
176
     1
290
     0
176
     1
290
     0
176
     1
290
     0
176
     1
290
     0
176
     1
290
     0
176
     1
290
     0
176
     1
 90
       50
176
     1
 40
0.0
176
     1
 40
1.0
176
     1
 90
        0
176
     1
 62
    18
420
        0
176
     1
 90
       50
176
     1
 90
        3
176
     1
 62
     5
420
      255
176
     1
290
     0
176
     1
 90
       50
176
     1
 90
       50
176
     1
 90
       50
176
     1
290
     0
176
     1
 90
       50
176
     1
 62
   256
176
     0
 40
1.0
176
     0
 90
        2
176
     1
  1
strokes_ogs.tif
176
     1
290
     0
176
     1
 40
1.0
176
     1
 40
1.0
176
     1
  0
VISUALSTYLE
  5
31
102
{ACAD_REACTORS
330
2A
102
}
330
2A
100
AcDbVisualStyle
  2
Hidden
 70
     6
177
     3
291
     0
 70
    58
 90
        1
176
     1
 90
        2
176
     1
 90
        2
176
     1
 90
        0
176
     1
 40
0.6
176
     1
 40
30.0
176
     1
 62
     7
420
 16777215
176
     1
 90
        2
176
     1
 90
        2
176
     1
 62
     7
176
     1
 62
   257
176
     1
 90
        2
176
     1
 90
        1
176
     1
 40
40.0
176
     1
 90
        0
176
     1
 62
   257
176
     1
 40
1.0
176
     1
 90
        1
176
     1
 90
        6
176
     1
 90
        2
176
     1
 62
     7
176
     1
 90
        3
176
     1
 90
        0
176
     1
 90
        0
176
     1
290
     0
176
     1
 90
        1
176
     1
 40
0.0
176
     1
 90
        0
176
     1
290
     0
176
     1
290
     1
176
     1
290
     1
176
     1
290
     0
176
     1
290
     0
176
     1
290
     0
176
     1
290
     0
176
     1
290
     0
176
     1
290
     0
176
     1
 90
       50
176
     1
 40
0.0
176
     1
 40
1.0
176
     1
 90
        0
176
     1
 62
    18
420
        0
176
     1
 90
       50
176
     1
 90
        3
176
     1
 62
     5
420
      255
176
     1
290
     0
176
     1
 90
       50
176
     1
 90
       50
176
     1
 90
       50
176
     1
290
     0
176
     1
 90
       50
176
     1
 62
   256
176
     0
 40
1.0
176
     0
 90
        2
176
     1
  1
strokes_ogs.tif
176
     1
290
     0
176
     1
 40
1.0
176
     1
 40
1.0
176
     1
  0
VISUALSTYLE
  5
3B
102
{ACAD_REACTORS
330
2A
102
}
330
2A
100
AcDbVisualStyle
  2
JitterOff
 70
    20
177
     3
291
     1
 70
    58
 90
        2
176
     0
 90
        2
176
     0
 90
        0
176
     0
 90
        0
176
     0
 40
0.6
176
     0
 40
30.0
176
     0
 62
     7
420
 16777215
176
     0
 90
        1
176
     0
 90
        4
176
     0
 62
     7
176
     0
 62
   257
176
     0
 90
        1
176
     0
 90
        1
176
     0
 40
1.0
176
     0
 90
       10
176
     2
 62
     7
176
     0
 40
1.0
176
     0
 90
        1
176
     0
 90
        6
176
     0
 90
        2
176
     0
 62
     7
176
     0
 90
        5
176
     0
 90
        0
176
     0
 90
        0
176
     0
290
     0
176
     0
 90
        1
176
     0
 40
0.0
176
     0
 90
        0
176
     0
290
     0
176
     0
290
     1
176
     0
290
     1
176
     0
290
     0
176
     0
290
     0
176
     0
290
     0
176
     0
290
     0
176
     0
290
     0
176
     0
290
     0
176
     0
 90
       50
176
     0
 40
0.0
176
     0
 40
1.0
176
     0
 90
        0
176
     0
 62
    18
420
        0
176
     0
 90
       50
176
     0
 90
        3
176
     0
 62
     5
420
      255
176
     0
290
     0
176
     0
 90
       50
176
     0
 90
       50
176
     0
 90
       50
176
     0
290
     0
176
     0
 90
       50
176
     0
 62
   256
176
     0
 40
1.0
176
     0
 90
        2
176
     0
  1
strokes_ogs.tif
176
     0
290
     0
176
     0
 40
1.0
176
     0
 40
1.0
176
     0
  0
VISUALSTYLE
  5
38
102
{ACAD_REACTORS
330
2A
102
}
330
2A
100
AcDbVisualStyle
  2
Linepattern
 70
    14
177
     3
291
     1
 70
    58
 90
        2
176
     1
 90
        2
176
     1
 90
        0
176
     1
 90
        0
176
     1
 40
0.6
176
     1
 40
30.0
176
     1
 62
     7
420
 16777215
176
     1
 90
        1
176
     1
 90
        4
176
     1
 62
     7
176
     1
 62
   257
176
     1
 90
        7
176
     1
 90
        7
176
     1
 40
1.0
176
     1
 90
        8
176
     1
 62
     7
176
     1
 40
1.0
176
     1
 90
        1
176
     1
 90
        6
176
     1
 90
        2
176
     1
 62
     7
176
     1
 90
        5
176
     1
 90
        0
176
     1
 90
        0
176
     1
290
     0
176
     1
 90
        1
176
     1
 40
0.0
176
     1
 90
        0
176
     1
290
     0
176
     1
290
     1
176
     1
290
     1
176
     1
290
     0
176
     1
290
     0
176
     1
290
     0
176
     1
290
     0
176
     1
290
     0
176
     1
290
     0
176
     1
 90
       50
176
     1
 40
0.0
176
     1
 40
1.0
176
     1
 90
        0
176
     1
 62
    18
420
        0
176
     1
 90
       50
176
     1
 90
        3
176
     1
 62
     5
420
      255
176
     1
290
     0
176
     1
 90
       50
176
     1
 90
       50
176
     1
 90
       50
176
     1
290
     0
176
     1
 90
       50
176
     1
 62
   256
176
     0
 40
1.0
176
     0
 90
        2
176
     1
  1
strokes_ogs.tif
176
     1
290
     0
176
     1
 40
1.0
176
     1
 40
1.0
176
     1
  0
VISUALSTYLE
  5
3C
102
{ACAD_REACTORS
330
2A
102
}
330
2A
100
AcDbVisualStyle
  2
OverhangOff
 70
    21
177
     3
291
     1
 70
    58
 90
        2
176
     0
 90
        2
176
     0
 90
        0
176
     0
 90
        0
176
     0
 40
0.6
176
     0
 40
30.0
176
     0
 62
     7
420
 16777215
176
     0
 90
        1
176
     0
 90
        4
176
     0
 62
     7
176
     0
 62
   257
176
     0
 90
        1
176
     0
 90
        1
176
     0
 40
1.0
176
     0
 90
        9
176
     2
 62
     7
176
     0
 40
1.0
176
     0
 90
        1
176
     0
 90
        6
176
     0
 90
        2
176
     0
 62
     7
176
     0
 90
        5
176
     0
 90
        0
176
     0
 90
        0
176
     0
290
     0
176
     0
 90
        1
176
     0
 40
0.0
176
     0
 90
        0
176
     0
290
     0
176
     0
290
     1
176
     0
290
     1
176
     0
290
     0
176
     0
290
     0
176
     0
290
     0
176
     0
290
     0
176
     0
290
     0
176
     0
290
     0
176
     0
 90
       50
176
     0
 40
0.0
176
     0
 40
1.0
176
     0
 90
        0
176
     0
 62
    18
420
        0
176
     0
 90
       50
176
     0
 90
        3
176
     0
 62
     5
420
      255
176
     0
290
     0
176
     0
 90
       50
176
     0
 90
       50
176
     0
 90
       50
176
     0
290
     0
176
     0
 90
       50
176
     0
 62
   256
176
     0
 40
1.0
176
     0
 90
        2
176
     0
  1
strokes_ogs.tif
176
     0
290
     0
176
     0
 40
1.0
176
     0
 40
1.0
176
     0
  0
VISUALSTYLE
  5
33
102
{ACAD_REACTORS
330
2A
102
}
330
2A
100
AcDbVisualStyle
  2
Realistic
 70
     8
177
     3
291
     0
 70
    58
 90
        2
176
     1
 90
        3
176
     1
 90
        0
176
     1
 90
        2
176
     1
 40
0.6
176
     1
 40
30.0
176
     1
 62
     7
420
 16777215
176
     1
 90
        0
176
     1
 90
        0
176
     1
 62
     7
176
     1
 62
   257
176
     1
 90
        1
176
     1
 90
        1
176
     1
 40
1.0
176
     1
 90
        8
176
     1
 62
   257
176
     1
 40
1.0
176
     1
 90
        1
176
     1
 90
        6
176
     1
 90
        2
176
     1
 62
     7
176
     1
 90
        3
176
     1
 90
        0
176
     1
 90
        0
176
     1
290
     0
176
     1
 90
       13
176
     1
 40
0.0
176
     1
 90
        0
176
     1
290
     0
176
     1
290
     1
176
     1
290
     1
176
     1
290
     0
176
     1
290
     0
176
     1
290
     0
176
     1
290
     0
176
     1
290
     0
176
     1
290
     0
176
     1
 90
       50
176
     1
 40
0.0
176
     1
 40
1.0
176
     1
 90
        0
176
     1
 62
    18
420
        0
176
     1
 90
       50
176
     1
 90
        3
176
     1
 62
     5
420
      255
176
     1
290
     0
176
     1
 90
       50
176
     1
 90
       50
176
     1
 90
       50
176
     1
290
     0
176
     1
 90
       50
176
     1
 62
   256
176
     0
 40
1.0
176
     0
 90
        2
176
     1
  1
strokes_ogs.tif
176
     1
290
     0
176
     1
 40
1.0
176
     1
 40
1.0
176
     1
  0
VISUALSTYLE
  5
42
102
{ACAD_REACTORS
330
2A
102
}
330
2A
100
AcDbVisualStyle
  2
Shaded
 70
    27
177
     3
291
     0
 70
    58
 90
        2
176
     1
 90
        2
176
     1
 90
        1
176
     1
 90
        2
176
     1
 40
0.6
176
     1
 40
30.0
176
     1
 62
     7
420
 16777215
176
     1
 90
        0
176
     1
 90
        4
176
     1
 62
     7
176
     1
 62
   257
176
     1
 90
        1
176
     1
 90
        1
176
     1
 40
1.0
176
     1
 90
        8
176
     1
 62
   257
176
     1
 40
1.0
176
     1
 90
        1
176
     1
 90
        6
176
     1
 90
        2
176
     1
 62
     8
420
  7895160
176
     1
 90
        3
176
     1
 90
        0
176
     1
 90
        0
176
     1
290
     0
176
     1
 90
        5
176
     1
 40
0.0
176
     1
 90
        0
176
     1
290
     0
176
     1
290
     1
176
     1
290
     1
176
     1
290
     0
176
     1
290
     0
176
     1
290
     0
176
     1
290
     0
176
     1
290
     0
176
     1
290
     0
176
     1
 90
       50
176
     1
 40
0.0
176
     1
 40
1.0
176
     1
 90
        0
176
     1
 62
    18
420
        0
176
     1
 90
       50
176
     1
 90
        3
176
     1
 62
     5
420
      255
176
     1
290
     0
176
     1
 90
       50
176
     1
 90
       50
176
     1
 90
       50
176
     1
290
     0
176
     1
 90
       50
176
     1
 62
   256
176
     0
 40
1.0
176
     0
 90
        2
176
     1
  1
strokes_ogs.tif
176
     1
290
     0
176
     1
 40
1.0
176
     1
 40
1.0
176
     1
  0
VISUALSTYLE
  5
41
102
{ACAD_REACTORS
330
2A
102
}
330
2A
100
AcDbVisualStyle
  2
Shaded with edges
 70
    26
177
     3
291
     0
 70
    58
 90
        2
176
     1
 90
        2
176
     1
 90
        1
176
     1
 90
        2
176
     1
 40
0.6
176
     1
 40
30.0
176
     1
 62
     7
420
 16777215
176
     1
 90
        1
176
     1
 90
       10
176
     1
 62
     7
176
     1
 62
   257
176
     1
 90
        2
176
     1
 90
        1
176
     1
 40
1.0
176
     1
 90
        8
176
     1
 62
   257
176
     1
 40
1.0
176
     1
 90
        1
176
     1
 90
        6
176
     1
 90
        2
176
     1
 62
     7
176
     1
 90
        3
176
     1
 90
        0
176
     1
 90
        0
176
     1
290
     0
176
     1
 90
        5
176
     1
 40
0.0
176
     1
 90
        0
176
     1
290
     0
176
     1
290
     1
176
     1
290
     1
176
     1
290
     0
176
     1
290
     0
176
     1
290
     0
176
     1
290
     0
176
     1
290
     0
176
     1
290
     0
176
     1
 90
       50
176
     1
 40
0.0
176
     1
 40
1.0
176
     1
 90
        0
176
     1
 62
    18
420
        0
176
     1
 90
       50
176
     1
 90
        3
176
     1
 62
     5
420
      255
176
     1
290
     0
176
     1
 90
       50
176
     1
 90
       50
176
     1
 90
       50
176
     1
290
     0
176
     1
 90
       50
176
     1
 62
   256
176
     0
 40
1.0
176
     0
 90
        2
176
     1
  1
strokes_ogs.tif
176
     1
290
     0
176
     1
 40
1.0
176
     1
 40
1.0
176
     1
  0
VISUALSTYLE
  5
3E
102
{ACAD_REACTORS
330
2A
102
}
330
2A
100
AcDbVisualStyle
  2
Shades of Gray
 70
    23
177
     3
291
     0
 70
    58
 90
        2
176
     1
 90
        2
176
     1
 90
        3
176
     1
 90
        0
176
     1
 40
0.6
176
     1
 40
30.0
176
     1
 62
     7
420
 16777215
176
     1
 90
        2
176
     1
 90
        2
176
     1
 62
     7
176
     1
 62
     7
176
     1
 90
        1
176
     1
 90
        1
176
     1
 40
40.0
176
     1
 90
        8
176
     1
 62
     7
176
     1
 40
1.0
176
     1
 90
        1
176
     1
 90
        6
176
     1
 90
        2
176
     1
 62
     7
176
     1
 90
        3
176
     1
 90
        0
176
     1
 90
        0
176
     1
290
     0
176
     1
 90
        1
176
     1
 40
0.0
176
     1
 90
        0
176
     1
290
     0
176
     1
290
     1
176
     1
290
     1
176
     1
290
     0
176
     1
290
     0
176
     1
290
     0
176
     1
290
     0
176
     1
290
     0
176
     1
290
     0
176
     1
 90
       50
176
     1
 40
0.0
176
     1
 40
1.0
176
     1
 90
        0
176
     1
 62
    18
420
        0
176
     1
 90
       50
176
     1
 90
        3
176
     1
 62
     5
420
      255
176
     1
290
     0
176
     1
 90
       50
176
     1
 90
       50
176
     1
 90
       50
176
     1
290
     0
176
     1
 90
       50
176
     1
 62
   256
176
     0
 40
1.0
176
     0
 90
        2
176
     1
  1
strokes_ogs.tif
176
     1
290
     0
176
     1
 40
1.0
176
     1
 40
1.0
176
     1
  0
VISUALSTYLE
  5
3F
102
{ACAD_REACTORS
330
2A
102
}
330
2A
100
AcDbVisualStyle
  2
Sketchy
 70
    24
177
     3
291
     0
 70
    58
 90
        1
176
     1
 90
        2
176
     1
 90
        2
176
     1
 90
        0
176
     1
 40
0.6
176
     1
 40
30.0
176
     1
 62
     7
420
 16777215
176
     1
 90
        2
176
     1
 90
        2
176
     1
 62
     7
176
     1
 62
     7
176
     1
 90
        1
176
     1
 90
        1
176
     1
 40
40.0
176
     1
 90
       11
176
     1
 62
     7
176
     1
 40
1.0
176
     1
 90
        1
176
     1
 90
        6
176
     1
 90
        2
176
     1
 62
     7
176
     1
 90
        6
176
     1
 90
        0
176
     1
 90
        0
176
     1
290
     0
176
     1
 90
        1
176
     1
 40
0.0
176
     1
 90
        0
176
     1
290
     0
176
     1
290
     1
176
     1
290
     1
176
     1
290
     0
176
     1
290
     0
176
     1
290
     0
176
     1
290
     0
176
     1
290
     0
176
     1
290
     0
176
     1
 90
       50
176
     1
 40
0.0
176
     1
 40
1.0
176
     1
 90
        0
176
     1
 62
    18
420
        0
176
     1
 90
       50
176
     1
 90
        3
176
     1
 62
     5
420
      255
176
     1
290
     0
176
     1
 90
       50
176
     1
 90
       50
176
     1
 90
       50
176
     1
290
     0
176
     1
 90
       50
176
     1
 62
   256
176
     0
 40
1.0
176
     0
 90
        2
176
     1
  1
strokes_ogs.tif
176
     1
290
     0
176
     1
 40
1.0
176
     1
 40
1.0
176
     1
  0
VISUALSTYLE
  5
37
102
{ACAD_REACTORS
330
2A
102
}
330
2A
100
AcDbVisualStyle
  2
Thicken
 70
    13
177
     3
291
     1
 70
    58
 90
        2
176
     1
 90
        2
176
     1
 90
        0
176
     1
 90
        0
176
     1
 40
0.6
176
     1
 40
30.0
176
     1
 62
     7
420
 16777215
176
     1
 90
        1
176
     1
 90
        4
176
     1
 62
     7
176
     1
 62
   257
176
     1
 90
        1
176
     1
 90
        1
176
     1
 40
1.0
176
     1
 90
       12
176
     1
 62
     7
176
     1
 40
1.0
176
     1
 90
        1
176
     1
 90
        6
176
     1
 90
        2
176
     1
 62
     7
176
     1
 90
        5
176
     1
 90
        0
176
     1
 90
        0
176
     1
290
     0
176
     1
 90
        1
176
     1
 40
0.0
176
     1
 90
        0
176
     1
290
     0
176
     1
290
     1
176
     1
290
     1
176
     1
290
     0
176
     1
290
     0
176
     1
290
     0
176
     1
290
     0
176
     1
290
     0
176
     1
290
     0
176
     1
 90
       50
176
     1
 40
0.0
176
     1
 40
1.0
176
     1
 90
        0
176
     1
 62
    18
420
        0
176
     1
 90
       50
176
     1
 90
        3
176
     1
 62
     5
420
      255
176
     1
290
     0
176
     1
 90
       50
176
     1
 90
       50
176
     1
 90
       50
176
     1
290
     0
176
     1
 90
       50
176
     1
 62
   256
176
     0
 40
1.0
176
     0
 90
        2
176
     1
  1
strokes_ogs.tif
176
     1
290
     0
176
     1
 40
1.0
176
     1
 40
1.0
176
     1
  0
VISUALSTYLE
  5
30
102
{ACAD_REACTORS
330
2A
102
}
330
2A
100
AcDbVisualStyle
  2
Wireframe
 70
     5
177
     3
291
     0
 70
    58
 90
        0
176
     1
 90
        2
176
     1
 90
        0
176
     1
 90
        0
176
     1
 40
0.6
176
     1
 40
30.0
176
     1
 62
     7
420
 16777215
176
     1
 90
        1
176
     1
 90
        4
176
     1
 62
     7
176
     1
 62
   257
176
     1
 90
        1
176
     1
 90
        1
176
     1
 40
1.0
176
     1
 90
        0
176
     1
 62
   257
176
     1
 40
1.0
176
     1
 90
        1
176
     1
 90
        6
176
     1
 90
        2
176
     1
 62
     7
176
     1
 90
        3
176
     1
 90
        0
176
     1
 90
        0
176
     1
290
     0
176
     1
 90
        1
176
     1
 40
0.0
176
     1
 90
        0
176
     1
290
     0
176
     1
290
     1
176
     1
290
     1
176
     1
290
     0
176
     1
290
     0
176
     1
290
     0
176
     1
290
     0
176
     1
290
     0
176
     1
290
     0
176
     1
 90
       50
176
     1
 40
0.0
176
     1
 40
1.0
176
     1
 90
        0
176
     1
 62
    18
420
        0
176
     1
 90
       50
176
     1
 90
        3
176
     1
 62
     5
420
      255
176
     1
290
     0
176
     1
 90
       50
176
     1
 90
       50
176
     1
 90
       50
176
     1
290
     0
176
     1
 90
       50
176
     1
 62
   256
176
     0
 40
1.0
176
     0
 90
        2
176
     1
  1
strokes_ogs.tif
176
     1
290
     0
176
     1
 40
1.0
176
     1
 40
1.0
176
     1
  0
VISUALSTYLE
  5
40
102
{ACAD_REACTORS
330
2A
102
}
330
2A
100
AcDbVisualStyle
  2
X-Ray
 70
    25
177
     3
291
     0
 70
    58
 90
        2
176
     1
 90
        2
176
     1
 90
        1
176
     1
 90
        1
176
     1
 40
0.5
176
     1
 40
30.0
176
     1
 62
     7
420
 16777215
176
     1
 90
        1
176
     1
 90
        0
176
     1
 62
     7
176
     1
 62
   257
176
     1
 90
        1
176
     1
 90
        1
176
     1
 40
1.0
176
     1
 90
        8
176
     1
 62
     7
176
     1
 40
1.0
176
     1
 90
        1
176
     1
 90
        6
176
     1
 90
        2
176
     1
 62
     7
176
     1
 90
        3
176
     1
 90
        0
176
     1
 90
        0
176
     1
290
     0
176
     1
 90
       13
176
     1
 40
0.0
176
     1
 90
        0
176
     1
290
     0
176
     1
290
     1
176
     1
290
     1
176
     1
290
     0
176
     1
290
     0
176
     1
290
     0
176
     1
290
     0
176
     1
290
     0
176
     1
290
     0
176
     1
 90
       50
176
     1
 40
0.0
176
     1
 40
1.0
176
     1
 90
        0
176
     1
 62
    18
420
        0
176
     1
 90
       50
176
     1
 90
        3
176
     1
 62
     5
420
      255
176
     1
290
     0
176
     1
 90
       50
176
     1
 90
       50
176
     1
 90
       50
176
     1
290
     0
176
     1
 90
       50
176
     1
 62
   256
176
     0
 40
1.0
176
     0
 90
        2
176
     1
  1
strokes_ogs.tif
176
     1
290
     0
176
     1
 40
1.0
176
     1
 40
1.0
176
     1
  0
DICTIONARYVAR
  5
1F0
102
{ACAD_REACTORS
330
1EF
102
}
330
1EF
100
DictionaryVariables
280
     0
  1
1:1
  0
DICTIONARYVAR
  5
1F5
102
{ACAD_REACTORS
330
1EF
102
}
330
1EF
100
DictionaryVariables
280
     0
  1
Standard
  0
DICTIONARYVAR
  5
1F4
102
{ACAD_REACTORS
330
1EF
102
}
330
1EF
100
DictionaryVariables
280
     0
  1
Standard
  0
DICTIONARY
  5
1F1
330
6A
100
AcDbDictionary
280
     1
281
     1
  3
ACAD_ROUNDTRIP_2008_TABLESTYLE_CELLSTYLEMAP
360
1F2
  0
CELLSTYLEMAP
  5
1F2
102
{ACAD_REACTORS
330
1F1
102
}
330
1F1
100
AcDbCellStyleMap
 90
        3
300
CELLSTYLE
  1
TABLEFORMAT_BEGIN
 90
        5
170
     1
 91
        0
 92
    32768
 62
   257
 93
        1
300
CONTENTFORMAT
  1
CONTENTFORMAT_BEGIN
 90
        0
 91
        0
 92
        4
 93
        0
300

 40
0.0
140
1.0
 94
        5
 62
     0
340
11
144
0.25
309
CONTENTFORMAT_END
171
     1
301
MARGIN
  1
CELLMARGIN_BEGIN
 40
0.06
 40
0.06
 40
0.06
 40
0.06
 40
0.06
 40
0.06
309
CELLMARGIN_END
 94
        6
 95
        1
302
GRIDFORMAT
  1
GRIDFORMAT_BEGIN
 90
        0
 91
        1
 62
     0
 92
       -2
340
14
 93
        0
 40
0.045
309
GRIDFORMAT_END
 95
        2
302
GRIDFORMAT
  1
GRIDFORMAT_BEGIN
 90
        0
 91
        1
 62
     0
 92
       -2
340
14
 93
        0
 40
0.045
309
GRIDFORMAT_END
 95
        4
302
GRIDFORMAT
  1
GRIDFORMAT_BEGIN
 90
        0
 91
        1
 62
     0
 92
       -2
340
14
 93
        0
 40
0.045
309
GRIDFORMAT_END
 95
        8
302
GRIDFORMAT
  1
GRIDFORMAT_BEGIN
 90
        0
 91
        1
 62
     0
 92
       -2
340
14
 93
        0
 40
0.045
309
GRIDFORMAT_END
 95
       16
302
GRIDFORMAT
  1
GRIDFORMAT_BEGIN
 90
        0
 91
        1
 62
     0
 92
       -2
340
14
 93
        0
 40
0.045
309
GRIDFORMAT_END
 95
       32
302
GRIDFORMAT
  1
GRIDFORMAT_BEGIN
 90
        0
 91
        1
 62
     0
 92
       -2
340
14
 93
        0
 40
0.045
309
GRIDFORMAT_END
309
TABLEFORMAT_END
  1
CELLSTYLE_BEGIN
 90
        1
 91
        1
300
_TITLE
309
CELLSTYLE_END
300
CELLSTYLE
  1
TABLEFORMAT_BEGIN
 90
        5
170
     1
 91
        0
 92
        0
 62
   257
 93
        1
300
CONTENTFORMAT
  1
CONTENTFORMAT_BEGIN
 90
        0
 91
        0
 92
        4
 93
        0
300

 40
0.0
140
1.0
 94
        5
 62
     0
340
11
144
0.18
309
CONTENTFORMAT_END
171
     1
301
MARGIN
  1
CELLMARGIN_BEGIN
 40
0.06
 40
0.06
 40
0.06
 40
0.06
 40
0.06
 40
0.06
309
CELLMARGIN_END
 94
        6
 95
        1
302
GRIDFORMAT
  1
GRIDFORMAT_BEGIN
 90
        0
 91
        1
 62
     0
 92
       -2
340
14
 93
        0
 40
0.045
309
GRIDFORMAT_END
 95
        2
302
GRIDFORMAT
  1
GRIDFORMAT_BEGIN
 90
        0
 91
        1
 62
     0
 92
       -2
340
14
 93
        0
 40
0.045
309
GRIDFORMAT_END
 95
        4
302
GRIDFORMAT
  1
GRIDFORMAT_BEGIN
 90
        0
 91
        1
 62
     0
 92
       -2
340
14
 93
        0
 40
0.045
309
GRIDFORMAT_END
 95
        8
302
GRIDFORMAT
  1
GRIDFORMAT_BEGIN
 90
        0
 91
        1
 62
     0
 92
       -2
340
14
 93
        0
 40
0.045
309
GRIDFORMAT_END
 95
       16
302
GRIDFORMAT
  1
GRIDFORMAT_BEGIN
 90
        0
 91
        1
 62
     0
 92
       -2
340
14
 93
        0
 40
0.045
309
GRIDFORMAT_END
 95
       32
302
GRIDFORMAT
  1
GRIDFORMAT_BEGIN
 90
        0
 91
        1
 62
     0
 92
       -2
340
14
 93
        0
 40
0.045
309
GRIDFORMAT_END
309
TABLEFORMAT_END
  1
CELLSTYLE_BEGIN
 90
        2
 91
        1
300
_HEADER
309
CELLSTYLE_END
300
CELLSTYLE
  1
TABLEFORMAT_BEGIN
 90
        5
170
     1
 91
        0
 92
        0
 62
   257
 93
        1
300
CONTENTFORMAT
  1
CONTENTFORMAT_BEGIN
 90
        0
 91
        0
 92
        4
 93
        0
300

 40
0.0
140
1.0
 94
        2
 62
     0
340
11
144
0.18
309
CONTENTFORMAT_END
171
     1
301
MARGIN
  1
CELLMARGIN_BEGIN
 40
0.06
 40
0.06
 40
0.06
 40
0.06
 40
0.06
 40
0.06
309
CELLMARGIN_END
 94
        6
 95
        1
302
GRIDFORMAT
  1
GRIDFORMAT_BEGIN
 90
        0
 91
        1
 62
     0
 92
       -2
340
14
 93
        0
 40
0.045
309
GRIDFORMAT_END
 95
        2
302
GRIDFORMAT
  1
GRIDFORMAT_BEGIN
 90
        0
 91
        1
 62
     0
 92
       -2
340
14
 93
        0
 40
0.045
309
GRIDFORMAT_END
 95
        4
302
GRIDFORMAT
  1
GRIDFORMAT_BEGIN
 90
        0
 91
        1
 62
     0
 92
       -2
340
14
 93
        0
 40
0.045
309
GRIDFORMAT_END
 95
        8
302
GRIDFORMAT
  1
GRIDFORMAT_BEGIN
 90
        0
 91
        1
 62
     0
 92
       -2
340
14
 93
        0
 40
0.045
309
GRIDFORMAT_END
 95
       16
302
GRIDFORMAT
  1
GRIDFORMAT_BEGIN
 90
        0
 91
        1
 62
     0
 92
       -2
340
14
 93
        0
 40
0.045
309
GRIDFORMAT_END
 95
       32
302
GRIDFORMAT
  1
GRIDFORMAT_BEGIN
 90
        0
 91
        1
 62
     0
 92
       -2
340
14
 93
        0
 40
0.045
309
GRIDFORMAT_END
309
TABLEFORMAT_END
  1
CELLSTYLE_BEGIN
 90
        3
 91
        2
300
_DATA
309
CELLSTYLE_END
  0
ENDSEC
  0
EOF