0
SECTION
  2
HEADER
  9
$ACADVER
  1
AC1027
  9
$ACADMAINTVER
 70
     8
  9
$DWGCODEPAGE
  3
ANSI_1252
  9
$REQUIREDVERSIONS
160
                 0
  9
$COMMENTS
  1
File was created by Cadenas
  9
$CUSTOMPROPERTYTAG
  1
NN
  9
$CUSTOMPROPERTY
  1
Grip Tight Two-Bolt Flange Metric Bore
  9
$CUSTOMPROPERTYTAG
  1
NT
  9
$CUSTOMPROPERTY
  1
GT Normal Duty 2 Bolt Flange Bearings
  9
$CUSTOMPROPERTYTAG
  1
NB
  9
$CUSTOMPROPERTY
  1
129329
  9
$CUSTOMPROPERTYTAG
  1
NBSYN
  9
$CUSTOMPROPERTY
  1
$PN.$LUBE.
  9
$CUSTOMPROPERTYTAG
  1
LINA
  9
$CUSTOMPROPERTY
  1
129329
  9
$CUSTOMPROPERTYTAG
  1
SERIES
  9
$CUSTOMPROPERTY
  1
211
  9
$CUSTOMPROPERTYTAG
  1
SS
  9
$CUSTOMPROPERTY
  1
55
  9
$CUSTOMPROPERTYTAG
  1
PN
  9
$CUSTOMPROPERTY
  1
129329
  9
$CUSTOMPROPERTYTAG
  1
DESCRIPTION
  9
$CUSTOMPROPERTY
  1
F2B-GT-55M
  9
$CUSTOMPROPERTYTAG
  1
A
  9
$CUSTOMPROPERTY
  1
48.8
  9
$CUSTOMPROPERTYTAG
  1
B
  9
$CUSTOMPROPERTY
  1
219.1
  9
$CUSTOMPROPERTYTAG
  1
C
  9
$CUSTOMPROPERTY
  1
54.8
  9
$CUSTOMPROPERTYTAG
  1
D
  9
$CUSTOMPROPERTY
  1
184.2
  9
$CUSTOMPROPERTYTAG
  1
F
  9
$CUSTOMPROPERTY
  1
M16
  9
$CUSTOMPROPERTYTAG
  1
H
  9
$CUSTOMPROPERTY
  1
17.5
  9
$CUSTOMPROPERTYTAG
  1
J
  9
$CUSTOMPROPERTY
  1
13.5
  9
$CUSTOMPROPERTYTAG
  1
L
  9
$CUSTOMPROPERTY
  1
82.6
  9
$CUSTOMPROPERTYTAG
  1
M
  9
$CUSTOMPROPERTY
  1
133.4
  9
$CUSTOMPROPERTYTAG
  1
N
  9
$CUSTOMPROPERTY
  1
57.5
  9
$CUSTOMPROPERTYTAG
  1
Z
  9
$CUSTOMPROPERTY
  1
54.0
  9
$CUSTOMPROPERTYTAG
  1
COMPANY
  9
$CUSTOMPROPERTY
  1
baldor
  9
$INSBASE
 10
0.0
 20
0.0
 30
0.0
  9
$EXTMIN
 10
1.000000000000000E+20
 20
1.000000000000000E+20
 30
1.000000000000000E+20
  9
$EXTMAX
 10
-1.000000000000000E+20
 20
-1.000000000000000E+20
 30
-1.000000000000000E+20
  9
$LIMMIN
 10
0.0
 20
0.0
  9
$LIMMAX
 10
420.0
 20
297.0
  9
$ORTHOMODE
 70
     0
  9
$REGENMODE
 70
     1
  9
$FILLMODE
 70
     1
  9
$QTEXTMODE
 70
     0
  9
$MIRRTEXT
 70
     1
  9
$LTSCALE
 40
1.0
  9
$ATTMODE
 70
     1
  9
$TEXTSIZE
 40
2.5
  9
$TRACEWID
 40
1.0
  9
$TEXTSTYLE
  7
Standard
  9
$CLAYER
  8
0
  9
$CELTYPE
  6
ByLayer
  9
$CECOLOR
 62
   256
  9
$CELTSCALE
 40
1.0
  9
$DISPSILH
 70
     0
  9
$DIMSCALE
 40
1.0
  9
$DIMASZ
 40
2.5
  9
$DIMEXO
 40
0.625
  9
$DIMDLI
 40
3.75
  9
$DIMRND
 40
0.0
  9
$DIMDLE
 40
0.0
  9
$DIMEXE
 40
1.25
  9
$DIMTP
 40
0.0
  9
$DIMTM
 40
0.0
  9
$DIMTXT
 40
2.5
  9
$DIMCEN
 40
2.5
  9
$DIMTSZ
 40
0.0
  9
$DIMTOL
 70
     0
  9
$DIMLIM
 70
     0
  9
$DIMTIH
 70
     0
  9
$DIMTOH
 70
     0
  9
$DIMSE1
 70
     0
  9
$DIMSE2
 70
     0
  9
$DIMTAD
 70
     1
  9
$DIMZIN
 70
     8
  9
$DIMBLK
  1

  9
$DIMASO
 70
     1
  9
$DIMSHO
 70
     1
  9
$DIMPOST
  1

  9
$DIMAPOST
  1

  9
$DIMALT
 70
     0
  9
$DIMALTD
 70
     3
  9
$DIMALTF
 40
0.03937007874016
  9
$DIMLFAC
 40
1.0
  9
$DIMTOFL
 70
     1
  9
$DIMTVP
 40
0.0
  9
$DIMTIX
 70
     0
  9
$DIMSOXD
 70
     0
  9
$DIMSAH
 70
     0
  9
$DIMBLK1
  1

  9
$DIMBLK2
  1

  9
$DIMSTYLE
  2
ISO-25
  9
$DIMCLRD
 70
     0
  9
$DIMCLRE
 70
     0
  9
$DIMCLRT
 70
     0
  9
$DIMTFAC
 40
1.0
  9
$DIMGAP
 40
0.625
  9
$DIMJUST
 70
     0
  9
$DIMSD1
 70
     0
  9
$DIMSD2
 70
     0
  9
$DIMTOLJ
 70
     0
  9
$DIMTZIN
 70
     8
  9
$DIMALTZ
 70
     0
  9
$DIMALTTZ
 70
     0
  9
$DIMUPT
 70
     0
  9
$DIMDEC
 70
     2
  9
$DIMTDEC
 70
     2
  9
$DIMALTU
 70
     2
  9
$DIMALTTD
 70
     3
  9
$DIMTXSTY
  7
Standard
  9
$DIMAUNIT
 70
     0
  9
$DIMADEC
 70
     0
  9
$DIMALTRND
 40
0.0
  9
$DIMAZIN
 70
     0
  9
$DIMDSEP
 70
    44
  9
$DIMATFIT
 70
     3
  9
$DIMFRAC
 70
     0
  9
$DIMLDRBLK
  1

  9
$DIMLUNIT
 70
     2
  9
$DIMLWD
 70
    -2
  9
$DIMLWE
 70
    -2
  9
$DIMTMOVE
 70
     0
  9
$DIMFXL
 40
1.0
  9
$DIMFXLON
 70
     0
  9
$DIMJOGANG
 40
0.7853981633974483
  9
$DIMTFILL
 70
     0
  9
$DIMTFILLCLR
 70
     0
  9
$DIMARCSYM
 70
     0
  9
$DIMLTYPE
  6

  9
$DIMLTEX1
  6

  9
$DIMLTEX2
  6

  9
$DIMTXTDIRECTION
 70
     0
  9
$LUNITS
 70
     2
  9
$LUPREC
 70
     4
  9
$SKETCHINC
 40
1.0
  9
$FILLETRAD
 40
10.0
  9
$AUNITS
 70
     0
  9
$AUPREC
 70
     0
  9
$MENU
  1
.
  9
$ELEVATION
 40
0.0
  9
$PELEVATION
 40
0.0
  9
$THICKNESS
 40
0.0
  9
$LIMCHECK
 70
     0
  9
$CHAMFERA
 40
0.0
  9
$CHAMFERB
 40
0.0
  9
$CHAMFERC
 40
0.0
  9
$CHAMFERD
 40
0.0
  9
$SKPOLY
 70
     0
  9
$TDCREATE
 40
2458168.995056713
  9
$TDUCREATE
 40
2458168.953390046
  9
$TDUPDATE
 40
2458168.995056898
  9
$TDUUPDATE
 40
2458168.953390231
  9
$TDINDWG
 40
0.0000000116
  9
$TDUSRTIMER
 40
0.0000000116
  9
$USRTIMER
 70
     1
  9
$ANGBASE
 50
0.0
  9
$ANGDIR
 70
     0
  9
$PDMODE
 70
     0
  9
$PDSIZE
 40
0.0
  9
$PLINEWID
 40
0.0
  9
$SPLFRAME
 70
     0
  9
$SPLINETYPE
 70
     6
  9
$SPLINESEGS
 70
     8
  9
$HANDSEED
  5
21A
  9
$SURFTAB1
 70
     6
  9
$SURFTAB2
 70
     6
  9
$SURFTYPE
 70
     6
  9
$SURFU
 70
     6
  9
$SURFV
 70
     6
  9
$UCSBASE
  2

  9
$UCSNAME
  2

  9
$UCSORG
 10
0.0
 20
0.0
 30
0.0
  9
$UCSXDIR
 10
1.0
 20
0.0
 30
0.0
  9
$UCSYDIR
 10
0.0
 20
1.0
 30
0.0
  9
$UCSORTHOREF
  2

  9
$UCSORTHOVIEW
 70
     0
  9
$UCSORGTOP
 10
0.0
 20
0.0
 30
0.0
  9
$UCSORGBOTTOM
 10
0.0
 20
0.0
 30
0.0
  9
$UCSORGLEFT
 10
0.0
 20
0.0
 30
0.0
  9
$UCSORGRIGHT
 10
0.0
 20
0.0
 30
0.0
  9
$UCSORGFRONT
 10
0.0
 20
0.0
 30
0.0
  9
$UCSORGBACK
 10
0.0
 20
0.0
 30
0.0
  9
$PUCSBASE
  2

  9
$PUCSNAME
  2

  9
$PUCSORG
 10
0.0
 20
0.0
 30
0.0
  9
$PUCSXDIR
 10
1.0
 20
0.0
 30
0.0
  9
$PUCSYDIR
 10
0.0
 20
1.0
 30
0.0
  9
$PUCSORTHOREF
  2

  9
$PUCSORTHOVIEW
 70
     0
  9
$PUCSORGTOP
 10
0.0
 20
0.0
 30
0.0
  9
$PUCSORGBOTTOM
 10
0.0
 20
0.0
 30
0.0
  9
$PUCSORGLEFT
 10
0.0
 20
0.0
 30
0.0
  9
$PUCSORGRIGHT
 10
0.0
 20
0.0
 30
0.0
  9
$PUCSORGFRONT
 10
0.0
 20
0.0
 30
0.0
  9
$PUCSORGBACK
 10
0.0
 20
0.0
 30
0.0
  9
$USERI1
 70
     0
  9
$USERI2
 70
     0
  9
$USERI3
 70
     0
  9
$USERI4
 70
     0
  9
$USERI5
 70
     0
  9
$USERR1
 40
0.0
  9
$USERR2
 40
0.0
  9
$USERR3
 40
0.0
  9
$USERR4
 40
0.0
  9
$USERR5
 40
0.0
  9
$WORLDVIEW
 70
     1
  9
$SHADEDGE
 70
     3
  9
$SHADEDIF
 70
    70
  9
$TILEMODE
 70
     1
  9
$MAXACTVP
 70
    64
  9
$PINSBASE
 10
0.0
 20
0.0
 30
0.0
  9
$PLIMCHECK
 70
     0
  9
$PEXTMIN
 10
1.000000000000000E+20
 20
1.000000000000000E+20
 30
1.000000000000000E+20
  9
$PEXTMAX
 10
-1.000000000000000E+20
 20
-1.000000000000000E+20
 30
-1.000000000000000E+20
  9
$PLIMMIN
 10
0.0
 20
0.0
  9
$PLIMMAX
 10
420.0
 20
297.0
  9
$UNITMODE
 70
     0
  9
$VISRETAIN
 70
     1
  9
$PLINEGEN
 70
     0
  9
$PSLTSCALE
 70
     1
  9
$TREEDEPTH
 70
  3020
  9
$CMLSTYLE
  2
Standard
  9
$CMLJUST
 70
     0
  9
$CMLSCALE
 40
20.0
  9
$PROXYGRAPHICS
 70
     1
  9
$MEASUREMENT
 70
     1
  9
$CELWEIGHT
370
    -1
  9
$ENDCAPS
280
     0
  9
$JOINSTYLE
280
     0
  9
$LWDISPLAY
290
     0
  9
$INSUNITS
 70
     4
  9
$HYPERLINKBASE
  1

  9
$STYLESHEET
  1

  9
$XEDIT
290
     1
  9
$CEPSNTYPE
380
     0
  9
$PSTYLEMODE
290
     1
  9
$FINGERPRINTGUID
  2
{9344CD60-2B50-49FA-98B9-35227E033A97}
  9
$VERSIONGUID
  2
{FAEB1C32-E019-11D5-929B-00C0DF256EC4}
  9
$EXTNAMES
290
     1
  9
$PSVPSCALE
 40
0.0
  9
$OLESTARTUP
290
     0
  9
$SORTENTS
280
   127
  9
$INDEXCTL
280
     0
  9
$HIDETEXT
280
     1
  9
$XCLIPFRAME
280
     2
  9
$HALOGAP
280
     0
  9
$OBSCOLOR
 70
   257
  9
$OBSLTYPE
280
     0
  9
$INTERSECTIONDISPLAY
280
     0
  9
$INTERSECTIONCOLOR
 70
   257
  9
$DIMASSOC
280
     2
  9
$PROJECTNAME
  1

  9
$CAMERADISPLAY
290
     0
  9
$LENSLENGTH
 40
50.0
  9
$CAMERAHEIGHT
 40
0.0
  9
$STEPSPERSEC
 40
2.0
  9
$STEPSIZE
 40
6.0
  9
$3DDWFPREC
 40
2.0
  9
$PSOLWIDTH
 40
5.0
  9
$PSOLHEIGHT
 40
80.0
  9
$LOFTANG1
 40
1.570796326794897
  9
$LOFTANG2
 40
1.570796326794897
  9
$LOFTMAG1
 40
0.0
  9
$LOFTMAG2
 40
0.0
  9
$LOFTPARAM
 70
     7
  9
$LOFTNORMALS
280
     1
  9
$LATITUDE
 40
37.795
  9
$LONGITUDE
 40
-122.394
  9
$NORTHDIRECTION
 40
0.0
  9
$TIMEZONE
 70
 -8000
  9
$LIGHTGLYPHDISPLAY
280
     1
  9
$TILEMODELIGHTSYNCH
280
     1
  9
$CMATERIAL
347
44
  9
$SOLIDHIST
280
     0
  9
$SHOWHIST
280
     1
  9
$DWFFRAME
280
     2
  9
$DGNFRAME
280
     2
  9
$REALWORLDSCALE
290
     1
  9
$INTERFERECOLOR
 62
   256
  9
$CSHADOW
280
     0
  9
$SHADOWPLANELOCATION
 40
0.0
  0
ENDSEC
  0
SECTION
  2
CLASSES
  0
CLASS
  1
ACDBDICTIONARYWDFLT
  2
AcDbDictionaryWithDefault
  3
ObjectDBX Classes
 90
        0
 91
        4
280
     0
281
     0
  0
CLASS
  1
VISUALSTYLE
  2
AcDbVisualStyle
  3
ObjectDBX Classes
 90
     4095
 91
        4
280
     0
281
     0
  0
CLASS
  1
MATERIAL
  2
AcDbMaterial
  3
ObjectDBX Classes
 90
     1153
 91
        4
280
     0
281
     0
  0
CLASS
  1
SCALE
  2
AcDbScale
  3
ObjectDBX Classes
 90
     1153
 91
        4
280
     0
281
     0
  0
CLASS
  1
TABLESTYLE
  2
AcDbTableStyle
  3
ObjectDBX Classes
 90
     4095
 91
        4
280
     0
281
     0
  0
CLASS
  1
MLEADERSTYLE
  2
AcDbMLeaderStyle
  3
ACDB_MLEADERSTYLE_CLASS
 90
     4095
 91
        4
280
     0
281
     0
  0
CLASS
  1
SUN
  2
AcDbSun
  3
SCENEOE
 90
     1153
 91
        4
280
     0
281
     0
  0
CLASS
  1
DICTIONARYVAR
  2
AcDbDictionaryVar
  3
ObjectDBX Classes
 90
        0
 91
        4
280
     0
281
     0
  0
CLASS
  1
CELLSTYLEMAP
  2
AcDbCellStyleMap
  3
ObjectDBX Classes
 90
     1152
 91
        4
280
     0
281
     0
  0
ENDSEC
  0
SECTION
  2
TABLES
  0
TABLE
  2
VPORT
  5
8
330
0
100
AcDbSymbolTable
 70
     1
  0
VPORT
  5
29
330
8
100
AcDbSymbolTableRecord
100
AcDbViewportTableRecord
  2
*Active
 70
     0
 10
0.0
 20
0.0
 11
1.0
 21
1.0
 12
-27.60750000000002
 22
0.0
 13
0.0
 23
0.0
 14
10.0
 24
10.0
 15
10.0
 25
10.0
 16
0.0
 26
0.0
 36
1.0
 17
0.0
 27
0.0
 37
0.0
 40
223.482
 41
0.2704929256047466
 42
50.0
 43
0.0
 44
0.0
 50
0.0
 51
0.0
 71
     0
 72
   100
 73
     1
 74
     3
 75
     0
 76
     0
 77
     0
 78
     0
281
     0
 65
     1
110
0.0
120
0.0
130
0.0
111
1.0
121
0.0
131
0.0
112
0.0
122
1.0
132
0.0
 79
     0
146
0.0
348
2F
 60
     3
 61
     5
292
     1
282
     1
141
0.0
142
0.0
 63
   250
361
6D
  0
ENDTAB
  0
TABLE
  2
LTYPE
  5
5
330
0
100
AcDbSymbolTable
 70
     3
  0
LTYPE
  5
14
330
5
100
AcDbSymbolTableRecord
100
AcDbLinetypeTableRecord
  2
ByBlock
 70
     0
  3

 72
    65
 73
     0
 40
0.0
  0
LTYPE
  5
15
330
5
100
AcDbSymbolTableRecord
100
AcDbLinetypeTableRecord
  2
ByLayer
 70
     0
  3

 72
    65
 73
     0
 40
0.0
  0
LTYPE
  5
16
330
5
100
AcDbSymbolTableRecord
100
AcDbLinetypeTableRecord
  2
Continuous
 70
     0
  3
Solid line
 72
    65
 73
     0
 40
0.0
  0
LTYPE
  5
9E
330
5
100
AcDbSymbolTableRecord
100
AcDbLinetypeTableRecord
  2
Dashed
 70
     0
  3

 72
    65
 73
     2
 40
2.0
 49
1.0
 74
     0
 49
-1.0
 74
     0
  0
LTYPE
  5
11A
330
5
100
AcDbSymbolTableRecord
100
AcDbLinetypeTableRecord
  2
Center
 70
     0
  3

 72
    65
 73
     4
 40
1.5
 49
0.45
 74
     0
 49
-0.5
 74
     0
 49
0.05
 74
     0
 49
-0.5
 74
     0
  0
ENDTAB
  0
TABLE
  2
LAYER
  5
2
330
0
100
AcDbSymbolTable
 70
     7
  0
LAYER
  5
10
330
2
100
AcDbSymbolTableRecord
100
AcDbLayerTableRecord
  2
0
 70
     0
 62
     7
  6
Continuous
370
    -3
390
F
347
46
348
0
  0
LAYER
  5
72
330
2
100
AcDbSymbolTableRecord
100
AcDbLayerTableRecord
  2
AM_6
 70
     0
 62
    -2
  6
Continuous
370
    35
390
F
347
46
348
0
  0
LAYER
  5
9F
330
2
100
AcDbSymbolTableRecord
100
AcDbLayerTableRecord
  2
AM_9
 70
     0
 62
     6
  6
Dashed
370
    25
390
F
347
46
348
0
  0
LAYER
  5
D0
330
2
100
AcDbSymbolTableRecord
100
AcDbLayerTableRecord
  2
AM_4
 70
     0
 62
     7
  6
Continuous
370
    50
390
F
347
46
348
0
  0
LAYER
  5
11B
330
2
100
AcDbSymbolTableRecord
100
AcDbLayerTableRecord
  2
AM_7
 70
     0
 62
     7
  6
Center
370
    25
390
F
347
46
348
0
  0
LAYER
  5
129
330
2
100
AcDbSymbolTableRecord
100
AcDbLayerTableRecord
  2
AM_5
 70
     0
 62
     3
  6
Continuous
370
    25
390
F
347
46
348
0
  0
LAYER
  5
20D
330
2
100
AcDbSymbolTableRecord
100
AcDbLayerTableRecord
  2
ConnectionPoints
 70
     0
 62
     7
  6
Continuous
370
    50
390
F
347
46
348
0
  0
ENDTAB
  0
TABLE
  2
STYLE
  5
3
330
0
100
AcDbSymbolTable
 70
     1
  0
STYLE
  5
11
330
3
100
AcDbSymbolTableRecord
100
AcDbTextStyleTableRecord
  2
Standard
 70
     0
 40
0.0
 41
1.0
 50
0.0
 71
     0
 42
2.5
  3
txt
  4

  0
ENDTAB
  0
TABLE
  2
VIEW
  5
6
330
0
100
AcDbSymbolTable
 70
     0
  0
ENDTAB
  0
TABLE
  2
UCS
  5
7
330
0
100
AcDbSymbolTable
 70
     0
  0
ENDTAB
  0
TABLE
  2
APPID
  5
9
330
0
100
AcDbSymbolTable
 70
     1
  0
APPID
  5
12
330
9
100
AcDbSymbolTableRecord
100
AcDbRegAppTableRecord
  2
ACAD
 70
     0
  0
ENDTAB
  0
TABLE
  2
DIMSTYLE
  5
A
330
0
100
AcDbSymbolTable
 70
     1
100
AcDbDimStyleTable
  0
DIMSTYLE
105
27
330
A
100
AcDbSymbolTableRecord
100
AcDbDimStyleTableRecord
  2
ISO-25
 70
     0
 41
2.5
 42
0.625
 43
3.75
 44
1.25
 73
     0
 74
     0
 77
     1
 78
     8
140
2.5
141
2.5
143
0.03937007874016
147
0.625
171
     3
172
     1
178
     0
271
     2
272
     2
274
     3
278
    44
283
     0
284
     8
340
11
  0
ENDTAB
  0
TABLE
  2
BLOCK_RECORD
  5
1
330
0
100
AcDbSymbolTable
 70
     5
  0
BLOCK_RECORD
  5
1F
330
1
100
AcDbSymbolTableRecord
100
AcDbBlockTableRecord
  2
*Model_Space
340
22
 70
     0
280
     1
281
     0
  0
BLOCK_RECORD
  5
1B
330
1
100
AcDbSymbolTableRecord
100
AcDbBlockTableRecord
  2
*Paper_Space
340
1E
 70
     0
280
     1
281
     0
  0
BLOCK_RECORD
  5
23
330
1
100
AcDbSymbolTableRecord
100
AcDbBlockTableRecord
  2
*Paper_Space0
340
26
 70
     0
280
     1
281
     0
  0
BLOCK_RECORD
  5
6E
330
1
100
AcDbSymbolTableRecord
100
AcDbBlockTableRecord
  2
1_129329_2
340
0
102
{BLKREFS
331
6F
102
}
 70
     0
280
     1
281
     0
  0
BLOCK_RECORD
  5
88
330
1
100
AcDbSymbolTableRecord
100
AcDbBlockTableRecord
  2
2_129524_0_in_129329_2
340
0
102
{BLKREFS
331
89
102
}
 70
     0
280
     1
281
     0
  0
BLOCK_RECORD
  5
D4
330
1
100
AcDbSymbolTableRecord
100
AcDbBlockTableRecord
  2
3_129950_0_in_129329_2
340
0
102
{BLKREFS
331
D5
102
}
 70
     0
280
     1
281
     0
  0
BLOCK_RECORD
  5
12B
330
1
100
AcDbSymbolTableRecord
100
AcDbBlockTableRecord
  2
4_129498_0_in_129329_2
340
0
102
{BLKREFS
331
12C
102
}
 70
     0
280
     1
281
     0
  0
ENDTAB
  0
ENDSEC
  0
SECTION
  2
BLOCKS
  0
BLOCK
  5
20
330
1F
100
AcDbEntity
  8
0
100
AcDbBlockBegin
  2
*Model_Space
 70
     0
 10
0.0
 20
0.0
 30
0.0
  3
*Model_Space
  1

  0
ENDBLK
  5
21
330
1F
100
AcDbEntity
  8
0
100
AcDbBlockEnd
  0
BLOCK
  5
1C
330
1B
100
AcDbEntity
 67
     1
  8
0
100
AcDbBlockBegin
  2
*Paper_Space
 70
     0
 10
0.0
 20
0.0
 30
0.0
  3
*Paper_Space
  1

  0
ENDBLK
  5
1D
330
1B
100
AcDbEntity
 67
     1
  8
0
100
AcDbBlockEnd
  0
BLOCK
  5
24
330
23
100
AcDbEntity
  8
0
100
AcDbBlockBegin
  2
*Paper_Space0
 70
     0
 10
0.0
 20
0.0
 30
0.0
  3
*Paper_Space0
  1

  0
ENDBLK
  5
25
330
23
100
AcDbEntity
  8
0
100
AcDbBlockEnd
  0
BLOCK
  5
70
330
6E
100
AcDbEntity
  8
0
100
AcDbBlockBegin
  2
1_129329_2
 70
     2
 10
0.0
 20
0.0
 30
0.0
  3
1_129329_2
  1

  0
ATTDEF
  5
73
330
6E
100
AcDbEntity
  8
AM_6
100
AcDbText
 10
7.025
 20
109.55
 30
0.0
 40
0.5
  1
Grip Tight Two-Bolt Flange Metric Bore
100
AcDbAttributeDefinition
  3

  2
NN
 70
     8
280
     0
  0
ATTDEF
  5
74
330
6E
100
AcDbEntity
  8
AM_6
100
AcDbText
 10
7.025
 20
109.05
 30
0.0
 40
0.5
  1
GT Normal Duty 2 Bolt Flange Bearings
100
AcDbAttributeDefinition
  3

  2
NT
 70
     8
280
     0
  0
ATTDEF
  5
75
330
6E
100
AcDbEntity
  8
AM_6
100
AcDbText
 10
7.025
 20
108.55
 30
0.0
 40
0.5
  1
129329
100
AcDbAttributeDefinition
  3

  2
NB
 70
     8
280
     0
  0
ATTDEF
  5
76
330
6E
100
AcDbEntity
  8
AM_6
100
AcDbText
 10
7.025
 20
108.05
 30
0.0
 40
0.5
  1
$PN.$LUBE.
100
AcDbAttributeDefinition
  3

  2
NBSYN
 70
     8
280
     0
  0
ATTDEF
  5
77
330
6E
100
AcDbEntity
  8
AM_6
100
AcDbText
 10
7.025
 20
107.55
 30
0.0
 40
0.5
  1
129329
100
AcDbAttributeDefinition
  3

  2
LINA
 70
     8
280
     0
  0
ATTDEF
  5
78
330
6E
100
AcDbEntity
  8
AM_6
100
AcDbText
 10
7.025
 20
107.05
 30
0.0
 40
0.5
  1
211
100
AcDbAttributeDefinition
  3

  2
SERIES
 70
     8
280
     0
  0
ATTDEF
  5
79
330
6E
100
AcDbEntity
  8
AM_6
100
AcDbText
 10
7.025
 20
106.55
 30
0.0
 40
0.5
  1
55
100
AcDbAttributeDefinition
  3

  2
SS
 70
     8
280
     0
  0
ATTDEF
  5
7A
330
6E
100
AcDbEntity
  8
AM_6
100
AcDbText
 10
7.025
 20
106.05
 30
0.0
 40
0.5
  1
129329
100
AcDbAttributeDefinition
  3

  2
PN
 70
     8
280
     0
  0
ATTDEF
  5
7B
330
6E
100
AcDbEntity
  8
AM_6
100
AcDbText
 10
7.025
 20
105.55
 30
0.0
 40
0.5
  1
F2B-GT-55M
100
AcDbAttributeDefinition
  3

  2
DESCRIPTION
 70
     8
280
     0
  0
ATTDEF
  5
7C
330
6E
100
AcDbEntity
  8
AM_6
100
AcDbText
 10
7.025
 20
105.05
 30
0.0
 40
0.5
  1
48.8
100
AcDbAttributeDefinition
  3

  2
A
 70
     8
280
     0
  0
ATTDEF
  5
7D
330
6E
100
AcDbEntity
  8
AM_6
100
AcDbText
 10
7.025
 20
104.55
 30
0.0
 40
0.5
  1
219.1
100
AcDbAttributeDefinition
  3

  2
B
 70
     8
280
     0
  0
ATTDEF
  5
7E
330
6E
100
AcDbEntity
  8
AM_6
100
AcDbText
 10
7.025
 20
104.05
 30
0.0
 40
0.5
  1
54.8
100
AcDbAttributeDefinition
  3

  2
C
 70
     8
280
     0
  0
ATTDEF
  5
7F
330
6E
100
AcDbEntity
  8
AM_6
100
AcDbText
 10
7.025
 20
103.55
 30
0.0
 40
0.5
  1
184.2
100
AcDbAttributeDefinition
  3

  2
D
 70
     8
280
     0
  0
ATTDEF
  5
80
330
6E
100
AcDbEntity
  8
AM_6
100
AcDbText
 10
7.025
 20
103.05
 30
0.0
 40
0.5
  1
M16
100
AcDbAttributeDefinition
  3

  2
F
 70
     8
280
     0
  0
ATTDEF
  5
81
330
6E
100
AcDbEntity
  8
AM_6
100
AcDbText
 10
7.025
 20
102.55
 30
0.0
 40
0.5
  1
17.5
100
AcDbAttributeDefinition
  3

  2
H
 70
     8
280
     0
  0
ATTDEF
  5
82
330
6E
100
AcDbEntity
  8
AM_6
100
AcDbText
 10
7.025
 20
102.05
 30
0.0
 40
0.5
  1
13.5
100
AcDbAttributeDefinition
  3

  2
J
 70
     8
280
     0
  0
ATTDEF
  5
83
330
6E
100
AcDbEntity
  8
AM_6
100
AcDbText
 10
7.025
 20
101.55
 30
0.0
 40
0.5
  1
82.6
100
AcDbAttributeDefinition
  3

  2
L
 70
     8
280
     0
  0
ATTDEF
  5
84
330
6E
100
AcDbEntity
  8
AM_6
100
AcDbText
 10
7.025
 20
101.05
 30
0.0
 40
0.5
  1
133.4
100
AcDbAttributeDefinition
  3

  2
M
 70
     8
280
     0
  0
ATTDEF
  5
85
330
6E
100
AcDbEntity
  8
AM_6
100
AcDbText
 10
7.025
 20
100.55
 30
0.0
 40
0.5
  1
57.5
100
AcDbAttributeDefinition
  3

  2
N
 70
     8
280
     0
  0
ATTDEF
  5
86
330
6E
100
AcDbEntity
  8
AM_6
100
AcDbText
 10
7.025
 20
100.05
 30
0.0
 40
0.5
  1
54.0
100
AcDbAttributeDefinition
  3

  2
Z
 70
     8
280
     0
  0
ATTDEF
  5
87
330
6E
100
AcDbEntity
  8
AM_6
100
AcDbText
 10
7.025
 20
99.55000000000001
 30
0.0
 40
0.5
  1
baldor
100
AcDbAttributeDefinition
  3

  2
COMPANY
 70
     8
280
     0
  0
INSERT
  5
89
330
6E
100
AcDbEntity
  8
0
100
AcDbBlockReference
  2
2_129524_0_in_129329_2
 10
0.0
 20
0.0
 30
0.0
  0
INSERT
  5
D5
330
6E
100
AcDbEntity
  8
0
100
AcDbBlockReference
  2
3_129950_0_in_129329_2
 10
0.0
 20
0.0
 30
0.0
  0
INSERT
  5
12C
330
6E
100
AcDbEntity
  8
0
100
AcDbBlockReference
  2
4_129498_0_in_129329_2
 10
0.0
 20
0.0
 30
0.0
  0
ENDBLK
  5
71
330
6E
100
AcDbEntity
  8
0
100
AcDbBlockEnd
  0
BLOCK
  5
8A
330
88
100
AcDbEntity
  8
0
100
AcDbBlockBegin
  2
2_129524_0_in_129329_2
 70
     2
 10
0.0
 20
0.0
 30
0.0
  3
2_129524_0_in_129329_2
  1

  0
ATTDEF
  5
8C
330
88
100
AcDbEntity
  8
AM_6
100
AcDbText
 10
-3.599999999999996
 20
49.9960517450051
 30
0.0
 40
0.5
  1
INS-GT-M B
100
AcDbAttributeDefinition
  3

  2
NN
 70
     8
280
     0
  0
ATTDEF
  5
8D
330
88
100
AcDbEntity
  8
AM_6
100
AcDbText
 10
-3.599999999999996
 20
49.4960517450051
 30
0.0
 40
0.5
  1
GT Normal Duty Bearing Inserts
100
AcDbAttributeDefinition
  3

  2
NT
 70
     8
280
     0
  0
ATTDEF
  5
8E
330
88
100
AcDbEntity
  8
AM_6
100
AcDbText
 10
-3.599999999999996
 20
48.9960517450051
 30
0.0
 40
0.5
  1
129524
100
AcDbAttributeDefinition
  3

  2
NB
 70
     8
280
     0
  0
ATTDEF
  5
8F
330
88
100
AcDbEntity
  8
AM_6
100
AcDbText
 10
-3.599999999999996
 20
48.4960517450051
 30
0.0
 40
0.5
  1
$PN.
100
AcDbAttributeDefinition
  3

  2
NBSYN
 70
     8
280
     0
  0
ATTDEF
  5
90
330
88
100
AcDbEntity
  8
AM_6
100
AcDbText
 10
-3.599999999999996
 20
47.9960517450051
 30
0.0
 40
0.5
  1
129524
100
AcDbAttributeDefinition
  3

  2
LINA
 70
     8
280
     0
  0
ATTDEF
  5
91
330
88
100
AcDbEntity
  8
AM_6
100
AcDbText
 10
-3.599999999999996
 20
47.4960517450051
 30
0.0
 40
0.5
  1
211
100
AcDbAttributeDefinition
  3

  2
SERIES
 70
     8
280
     0
  0
ATTDEF
  5
92
330
88
100
AcDbEntity
  8
AM_6
100
AcDbText
 10
-3.599999999999996
 20
46.9960517450051
 30
0.0
 40
0.5
  1
129524
100
AcDbAttributeDefinition
  3

  2
PN
 70
     8
280
     0
  0
ATTDEF
  5
93
330
88
100
AcDbEntity
  8
AM_6
100
AcDbText
 10
-3.599999999999996
 20
46.4960517450051
 30
0.0
 40
0.5
  1
INS-GT-11
100
AcDbAttributeDefinition
  3

  2
DESCRIPTION
 70
     8
280
     0
  0
ATTDEF
  5
94
330
88
100
AcDbEntity
  8
AM_6
100
AcDbText
 10
-3.599999999999996
 20
45.9960517450051
 30
0.0
 40
0.5
  1
49.0
100
AcDbAttributeDefinition
  3

  2
A
 70
     8
280
     0
  0
ATTDEF
  5
95
330
88
100
AcDbEntity
  8
AM_6
100
AcDbText
 10
-3.599999999999996
 20
45.4960517450051
 30
0.0
 40
0.5
  1
22.1
100
AcDbAttributeDefinition
  3

  2
C
 70
     8
280
     0
  0
ATTDEF
  5
96
330
88
100
AcDbEntity
  8
AM_6
100
AcDbText
 10
-3.599999999999996
 20
44.9960517450051
 30
0.0
 40
0.5
  1
100.0
100
AcDbAttributeDefinition
  3

  2
D
 70
     8
280
     0
  0
ATTDEF
  5
97
330
88
100
AcDbEntity
  8
AM_6
100
AcDbText
 10
-3.599999999999996
 20
44.4960517450051
 30
0.0
 40
0.5
  1
6.4
100
AcDbAttributeDefinition
  3

  2
J
 70
     8
280
     0
  0
ATTDEF
  5
98
330
88
100
AcDbEntity
  8
AM_6
100
AcDbText
 10
-3.599999999999996
 20
43.9960517450051
 30
0.0
 40
0.5
  1
87.1
100
AcDbAttributeDefinition
  3

  2
L
 70
     8
280
     0
  0
ATTDEF
  5
99
330
88
100
AcDbEntity
  8
AM_6
100
AcDbText
 10
-3.599999999999996
 20
43.4960517450051
 30
0.0
 40
0.5
  1
#10 - 32 x 1/4
100
AcDbAttributeDefinition
  3

  2
N
 70
     8
280
     0
  0
ATTDEF
  5
9A
330
88
100
AcDbEntity
  8
AM_6
100
AcDbText
 10
-3.599999999999996
 20
42.9960517450051
 30
0.0
 40
0.5
  1
17.0
100
AcDbAttributeDefinition
  3

  2
W
 70
     8
280
     0
  0
ATTDEF
  5
9B
330
88
100
AcDbEntity
  8
AM_6
100
AcDbText
 10
-3.599999999999996
 20
42.4960517450051
 30
0.0
 40
0.5
  1
33.5
100
AcDbAttributeDefinition
  3

  2
X
 70
     8
280
     0
  0
ATTDEF
  5
9C
330
88
100
AcDbEntity
  8
AM_6
100
AcDbText
 10
-3.599999999999996
 20
41.9960517450051
 30
0.0
 40
0.5
  1
32.0
100
AcDbAttributeDefinition
  3

  2
Y
 70
     8
280
     0
  0
ATTDEF
  5
9D
330
88
100
AcDbEntity
  8
AM_6
100
AcDbText
 10
-3.599999999999996
 20
41.4960517450051
 30
0.0
 40
0.5
  1
baldor
100
AcDbAttributeDefinition
  3

  2
COMPANY
 70
     8
280
     0
  0
LINE
  5
A0
330
88
100
AcDbEntity
  8
AM_9
100
AcDbLine
 10
-49.025
 20
-32.48968253968254
 30
0.0
 11
-36.46249999999999
 21
-32.48968253968254
 31
0.0
  0
LINE
  5
A1
330
88
100
AcDbEntity
  8
AM_9
100
AcDbLine
 10
-36.46249999999999
 20
32.48968253968254
 30
0.0
 11
-49.025
 21
32.48968253968254
 31
0.0
  0
LINE
  5
A2
330
88
100
AcDbEntity
  8
AM_9
100
AcDbLine
 10
-36.46249999999999
 20
32.48968253968254
 30
0.0
 11
-36.46249999999999
 21
-32.48968253968254
 31
0.0
  0
LINE
  5
A3
330
88
100
AcDbEntity
  8
AM_9
100
AcDbLine
 10
-36.46249999999999
 20
-32.48968253968254
 30
0.0
 11
-8.599999999999996
 21
-33.46266247964636
 31
0.0
  0
LINE
  5
A4
330
88
100
AcDbEntity
  8
AM_9
100
AcDbLine
 10
-8.599999999999996
 20
33.46266247964636
 30
0.0
 11
-36.46249999999999
 21
32.48968253968254
 31
0.0
  0
LINE
  5
A5
330
88
100
AcDbEntity
  8
AM_9
100
AcDbLine
 10
-44.8375
 20
-35.60039682539682
 30
0.0
 11
-40.64999999999999
 21
-35.60039682539682
 31
0.0
  0
LINE
  5
A6
330
88
100
AcDbEntity
  8
AM_9
100
AcDbLine
 10
-40.64999999999999
 20
35.60039682539682
 30
0.0
 11
-44.8375
 21
35.60039682539682
 31
0.0
  0
LINE
  5
A7
330
88
100
AcDbEntity
  8
AM_9
100
AcDbLine
 10
-49.025
 20
37.82711111111111
 30
0.0
 11
-49.025
 21
-37.82711111111111
 31
0.0
  0
LINE
  5
A8
330
88
100
AcDbEntity
  8
AM_9
100
AcDbLine
 10
-49.025
 20
-37.82711111111111
 30
0.0
 11
-48.14099999999999
 21
-38.71111111111112
 31
0.0
  0
LINE
  5
A9
330
88
100
AcDbEntity
  8
AM_9
100
AcDbLine
 10
-48.14099999999999
 20
38.71111111111112
 30
0.0
 11
-49.025
 21
37.82711111111111
 31
0.0
  0
LINE
  5
AA
330
88
100
AcDbEntity
  8
AM_9
100
AcDbLine
 10
-40.64999999999999
 20
-3.400000000000001
 30
0.0
 11
-40.64999999999999
 21
-38.71111111111112
 31
0.0
  0
LINE
  5
AB
330
88
100
AcDbEntity
  8
AM_9
100
AcDbLine
 10
-40.64999999999999
 20
38.71111111111112
 30
0.0
 11
-40.64999999999999
 21
3.400000000000001
 31
0.0
  0
LINE
  5
AC
330
88
100
AcDbEntity
  8
AM_9
100
AcDbLine
 10
-40.64999999999999
 20
-38.71111111111112
 30
0.0
 11
-34.95
 21
-38.71111111111112
 31
0.0
  0
LINE
  5
AD
330
88
100
AcDbEntity
  8
AM_9
100
AcDbLine
 10
-34.95
 20
38.71111111111112
 30
0.0
 11
-40.64999999999999
 21
38.71111111111112
 31
0.0
  0
LINE
  5
AE
330
88
100
AcDbEntity
  8
AM_9
100
AcDbLine
 10
-12.85
 20
-38.71111111111112
 30
0.0
 11
-9.483999999999998
 21
-38.71111111111112
 31
0.0
  0
LINE
  5
AF
330
88
100
AcDbEntity
  8
AM_9
100
AcDbLine
 10
-9.483999999999998
 20
38.71111111111112
 30
0.0
 11
-12.85
 21
38.71111111111112
 31
0.0
  0
LINE
  5
B0
330
88
100
AcDbEntity
  8
AM_9
100
AcDbLine
 10
-48.14099999999999
 20
-3.400000000000001
 30
0.0
 11
-48.14099999999999
 21
-38.71111111111112
 31
0.0
  0
LINE
  5
B1
330
88
100
AcDbEntity
  8
AM_9
100
AcDbLine
 10
-48.14099999999999
 20
38.71111111111112
 30
0.0
 11
-48.14099999999999
 21
3.400000000000001
 31
0.0
  0
LINE
  5
B2
330
88
100
AcDbEntity
  8
AM_9
100
AcDbLine
 10
-44.8375
 20
-3.400000000000001
 30
0.0
 11
-44.8375
 21
-38.71111111111112
 31
0.0
  0
LINE
  5
B3
330
88
100
AcDbEntity
  8
AM_9
100
AcDbLine
 10
-44.8375
 20
38.71111111111112
 30
0.0
 11
-44.8375
 21
3.400000000000001
 31
0.0
  0
LINE
  5
B4
330
88
100
AcDbEntity
  8
AM_9
100
AcDbLine
 10
-48.14099999999999
 20
-38.71111111111112
 30
0.0
 11
-44.8375
 21
-38.71111111111112
 31
0.0
  0
LINE
  5
B5
330
88
100
AcDbEntity
  8
AM_9
100
AcDbLine
 10
-44.8375
 20
38.71111111111112
 30
0.0
 11
-48.14099999999999
 21
38.71111111111112
 31
0.0
  0
LINE
  5
B6
330
88
100
AcDbEntity
  8
AM_9
100
AcDbLine
 10
-9.483999999999998
 20
38.71111111111112
 30
0.0
 11
-9.483999999999998
 21
-38.71111111111112
 31
0.0
  0
LINE
  5
B7
330
88
100
AcDbEntity
  8
AM_9
100
AcDbLine
 10
-8.599999999999996
 20
37.82711111111111
 30
0.0
 11
-8.599999999999996
 21
-37.82711111111111
 31
0.0
  0
LINE
  5
B8
330
88
100
AcDbEntity
  8
AM_9
100
AcDbLine
 10
-8.599999999999996
 20
37.82711111111111
 30
0.0
 11
-9.483999999999998
 21
38.71111111111112
 31
0.0
  0
LINE
  5
B9
330
88
100
AcDbEntity
  8
AM_9
100
AcDbLine
 10
-9.483999999999998
 20
-38.71111111111112
 30
0.0
 11
-8.599999999999996
 21
-37.82711111111111
 31
0.0
  0
LINE
  5
BA
330
88
100
AcDbEntity
  8
AM_9
100
AcDbLine
 10
-31.58
 20
-47.79
 30
0.0
 11
-29.02
 21
-47.79
 31
0.0
  0
LINE
  5
BB
330
88
100
AcDbEntity
  8
AM_9
100
AcDbLine
 10
-29.02
 20
47.79
 30
0.0
 11
-31.58
 21
47.79
 31
0.0
  0
LINE
  5
BC
330
88
100
AcDbEntity
  8
AM_9
100
AcDbLine
 10
-34.95
 20
47.19396883195165
 30
0.0
 11
-34.95
 21
-47.19396883194894
 31
0.0
  0
ARC
  5
BD
330
88
100
AcDbEntity
  8
AM_9
100
AcDbCircle
 10
-34.066
 20
-47.19396883195164
 30
0.0
 40
0.8839999999999932
100
AcDbArc
 50
180.0
 51
248.5875329531156
  0
ARC
  5
BE
330
88
100
AcDbEntity
  8
AM_9
100
AcDbCircle
 10
-34.066
 20
47.19396883195164
 30
0.0
 40
0.8839999999999913
100
AcDbArc
 50
111.4124670468844
 51
180.0
  0
LINE
  5
BF
330
88
100
AcDbEntity
  8
AM_9
100
AcDbLine
 10
-12.85
 20
47.19396883195164
 30
0.0
 11
-12.85
 21
-47.19396883194893
 31
0.0
  0
ARC
  5
C0
330
88
100
AcDbEntity
  8
AM_9
100
AcDbCircle
 10
-13.73399999999998
 20
-47.19396883195164
 30
0.0
 40
0.8839999999999871
100
AcDbArc
 50
291.4124617569391
 51
0.0
  0
ARC
  5
C1
330
88
100
AcDbEntity
  8
AM_9
100
AcDbCircle
 10
-13.73399999999998
 20
47.19396883195164
 30
0.0
 40
0.8839999999999861
100
AcDbArc
 50
0.0
 51
68.58753824306093
  0
LINE
  5
C2
330
88
100
AcDbEntity
  8
AM_9
100
AcDbLine
 10
-34.38873015873016
 20
48.01695196947391
 30
0.0
 11
-34.38873015873016
 21
-48.01695196947391
 31
0.0
  0
ARC
  5
C3
330
88
100
AcDbEntity
  8
AM_9
100
AcDbCircle
 10
-23.8999999999976
 20
-21.2699999999927
 30
0.0
 40
28.73000000000767
100
AcDbArc
 50
248.5875329531168
 51
253.9103823492314
  0
ARC
  5
C4
330
88
100
AcDbEntity
  8
AM_9
100
AcDbCircle
 10
-23.89999999999816
 20
21.26999999999434
 30
0.0
 40
28.73000000000594
100
AcDbArc
 50
106.0896176507684
 51
111.4124670468834
  0
LINE
  5
C5
330
88
100
AcDbEntity
  8
AM_9
100
AcDbLine
 10
-31.86224799092199
 20
48.87462836067637
 30
0.0
 11
-31.86224799092199
 21
-48.87462836067637
 31
0.0
  0
LINE
  5
C6
330
88
100
AcDbEntity
  8
AM_9
100
AcDbLine
 10
-31.58
 20
48.66228504524587
 30
0.0
 11
-31.58
 21
-48.66228504520181
 31
0.0
  0
ARC
  5
C7
330
88
100
AcDbEntity
  8
AM_9
100
AcDbCircle
 10
-31.80099999999998
 20
-48.66228504524588
 30
0.0
 40
0.2209999999999886
100
AcDbArc
 50
253.9104013845535
 51
0.0
  0
ARC
  5
C8
330
88
100
AcDbEntity
  8
AM_9
100
AcDbCircle
 10
-31.80099999999998
 20
48.66228504524588
 30
0.0
 40
0.2209999999999823
100
AcDbArc
 50
0.0
 51
106.0895986154456
  0
LINE
  5
C9
330
88
100
AcDbEntity
  8
AM_9
100
AcDbLine
 10
-29.02
 20
49.3549226454338
 30
0.0
 11
-29.02
 21
-49.35492264537861
 31
0.0
  0
ARC
  5
CA
330
88
100
AcDbEntity
  8
AM_9
100
AcDbCircle
 10
-28.799
 20
-49.3549226454338
 30
0.0
 40
0.220999999999993
100
AcDbArc
 50
180.0
 51
260.1051547772589
  0
ARC
  5
CB
330
88
100
AcDbEntity
  8
AM_9
100
AcDbCircle
 10
-28.799
 20
49.3549226454338
 30
0.0
 40
0.2209999999999931
100
AcDbArc
 50
99.89484522274111
 51
180.0
  0
LINE
  5
CC
330
88
100
AcDbEntity
  8
AM_9
100
AcDbLine
 10
-28.83697674418604
 20
49.57263522408057
 30
0.0
 11
-28.83697674418604
 21
-49.57263522408057
 31
0.0
  0
LINE
  5
CD
330
88
100
AcDbEntity
  8
AM_9
100
AcDbLine
 10
-13.41126991725336
 20
48.0169519992706
 30
0.0
 11
-13.41126991725336
 21
-48.0169519992706
 31
0.0
  0
ARC
  5
CE
330
88
100
AcDbEntity
  8
AM_9
100
AcDbCircle
 10
-23.89999999999996
 20
-21.27000000000051
 30
0.0
 40
28.7299999999995
100
AcDbArc
 50
260.1051547772562
 51
291.4124668841168
  0
ARC
  5
CF
330
88
100
AcDbEntity
  8
AM_9
100
AcDbCircle
 10
-23.89999999999996
 20
21.27000000000051
 30
0.0
 40
28.7299999999995
100
AcDbArc
 50
68.58753311588316
 51
99.89484522274378
  0
LINE
  5
D1
330
88
100
AcDbEntity
  8
AM_4
100
AcDbLine
 10
-40.64999999999999
 20
3.400000000000001
 30
0.0
 11
-40.64999999999999
 21
-3.400000000000001
 31
0.0
  0
LINE
  5
D2
330
88
100
AcDbEntity
  8
AM_4
100
AcDbLine
 10
-48.14099999999999
 20
3.400000000000001
 30
0.0
 11
-48.14099999999999
 21
-3.400000000000001
 31
0.0
  0
LINE
  5
D3
330
88
100
AcDbEntity
  8
AM_4
100
AcDbLine
 10
-44.8375
 20
3.400000000000001
 30
0.0
 11
-44.8375
 21
-3.400000000000001
 31
0.0
  0
ENDBLK
  5
8B
330
88
100
AcDbEntity
  8
0
100
AcDbBlockEnd
  0
BLOCK
  5
D6
330
D4
100
AcDbEntity
  8
0
100
AcDbBlockBegin
  2
3_129950_0_in_129329_2
 70
     2
 10
0.0
 20
0.0
 30
0.0
  3
3_129950_0_in_129329_2
  1

  0
ATTDEF
  5
D8
330
D4
100
AcDbEntity
  8
AM_6
100
AcDbText
 10
-0.9999999999999982
 20
41.30000000000001
 30
0.0
 40
0.5
  1
Grip Tight Normal Duty Adapter and Nut Metric Bore
100
AcDbAttributeDefinition
  3

  2
NN
 70
     8
280
     0
  0
ATTDEF
  5
D9
330
D4
100
AcDbEntity
  8
AM_6
100
AcDbText
 10
-0.9999999999999982
 20
40.80000000000001
 30
0.0
 40
0.5
  1
GT and GTM Adapter & Lock Nut Assemblies
100
AcDbAttributeDefinition
  3

  2
NT
 70
     8
280
     0
  0
ATTDEF
  5
DA
330
D4
100
AcDbEntity
  8
AM_6
100
AcDbText
 10
-0.9999999999999982
 20
40.30000000000001
 30
0.0
 40
0.5
  1
129950
100
AcDbAttributeDefinition
  3

  2
NB
 70
     8
280
     0
  0
ATTDEF
  5
DB
330
D4
100
AcDbEntity
  8
AM_6
100
AcDbText
 10
-0.9999999999999982
 20
39.80000000000001
 30
0.0
 40
0.5
  1
$PN.
100
AcDbAttributeDefinition
  3

  2
NBSYN
 70
     8
280
     0
  0
ATTDEF
  5
DC
330
D4
100
AcDbEntity
  8
AM_6
100
AcDbText
 10
-0.9999999999999982
 20
39.30000000000001
 30
0.0
 40
0.5
  1
129950
100
AcDbAttributeDefinition
  3

  2
LINA
 70
     8
280
     0
  0
ATTDEF
  5
DD
330
D4
100
AcDbEntity
  8
AM_6
100
AcDbText
 10
-0.9999999999999982
 20
38.80000000000001
 30
0.0
 40
0.5
  1
211
100
AcDbAttributeDefinition
  3

  2
SERIES
 70
     8
280
     0
  0
ATTDEF
  5
DE
330
D4
100
AcDbEntity
  8
AM_6
100
AcDbText
 10
-0.9999999999999982
 20
38.30000000000001
 30
0.0
 40
0.5
  1
55
100
AcDbAttributeDefinition
  3

  2
SS
 70
     8
280
     0
  0
ATTDEF
  5
DF
330
D4
100
AcDbEntity
  8
AM_6
100
AcDbText
 10
-0.9999999999999982
 20
37.80000000000001
 30
0.0
 40
0.5
  1
129950
100
AcDbAttributeDefinition
  3

  2
PN
 70
     8
280
     0
  0
ATTDEF
  5
E0
330
D4
100
AcDbEntity
  8
AM_6
100
AcDbText
 10
-0.9999999999999982
 20
37.30000000000001
 30
0.0
 40
0.5
  1
AN-GT-11-55M
100
AcDbAttributeDefinition
  3

  2
DESCRIPTION
 70
     8
280
     0
  0
ATTDEF
  5
E1
330
D4
100
AcDbEntity
  8
AM_6
100
AcDbText
 10
-0.9999999999999982
 20
36.80000000000001
 30
0.0
 40
0.5
  1
48.8
100
AcDbAttributeDefinition
  3

  2
A
 70
     8
280
     0
  0
ATTDEF
  5
E2
330
D4
100
AcDbEntity
  8
AM_6
100
AcDbText
 10
-0.9999999999999982
 20
36.30000000000001
 30
0.0
 40
0.5
  1
24.0
100
AcDbAttributeDefinition
  3

  2
C
 70
     8
280
     0
  0
ATTDEF
  5
E3
330
D4
100
AcDbEntity
  8
AM_6
100
AcDbText
 10
-0.9999999999999982
 20
35.80000000000001
 30
0.0
 40
0.5
  1
100.0
100
AcDbAttributeDefinition
  3

  2
D
 70
     8
280
     0
  0
ATTDEF
  5
E4
330
D4
100
AcDbEntity
  8
AM_6
100
AcDbText
 10
-0.9999999999999982
 20
35.30000000000001
 30
0.0
 40
0.5
  1
6.8
100
AcDbAttributeDefinition
  3

  2
J
 70
     8
280
     0
  0
ATTDEF
  5
E5
330
D4
100
AcDbEntity
  8
AM_6
100
AcDbText
 10
-0.9999999999999982
 20
34.80000000000001
 30
0.0
 40
0.5
  1
82.6
100
AcDbAttributeDefinition
  3

  2
L
 70
     8
280
     0
  0
ATTDEF
  5
E6
330
D4
100
AcDbEntity
  8
AM_6
100
AcDbText
 10
-0.9999999999999982
 20
34.30000000000001
 30
0.0
 40
0.5
  1
10 - 32 x 1/4
100
AcDbAttributeDefinition
  3

  2
N
 70
     8
280
     0
  0
ATTDEF
  5
E7
330
D4
100
AcDbEntity
  8
AM_6
100
AcDbText
 10
-0.9999999999999982
 20
33.80000000000001
 30
0.0
 40
0.5
  1
17.9
100
AcDbAttributeDefinition
  3

  2
W
 70
     8
280
     0
  0
ATTDEF
  5
E8
330
D4
100
AcDbEntity
  8
AM_6
100
AcDbText
 10
-0.9999999999999982
 20
33.30000000000001
 30
0.0
 40
0.5
  1
30.2
100
AcDbAttributeDefinition
  3

  2
X
 70
     8
280
     0
  0
ATTDEF
  5
E9
330
D4
100
AcDbEntity
  8
AM_6
100
AcDbText
 10
-0.9999999999999982
 20
32.80000000000001
 30
0.0
 40
0.5
  1
31.0
100
AcDbAttributeDefinition
  3

  2
Y
 70
     8
280
     0
  0
ATTDEF
  5
EA
330
D4
100
AcDbEntity
  8
AM_6
100
AcDbText
 10
-0.9999999999999982
 20
32.30000000000001
 30
0.0
 40
0.5
  1
baldor
100
AcDbAttributeDefinition
  3

  2
COMPANY
 70
     8
280
     0
  0
LWPOLYLINE
  5
EB
330
D4
100
AcDbEntity
  8
AM_9
100
AcDbPolyline
 90
        7
 70
     0
 43
0.0
 10
-53.14000000000001
 20
1.573126210840529
 10
-53.32413300937852
 20
1.007833907967294
 10
-53.43269273834384
 20
0.3877169251083675
 10
-53.4470789607731
 20
-0.1880093895046154
 10
-53.37551100250208
 20
-0.7788755175501816
 10
-53.27508416842862
 20
-1.185221670905362
 10
-53.14000000000001
 20
-1.573126210840527
  0
LWPOLYLINE
  5
EC
330
D4
100
AcDbEntity
  8
AM_9
100
AcDbPolyline
 90
       13
 70
     0
 43
0.0
 10
-49.23602335735884
 20
1.131000082422376
 10
-49.41201799967261
 20
1.397570535542927
 10
-49.67425178691457
 20
1.687635506788801
 10
-49.98012841563292
 20
1.931324085155828
 10
-50.33120488250192
 20
2.126541969828862
 10
-50.7094460362877
 20
2.262060270250743
 10
-51.11444850899974
 20
2.334858318776183
 10
-51.52593701984006
 20
2.340048778960232
 10
-51.93748399510134
 20
2.275401654085241
 10
-52.33238100061534
 20
2.142921203711147
 10
-52.69785844327784
 20
1.945611953523768
 10
-53.02444423481025
 20
1.689149747026046
 10
-53.14000000000001
 20
1.573126210840529
  0
LWPOLYLINE
  5
ED
330
D4
100
AcDbEntity
  8
AM_9
100
AcDbPolyline
 90
       14
 70
     0
 43
0.0
 10
-53.14000000000001
 20
-1.573126210840527
 10
-53.12958791224754
 20
-1.584255078300568
 10
-52.83641622545871
 20
-1.847762736469322
 10
-52.50431621019954
 20
-2.060246590490616
 10
-52.13179465045198
 20
-2.219425277234079
 10
-51.73822052319353
 20
-2.315710987867398
 10
-51.32559788833982
 20
-2.345948899192014
 10
-50.91365384239189
 20
-2.30759023038093
 10
-50.51098927655258
 20
-2.199543636981113
 10
-50.13227411035051
 20
-2.025426688818674
 10
-49.79166530702318
 20
-1.790793162322888
 10
-49.49612000932292
 20
-1.501555327446133
 10
-49.26047183361949
 20
-1.172626591703766
 10
-49.14193362236318
 20
-0.9459600051255207
  0
CIRCLE
  5
EE
330
D4
100
AcDbEntity
  8
AM_9
100
AcDbCircle
 10
-51.35
 20
0.0
 30
0.0
 40
1.981200000000003
  0
LINE
  5
EF
330
D4
100
AcDbEntity
  8
AM_9
100
AcDbLine
 10
-53.14000000000001
 20
1.573126210840529
 30
0.0
 11
-53.14
 21
3.4
 31
0.0
  0
LINE
  5
F0
330
D4
100
AcDbEntity
  8
AM_9
100
AcDbLine
 10
-53.14
 20
-3.4
 30
0.0
 11
-53.14000000000001
 21
-1.573126210840527
 31
0.0
  0
LINE
  5
F1
330
D4
100
AcDbEntity
  8
AM_9
100
AcDbLine
 10
-39.0
 20
31.68238461632895
 30
0.0
 11
-54.09999999999999
 21
31.68238461632895
 31
0.0
  0
LINE
  5
F2
330
D4
100
AcDbEntity
  8
AM_9
100
AcDbLine
 10
-39.00000000000001
 20
33.11115769404977
 30
0.0
 11
-39.95999999999999
 21
33.94544150378838
 31
0.0
  0
LINE
  5
F3
330
D4
100
AcDbEntity
  8
AM_9
100
AcDbLine
 10
-39.95999999999999
 20
33.94544150378838
 30
0.0
 11
-53.14
 21
33.94544150378838
 31
0.0
  0
LINE
  5
F4
330
D4
100
AcDbEntity
  8
AM_9
100
AcDbLine
 10
-53.14
 20
33.94544150378838
 30
0.0
 11
-54.1
 21
33.11115769404975
 31
0.0
  0
LINE
  5
F5
330
D4
100
AcDbEntity
  8
AM_9
100
AcDbLine
 10
-39.0
 20
-31.68238461632896
 30
0.0
 11
-54.09999999999999
 21
-31.68238461632896
 31
0.0
  0
LINE
  5
F6
330
D4
100
AcDbEntity
  8
AM_9
100
AcDbLine
 10
-54.1
 20
-33.11115769404976
 30
0.0
 11
-53.14
 21
-33.94544150378839
 31
0.0
  0
LINE
  5
F7
330
D4
100
AcDbEntity
  8
AM_9
100
AcDbLine
 10
-53.14
 20
-33.94544150378839
 30
0.0
 11
-39.95999999999999
 21
-33.94544150378839
 31
0.0
  0
LINE
  5
F8
330
D4
100
AcDbEntity
  8
AM_9
100
AcDbLine
 10
-39.95999999999999
 20
-33.94544150378839
 30
0.0
 11
-39.0
 21
-33.11115769404978
 31
0.0
  0
LINE
  5
F9
330
D4
100
AcDbEntity
  8
AM_9
100
AcDbLine
 10
-39.0
 20
35.08238461632895
 30
0.0
 11
-54.09999999999999
 21
35.08238461632895
 31
0.0
  0
LINE
  5
FA
330
D4
100
AcDbEntity
  8
AM_9
100
AcDbLine
 10
-39.0
 20
-35.08238461632897
 30
0.0
 11
-54.09999999999999
 21
-35.08238461632897
 31
0.0
  0
LINE
  5
FB
330
D4
100
AcDbEntity
  8
AM_9
100
AcDbLine
 10
-46.55
 20
30.81111111111111
 30
0.0
 11
-54.09999999999999
 21
30.81111111111111
 31
0.0
  0
LINE
  5
FC
330
D4
100
AcDbEntity
  8
AM_9
100
AcDbLine
 10
-5.999999999999998
 20
27.47157621979489
 30
0.0
 11
-54.8
 21
27.47157621979489
 31
0.0
  0
LINE
  5
FD
330
D4
100
AcDbEntity
  8
AM_9
100
AcDbLine
 10
-54.8
 20
-27.5
 30
0.0
 11
-6.000000000000002
 21
-27.5
 31
0.0
  0
LINE
  5
FE
330
D4
100
AcDbEntity
  8
AM_9
100
AcDbLine
 10
-46.55
 20
30.7857445565514
 30
0.0
 11
-35.22500000000018
 21
30.7857445565514
 31
0.0
  0
LINE
  5
FF
330
D4
100
AcDbEntity
  8
AM_9
100
AcDbLine
 10
-46.55
 20
-30.81111111111111
 30
0.0
 11
-35.22500000000018
 21
-30.81111111111111
 31
0.0
  0
LINE
  5
100
330
D4
100
AcDbEntity
  8
AM_9
100
AcDbLine
 10
-5.999999999999998
 20
31.80711796368143
 30
0.0
 11
-5.999999999999998
 21
-31.83167059950744
 31
0.0
  0
LINE
  5
101
330
D4
100
AcDbEntity
  8
AM_9
100
AcDbLine
 10
-35.22500000000018
 20
30.7857445565514
 30
0.0
 11
-5.999999999999998
 21
31.80711796368143
 31
0.0
  0
LINE
  5
102
330
D4
100
AcDbEntity
  8
AM_9
100
AcDbLine
 10
-35.22500000000018
 20
30.7857445565514
 30
0.0
 11
-35.22500000000018
 21
-30.81111111111111
 31
0.0
  0
LINE
  5
103
330
D4
100
AcDbEntity
  8
AM_9
100
AcDbLine
 10
-35.22500000000018
 20
-30.81111111111111
 30
0.0
 11
-5.999999999999998
 21
-31.83167059950744
 31
0.0
  0
LINE
  5
104
330
D4
100
AcDbEntity
  8
AM_9
100
AcDbLine
 10
-42.775
 20
-33.76111111111113
 30
0.0
 11
-39.0
 21
-33.76111111111113
 31
0.0
  0
LINE
  5
105
330
D4
100
AcDbEntity
  8
AM_9
100
AcDbLine
 10
-39.0
 20
33.76111111111113
 30
0.0
 11
-42.775
 21
33.76111111111113
 31
0.0
  0
LINE
  5
106
330
D4
100
AcDbEntity
  8
AM_9
100
AcDbLine
 10
-42.775
 20
37.12411111111111
 30
0.0
 11
-42.775
 21
-37.12411111111111
 31
0.0
  0
LINE
  5
107
330
D4
100
AcDbEntity
  8
AM_9
100
AcDbLine
 10
-46.55
 20
37.12411111111111
 30
0.0
 11
-46.55
 21
-37.12411111111111
 31
0.0
  0
LINE
  5
108
330
D4
100
AcDbEntity
  8
AM_9
100
AcDbLine
 10
-46.55
 20
-37.12411111111111
 30
0.0
 11
-42.775
 21
-37.12411111111111
 31
0.0
  0
LINE
  5
109
330
D4
100
AcDbEntity
  8
AM_9
100
AcDbLine
 10
-42.775
 20
37.12411111111111
 30
0.0
 11
-46.55
 21
37.12411111111111
 31
0.0
  0
LINE
  5
10A
330
D4
100
AcDbEntity
  8
AM_9
100
AcDbLine
 10
-53.14
 20
-37.34544150378839
 30
0.0
 11
-54.1
 21
-36.51115769404976
 31
0.0
  0
LINE
  5
10B
330
D4
100
AcDbEntity
  8
AM_9
100
AcDbLine
 10
-39.95999999999999
 20
-37.3454415037884
 30
0.0
 11
-53.14
 21
-37.34544150378839
 31
0.0
  0
LINE
  5
10C
330
D4
100
AcDbEntity
  8
AM_9
100
AcDbLine
 10
-40.49999999999999
 20
-3.4
 30
0.0
 11
-38.99999999999999
 21
-3.4
 31
0.0
  0
LINE
  5
10D
330
D4
100
AcDbEntity
  8
AM_9
100
AcDbLine
 10
-40.50000000000001
 20
-41.3
 30
0.0
 11
-39.95999999999999
 21
-41.3
 31
0.0
  0
LINE
  5
10E
330
D4
100
AcDbEntity
  8
AM_9
100
AcDbLine
 10
-39.0
 20
-36.51115769404978
 30
0.0
 11
-39.95999999999999
 21
-37.3454415037884
 31
0.0
  0
LINE
  5
10F
330
D4
100
AcDbEntity
  8
AM_9
100
AcDbLine
 10
-39.0
 20
-4.4121
 30
0.0
 11
-39.0
 21
-40.34000000000002
 31
0.0
  0
LINE
  5
110
330
D4
100
AcDbEntity
  8
AM_9
100
AcDbLine
 10
-39.95999999999999
 20
-4.4121
 30
0.0
 11
-39.95999999999999
 21
-41.30000000000001
 31
0.0
  0
LINE
  5
111
330
D4
100
AcDbEntity
  8
AM_9
100
AcDbLine
 10
-39.95999999999999
 20
-41.30000000000001
 30
0.0
 11
-39.0
 21
-40.34000000000002
 31
0.0
  0
LINE
  5
112
330
D4
100
AcDbEntity
  8
AM_9
100
AcDbLine
 10
-54.1
 20
36.51115769404976
 30
0.0
 11
-53.14
 21
37.34544150378838
 31
0.0
  0
LINE
  5
113
330
D4
100
AcDbEntity
  8
AM_9
100
AcDbLine
 10
-38.99999999999999
 20
3.4
 30
0.0
 11
-40.49999999999999
 21
3.4
 31
0.0
  0
LINE
  5
114
330
D4
100
AcDbEntity
  8
AM_9
100
AcDbLine
 10
-53.14
 20
37.34544150378838
 30
0.0
 11
-39.95999999999999
 21
37.34544150378839
 31
0.0
  0
LINE
  5
115
330
D4
100
AcDbEntity
  8
AM_9
100
AcDbLine
 10
-39.95999999999999
 20
41.3
 30
0.0
 11
-40.50000000000001
 21
41.30000000000001
 31
0.0
  0
LINE
  5
116
330
D4
100
AcDbEntity
  8
AM_9
100
AcDbLine
 10
-39.95999999999999
 20
37.34544150378839
 30
0.0
 11
-39.0
 21
36.51115769404976
 31
0.0
  0
LINE
  5
117
330
D4
100
AcDbEntity
  8
AM_9
100
AcDbLine
 10
-39.0
 20
40.34000000000002
 30
0.0
 11
-39.95999999999999
 21
41.30000000000001
 31
0.0
  0
LINE
  5
118
330
D4
100
AcDbEntity
  8
AM_9
100
AcDbLine
 10
-39.0
 20
40.34000000000002
 30
0.0
 11
-39.0
 21
-4.25661
 31
0.0
  0
LINE
  5
119
330
D4
100
AcDbEntity
  8
AM_9
100
AcDbLine
 10
-39.95999999999999
 20
41.30000000000001
 30
0.0
 11
-39.95999999999999
 21
-4.25661
 31
0.0
  0
LINE
  5
11C
330
D4
100
AcDbEntity
  8
AM_7
100
AcDbLine
 10
-51.35
 20
-2.533650000000002
 30
0.0
 11
-51.35
 21
2.533650000000002
 31
0.0
  0
LINE
  5
11D
330
D4
100
AcDbEntity
  8
AM_4
100
AcDbLine
 10
-54.8
 20
30.7857445565514
 30
0.0
 11
-54.8
 21
-30.81111111111111
 31
0.0
  0
LINE
  5
11E
330
D4
100
AcDbEntity
  8
AM_4
100
AcDbLine
 10
-54.8
 20
30.7857445565514
 30
0.0
 11
-54.1
 21
30.7857445565514
 31
0.0
  0
LINE
  5
11F
330
D4
100
AcDbEntity
  8
AM_4
100
AcDbLine
 10
-54.8
 20
-30.81111111111111
 30
0.0
 11
-54.1
 21
-30.81111111111111
 31
0.0
  0
LINE
  5
120
330
D4
100
AcDbEntity
  8
AM_4
100
AcDbLine
 10
-54.09999999999999
 20
-3.4
 30
0.0
 11
-40.49999999999999
 21
-3.4
 31
0.0
  0
LINE
  5
121
330
D4
100
AcDbEntity
  8
AM_4
100
AcDbLine
 10
-54.1
 20
40.34
 30
0.0
 11
-54.1
 21
-40.34
 31
0.0
  0
LINE
  5
122
330
D4
100
AcDbEntity
  8
AM_4
100
AcDbLine
 10
-54.1
 20
-40.34
 30
0.0
 11
-53.14
 21
-41.3
 31
0.0
  0
LINE
  5
123
330
D4
100
AcDbEntity
  8
AM_4
100
AcDbLine
 10
-53.13999999999999
 20
-3.4
 30
0.0
 11
-53.14
 21
-41.3
 31
0.0
  0
LINE
  5
124
330
D4
100
AcDbEntity
  8
AM_4
100
AcDbLine
 10
-53.14
 20
-41.3
 30
0.0
 11
-40.50000000000001
 21
-41.3
 31
0.0
  0
LINE
  5
125
330
D4
100
AcDbEntity
  8
AM_4
100
AcDbLine
 10
-40.49999999999999
 20
3.4
 30
0.0
 11
-54.09999999999999
 21
3.4
 31
0.0
  0
LINE
  5
126
330
D4
100
AcDbEntity
  8
AM_4
100
AcDbLine
 10
-53.14
 20
41.3
 30
0.0
 11
-54.1
 21
40.34
 31
0.0
  0
LINE
  5
127
330
D4
100
AcDbEntity
  8
AM_4
100
AcDbLine
 10
-40.50000000000001
 20
41.30000000000001
 30
0.0
 11
-53.14
 21
41.3
 31
0.0
  0
LINE
  5
128
330
D4
100
AcDbEntity
  8
AM_4
100
AcDbLine
 10
-53.14
 20
41.3
 30
0.0
 11
-53.13999999999999
 21
3.4
 31
0.0
  0
ARC
  5
12A
330
D4
100
AcDbEntity
  8
AM_5
100
AcDbCircle
 10
-51.35000666668889
 20
0.0000000000000001
 30
0.0
 40
2.413
100
AcDbArc
 50
74.99999999999996
 51
15.0
  0
ENDBLK
  5
D7
330
D4
100
AcDbEntity
  8
0
100
AcDbBlockEnd
  0
BLOCK
  5
12D
330
12B
100
AcDbEntity
  8
0
100
AcDbBlockBegin
  2
4_129498_0_in_129329_2
 70
     2
 10
0.0
 20
0.0
 30
0.0
  3
4_129498_0_in_129329_2
  1

  0
ATTDEF
  5
12F
330
12B
100
AcDbEntity
  8
AM_6
100
AcDbText
 10
7.025
 20
109.55
 30
0.0
 40
0.5
  1
F2B-GT-M-B
100
AcDbAttributeDefinition
  3

  2
NN
 70
     8
280
     0
  0
ATTDEF
  5
130
330
12B
100
AcDbEntity
  8
AM_6
100
AcDbText
 10
7.025
 20
109.05
 30
0.0
 40
0.5
  1
GT Normal Duty 2 Bolt Flange Bearings
100
AcDbAttributeDefinition
  3

  2
NT
 70
     8
280
     0
  0
ATTDEF
  5
131
330
12B
100
AcDbEntity
  8
AM_6
100
AcDbText
 10
7.025
 20
108.55
 30
0.0
 40
0.5
  1
129498
100
AcDbAttributeDefinition
  3

  2
NB
 70
     8
280
     0
  0
ATTDEF
  5
132
330
12B
100
AcDbEntity
  8
AM_6
100
AcDbText
 10
7.025
 20
108.05
 30
0.0
 40
0.5
  1
$PN.$LUBE.
100
AcDbAttributeDefinition
  3

  2
NBSYN
 70
     8
280
     0
  0
ATTDEF
  5
133
330
12B
100
AcDbEntity
  8
AM_6
100
AcDbText
 10
7.025
 20
107.55
 30
0.0
 40
0.5
  1
129498
100
AcDbAttributeDefinition
  3

  2
LINA
 70
     8
280
     0
  0
ATTDEF
  5
134
330
12B
100
AcDbEntity
  8
AM_6
100
AcDbText
 10
7.025
 20
107.05
 30
0.0
 40
0.5
  1
211
100
AcDbAttributeDefinition
  3

  2
SERIES
 70
     8
280
     0
  0
ATTDEF
  5
135
330
12B
100
AcDbEntity
  8
AM_6
100
AcDbText
 10
7.025
 20
106.55
 30
0.0
 40
0.5
  1
100
100
AcDbAttributeDefinition
  3

  2
BOD
 70
     8
280
     0
  0
ATTDEF
  5
136
330
12B
100
AcDbEntity
  8
AM_6
100
AcDbText
 10
7.025
 20
106.05
 30
0.0
 40
0.5
  1
55
100
AcDbAttributeDefinition
  3

  2
SS
 70
     8
280
     0
  0
ATTDEF
  5
137
330
12B
100
AcDbEntity
  8
AM_6
100
AcDbText
 10
7.025
 20
105.55
 30
0.0
 40
0.5
  1
129498
100
AcDbAttributeDefinition
  3

  2
PN
 70
     8
280
     0
  0
ATTDEF
  5
138
330
12B
100
AcDbEntity
  8
AM_6
100
AcDbText
 10
7.025
 20
105.05
 30
0.0
 40
0.5
  1
F2B-GT-11
100
AcDbAttributeDefinition
  3

  2
DESCRIPTION
 70
     8
280
     0
  0
ATTDEF
  5
139
330
12B
100
AcDbEntity
  8
AM_6
100
AcDbText
 10
7.025
 20
104.55
 30
0.0
 40
0.5
  1
With Lube
100
AcDbAttributeDefinition
  3

  2
LUBE
 70
     8
280
     0
  0
ATTDEF
  5
13A
330
12B
100
AcDbEntity
  8
AM_6
100
AcDbText
 10
7.025
 20
104.05
 30
0.0
 40
0.5
  1
3.7
100
AcDbAttributeDefinition
  3

  2
WEIGHT
 70
     8
280
     0
  0
ATTDEF
  5
13B
330
12B
100
AcDbEntity
  8
AM_6
100
AcDbText
 10
7.025
 20
103.55
 30
0.0
 40
0.5
  1
48.8
100
AcDbAttributeDefinition
  3

  2
A
 70
     8
280
     0
  0
ATTDEF
  5
13C
330
12B
100
AcDbEntity
  8
AM_6
100
AcDbText
 10
7.025
 20
103.05
 30
0.0
 40
0.5
  1
219.1
100
AcDbAttributeDefinition
  3

  2
B
 70
     8
280
     0
  0
ATTDEF
  5
13D
330
12B
100
AcDbEntity
  8
AM_6
100
AcDbText
 10
7.025
 20
102.55
 30
0.0
 40
0.5
  1
54.8
100
AcDbAttributeDefinition
  3

  2
C
 70
     8
280
     0
  0
ATTDEF
  5
13E
330
12B
100
AcDbEntity
  8
AM_6
100
AcDbText
 10
7.025
 20
102.05
 30
0.0
 40
0.5
  1
184.2
100
AcDbAttributeDefinition
  3

  2
D
 70
     8
280
     0
  0
ATTDEF
  5
13F
330
12B
100
AcDbEntity
  8
AM_6
100
AcDbText
 10
7.025
 20
101.55
 30
0.0
 40
0.5
  1
M16
100
AcDbAttributeDefinition
  3

  2
F
 70
     8
280
     0
  0
ATTDEF
  5
140
330
12B
100
AcDbEntity
  8
AM_6
100
AcDbText
 10
7.025
 20
101.05
 30
0.0
 40
0.5
  1
17.5
100
AcDbAttributeDefinition
  3

  2
H
 70
     8
280
     0
  0
ATTDEF
  5
141
330
12B
100
AcDbEntity
  8
AM_6
100
AcDbText
 10
7.025
 20
100.55
 30
0.0
 40
0.5
  1
13.5
100
AcDbAttributeDefinition
  3

  2
J
 70
     8
280
     0
  0
ATTDEF
  5
142
330
12B
100
AcDbEntity
  8
AM_6
100
AcDbText
 10
7.025
 20
100.05
 30
0.0
 40
0.5
  1
82.6
100
AcDbAttributeDefinition
  3

  2
L
 70
     8
280
     0
  0
ATTDEF
  5
143
330
12B
100
AcDbEntity
  8
AM_6
100
AcDbText
 10
7.025
 20
99.55000000000001
 30
0.0
 40
0.5
  1
133.4
100
AcDbAttributeDefinition
  3

  2
M
 70
     8
280
     0
  0
ATTDEF
  5
144
330
12B
100
AcDbEntity
  8
AM_6
100
AcDbText
 10
7.025
 20
99.05000000000001
 30
0.0
 40
0.5
  1
57.5
100
AcDbAttributeDefinition
  3

  2
N
 70
     8
280
     0
  0
ATTDEF
  5
145
330
12B
100
AcDbEntity
  8
AM_6
100
AcDbText
 10
7.025
 20
98.55000000000001
 30
0.0
 40
0.5
  1
54.0
100
AcDbAttributeDefinition
  3

  2
Z
 70
     8
280
     0
  0
ATTDEF
  5
146
330
12B
100
AcDbEntity
  8
AM_6
100
AcDbText
 10
7.025
 20
98.05000000000001
 30
0.0
 40
0.5
  1
16.8
100
AcDbAttributeDefinition
  3

  2
F1
 70
     8
280
     0
  0
ATTDEF
  5
147
330
12B
100
AcDbEntity
  8
AM_6
100
AcDbText
 10
7.025
 20
97.55000000000001
 30
0.0
 40
0.5
  1
baldor
100
AcDbAttributeDefinition
  3

  2
COMPANY
 70
     8
280
     0
  0
LINE
  5
148
330
12B
100
AcDbEntity
  8
AM_9
100
AcDbLine
 10
-17.5
 20
-100.5
 30
0.0
 11
0.0
 21
-100.5
 31
0.0
  0
LINE
  5
149
330
12B
100
AcDbEntity
  8
AM_9
100
AcDbLine
 10
0.0
 20
-83.7
 30
0.0
 11
-17.5
 21
-83.7
 31
0.0
  0
LINE
  5
14A
330
12B
100
AcDbEntity
  8
AM_9
100
AcDbLine
 10
-17.5
 20
83.7
 30
0.0
 11
0.0
 21
83.7
 31
0.0
  0
LINE
  5
14B
330
12B
100
AcDbEntity
  8
AM_9
100
AcDbLine
 10
0.0
 20
100.5
 30
0.0
 11
-17.5
 21
100.5
 31
0.0
  0
LINE
  5
14C
330
12B
100
AcDbEntity
  8
AM_9
100
AcDbLine
 10
-4.375
 20
-57.14285714285715
 30
0.0
 11
0.0
 21
-57.14285714285715
 31
0.0
  0
LINE
  5
14D
330
12B
100
AcDbEntity
  8
AM_9
100
AcDbLine
 10
0.0
 20
57.14285714285715
 30
0.0
 11
-4.375
 21
57.14285714285715
 31
0.0
  0
LINE
  5
14E
330
12B
100
AcDbEntity
  8
AM_9
100
AcDbLine
 10
-4.374999999999999
 20
-55.71231593131951
 30
0.0
 11
0.0000000000000008
 21
-55.71231593131951
 31
0.0
  0
LINE
  5
14F
330
12B
100
AcDbEntity
  8
AM_9
100
AcDbLine
 10
-4.374999999999999
 20
55.71231593131948
 30
0.0
 11
0.0000000000000008
 21
55.71231593131948
 31
0.0
  0
LINE
  5
150
330
12B
100
AcDbEntity
  8
AM_9
100
AcDbLine
 10
-20.25000000000014
 20
55.14120712820795
 30
0.0
 11
-15.0
 21
55.14120712820797
 31
0.0
  0
LINE
  5
151
330
12B
100
AcDbEntity
  8
AM_9
100
AcDbLine
 10
-15.0
 20
59.11430539208006
 30
0.0
 11
-15.0
 21
41.0191859366676
 31
0.0
  0
LINE
  5
152
330
12B
100
AcDbEntity
  8
AM_9
100
AcDbLine
 10
-15.0
 20
58.98027417677239
 30
0.0
 11
-4.374999999999995
 21
58.98027417677239
 31
0.0
  0
LINE
  5
153
330
12B
100
AcDbEntity
  8
AM_9
100
AcDbLine
 10
-24.94132045613538
 20
59.11430539208006
 30
0.0
 11
-29.05867954386461
 21
59.11430539208006
 31
0.0
  0
LWPOLYLINE
  5
154
330
12B
100
AcDbEntity
  8
AM_9
100
AcDbPolyline
 90
        3
 70
     0
 43
0.0
 10
-29.3094010767585
 20
55.84947668103705
 10
-29.88415542367319
 20
55.05952530141818
 10
-30.46410161513776
 20
54.31801948466055
  0
LWPOLYLINE
  5
155
330
12B
100
AcDbEntity
  8
AM_9
100
AcDbPolyline
 90
        3
 70
     0
 43
0.0
 10
-27.0
 20
55.73223304703365
 10
-28.15470053837925
 20
55.76317934706674
 10
-29.3094010767585
 20
55.84947668103705
  0
LWPOLYLINE
  5
156
330
12B
100
AcDbEntity
  8
AM_9
100
AcDbPolyline
 90
        3
 70
     0
 43
0.0
 10
-23.53589838486223
 20
54.31801948466055
 10
-24.11324865405186
 20
55.05607256588019
 10
-24.69059892324149
 20
55.84947668103705
  0
LWPOLYLINE
  5
157
330
12B
100
AcDbEntity
  8
AM_9
100
AcDbPolyline
 90
        3
 70
     0
 43
0.0
 10
-24.69059892324149
 20
55.84947668103705
 10
-25.84010761707087
 20
55.76345274011197
 10
-27.0
 20
55.73223304703365
  0
LINE
  5
158
330
12B
100
AcDbEntity
  8
AM_9
100
AcDbLine
 10
-24.69059892324149
 20
55.84947668103705
 30
0.0
 11
-24.69059892324149
 21
57.73630975658988
 31
0.0
  0
LINE
  5
159
330
12B
100
AcDbEntity
  8
AM_9
100
AcDbLine
 10
-29.3094010767585
 20
55.84947668103705
 30
0.0
 11
-29.3094010767585
 21
57.73630975658988
 31
0.0
  0
LINE
  5
15A
330
12B
100
AcDbEntity
  8
AM_9
100
AcDbLine
 10
-40.5
 20
-50.0
 30
0.0
 11
-4.374999999999997
 21
-50.0
 31
0.0
  0
LINE
  5
15B
330
12B
100
AcDbEntity
  8
AM_9
100
AcDbLine
 10
-4.374999999999997
 20
50.0
 30
0.0
 11
-40.5
 21
50.0
 31
0.0
  0
LINE
  5
15C
330
12B
100
AcDbEntity
  8
AM_9
100
AcDbLine
 10
-24.69059892324149
 20
57.73630975658988
 30
0.0
 11
-24.32463629919614
 21
57.34853652638394
 31
0.0
  0
LWPOLYLINE
  5
15D
330
12B
100
AcDbEntity
  8
AM_9
100
AcDbPolyline
 90
        3
 70
     0
 43
0.0
 10
-27.0
 20
57.85355339059331
 10
-25.84529946162074
 20
57.82260709056019
 10
-24.69059892324149
 20
57.73630975658988
  0
LINE
  5
15E
330
12B
100
AcDbEntity
  8
AM_9
100
AcDbLine
 10
-29.67450527415733
 20
57.34946848456487
 30
0.0
 11
-29.3094010767585
 21
57.73630975658988
 31
0.0
  0
LWPOLYLINE
  5
15F
330
12B
100
AcDbEntity
  8
AM_9
100
AcDbPolyline
 90
        3
 70
     0
 43
0.0
 10
-29.3094010767585
 20
57.73630975658988
 10
-28.15989238292913
 20
57.82233369751496
 10
-27.0
 20
57.85355339059331
  0
LWPOLYLINE
  5
160
330
12B
100
AcDbEntity
  8
AM_9
100
AcDbPolyline
 90
        3
 70
     0
 43
0.0
 10
-22.38119784648299
 20
53.02104955629086
 10
-22.95595219339767
 20
53.63895305405956
 10
-23.53589838486223
 20
54.31801948466055
  0
LWPOLYLINE
  5
161
330
12B
100
AcDbEntity
  8
AM_9
100
AcDbPolyline
 90
        3
 70
     0
 43
0.0
 10
-30.46410161513776
 20
54.31801948466055
 10
-31.04145188432738
 20
53.64185900350709
 10
-31.61880215351701
 20
53.02104955629086
  0
LINE
  5
162
330
12B
100
AcDbEntity
  8
AM_9
100
AcDbLine
 10
-29.8
 20
52.90380592228745
 30
0.0
 11
-29.8
 21
52.55025253169417
 31
0.0
  0
LINE
  5
163
330
12B
100
AcDbEntity
  8
AM_9
100
AcDbLine
 10
-24.2
 20
52.55025253169417
 30
0.0
 11
-24.2
 21
52.90380592228745
 31
0.0
  0
LINE
  5
164
330
12B
100
AcDbEntity
  8
AM_9
100
AcDbLine
 10
-38.5
 20
-2.118585
 30
0.0
 11
-40.5
 21
-2.118585
 31
0.0
  0
LINE
  5
165
330
12B
100
AcDbEntity
  8
AM_9
100
AcDbLine
 10
-38.5
 20
-4.25661
 30
0.0
 11
-40.5
 21
-4.25661
 31
0.0
  0
LINE
  5
166
330
12B
100
AcDbEntity
  8
AM_9
100
AcDbLine
 10
-38.5
 20
0.9912650000000001
 30
0.0
 11
-40.5
 21
0.9912650000000001
 31
0.0
  0
LINE
  5
167
330
12B
100
AcDbEntity
  8
AM_9
100
AcDbLine
 10
-38.5
 20
-1.18563
 30
0.0
 11
-40.5
 21
-1.18563
 31
0.0
  0
LINE
  5
168
330
12B
100
AcDbEntity
  8
AM_9
100
AcDbLine
 10
-38.5
 20
2.54619
 30
0.0
 11
-40.5
 21
2.54619
 31
0.0
  0
LINE
  5
169
330
12B
100
AcDbEntity
  8
AM_9
100
AcDbLine
 10
-38.5
 20
2.857175
 30
0.0
 11
-40.5
 21
2.857175
 31
0.0
  0
LINE
  5
16A
330
12B
100
AcDbEntity
  8
AM_9
100
AcDbLine
 10
-38.5
 20
3.090415
 30
0.0
 11
-40.5
 21
3.090415
 31
0.0
  0
LINE
  5
16B
330
12B
100
AcDbEntity
  8
AM_9
100
AcDbLine
 10
-38.5
 20
-2.701685
 30
0.0
 11
-40.5
 21
-2.701685
 31
0.0
  0
LINE
  5
16C
330
12B
100
AcDbEntity
  8
AM_9
100
AcDbLine
 10
-38.5
 20
1.224505
 30
0.0
 11
-40.5
 21
1.224505
 31
0.0
  0
LINE
  5
16D
330
12B
100
AcDbEntity
  8
AM_9
100
AcDbLine
 10
-38.5
 20
-1.41887
 30
0.0
 11
-40.5
 21
-1.41887
 31
0.0
  0
LINE
  5
16E
330
12B
100
AcDbEntity
  8
AM_9
100
AcDbLine
 10
-38.5
 20
2.31295
 30
0.0
 11
-40.5
 21
2.31295
 31
0.0
  0
LINE
  5
16F
330
12B
100
AcDbEntity
  8
AM_9
100
AcDbLine
 10
-38.5
 20
2.50732
 30
0.0
 11
-40.5
 21
2.50732
 31
0.0
  0
LINE
  5
170
330
12B
100
AcDbEntity
  8
AM_9
100
AcDbLine
 10
-38.5
 20
1.03014
 30
0.0
 11
-40.5
 21
1.03014
 31
0.0
  0
LINE
  5
171
330
12B
100
AcDbEntity
  8
AM_9
100
AcDbLine
 10
-38.5
 20
2.89605
 30
0.0
 11
-40.5
 21
2.89605
 31
0.0
  0
LINE
  5
172
330
12B
100
AcDbEntity
  8
AM_9
100
AcDbLine
 10
-38.5
 20
-1.224505
 30
0.0
 11
-40.5
 21
-1.224505
 31
0.0
  0
LINE
  5
173
330
12B
100
AcDbEntity
  8
AM_9
100
AcDbLine
 10
-38.5
 20
-2.468445
 30
0.0
 11
-40.5
 21
-2.468445
 31
0.0
  0
LINE
  5
174
330
12B
100
AcDbEntity
  8
AM_9
100
AcDbLine
 10
-38.5
 20
-0.8746450000000001
 30
0.0
 11
-40.5
 21
-0.8746450000000001
 31
0.0
  0
LINE
  5
175
330
12B
100
AcDbEntity
  8
AM_9
100
AcDbLine
 10
-38.5
 20
-1.30225
 30
0.0
 11
-40.5
 21
-1.30225
 31
0.0
  0
LINE
  5
176
330
12B
100
AcDbEntity
  8
AM_9
100
AcDbLine
 10
-38.5
 20
-1.53549
 30
0.0
 11
-40.5
 21
-1.53549
 31
0.0
  0
LINE
  5
177
330
12B
100
AcDbEntity
  8
AM_9
100
AcDbLine
 10
-38.5
 20
2.973795
 30
0.0
 11
-40.5
 21
2.973795
 31
0.0
  0
LINE
  5
178
330
12B
100
AcDbEntity
  8
AM_9
100
AcDbLine
 10
-38.5
 20
3.207035
 30
0.0
 11
-40.5
 21
3.207035
 31
0.0
  0
LINE
  5
179
330
12B
100
AcDbEntity
  8
AM_9
100
AcDbLine
 10
-38.5
 20
1.107885
 30
0.0
 11
-40.5
 21
1.107885
 31
0.0
  0
LINE
  5
17A
330
12B
100
AcDbEntity
  8
AM_9
100
AcDbLine
 10
-38.5
 20
2.19633
 30
0.0
 11
-40.5
 21
2.19633
 31
0.0
  0
LINE
  5
17B
330
12B
100
AcDbEntity
  8
AM_9
100
AcDbLine
 10
-38.5
 20
-2.66281
 30
0.0
 11
-40.5
 21
-2.66281
 31
0.0
  0
LINE
  5
17C
330
12B
100
AcDbEntity
  8
AM_9
100
AcDbLine
 10
-38.5
 20
2.42957
 30
0.0
 11
-40.5
 21
2.42957
 31
0.0
  0
LINE
  5
17D
330
12B
100
AcDbEntity
  8
AM_9
100
AcDbLine
 10
-38.5
 20
-2.42957
 30
0.0
 11
-40.5
 21
-2.42957
 31
0.0
  0
LINE
  5
17E
330
12B
100
AcDbEntity
  8
AM_9
100
AcDbLine
 10
-38.5
 20
1.341125
 30
0.0
 11
-40.5
 21
1.341125
 31
0.0
  0
ELLIPSE
  5
17F
330
12B
100
AcDbEntity
  8
AM_9
100
AcDbEllipse
 10
-27.0
 20
55.0251262658471
 30
0.0
 11
-2.800000000000001
 21
3.429011037612590E-16
 31
0.0
210
0.0
220
0.0
230
1.0
 40
0.7071067811865485
 41
3.141592653589793
 42
6.283185307179586
  0
ELLIPSE
  5
180
330
12B
100
AcDbEntity
  8
AM_9
100
AcDbEllipse
 10
-27.0
 20
55.37867965644036
 30
0.0
 11
-2.800000000000001
 21
3.429011037612590E-16
 31
0.0
210
0.0
220
0.0
230
1.0
 40
0.7071067811865485
 41
3.751750399130628
 42
5.672785003624985
  0
LINE
  5
181
330
12B
100
AcDbEntity
  8
AM_9
100
AcDbLine
 10
-38.5
 20
3.323655
 30
0.0
 11
-40.5
 21
3.323655
 31
0.0
  0
LINE
  5
182
330
12B
100
AcDbEntity
  8
AM_9
100
AcDbLine
 10
-38.5
 20
4.178865
 30
0.0
 11
-40.5
 21
4.178865
 31
0.0
  0
LINE
  5
183
330
12B
100
AcDbEntity
  8
AM_9
100
AcDbLine
 10
-38.5
 20
-1.65211
 30
0.0
 11
-40.5
 21
-1.65211
 31
0.0
  0
LINE
  5
184
330
12B
100
AcDbEntity
  8
AM_9
100
AcDbLine
 10
-38.5
 20
1.457745
 30
0.0
 11
-40.5
 21
1.457745
 31
0.0
  0
LINE
  5
185
330
12B
100
AcDbEntity
  8
AM_9
100
AcDbLine
 10
-38.5
 20
-3.245905
 30
0.0
 11
-40.5
 21
-3.245905
 31
0.0
  0
LINE
  5
186
330
12B
100
AcDbEntity
  8
AM_9
100
AcDbLine
 10
-38.5
 20
-2.31295
 30
0.0
 11
-40.5
 21
-2.31295
 31
0.0
  0
LINE
  5
187
330
12B
100
AcDbEntity
  8
AM_9
100
AcDbLine
 10
-38.5
 20
2.079715
 30
0.0
 11
-40.5
 21
2.079715
 31
0.0
  0
LINE
  5
188
330
12B
100
AcDbEntity
  8
AM_9
100
AcDbLine
 10
-38.5
 20
-0.641405
 30
0.0
 11
-40.5
 21
-0.641405
 31
0.0
  0
LINE
  5
189
330
12B
100
AcDbEntity
  8
AM_9
100
AcDbLine
 10
-38.5
 20
-0.835775
 30
0.0
 11
-40.5
 21
-0.835775
 31
0.0
  0
LINE
  5
18A
330
12B
100
AcDbEntity
  8
AM_9
100
AcDbLine
 10
-38.5
 20
-1.457745
 30
0.0
 11
-40.5
 21
-1.457745
 31
0.0
  0
LINE
  5
18B
330
12B
100
AcDbEntity
  8
AM_9
100
AcDbLine
 10
-38.5
 20
3.12929
 30
0.0
 11
-40.5
 21
3.12929
 31
0.0
  0
LINE
  5
18C
330
12B
100
AcDbEntity
  8
AM_9
100
AcDbLine
 10
-38.5
 20
-2.50732
 30
0.0
 11
-40.5
 21
-2.50732
 31
0.0
  0
LINE
  5
18D
330
12B
100
AcDbEntity
  8
AM_9
100
AcDbLine
 10
-38.5
 20
1.263375
 30
0.0
 11
-40.5
 21
1.263375
 31
0.0
  0
LINE
  5
18E
330
12B
100
AcDbEntity
  8
AM_9
100
AcDbLine
 10
-38.5
 20
2.27408
 30
0.0
 11
-40.5
 21
2.27408
 31
0.0
  0
LINE
  5
18F
330
12B
100
AcDbEntity
  8
AM_9
100
AcDbLine
 10
-38.5
 20
-2.351825
 30
0.0
 11
-40.5
 21
-2.351825
 31
0.0
  0
LINE
  5
190
330
12B
100
AcDbEntity
  8
AM_9
100
AcDbLine
 10
-38.5
 20
3.28478
 30
0.0
 11
-40.5
 21
3.28478
 31
0.0
  0
LINE
  5
191
330
12B
100
AcDbEntity
  8
AM_9
100
AcDbLine
 10
-38.5
 20
2.118585
 30
0.0
 11
-40.5
 21
2.118585
 31
0.0
  0
LINE
  5
192
330
12B
100
AcDbEntity
  8
AM_9
100
AcDbLine
 10
-38.5
 20
-1.613235
 30
0.0
 11
-40.5
 21
-1.613235
 31
0.0
  0
LINE
  5
193
330
12B
100
AcDbEntity
  8
AM_9
100
AcDbLine
 10
-38.5
 20
1.41887
 30
0.0
 11
-40.5
 21
1.41887
 31
0.0
  0
LINE
  5
194
330
12B
100
AcDbEntity
  8
AM_9
100
AcDbLine
 10
-38.5
 20
-4.4121
 30
0.0
 11
-38.5
 21
-3.01267
 31
0.0
  0
LINE
  5
195
330
12B
100
AcDbEntity
  8
AM_9
100
AcDbLine
 10
-38.5
 20
-2.701685
 30
0.0
 11
-38.5
 21
-1.18563
 31
0.0
  0
LINE
  5
196
330
12B
100
AcDbEntity
  8
AM_9
100
AcDbLine
 10
-38.5
 20
3.479145
 30
0.0
 11
-40.50000000000001
 21
3.479144999999996
 31
0.0
  0
LINE
  5
197
330
12B
100
AcDbEntity
  8
AM_9
100
AcDbLine
 10
-38.5
 20
4.4121
 30
0.0
 11
-40.5
 21
4.4121
 31
0.0
  0
LINE
  5
198
330
12B
100
AcDbEntity
  8
AM_9
100
AcDbLine
 10
-38.5
 20
2.857175
 30
0.0
 11
-38.5
 21
4.4121
 31
0.0
  0
LINE
  5
199
330
12B
100
AcDbEntity
  8
AM_9
100
AcDbLine
 10
-38.5
 20
1.92422
 30
0.0
 11
-40.5
 21
1.92422
 31
0.0
  0
LINE
  5
19A
330
12B
100
AcDbEntity
  8
AM_9
100
AcDbLine
 10
-38.5
 20
-4.4121
 30
0.0
 11
-40.50000000000001
 21
-4.412099999999995
 31
0.0
  0
LINE
  5
19B
330
12B
100
AcDbEntity
  8
AM_9
100
AcDbLine
 10
-38.5
 20
-1.8076
 30
0.0
 11
-40.5
 21
-1.8076
 31
0.0
  0
LINE
  5
19C
330
12B
100
AcDbEntity
  8
AM_9
100
AcDbLine
 10
-38.5
 20
-2.15746
 30
0.0
 11
-40.5
 21
-2.15746
 31
0.0
  0
LINE
  5
19D
330
12B
100
AcDbEntity
  8
AM_9
100
AcDbLine
 10
-38.5
 20
1.613235
 30
0.0
 11
-40.5
 21
1.613235
 31
0.0
  0
LINE
  5
19E
330
12B
100
AcDbEntity
  8
AM_9
100
AcDbLine
 10
-38.5
 20
-3.01267
 30
0.0
 11
-40.5
 21
-3.01267
 31
0.0
  0
LINE
  5
19F
330
12B
100
AcDbEntity
  8
AM_9
100
AcDbLine
 10
-38.5
 20
0.9912650000000001
 30
0.0
 11
-38.5
 21
2.54619
 31
0.0
  0
LINE
  5
1A0
330
12B
100
AcDbEntity
  8
AM_9
100
AcDbLine
 10
-38.5
 20
-0.758025
 30
0.0
 11
-40.5
 21
-0.758025
 31
0.0
  0
LINE
  5
1A1
330
12B
100
AcDbEntity
  8
AM_9
100
AcDbLine
 10
-38.5
 20
-0.524785
 30
0.0
 11
-40.5
 21
-0.524785
 31
0.0
  0
LINE
  5
1A2
330
12B
100
AcDbEntity
  8
AM_9
100
AcDbLine
 10
-38.5
 20
0.4470410000000002
 30
0.0
 11
-40.5
 21
0.4470410000000002
 31
0.0
  0
LINE
  5
1A3
330
12B
100
AcDbEntity
  8
AM_9
100
AcDbLine
 10
-38.5
 20
-0.4081679999999999
 30
0.0
 11
-40.5
 21
-0.4081679999999999
 31
0.0
  0
LINE
  5
1A4
330
12B
100
AcDbEntity
  8
AM_9
100
AcDbLine
 10
-38.5
 20
-0.602535
 30
0.0
 11
-40.5
 21
-0.602535
 31
0.0
  0
LINE
  5
1A5
330
12B
100
AcDbEntity
  8
AM_9
100
AcDbLine
 10
-38.5
 20
-0.447041
 30
0.0
 11
-40.5
 21
-0.447041
 31
0.0
  0
ELLIPSE
  5
1A6
330
12B
100
AcDbEntity
  8
AM_9
100
AcDbEllipse
 10
-27.0
 20
55.02512626584716
 30
0.0
 11
-4.0
 21
4.898587196589413E-16
 31
0.0
210
0.0
220
0.0
230
1.0
 40
0.7071067811865372
 41
3.99169004998148
 42
5.433062965219767
  0
LINE
  5
1A7
330
12B
100
AcDbEntity
  8
AM_9
100
AcDbLine
 10
-38.5
 20
-0.2526754999999999
 30
0.0
 11
-40.5
 21
-0.2526754999999999
 31
0.0
  0
LINE
  5
1A8
330
12B
100
AcDbEntity
  8
AM_9
100
AcDbLine
 10
-38.5
 20
0.6802800000000001
 30
0.0
 11
-40.50000000000001
 21
0.6802799999999984
 31
0.0
  0
LINE
  5
1A9
330
12B
100
AcDbEntity
  8
AM_9
100
AcDbLine
 10
-38.5
 20
-0.8746450000000001
 30
0.0
 11
-38.5
 21
0.6802800000000001
 31
0.0
  0
LINE
  5
1AA
330
12B
100
AcDbEntity
  8
AM_9
100
AcDbLine
 10
-29.42023478261737
 20
58.52851895445316
 30
0.0
 11
-24.57976521738262
 21
58.52851895445315
 31
0.0
  0
LWPOLYLINE
  5
1AB
330
12B
100
AcDbEntity
  8
AM_9
100
AcDbPolyline
 90
        4
 70
     0
 43
0.0
 10
-26.56616013613289
 20
55.5807245252937
 10
-26.63709509624596
 20
55.5726964341234
 10
-26.91425157473187
 20
55.5551929150699
 10
-27.0
 20
55.55416464232888
  0
LWPOLYLINE
  5
1AC
330
12B
100
AcDbEntity
  8
AM_9
100
AcDbPolyline
 90
       44
 70
     0
 43
0.0
 10
-28.20144137168299
 20
55.77309581714245
 10
-28.3716770329259
 20
55.8484169305955
 10
-28.54978635255146
 20
55.94598197685323
 10
-28.69672862875035
 20
56.0463818623499
 10
-28.8115302085446
 20
56.14404548423639
 10
-28.89505335623035
 20
56.2333888681915
 10
-28.9502089011862
 20
56.3094829200499
 10
-28.98173643315762
 20
56.36862741061098
 10
-28.9959432033359
 20
56.40941471747889
 10
-28.9999205768764
 20
56.43541001677611
 10
-28.99610364639447
 20
56.46860997563481
 10
-28.98199328117606
 20
56.50945999151421
 10
-28.95052116913056
 20
56.56869477839604
 10
-28.89692216998241
 20
56.64301231816801
 10
-28.80844741151133
 20
56.73756786100397
 10
-28.68937007666383
 20
56.83788416314963
 10
-28.53937165935528
 20
56.9390417688228
 10
-28.3592788647153
 20
57.03628152663292
 10
-28.15145802673893
 20
57.12495241979308
 10
-27.91938645966629
 20
57.20094037275512
 10
-27.66729004649127
 20
57.26083864622743
 10
-27.40022435659877
 20
57.30194354582801
 10
-27.12387010136302
 20
57.32236837403354
 10
-26.8443188337104
 20
57.32112276204073
 10
-26.5678703425858
 20
57.29816609164051
 10
-26.30099783942378
 20
57.25448114702881
 10
-26.04963920434068
 20
57.19203086321592
 10
-25.81918946145678
 20
57.11371831765766
 10
-25.61424961803674
 20
57.02332004024466
 10
-25.43836332598047
 20
56.92536912300739
 10
-25.29375731682928
 20
56.8249719832715
 10
-25.18130656923073
 20
56.72773533859839
 10
-25.09998557541875
 20
56.63920663061219
 10
-25.04674481954276
 20
56.56424979763939
 10
-25.01671811174366
 20
56.50644141795761
 10
-25.00350192654285
 20
56.46695196620458
 10
-25.0000266486184
 20
56.44161346349831
 10
-25.00519571143768
 20
56.40503045668027
 10
-25.02155142183016
 20
56.36129148572557
 10
-25.0561189207462
 20
56.29954476797332
 10
-25.11342759918221
 20
56.22324203010564
 10
-25.20599219142965
 20
56.12763962020254
 10
-25.32928977845517
 20
56.02692817898212
 10
-25.47392490309781
 20
55.93166616192936
  0
ELLIPSE
  5
1AD
330
12B
100
AcDbEntity
  8
AM_9
100
AcDbEllipse
 10
-26.99999999999938
 20
57.35565313070685
 30
0.0
 11
-2.547965880306875
 21
3.796765061091253E-8
 31
0.0
210
0.0
220
0.0
230
1.0
 40
0.7071067811865487
 41
1.686919553855601
 42
1.806087149857081
  0
ELLIPSE
  5
1AE
330
12B
100
AcDbEntity
  8
AM_9
100
AcDbEllipse
 10
-27.0
 20
57.3556531307088
 30
0.0
 11
-2.547965880309714
 21
3.120358259657960E-16
 31
0.0
210
0.0
220
0.0
230
1.0
 40
0.7071067811865472
 41
2.08754665774136
 42
7.322200200061719
  0
ELLIPSE
  5
1AF
330
12B
100
AcDbEntity
  8
AM_9
100
AcDbEllipse
 10
-26.99999999999998
 20
57.35565313070884
 30
0.0
 11
-2.547965880309753
 21
3.796765061095541E-8
 31
0.0
210
0.0
220
0.0
230
1.0
 40
0.7071067811865476
 41
1.31770716179471
 42
1.570796337331603
  0
ELLIPSE
  5
1B0
330
12B
100
AcDbEntity
  8
AM_9
100
AcDbEllipse
 10
-26.99999999999999
 20
57.7406102923438
 30
0.0
 11
-2.663890264528341
 21
3.262324685734428E-16
 31
0.0
210
0.0
220
0.0
230
1.0
 40
0.7071067811865478
 41
3.553109499657285
 42
5.871668461112094
  0
LWPOLYLINE
  5
1B1
330
12B
100
AcDbEntity
  8
AM_9
100
AcDbPolyline
 90
        6
 70
     0
 43
0.0
 10
-40.5
 20
51.96317137296652
 10
-40.45988115566909
 20
52.16551654449201
 10
-40.30825560490581
 20
52.38803630147145
 10
-40.06242443213172
 20
52.55972833770179
 10
-39.75497616471772
 20
52.66077535729429
 10
-39.67364817766693
 20
52.6736566423053
  0
LINE
  5
1B2
330
12B
100
AcDbEntity
  8
AM_9
100
AcDbLine
 10
-39.67364817766693
 20
38.36278265119434
 30
0.0
 11
-39.67364817766693
 21
59.11430539208006
 31
0.0
  0
LINE
  5
1B3
330
12B
100
AcDbEntity
  8
AM_9
100
AcDbLine
 10
-20.25000000000014
 20
55.14120712820795
 30
0.0
 11
-39.67364817766693
 21
52.6736566423053
 31
0.0
  0
LINE
  5
1B4
330
12B
100
AcDbEntity
  8
AM_9
100
AcDbLine
 10
-20.25000000000022
 20
59.11430539208006
 30
0.0
 11
-20.25000000000031
 21
40.80533466328944
 31
0.0
  0
ELLIPSE
  5
1B5
330
12B
100
AcDbEntity
  8
AM_9
100
AcDbEllipse
 10
-27.00000000000002
 20
52.90380592228744
 30
0.0
 11
-3.999999999999975
 21
4.898587196589382E-16
 31
0.0
210
0.0
220
0.0
230
1.0
 40
0.7071067811865451
 41
0.0
 42
6.283185307179586
  0
ELLIPSE
  5
1B6
330
12B
100
AcDbEntity
  8
AM_9
100
AcDbEllipse
 10
-27.00000000000001
 20
52.90380592228744
 30
0.0
 11
-2.799999999999994
 21
3.429011037612581E-16
 31
0.0
210
0.0
220
0.0
230
1.0
 40
0.7071067811865477
 41
0.0
 42
6.283185307179586
  0
ELLIPSE
  5
1B7
330
12B
100
AcDbEntity
  8
AM_9
100
AcDbEllipse
 10
-27.0
 20
52.55025253169416
 30
0.0
 11
2.800000000000004
 21
0.0
 31
0.0
210
0.0
220
0.0
230
1.0
 40
0.7071067811865476
 41
0.0
 42
6.283185307179586
  0
LINE
  5
1B8
330
12B
100
AcDbEntity
  8
AM_7
100
AcDbLine
 10
-57.24
 20
0.0
 30
0.0
 11
2.025
 21
0.0
 31
0.0
  0
LINE
  5
1B9
330
12B
100
AcDbEntity
  8
AM_7
100
AcDbLine
 10
2.025
 20
92.1
 30
0.0
 11
-42.525
 21
92.1
 31
0.0
  0
LINE
  5
1BA
330
12B
100
AcDbEntity
  8
AM_7
100
AcDbLine
 10
2.025
 20
-92.1
 30
0.0
 11
-42.525
 21
-92.1
 31
0.0
  0
LINE
  5
1BB
330
12B
100
AcDbEntity
  8
AM_4
100
AcDbLine
 10
-17.49999999999406
 20
-64.62442749205661
 30
0.0
 11
-17.5
 21
-109.55
 31
0.0
  0
LINE
  5
1BC
330
12B
100
AcDbEntity
  8
AM_4
100
AcDbLine
 10
-17.5
 20
-109.55
 30
0.0
 11
0.0
 21
-109.55
 31
0.0
  0
LINE
  5
1BD
330
12B
100
AcDbEntity
  8
AM_4
100
AcDbLine
 10
0.0
 20
109.55
 30
0.0
 11
-17.5
 21
109.55
 31
0.0
  0
LINE
  5
1BE
330
12B
100
AcDbEntity
  8
AM_4
100
AcDbLine
 10
-17.5
 20
109.55
 30
0.0
 11
-17.49999999999408
 21
64.62442749205783
 31
0.0
  0
ARC
  5
1BF
330
12B
100
AcDbEntity
  8
AM_4
100
AcDbCircle
 10
-18.49999999999998
 20
-68.02399882812556
 30
0.0
 40
0.9999999999999822
100
AcDbArc
 50
0.0
 51
80.00000000000064
  0
LINE
  5
1C0
330
12B
100
AcDbEntity
  8
AM_4
100
AcDbLine
 10
-15.0
 20
-101.4312975027144
 30
0.0
 11
-17.5
 21
-101.4312975027144
 31
0.0
  0
LWPOLYLINE
  5
1C1
330
12B
100
AcDbEntity
  8
AM_4
100
AcDbPolyline
 90
        6
 70
     0
 43
0.0
 10
-18.32635182233306
 20
-63.52172573356079
 10
-18.02917161203009
 20
-63.63681043621141
 10
-17.78661532400527
 20
-63.8402484388369
 10
-17.60471976608968
 20
-64.12617420332562
 10
-17.50699263026295
 20
-64.4924893021601
 10
-17.49999999999406
 20
-64.62442749205661
  0
LINE
  5
1C2
330
12B
100
AcDbEntity
  8
AM_4
100
AcDbLine
 10
-15.0
 20
101.4312975027144
 30
0.0
 11
-17.5
 21
101.4312975027144
 31
0.0
  0
LWPOLYLINE
  5
1C3
330
12B
100
AcDbEntity
  8
AM_4
100
AcDbPolyline
 90
        6
 70
     0
 43
0.0
 10
-17.49999999999408
 20
64.62442749205783
 10
-17.53157669627896
 20
64.34571300328109
 10
-17.69897040185
 20
63.95470194118882
 10
-17.98262661400849
 20
63.66649228985204
 10
-18.26543407840819
 20
63.53598478219237
 10
-18.32635182233307
 20
63.52172573356079
  0
ARC
  5
1C4
330
12B
100
AcDbEntity
  8
AM_4
100
AcDbCircle
 10
-18.49999999999998
 20
68.02399882812556
 30
0.0
 40
0.9999999999999809
100
AcDbArc
 50
279.9999999999994
 51
0.0
  0
LINE
  5
1C5
330
12B
100
AcDbEntity
  8
AM_4
100
AcDbLine
 10
0.0
 20
-109.55
 30
0.0
 11
0.000000000000001
 21
-55.32803679837021
 31
0.0
  0
LINE
  5
1C6
330
12B
100
AcDbEntity
  8
AM_4
100
AcDbLine
 10
0.000000000000001
 20
-55.32803679837021
 30
0.0
 11
-4.374999999999999
 21
-55.32803679837021
 31
0.0
  0
LINE
  5
1C7
330
12B
100
AcDbEntity
  8
AM_4
100
AcDbLine
 10
-4.374999999999999
 20
55.32803679837017
 30
0.0
 11
0.000000000000001
 21
55.32803679837017
 31
0.0
  0
LINE
  5
1C8
330
12B
100
AcDbEntity
  8
AM_4
100
AcDbLine
 10
0.000000000000001
 20
55.32803679837017
 30
0.0
 11
0.0
 21
109.55
 31
0.0
  0
LINE
  5
1C9
330
12B
100
AcDbEntity
  8
AM_4
100
AcDbLine
 10
-15.0
 20
63.14082165159881
 30
0.0
 11
-20.25000000000015
 21
63.14082165159881
 31
0.0
  0
LINE
  5
1CA
330
12B
100
AcDbEntity
  8
AM_4
100
AcDbLine
 10
0.0000000000000018
 20
77.65261374271098
 30
0.0
 11
-4.374999999999999
 21
77.65261374271098
 31
0.0
  0
LINE
  5
1CB
330
12B
100
AcDbEntity
  8
AM_4
100
AcDbLine
 10
0.0000000000000009
 20
101.4312975027145
 30
0.0
 11
-15.0
 21
101.4312975027144
 31
0.0
  0
LINE
  5
1CC
330
12B
100
AcDbEntity
  8
AM_4
100
AcDbLine
 10
-15.0
 20
101.4312975027144
 30
0.0
 11
-15.0
 21
59.11430539208006
 31
0.0
  0
LINE
  5
1CD
330
12B
100
AcDbEntity
  8
AM_4
100
AcDbLine
 10
-29.05867954386461
 20
59.11430539208006
 30
0.0
 11
-40.5
 21
59.11430539208006
 31
0.0
  0
LINE
  5
1CE
330
12B
100
AcDbEntity
  8
AM_4
100
AcDbLine
 10
-4.374999999999995
 20
59.11430539208006
 30
0.0
 11
-24.94132045613538
 21
59.11430539208006
 31
0.0
  0
LWPOLYLINE
  5
1CF
330
12B
100
AcDbEntity
  8
AM_4
100
AcDbPolyline
 90
        3
 70
     0
 43
0.0
 10
-24.32463629919614
 20
57.34853652638394
 10
-24.11584457632682
 20
57.1184062588212
 10
-23.53589838486227
 20
56.43933982822025
  0
LWPOLYLINE
  5
1D0
330
12B
100
AcDbEntity
  8
AM_4
100
AcDbPolyline
 90
        3
 70
     0
 43
0.0
 10
-30.46410161513772
 20
56.43933982822023
 10
-29.88675134594811
 20
57.11550030937367
 10
-29.67450527415733
 20
57.34946848456487
  0
LWPOLYLINE
  5
1D1
330
12B
100
AcDbEntity
  8
AM_4
100
AcDbPolyline
 90
        3
 70
     0
 43
0.0
 10
-31.61880215351701
 20
54.90788263184368
 10
-31.0440478066023
 20
55.69783401146258
 10
-30.46410161513772
 20
56.43933982822023
  0
LWPOLYLINE
  5
1D2
330
12B
100
AcDbEntity
  8
AM_4
100
AcDbPolyline
 90
        3
 70
     0
 43
0.0
 10
-23.53589838486227
 20
56.43933982822025
 10
-22.95854811567263
 20
55.70128674700057
 10
-22.38119784648299
 20
54.90788263184368
  0
LINE
  5
1D3
330
12B
100
AcDbEntity
  8
AM_4
100
AcDbLine
 10
-29.8
 20
55.37867965644036
 30
0.0
 11
-29.8
 21
55.02512626584709
 31
0.0
  0
LINE
  5
1D4
330
12B
100
AcDbEntity
  8
AM_4
100
AcDbLine
 10
-24.2
 20
55.02512626584709
 30
0.0
 11
-24.2
 21
55.37867965644036
 31
0.0
  0
ELLIPSE
  5
1D5
330
12B
100
AcDbEntity
  8
AM_4
100
AcDbEllipse
 10
-27.0
 20
55.02512626584709
 30
0.0
 11
-2.799999999999997
 21
4.172325168567450E-8
 31
0.0
210
0.0
220
0.0
230
1.0
 40
0.7071067811865468
 41
0.0000000149011612
 42
3.141592668490954
  0
ELLIPSE
  5
1D6
330
12B
100
AcDbEntity
  8
AM_4
100
AcDbEllipse
 10
-26.99999999999992
 20
55.37867965644035
 30
0.0
 11
-2.800000000000075
 21
3.429011037612681E-16
 31
0.0
210
0.0
220
0.0
230
1.0
 40
0.7071067811865474
 41
5.672785003624993
 42
10.03493570631024
  0
LWPOLYLINE
  5
1D7
330
12B
100
AcDbEntity
  8
AM_4
100
AcDbPolyline
 90
        3
 70
     0
 43
0.0
 10
-22.38119784648299
 20
54.90788263184368
 10
-22.95595219339766
 20
54.289979134075
 10
-23.53589838486221
 20
53.61091270347404
  0
LWPOLYLINE
  5
1D8
330
12B
100
AcDbEntity
  8
AM_4
100
AcDbPolyline
 90
        3
 70
     0
 43
0.0
 10
-24.69059892324149
 20
50.19262243154467
 10
-24.11584457632681
 20
50.81052592931336
 10
-23.53589838486225
 20
51.48959235991435
  0
LWPOLYLINE
  5
1D9
330
12B
100
AcDbEntity
  8
AM_4
100
AcDbPolyline
 90
        3
 70
     0
 43
0.0
 10
-23.53589838486225
 20
51.48959235991435
 10
-22.95854811567262
 20
52.22764544113399
 10
-22.38119784648299
 20
53.02104955629086
  0
LINE
  5
1DA
330
12B
100
AcDbEntity
  8
AM_4
100
AcDbLine
 10
-22.38119784648299
 20
53.02104955629086
 30
0.0
 11
-22.38119784648299
 21
54.90788263184368
 31
0.0
  0
LWPOLYLINE
  5
1DB
330
12B
100
AcDbEntity
  8
AM_4
100
AcDbPolyline
 90
        3
 70
     0
 43
0.0
 10
-30.46410161513779
 20
53.61091270347404
 10
-31.04145188432739
 20
54.28707318462747
 10
-31.61880215351701
 20
54.90788263184368
  0
LINE
  5
1DC
330
12B
100
AcDbEntity
  8
AM_4
100
AcDbLine
 10
-31.61880215351701
 20
53.02104955629086
 30
0.0
 11
-31.61880215351701
 21
54.90788263184368
 31
0.0
  0
LWPOLYLINE
  5
1DD
330
12B
100
AcDbEntity
  8
AM_4
100
AcDbPolyline
 90
        3
 70
     0
 43
0.0
 10
-31.61880215351701
 20
53.02104955629086
 10
-31.04404780660232
 20
52.23109817667198
 10
-30.46410161513775
 20
51.48959235991435
  0
LWPOLYLINE
  5
1DE
330
12B
100
AcDbEntity
  8
AM_4
100
AcDbPolyline
 90
        3
 70
     0
 43
0.0
 10
-30.46410161513775
 20
51.48959235991435
 10
-29.88675134594812
 20
50.81343187876089
 10
-29.3094010767585
 20
50.19262243154467
  0
LINE
  5
1DF
330
12B
100
AcDbEntity
  8
AM_4
100
AcDbLine
 10
-29.3094010767585
 20
50.19262243154467
 30
0.0
 11
-29.3094010767585
 21
52.07945550709749
 31
0.0
  0
LWPOLYLINE
  5
1E0
330
12B
100
AcDbEntity
  8
AM_4
100
AcDbPolyline
 90
        3
 70
     0
 43
0.0
 10
-29.3094010767585
 20
50.19262243154467
 10
-28.15989238292913
 20
50.10659849061958
 10
-27.0
 20
50.07537879754127
  0
LWPOLYLINE
  5
1E1
330
12B
100
AcDbEntity
  8
AM_4
100
AcDbPolyline
 90
        3
 70
     0
 43
0.0
 10
-27.0
 20
50.07537879754127
 10
-25.84529946162074
 20
50.10632509757435
 10
-24.69059892324149
 20
50.19262243154467
  0
LINE
  5
1E2
330
12B
100
AcDbEntity
  8
AM_4
100
AcDbLine
 10
-24.69059892324149
 20
50.19262243154467
 30
0.0
 11
-24.69059892324149
 21
52.07945550709749
 31
0.0
  0
LWPOLYLINE
  5
1E3
330
12B
100
AcDbEntity
  8
AM_4
100
AcDbPolyline
 90
        3
 70
     0
 43
0.0
 10
-27.0
 20
52.19669914110089
 10
-28.15470053837925
 20
52.16575284106781
 10
-29.3094010767585
 20
52.07945550709749
  0
ELLIPSE
  5
1E4
330
12B
100
AcDbEntity
  8
AM_4
100
AcDbEllipse
 10
-27.00000000000001
 20
55.02512626584708
 30
0.0
 11
-3.999999999999979
 21
4.898587196589387E-16
 31
0.0
210
0.0
220
0.0
230
1.0
 40
0.7071067811865517
 41
5.433062965219756
 42
10.27487535716107
  0
LWPOLYLINE
  5
1E5
330
12B
100
AcDbEntity
  8
AM_4
100
AcDbPolyline
 90
        3
 70
     0
 43
0.0
 10
-29.3094010767585
 20
52.07945550709749
 10
-29.8841554236732
 20
52.86940688671639
 10
-30.46410161513779
 20
53.61091270347404
  0
LWPOLYLINE
  5
1E6
330
12B
100
AcDbEntity
  8
AM_4
100
AcDbPolyline
 90
        3
 70
     0
 43
0.0
 10
-23.53589838486221
 20
53.61091270347404
 10
-24.11324865405185
 20
52.87285962225437
 10
-24.69059892324149
 20
52.07945550709749
  0
LWPOLYLINE
  5
1E7
330
12B
100
AcDbEntity
  8
AM_4
100
AcDbPolyline
 90
        3
 70
     0
 43
0.0
 10
-24.69059892324149
 20
52.07945550709749
 10
-25.84010761707086
 20
52.16547944802259
 10
-27.0
 20
52.19669914110089
  0
LINE
  5
1E8
330
12B
100
AcDbEntity
  8
AM_4
100
AcDbLine
 10
-24.57976521738262
 20
58.52851895445315
 30
0.0
 11
-4.374999999999995
 21
58.52851895445316
 31
0.0
  0
LINE
  5
1E9
330
12B
100
AcDbEntity
  8
AM_4
100
AcDbLine
 10
-40.5
 20
58.52851895445316
 30
0.0
 11
-29.42023478261737
 21
58.52851895445316
 31
0.0
  0
LINE
  5
1EA
330
12B
100
AcDbEntity
  8
AM_4
100
AcDbLine
 10
-40.50000000000001
 20
-62.29027900947635
 30
0.0
 11
-40.50000000000001
 21
62.29027900947635
 31
0.0
  0
LINE
  5
1EB
330
12B
100
AcDbEntity
  8
AM_4
100
AcDbLine
 10
-40.5
 20
43.74355898418899
 30
0.0
 11
-4.374999999999994
 21
43.74355898418899
 31
0.0
  0
LINE
  5
1EC
330
12B
100
AcDbEntity
  8
AM_4
100
AcDbLine
 10
-40.5
 20
46.57198610893518
 30
0.0
 11
-4.374999999999994
 21
46.57198610893518
 31
0.0
  0
LINE
  5
1ED
330
12B
100
AcDbEntity
  8
AM_4
100
AcDbLine
 10
-4.374999999999994
 20
41.01918593666761
 30
0.0
 11
-15.0
 21
41.0191859366676
 31
0.0
  0
LINE
  5
1EE
330
12B
100
AcDbEntity
  8
AM_4
100
AcDbLine
 10
-15.0
 20
41.0191859366676
 30
0.0
 11
-15.0
 21
35.66748099891423
 31
0.0
  0
LINE
  5
1EF
330
12B
100
AcDbEntity
  8
AM_4
100
AcDbLine
 10
-4.374999999999999
 20
77.65261374271098
 30
0.0
 11
-4.374999999999999
 21
-77.652613742711
 31
0.0
  0
LINE
  5
1F0
330
12B
100
AcDbEntity
  8
AM_4
100
AcDbLine
 10
-4.374999999999999
 20
-77.652613742711
 30
0.0
 11
0.0000000000000018
 21
-77.65261374271104
 31
0.0
  0
LINE
  5
1F1
330
12B
100
AcDbEntity
  8
AM_4
100
AcDbLine
 10
-15.0
 20
-35.66748099891419
 30
0.0
 11
-15.0
 21
-101.4312975027144
 31
0.0
  0
LINE
  5
1F2
330
12B
100
AcDbEntity
  8
AM_4
100
AcDbLine
 10
0.0000000000000009
 20
-101.4312975027144
 30
0.0
 11
-15.0
 21
-101.4312975027144
 31
0.0
  0
ELLIPSE
  5
1F3
330
12B
100
AcDbEntity
  8
AM_4
100
AcDbEllipse
 10
-27.00000000000002
 20
57.35565313070782
 30
0.0
 11
-2.547965880308322
 21
3.120358259656255E-16
 31
0.0
210
0.0
220
0.0
230
1.0
 40
0.7071067811865461
 41
1.570796326794897
 42
1.68691954317763
  0
LWPOLYLINE
  5
1F4
330
12B
100
AcDbEntity
  8
AM_4
100
AcDbPolyline
 90
        3
 70
     0
 43
0.0
 10
-24.50807871410462
 20
58.40719628968293
 10
-24.5862281328757
 20
58.53764245709701
 10
-24.59088446159738
 20
58.54471029336717
  0
LWPOLYLINE
  5
1F5
330
12B
100
AcDbEntity
  8
AM_4
100
AcDbPolyline
 90
       17
 70
     0
 43
0.0
 10
-26.70401894586576
 20
55.56608425007914
 10
-26.49385602311313
 20
55.58971991496141
 10
-26.17403745056944
 20
55.65079962761045
 10
-25.86547974913819
 20
55.7411571305955
 10
-25.57260274343599
 20
55.86007808058981
 10
-25.29984095937296
 20
56.00654674241309
 10
-25.05182417492522
 20
56.17901234457765
 10
-24.83315561719196
 20
56.3752244002555
 10
-24.64818776389556
 20
56.59202349700391
 10
-24.50061053546908
 20
56.82527125973991
 10
-24.392956376124
 20
57.07012668208719
 10
-24.32635609254627
 20
57.32160043364296
 10
-24.30071381531202
 20
57.57509662361387
 10
-24.3151629459051
 20
57.82669402103726
 10
-24.36847288750419
 20
58.07292048659715
 10
-24.45923943142628
 20
58.31070108588494
 10
-24.48742781753182
 20
58.36813936610039
  0
LWPOLYLINE
  5
1F6
330
12B
100
AcDbEntity
  8
AM_4
100
AcDbPolyline
 90
       19
 70
     0
 43
0.0
 10
-29.40320130770371
 20
58.5535903489487
 10
-29.40731005902912
 20
58.54743257856705
 10
-29.54127778083932
 20
58.30959638075589
 10
-29.6347723877412
 20
58.06189471187712
 10
-29.6871274049475
 20
57.80923186439315
 10
-29.69876328123074
 20
57.55598581748641
 10
-29.67069774656122
 20
57.30583408299119
 10
-29.60426394757101
 20
57.06225223608813
 10
-29.50081916410653
 20
56.82795779941085
 10
-29.36155904927512
 20
56.60533306811284
 10
-29.18776690901653
 20
56.39692320543224
 10
-28.98121188068176
 20
56.20556594242793
 10
-28.7444910102614
 20
56.03427264516698
 10
-28.4811137734767
 20
55.88592703142744
 10
-28.19530249850173
 20
55.76298444907645
 10
-27.89167126326147
 20
55.66732137306559
 10
-27.5750736478812
 20
55.60026315164741
 10
-27.25015208950215
 20
55.5625996891701
 10
-27.0
 20
55.55391507124857
  0
ELLIPSE
  5
1F7
330
12B
100
AcDbEntity
  8
AM_4
100
AcDbEllipse
 10
-26.99999999999999
 20
57.7406102923438
 30
0.0
 11
-2.663890264528348
 21
3.262324685734437E-16
 31
0.0
210
0.0
220
0.0
230
1.0
 40
0.7071067811865486
 41
5.871668461112097
 42
9.836294806836875
  0
LINE
  5
1F8
330
12B
100
AcDbEntity
  8
AM_4
100
AcDbLine
 10
-28.83303027798233
 20
59.47989898732234
 30
0.0
 11
-29.44149575605141
 21
58.49407224049774
 31
0.0
  0
LINE
  5
1F9
330
12B
100
AcDbEntity
  8
AM_4
100
AcDbLine
 10
-24.55850424394859
 20
58.49407224049774
 30
0.0
 11
-25.16696972201766
 21
59.47989898732234
 31
0.0
  0
LWPOLYLINE
  5
1FA
330
12B
100
AcDbEntity
  8
AM_4
100
AcDbPolyline
 90
        6
 70
     0
 43
0.0
 10
-39.67364817766692
 20
38.36278265119434
 10
-39.9882103266635
 20
38.28281051515847
 10
-40.2478451723384
 20
38.13378373910823
 10
-40.42476197281484
 20
37.93160134278453
 10
-40.49862044433701
 20
37.69749283492674
 10
-40.5
 20
37.66001677121781
  0
ARC
  5
1FB
330
12B
100
AcDbEntity
  8
AM_4
100
AcDbCircle
 10
-39.50000000000004
 20
62.29027900947635
 30
0.0
 40
0.9999999999999626
100
AcDbArc
 50
99.99999999999808
 51
180.0
  0
ARC
  5
1FC
330
12B
100
AcDbEntity
  8
AM_4
100
AcDbCircle
 10
-39.50000000000004
 20
-62.29027900947635
 30
0.0
 40
0.9999999999999716
100
AcDbArc
 50
180.0
 51
260.0000000000019
  0
LINE
  5
1FD
330
12B
100
AcDbEntity
  8
AM_4
100
AcDbLine
 10
-39.67364817766692
 20
38.36278265119434
 30
0.0
 11
-20.25000000000014
 21
40.80533466328944
 31
0.0
  0
LINE
  5
1FE
330
12B
100
AcDbEntity
  8
AM_4
100
AcDbLine
 10
-39.67364817766693
 20
59.11430539208006
 30
0.0
 11
-39.67364817766693
 21
63.27508676248853
 31
0.0
  0
LINE
  5
1FF
330
12B
100
AcDbEntity
  8
AM_4
100
AcDbLine
 10
-20.25000000000015
 20
63.14082165159881
 30
0.0
 11
-20.25000000000022
 21
59.11430539208006
 31
0.0
  0
LINE
  5
200
330
12B
100
AcDbEntity
  8
AM_4
100
AcDbLine
 10
-18.32635182233307
 20
63.52172573356079
 30
0.0
 11
-20.25000000000015
 21
63.14082165159881
 31
0.0
  0
LINE
  5
201
330
12B
100
AcDbEntity
  8
AM_4
100
AcDbLine
 10
-18.32635182233307
 20
63.52172573356079
 30
0.0
 11
-18.32635182233307
 21
67.03919107511337
 31
0.0
  0
LINE
  5
202
330
12B
100
AcDbEntity
  8
AM_4
100
AcDbLine
 10
-20.25000000000006
 20
-63.14082165159884
 30
0.0
 11
-18.32635182233306
 21
-63.52172573356079
 31
0.0
  0
LINE
  5
203
330
12B
100
AcDbEntity
  8
AM_4
100
AcDbLine
 10
-39.67364817766693
 20
-63.27508676248853
 30
0.0
 11
-18.32635182233307
 21
-67.03919107511337
 31
0.0
  0
LINE
  5
204
330
12B
100
AcDbEntity
  8
AM_4
100
AcDbLine
 10
-18.32635182233307
 20
67.03919107511337
 30
0.0
 11
-39.67364817766693
 21
63.27508676248853
 31
0.0
  0
LINE
  5
205
330
12B
100
AcDbEntity
  8
AM_4
100
AcDbLine
 10
-39.67364817766693
 20
-63.27508676248853
 30
0.0
 11
-39.67364817766692
 21
38.36278265119434
 31
0.0
  0
LINE
  5
206
330
12B
100
AcDbEntity
  8
AM_4
100
AcDbLine
 10
-18.32635182233307
 20
-67.03919107511337
 30
0.0
 11
-18.32635182233306
 21
-63.52172573356079
 31
0.0
  0
LINE
  5
207
330
12B
100
AcDbEntity
  8
AM_4
100
AcDbLine
 10
-4.374999999999997
 20
35.66748099891423
 30
0.0
 11
-15.0
 21
35.66748099891423
 31
0.0
  0
LINE
  5
208
330
12B
100
AcDbEntity
  8
AM_4
100
AcDbLine
 10
-15.0
 20
40.80533466328946
 30
0.0
 11
-20.25000000000014
 21
40.80533466328944
 31
0.0
  0
LINE
  5
209
330
12B
100
AcDbEntity
  8
AM_4
100
AcDbLine
 10
-20.25000000000014
 20
40.80533466328944
 30
0.0
 11
-20.25000000000006
 21
-63.14082165159884
 31
0.0
  0
LINE
  5
20A
330
12B
100
AcDbEntity
  8
AM_4
100
AcDbLine
 10
-15.0
 20
-63.14082165159884
 30
0.0
 11
-20.25000000000006
 21
-63.14082165159884
 31
0.0
  0
LINE
  5
20B
330
12B
100
AcDbEntity
  8
AM_4
100
AcDbLine
 10
-4.374999999999997
 20
-35.66748099891421
 30
0.0
 11
-15.0
 21
-35.66748099891419
 31
0.0
  0
ELLIPSE
  5
20C
330
12B
100
AcDbEntity
  8
AM_4
100
AcDbEllipse
 10
-27.0
 20
58.91421356237309
 30
0.0
 11
-2.0
 21
2.449293598294706E-16
 31
0.0
210
0.0
220
0.0
230
1.0
 40
0.7071067811865497
 41
0.0
 42
6.283185307179586
  0
ENDBLK
  5
12E
330
12B
100
AcDbEntity
  8
0
100
AcDbBlockEnd
  0
ENDSEC
  0
SECTION
  2
ENTITIES
  0
INSERT
  5
6F
330
1F
100
AcDbEntity
  8
0
100
AcDbBlockReference
  2
1_129329_2
 10
0.0
 20
0.0
 30
0.0
  0
POINT
  5
20E
330
1F
100
AcDbEntity
  8
ConnectionPoints
100
AcDbPoint
 10
-23.9
 20
0.0
 30
0.0000000000000037
  0
POINT
  5
20F
330
1F
100
AcDbEntity
  8
ConnectionPoints
100
AcDbPoint
 10
-6.0
 20
0.0
 30
0.0000000000000026
  0
POINT
  5
210
330
1F
100
AcDbEntity
  8
ConnectionPoints
100
AcDbPoint
 10
-6.0
 20
0.0
 30
0.0000000000000004
  0
ENDSEC
  0
SECTION
  2
OBJECTS
  0
DICTIONARY
  5
C
330
0
100
AcDbDictionary
281
     1
  3
ACAD_DETAILVIEWSTYLE
350
218
  3
ACAD_GROUP
350
D
  3
ACAD_LAYOUT
350
1A
  3
ACAD_MATERIAL
350
43
  3
ACAD_MLEADERSTYLE
350
6B
  3
ACAD_MLINESTYLE
350
17
  3
ACAD_PLOTSETTINGS
350
19
  3
ACAD_PLOTSTYLENAME
350
E
  3
ACAD_SCALELIST
350
47
  3
ACAD_SECTIONVIEWSTYLE
350
219
  3
ACAD_TABLESTYLE
350
69
  3
ACAD_VISUALSTYLE
350
2A
  3
ACDB_RECOMPOSE_DATA
350
215
  3
AcDbVariableDictionary
350
211
  0
SUN
  5
6D
330
29
100
AcDbSun
 90
        1
290
     0
 63
     7
421
 16777215
 40
1.0
291
     1
 91
  2455826
 92
 54000000
292
     0
 70
     2
 71
   256
280
     1
  0
DICTIONARY
  5
218
102
{ACAD_REACTORS
330
C
102
}
330
C
100
AcDbDictionary
281
     1
  0
DICTIONARY
  5
D
102
{ACAD_REACTORS
330
C
102
}
330
C
100
AcDbDictionary
281
     1
  0
DICTIONARY
  5
1A
102
{ACAD_REACTORS
330
C
102
}
330
C
100
AcDbDictionary
281
     1
  3
Layout1
350
1E
  3
Layout2
350
26
  3
Model
350
22
  0
DICTIONARY
  5
43
102
{ACAD_REACTORS
330
C
102
}
330
C
100
AcDbDictionary
281
     1
  3
ByBlock
350
45
  3
ByLayer
350
44
  3
Global
350
46
  0
DICTIONARY
  5
6B
102
{ACAD_REACTORS
330
C
102
}
330
C
100
AcDbDictionary
281
     1
  3
Standard
350
6C
  0
DICTIONARY
  5
17
102
{ACAD_REACTORS
330
C
102
}
330
C
100
AcDbDictionary
281
     1
  3
Standard
350
18
  0
DICTIONARY
  5
19
102
{ACAD_REACTORS
330
C
102
}
330
C
100
AcDbDictionary
281
     1
  0
ACDBDICTIONARYWDFLT
  5
E
102
{ACAD_REACTORS
330
C
102
}
330
C
100
AcDbDictionary
281
     1
  3
Normal
350
F
100
AcDbDictionaryWithDefault
340
F
  0
DICTIONARY
  5
47
102
{ACAD_REACTORS
330
C
102
}
330
C
100
AcDbDictionary
281
     1
  3
A0
350
48
  3
A1
350
49
  3
A2
350
4A
  3
A3
350
4B
  3
A4
350
4C
  3
A5
350
4D
  3
A6
350
4E
  3
A7
350
4F
  3
A8
350
50
  3
A9
350
51
  3
B0
350
52
  3
B1
350
53
  3
B2
350
54
  3
B3
350
55
  3
B4
350
56
  3
B5
350
57
  3
B6
350
58
  3
B7
350
59
  3
B8
350
5A
  3
B9
350
5B
  3
C0
350
5C
  3
C1
350
5D
  3
C2
350
5E
  3
C3
350
5F
  3
C4
350
60
  3
C5
350
61
  3
C6
350
62
  3
C7
350
63
  3
C8
350
64
  3
C9
350
65
  3
D0
350
66
  3
D1
350
67
  3
D2
350
68
  0
DICTIONARY
  5
219
102
{ACAD_REACTORS
330
C
102
}
330
C
100
AcDbDictionary
281
     1
  0
DICTIONARY
  5
69
102
{ACAD_REACTORS
330
C
102
}
330
C
100
AcDbDictionary
281
     1
  3
Standard
350
6A
  0
DICTIONARY
  5
2A
102
{ACAD_REACTORS
330
C
102
}
330
C
100
AcDbDictionary
281
     1
  3
2dWireframe
350
2F
  3
Basic
350
32
  3
Brighten
350
36
  3
ColorChange
350
3A
  3
Conceptual
350
34
  3
Dim
350
35
  3
EdgeColorOff
350
3D
  3
Facepattern
350
39
  3
Flat
350
2B
  3
FlatWithEdges
350
2C
  3
Gouraud
350
2D
  3
GouraudWithEdges
350
2E
  3
Hidden
350
31
  3
JitterOff
350
3B
  3
Linepattern
350
38
  3
OverhangOff
350
3C
  3
Realistic
350
33
  3
Shaded
350
42
  3
Shaded with edges
350
41
  3
Shades of Gray
350
3E
  3
Sketchy
350
3F
  3
Thicken
350
37
  3
Wireframe
350
30
  3
X-Ray
350
40
  0
XRECORD
  5
215
102
{ACAD_REACTORS
330
C
102
}
330
C
100
AcDbXrecord
280
     1
 90
        1
330
6A
  0
DICTIONARY
  5
211
102
{ACAD_REACTORS
330
C
102
}
330
C
100
AcDbDictionary
281
     1
  3
CANNOSCALE
350
212
  3
CMLEADERSTYLE
350
217
  3
CTABLESTYLE
350
216
  0
LAYOUT
  5
1E
102
{ACAD_REACTORS
330
1A
102
}
330
1A
100
AcDbPlotSettings
  1

  2
none_device
  4

  6

 40
0.0
 41
0.0
 42
0.0
 43
0.0
 44
0.0
 45
0.0
 46
0.0
 47
0.0
 48
0.0
 49
0.0
140
0.0
141
0.0
142
1.0
143
1.0
 70
   688
 72
     1
 73
     0
 74
     5
  7

 75
    16
 76
     0
 77
     2
 78
   300
147
1.0
148
0.0
149
0.0
100
AcDbLayout
  1
Layout1
 70
     1
 71
     1
 10
0.0
 20
0.0
 11
420.0
 21
297.0
 12
0.0
 22
0.0
 32
0.0
 14
1.000000000000000E+20
 24
1.000000000000000E+20
 34
1.000000000000000E+20
 15
-1.000000000000000E+20
 25
-1.000000000000000E+20
 35
-1.000000000000000E+20
146
0.0
 13
0.0
 23
0.0
 33
0.0
 16
1.0
 26
0.0
 36
0.0
 17
0.0
 27
1.0
 37
0.0
 76
     0
330
1B
  0
LAYOUT
  5
26
102
{ACAD_REACTORS
330
1A
102
}
330
1A
100
AcDbPlotSettings
  1

  2
none_device
  4

  6

 40
0.0
 41
0.0
 42
0.0
 43
0.0
 44
0.0
 45
0.0
 46
0.0
 47
0.0
 48
0.0
 49
0.0
140
0.0
141
0.0
142
1.0
143
1.0
 70
   688
 72
     1
 73
     0
 74
     5
  7

 75
    16
 76
     0
 77
     2
 78
   300
147
1.0
148
0.0
149
0.0
100
AcDbLayout
  1
Layout2
 70
     1
 71
     2
 10
0.0
 20
0.0
 11
0.0
 21
0.0
 12
0.0
 22
0.0
 32
0.0
 14
0.0
 24
0.0
 34
0.0
 15
0.0
 25
0.0
 35
0.0
146
0.0
 13
0.0
 23
0.0
 33
0.0
 16
1.0
 26
0.0
 36
0.0
 17
0.0
 27
1.0
 37
0.0
 76
     0
330
23
  0
LAYOUT
  5
22
102
{ACAD_REACTORS
330
1A
102
}
330
1A
100
AcDbPlotSettings
  1

  2
none_device
  4
Letter_(8.50_x_11.00_Inches)
  6

 40
6.35
 41
6.35
 42
6.35000508
 43
6.35000508
 44
215.9
 45
279.4
 46
0.0
 47
0.0
 48
0.0
 49
0.0
140
0.0
141
0.0
142
1.0
143
1.0
 70
  1712
 72
     1
 73
     0
 74
     0
  7

 75
     0
 76
     0
 77
     2
 78
   300
147
1.0
148
0.0
149
0.0
100
AcDbLayout
  1
Model
 70
     1
 71
     0
 10
0.0
 20
0.0
 11
420.0
 21
297.0
 12
0.0
 22
0.0
 32
0.0
 14
1.000000000000000E+20
 24
1.000000000000000E+20
 34
1.000000000000000E+20
 15
-1.000000000000000E+20
 25
-1.000000000000000E+20
 35
-1.000000000000000E+20
146
0.0
 13
0.0
 23
0.0
 33
0.0
 16
1.0
 26
0.0
 36
0.0
 17
0.0
 27
1.0
 37
0.0
 76
     0
330
1F
331
29
  0
MATERIAL
  5
45
102
{ACAD_REACTORS
330
43
102
}
330
43
100
AcDbMaterial
  1
ByBlock
 72
     1
 94
      127
  0
MATERIAL
  5
44
102
{ACAD_REACTORS
330
43
102
}
330
43
100
AcDbMaterial
  1
ByLayer
 72
     1
 94
      127
  0
MATERIAL
  5
46
102
{ACAD_REACTORS
330
43
102
}
330
43
100
AcDbMaterial
  1
Global
 72
     1
 94
      127
  0
MLEADERSTYLE
  5
6C
102
{ACAD_REACTORS
330
6B
102
}
330
6B
100
AcDbMLeaderStyle
179
     2
170
     2
171
     1
172
     0
 90
        2
 40
0.0
 41
0.0
173
     1
 91
-1056964608
340
14
 92
       -2
290
     1
 42
2.0
291
     1
 43
8.0
  3
Standard
341
0
 44
4.0
300

342
11
174
     1
178
     6
175
     1
176
     0
 93
-1056964608
 45
4.0
292
     0
297
     0
 46
4.0
343
0
 94
-1056964608
 47
1.0
 49
1.0
140
1.0
293
     1
141
0.0
294
     1
177
     0
142
1.0
295
     0
296
     0
143
3.75
271
     0
272
     9
273
     9
298
     0
  0
MLINESTYLE
  5
18
102
{ACAD_REACTORS
330
17
102
}
330
17
100
AcDbMlineStyle
  2
Standard
 70
     0
  3

 62
   256
 51
90.0
 52
90.0
 71
     2
 49
0.5
 62
   256
  6
BYLAYER
 49
-0.5
 62
   256
  6
BYLAYER
  0
ACDBPLACEHOLDER
  5
F
102
{ACAD_REACTORS
330
E
102
}
330
E
  0
SCALE
  5
48
102
{ACAD_REACTORS
330
47
102
}
330
47
100
AcDbScale
 70
     0
300
1:1
140
1.0
141
1.0
290
     1
  0
SCALE
  5
49
102
{ACAD_REACTORS
330
47
102
}
330
47
100
AcDbScale
 70
     0
300
1:2
140
1.0
141
2.0
290
     0
  0
SCALE
  5
4A
102
{ACAD_REACTORS
330
47
102
}
330
47
100
AcDbScale
 70
     0
300
1:4
140
1.0
141
4.0
290
     0
  0
SCALE
  5
4B
102
{ACAD_REACTORS
330
47
102
}
330
47
100
AcDbScale
 70
     0
300
1:5
140
1.0
141
5.0
290
     0
  0
SCALE
  5
4C
102
{ACAD_REACTORS
330
47
102
}
330
47
100
AcDbScale
 70
     0
300
1:8
140
1.0
141
8.0
290
     0
  0
SCALE
  5
4D
102
{ACAD_REACTORS
330
47
102
}
330
47
100
AcDbScale
 70
     0
300
1:10
140
1.0
141
10.0
290
     0
  0
SCALE
  5
4E
102
{ACAD_REACTORS
330
47
102
}
330
47
100
AcDbScale
 70
     0
300
1:16
140
1.0
141
16.0
290
     0
  0
SCALE
  5
4F
102
{ACAD_REACTORS
330
47
102
}
330
47
100
AcDbScale
 70
     0
300
1:20
140
1.0
141
20.0
290
     0
  0
SCALE
  5
50
102
{ACAD_REACTORS
330
47
102
}
330
47
100
AcDbScale
 70
     0
300
1:30
140
1.0
141
30.0
290
     0
  0
SCALE
  5
51
102
{ACAD_REACTORS
330
47
102
}
330
47
100
AcDbScale
 70
     0
300
1:40
140
1.0
141
40.0
290
     0
  0
SCALE
  5
52
102
{ACAD_REACTORS
330
47
102
}
330
47
100
AcDbScale
 70
     0
300
1:50
140
1.0
141
50.0
290
     0
  0
SCALE
  5
53
102
{ACAD_REACTORS
330
47
102
}
330
47
100
AcDbScale
 70
     0
300
1:100
140
1.0
141
100.0
290
     0
  0
SCALE
  5
54
102
{ACAD_REACTORS
330
47
102
}
330
47
100
AcDbScale
 70
     0
300
2:1
140
2.0
141
1.0
290
     0
  0
SCALE
  5
55
102
{ACAD_REACTORS
330
47
102
}
330
47
100
AcDbScale
 70
     0
300
4:1
140
4.0
141
1.0
290
     0
  0
SCALE
  5
56
102
{ACAD_REACTORS
330
47
102
}
330
47
100
AcDbScale
 70
     0
300
8:1
140
8.0
141
1.0
290
     0
  0
SCALE
  5
57
102
{ACAD_REACTORS
330
47
102
}
330
47
100
AcDbScale
 70
     0
300
10:1
140
10.0
141
1.0
290
     0
  0
SCALE
  5
58
102
{ACAD_REACTORS
330
47
102
}
330
47
100
AcDbScale
 70
     0
300
100:1
140
100.0
141
1.0
290
     0
  0
SCALE
  5
59
102
{ACAD_REACTORS
330
47
102
}
330
47
100
AcDbScale
 70
     0
300
1/128" = 1'-0"
140
0.0078125
141
12.0
290
     0
  0
SCALE
  5
5A
102
{ACAD_REACTORS
330
47
102
}
330
47
100
AcDbScale
 70
     0
300
1/64" = 1'-0"
140
0.015625
141
12.0
290
     0
  0
SCALE
  5
5B
102
{ACAD_REACTORS
330
47
102
}
330
47
100
AcDbScale
 70
     0
300
1/32" = 1'-0"
140
0.03125
141
12.0
290
     0
  0
SCALE
  5
5C
102
{ACAD_REACTORS
330
47
102
}
330
47
100
AcDbScale
 70
     0
300
1/16" = 1'-0"
140
0.0625
141
12.0
290
     0
  0
SCALE
  5
5D
102
{ACAD_REACTORS
330
47
102
}
330
47
100
AcDbScale
 70
     0
300
3/32" = 1'-0"
140
0.09375
141
12.0
290
     0
  0
SCALE
  5
5E
102
{ACAD_REACTORS
330
47
102
}
330
47
100
AcDbScale
 70
     0
300
1/8" = 1'-0"
140
0.125
141
12.0
290
     0
  0
SCALE
  5
5F
102
{ACAD_REACTORS
330
47
102
}
330
47
100
AcDbScale
 70
     0
300
3/16" = 1'-0"
140
0.1875
141
12.0
290
     0
  0
SCALE
  5
60
102
{ACAD_REACTORS
330
47
102
}
330
47
100
AcDbScale
 70
     0
300
1/4" = 1'-0"
140
0.25
141
12.0
290
     0
  0
SCALE
  5
61
102
{ACAD_REACTORS
330
47
102
}
330
47
100
AcDbScale
 70
     0
300
3/8" = 1'-0"
140
0.375
141
12.0
290
     0
  0
SCALE
  5
62
102
{ACAD_REACTORS
330
47
102
}
330
47
100
AcDbScale
 70
     0
300
1/2" = 1'-0"
140
0.5
141
12.0
290
     0
  0
SCALE
  5
63
102
{ACAD_REACTORS
330
47
102
}
330
47
100
AcDbScale
 70
     0
300
3/4" = 1'-0"
140
0.75
141
12.0
290
     0
  0
SCALE
  5
64
102
{ACAD_REACTORS
330
47
102
}
330
47
100
AcDbScale
 70
     0
300
1" = 1'-0"
140
1.0
141
12.0
290
     0
  0
SCALE
  5
65
102
{ACAD_REACTORS
330
47
102
}
330
47
100
AcDbScale
 70
     0
300
1-1/2" = 1'-0"
140
1.5
141
12.0
290
     0
  0
SCALE
  5
66
102
{ACAD_REACTORS
330
47
102
}
330
47
100
AcDbScale
 70
     0
300
3" = 1'-0"
140
3.0
141
12.0
290
     0
  0
SCALE
  5
67
102
{ACAD_REACTORS
330
47
102
}
330
47
100
AcDbScale
 70
     0
300
6" = 1'-0"
140
6.0
141
12.0
290
     0
  0
SCALE
  5
68
102
{ACAD_REACTORS
330
47
102
}
330
47
100
AcDbScale
 70
     0
300
1'-0" = 1'-0"
140
12.0
141
12.0
290
     0
  0
TABLESTYLE
  5
6A
102
{ACAD_REACTORS
330
69
102
}
102
{ACAD_XDICTIONARY
360
213
102
}
330
69
100
AcDbTableStyle
  3
Standard
 70
     0
 71
     0
 40
0.06
 41
0.06
280
     0
281
     0
  7
Standard
140
4.5
170
     2
 62
     0
 63
   257
283
     0
 90
        4
 91
        0
  1

274
    -2
284
     1
 64
     0
275
    -2
285
     1
 65
     0
276
    -2
286
     1
 66
     0
277
    -2
287
     1
 67
     0
278
    -2
288
     1
 68
     0
279
    -2
289
     1
 69
     0
  7
Standard
140
6.0
170
     5
 62
     0
 63
   257
283
     0
 90
        4
 91
        0
  1

274
    -2
284
     1
 64
     0
275
    -2
285
     1
 65
     0
276
    -2
286
     1
 66
     0
277
    -2
287
     1
 67
     0
278
    -2
288
     1
 68
     0
279
    -2
289
     1
 69
     0
  7
Standard
140
4.5
170
     5
 62
     0
 63
   257
283
     0
 90
        4
 91
        0
  1

274
    -2
284
     1
 64
     0
275
    -2
285
     1
 65
     0
276
    -2
286
     1
 66
     0
277
    -2
287
     1
 67
     0
278
    -2
288
     1
 68
     0
279
    -2
289
     1
 69
     0
  0
VISUALSTYLE
  5
2F
102
{ACAD_REACTORS
330
2A
102
}
330
2A
100
AcDbVisualStyle
  2
2dWireframe
 70
     4
177
     3
291
     0
 70
    58
 90
        0
176
     1
 90
        2
176
     1
 90
        0
176
     1
 90
        0
176
     1
 40
0.6
176
     1
 40
30.0
176
     1
 62
     7
420
 16777215
176
     1
 90
        1
176
     1
 90
        4
176
     1
 62
     7
176
     1
 62
   257
176
     1
 90
        1
176
     1
 90
        1
176
     1
 40
1.0
176
     1
 90
        0
176
     1
 62
   257
176
     1
 40
1.0
176
     1
 90
        1
176
     1
 90
        6
176
     1
 90
        2
176
     1
 62
     7
176
     1
 90
        5
176
     1
 90
        0
176
     1
 90
        0
176
     1
290
     0
176
     1
 90
        1
176
     1
 40
0.0
176
     1
 90
        0
176
     1
290
     1
176
     1
290
     1
176
     1
290
     0
176
     1
290
     0
176
     1
290
     0
176
     1
290
     0
176
     1
290
     0
176
     1
290
     0
176
     1
290
     0
176
     1
 90
       50
176
     1
 40
0.0
176
     1
 40
1.0
176
     1
 90
        0
176
     1
 62
    18
420
        0
176
     1
 90
       50
176
     1
 90
        3
176
     1
 62
     5
420
      255
176
     1
290
     0
176
     1
 90
       50
176
     1
 90
       50
176
     1
 90
       50
176
     1
290
     0
176
     1
 90
       50
176
     1
 62
   256
176
     0
 40
1.0
176
     0
 90
        2
176
     1
  1
strokes_ogs.tif
176
     1
290
     0
176
     1
 40
1.0
176
     1
 40
1.0
176
     1
  0
VISUALSTYLE
  5
32
102
{ACAD_REACTORS
330
2A
102
}
330
2A
100
AcDbVisualStyle
  2
Basic
 70
     7
177
     3
291
     1
 70
    58
 90
        1
176
     1
 90
        0
176
     1
 90
        1
176
     1
 90
        0
176
     1
 40
0.6
176
     1
 40
30.0
176
     1
 62
     7
420
 16777215
176
     1
 90
        0
176
     1
 90
        4
176
     1
 62
     7
176
     1
 62
   257
176
     1
 90
        1
176
     1
 90
        1
176
     1
 40
1.0
176
     1
 90
        8
176
     1
 62
     7
176
     1
 40
1.0
176
     1
 90
        1
176
     1
 90
        6
176
     1
 90
        2
176
     1
 62
     7
176
     1
 90
        5
176
     1
 90
        0
176
     1
 90
        0
176
     1
290
     0
176
     1
 90
        1
176
     1
 40
0.0
176
     1
 90
        0
176
     1
290
     0
176
     1
290
     1
176
     1
290
     1
176
     1
290
     0
176
     1
290
     0
176
     1
290
     0
176
     1
290
     0
176
     1
290
     0
176
     1
290
     0
176
     1
 90
       50
176
     1
 40
0.0
176
     1
 40
1.0
176
     1
 90
        0
176
     1
 62
    18
420
        0
176
     1
 90
       50
176
     1
 90
        3
176
     1
 62
     5
420
      255
176
     1
290
     0
176
     1
 90
       50
176
     1
 90
       50
176
     1
 90
       50
176
     1
290
     0
176
     1
 90
       50
176
     1
 62
   256
176
     0
 40
1.0
176
     0
 90
        2
176
     1
  1
strokes_ogs.tif
176
     1
290
     0
176
     1
 40
1.0
176
     1
 40
1.0
176
     1
  0
VISUALSTYLE
  5
36
102
{ACAD_REACTORS
330
2A
102
}
330
2A
100
AcDbVisualStyle
  2
Brighten
 70
    12
177
     3
291
     1
 70
    58
 90
        2
176
     1
 90
        2
176
     1
 90
        0
176
     1
 90
        0
176
     1
 40
0.6
176
     1
 40
30.0
176
     1
 62
     7
420
 16777215
176
     1
 90
        1
176
     1
 90
        4
176
     1
 62
     7
176
     1
 62
   257
176
     1
 90
        1
176
     1
 90
        1
176
     1
 40
1.0
176
     1
 90
        8
176
     1
 62
     7
176
     1
 40
1.0
176
     1
 90
        1
176
     1
 90
        6
176
     1
 90
        2
176
     1
 62
     7
176
     1
 90
        5
176
     1
 90
        0
176
     1
 90
        0
176
     1
290
     0
176
     1
 90
        1
176
     1
 40
50.0
176
     1
 90
        0
176
     1
290
     0
176
     1
290
     1
176
     1
290
     1
176
     1
290
     0
176
     1
290
     0
176
     1
290
     0
176
     1
290
     0
176
     1
290
     0
176
     1
290
     0
176
     1
 90
       50
176
     1
 40
0.0
176
     1
 40
1.0
176
     1
 90
        0
176
     1
 62
    18
420
        0
176
     1
 90
       50
176
     1
 90
        3
176
     1
 62
     5
420
      255
176
     1
290
     0
176
     1
 90
       50
176
     1
 90
       50
176
     1
 90
       50
176
     1
290
     0
176
     1
 90
       50
176
     1
 62
   256
176
     0
 40
1.0
176
     0
 90
        2
176
     1
  1
strokes_ogs.tif
176
     1
290
     0
176
     1
 40
1.0
176
     1
 40
1.0
176
     1
  0
VISUALSTYLE
  5
3A
102
{ACAD_REACTORS
330
2A
102
}
330
2A
100
AcDbVisualStyle
  2
ColorChange
 70
    16
177
     3
291
     1
 70
    58
 90
        2
176
     1
 90
        2
176
     1
 90
        3
176
     1
 90
        0
176
     1
 40
0.6
176
     1
 40
30.0
176
     1
 62
     8
420
  8421504
176
     1
 90
        1
176
     1
 90
        4
176
     1
 62
     7
176
     1
 62
   257
176
     1
 90
        1
176
     1
 90
        1
176
     1
 40
1.0
176
     1
 90
        8
176
     1
 62
     8
420
  8421504
176
     1
 40
1.0
176
     1
 90
        1
176
     1
 90
        6
176
     1
 90
        2
176
     1
 62
     7
176
     1
 90
        5
176
     1
 90
        0
176
     1
 90
        0
176
     1
290
     0
176
     1
 90
        1
176
     1
 40
0.0
176
     1
 90
        0
176
     1
290
     0
176
     1
290
     1
176
     1
290
     1
176
     1
290
     0
176
     1
290
     0
176
     1
290
     0
176
     1
290
     0
176
     1
290
     0
176
     1
290
     0
176
     1
 90
       50
176
     1
 40
0.0
176
     1
 40
1.0
176
     1
 90
        0
176
     1
 62
    18
420
        0
176
     1
 90
       50
176
     1
 90
        3
176
     1
 62
     5
420
      255
176
     1
290
     0
176
     1
 90
       50
176
     1
 90
       50
176
     1
 90
       50
176
     1
290
     0
176
     1
 90
       50
176
     1
 62
   256
176
     0
 40
1.0
176
     0
 90
        2
176
     1
  1
strokes_ogs.tif
176
     1
290
     0
176
     1
 40
1.0
176
     1
 40
1.0
176
     1
  0
VISUALSTYLE
  5
34
102
{ACAD_REACTORS
330
2A
102
}
330
2A
100
AcDbVisualStyle
  2
Conceptual
 70
     9
177
     3
291
     0
 70
    58
 90
        3
176
     1
 90
        2
176
     1
 90
        0
176
     1
 90
        0
176
     1
 40
0.6
176
     1
 40
30.0
176
     1
 62
     7
420
 16777215
176
     1
 90
        2
176
     1
 90
        2
176
     1
 62
     7
176
     1
 62
   257
176
     1
 90
        1
176
     1
 90
        1
176
     1
 40
179.0
176
     1
 90
        8
176
     1
 62
     7
176
     1
 40
1.0
176
     1
 90
        1
176
     1
 90
        6
176
     1
 90
        2
176
     1
 62
     7
176
     1
 90
        3
176
     1
 90
        0
176
     1
 90
        0
176
     1
290
     0
176
     1
 90
        1
176
     1
 40
0.0
176
     1
 90
        0
176
     1
290
     0
176
     1
290
     1
176
     1
290
     1
176
     1
290
     0
176
     1
290
     0
176
     1
290
     0
176
     1
290
     0
176
     1
290
     0
176
     1
290
     0
176
     1
 90
       50
176
     1
 40
0.0
176
     1
 40
1.0
176
     1
 90
        0
176
     1
 62
    18
420
        0
176
     1
 90
       50
176
     1
 90
        3
176
     1
 62
     5
420
      255
176
     1
290
     0
176
     1
 90
       50
176
     1
 90
       50
176
     1
 90
       50
176
     1
290
     0
176
     1
 90
       50
176
     1
 62
   256
176
     0
 40
1.0
176
     0
 90
        2
176
     1
  1
strokes_ogs.tif
176
     1
290
     0
176
     1
 40
1.0
176
     1
 40
1.0
176
     1
  0
VISUALSTYLE
  5
35
102
{ACAD_REACTORS
330
2A
102
}
330
2A
100
AcDbVisualStyle
  2
Dim
 70
    11
177
     3
291
     1
 70
    58
 90
        2
176
     1
 90
        2
176
     1
 90
        0
176
     1
 90
        0
176
     1
 40
0.6
176
     1
 40
30.0
176
     1
 62
     7
420
 16777215
176
     1
 90
        1
176
     1
 90
        4
176
     1
 62
     7
176
     1
 62
   257
176
     1
 90
        1
176
     1
 90
        1
176
     1
 40
1.0
176
     1
 90
        8
176
     1
 62
     7
176
     1
 40
1.0
176
     1
 90
        1
176
     1
 90
        6
176
     1
 90
        2
176
     1
 62
     7
176
     1
 90
        5
176
     1
 90
        0
176
     1
 90
        0
176
     1
290
     0
176
     1
 90
        1
176
     1
 40
-50.0
176
     1
 90
        0
176
     1
290
     0
176
     1
290
     1
176
     1
290
     1
176
     1
290
     0
176
     1
290
     0
176
     1
290
     0
176
     1
290
     0
176
     1
290
     0
176
     1
290
     0
176
     1
 90
       50
176
     1
 40
0.0
176
     1
 40
1.0
176
     1
 90
        0
176
     1
 62
    18
420
        0
176
     1
 90
       50
176
     1
 90
        3
176
     1
 62
     5
420
      255
176
     1
290
     0
176
     1
 90
       50
176
     1
 90
       50
176
     1
 90
       50
176
     1
290
     0
176
     1
 90
       50
176
     1
 62
   256
176
     0
 40
1.0
176
     0
 90
        2
176
     1
  1
strokes_ogs.tif
176
     1
290
     0
176
     1
 40
1.0
176
     1
 40
1.0
176
     1
  0
VISUALSTYLE
  5
3D
102
{ACAD_REACTORS
330
2A
102
}
330
2A
100
AcDbVisualStyle
  2
EdgeColorOff
 70
    22
177
     3
291
     1
 70
    58
 90
        2
176
     0
 90
        2
176
     0
 90
        0
176
     0
 90
        0
176
     0
 40
0.6
176
     0
 40
30.0
176
     0
 62
     7
420
 16777215
176
     0
 90
        1
176
     0
 90
        4
176
     0
 62
     7
176
     0
 62
   257
176
     0
 90
        1
176
     0
 90
        1
176
     0
 40
1.0
176
     0
 90
        8
176
     2
 62
     7
176
     0
 40
1.0
176
     0
 90
        1
176
     0
 90
        6
176
     0
 90
        2
176
     0
 62
     7
176
     0
 90
        5
176
     0
 90
        0
176
     0
 90
        0
176
     0
290
     0
176
     0
 90
        1
176
     0
 40
0.0
176
     0
 90
        0
176
     0
290
     0
176
     0
290
     1
176
     0
290
     1
176
     0
290
     0
176
     0
290
     0
176
     0
290
     0
176
     0
290
     0
176
     0
290
     0
176
     0
290
     0
176
     0
 90
       50
176
     0
 40
0.0
176
     0
 40
1.0
176
     0
 90
        0
176
     0
 62
    18
420
        0
176
     0
 90
       50
176
     0
 90
        3
176
     0
 62
     5
420
      255
176
     0
290
     0
176
     0
 90
       50
176
     0
 90
       50
176
     0
 90
       50
176
     0
290
     0
176
     0
 90
       50
176
     0
 62
   256
176
     0
 40
1.0
176
     0
 90
        2
176
     0
  1
strokes_ogs.tif
176
     0
290
     0
176
     0
 40
1.0
176
     0
 40
1.0
176
     0
  0
VISUALSTYLE
  5
39
102
{ACAD_REACTORS
330
2A
102
}
330
2A
100
AcDbVisualStyle
  2
Facepattern
 70
    15
177
     3
291
     1
 70
    58
 90
        2
176
     1
 90
        2
176
     1
 90
        0
176
     1
 90
        0
176
     1
 40
0.6
176
     1
 40
30.0
176
     1
 62
     7
420
 16777215
176
     1
 90
        1
176
     1
 90
        4
176
     1
 62
     7
176
     1
 62
   257
176
     1
 90
        1
176
     1
 90
        1
176
     1
 40
1.0
176
     1
 90
        8
176
     1
 62
     7
176
     1
 40
1.0
176
     1
 90
        1
176
     1
 90
        6
176
     1
 90
        2
176
     1
 62
     7
176
     1
 90
        5
176
     1
 90
        0
176
     1
 90
        0
176
     1
290
     0
176
     1
 90
        1
176
     1
 40
0.0
176
     1
 90
        0
176
     1
290
     0
176
     1
290
     1
176
     1
290
     1
176
     1
290
     0
176
     1
290
     0
176
     1
290
     0
176
     1
290
     0
176
     1
290
     0
176
     1
290
     0
176
     1
 90
       50
176
     1
 40
0.0
176
     1
 40
1.0
176
     1
 90
        0
176
     1
 62
    18
420
        0
176
     1
 90
       50
176
     1
 90
        3
176
     1
 62
     5
420
      255
176
     1
290
     0
176
     1
 90
       50
176
     1
 90
       50
176
     1
 90
       50
176
     1
290
     0
176
     1
 90
       50
176
     1
 62
   256
176
     0
 40
1.0
176
     0
 90
        2
176
     1
  1
strokes_ogs.tif
176
     1
290
     0
176
     1
 40
1.0
176
     1
 40
1.0
176
     1
  0
VISUALSTYLE
  5
2B
102
{ACAD_REACTORS
330
2A
102
}
330
2A
100
AcDbVisualStyle
  2
Flat
 70
     0
177
     3
291
     1
 70
    58
 90
        2
176
     1
 90
        1
176
     1
 90
        1
176
     1
 90
        2
176
     1
 40
0.6
176
     1
 40
30.0
176
     1
 62
     7
420
 16777215
176
     1
 90
        0
176
     1
 90
        0
176
     1
 62
     7
176
     1
 62
   257
176
     1
 90
        1
176
     1
 90
        1
176
     1
 40
1.0
176
     1
 90
        8
176
     1
 62
     7
176
     1
 40
1.0
176
     1
 90
        1
176
     1
 90
        6
176
     1
 90
        2
176
     1
 62
     7
176
     1
 90
        5
176
     1
 90
        0
176
     1
 90
        0
176
     1
290
     0
176
     1
 90
       13
176
     1
 40
0.0
176
     1
 90
        0
176
     1
290
     0
176
     1
290
     1
176
     1
290
     1
176
     1
290
     0
176
     1
290
     0
176
     1
290
     0
176
     1
290
     0
176
     1
290
     0
176
     1
290
     0
176
     1
 90
       50
176
     1
 40
0.0
176
     1
 40
1.0
176
     1
 90
        0
176
     1
 62
    18
420
        0
176
     1
 90
       50
176
     1
 90
        3
176
     1
 62
     5
420
      255
176
     1
290
     0
176
     1
 90
       50
176
     1
 90
       50
176
     1
 90
       50
176
     1
290
     0
176
     1
 90
       50
176
     1
 62
   256
176
     0
 40
1.0
176
     0
 90
        2
176
     1
  1
strokes_ogs.tif
176
     1
290
     0
176
     1
 40
1.0
176
     1
 40
1.0
176
     1
  0
VISUALSTYLE
  5
2C
102
{ACAD_REACTORS
330
2A
102
}
330
2A
100
AcDbVisualStyle
  2
FlatWithEdges
 70
     1
177
     3
291
     1
 70
    58
 90
        2
176
     1
 90
        1
176
     1
 90
        1
176
     1
 90
        2
176
     1
 40
0.6
176
     1
 40
30.0
176
     1
 62
     7
420
 16777215
176
     1
 90
        1
176
     1
 90
        0
176
     1
 62
     7
176
     1
 62
   257
176
     1
 90
        1
176
     1
 90
        1
176
     1
 40
1.0
176
     1
 90
        0
176
     1
 62
   257
176
     1
 40
1.0
176
     1
 90
        1
176
     1
 90
        6
176
     1
 90
        2
176
     1
 62
     7
176
     1
 90
        5
176
     1
 90
        0
176
     1
 90
        0
176
     1
290
     0
176
     1
 90
       13
176
     1
 40
0.0
176
     1
 90
        0
176
     1
290
     0
176
     1
290
     1
176
     1
290
     1
176
     1
290
     0
176
     1
290
     0
176
     1
290
     0
176
     1
290
     0
176
     1
290
     0
176
     1
290
     0
176
     1
 90
       50
176
     1
 40
0.0
176
     1
 40
1.0
176
     1
 90
        0
176
     1
 62
    18
420
        0
176
     1
 90
       50
176
     1
 90
        3
176
     1
 62
     5
420
      255
176
     1
290
     0
176
     1
 90
       50
176
     1
 90
       50
176
     1
 90
       50
176
     1
290
     0
176
     1
 90
       50
176
     1
 62
   256
176
     0
 40
1.0
176
     0
 90
        2
176
     1
  1
strokes_ogs.tif
176
     1
290
     0
176
     1
 40
1.0
176
     1
 40
1.0
176
     1
  0
VISUALSTYLE
  5
2D
102
{ACAD_REACTORS
330
2A
102
}
330
2A
100
AcDbVisualStyle
  2
Gouraud
 70
     2
177
     3
291
     1
 70
    58
 90
        2
176
     1
 90
        2
176
     1
 90
        1
176
     1
 90
        2
176
     1
 40
0.6
176
     1
 40
30.0
176
     1
 62
     7
420
 16777215
176
     1
 90
        0
176
     1
 90
        0
176
     1
 62
     7
176
     1
 62
   257
176
     1
 90
        1
176
     1
 90
        1
176
     1
 40
1.0
176
     1
 90
        0
176
     1
 62
     7
176
     1
 40
1.0
176
     1
 90
        1
176
     1
 90
        6
176
     1
 90
        2
176
     1
 62
     7
176
     1
 90
        5
176
     1
 90
        0
176
     1
 90
        0
176
     1
290
     0
176
     1
 90
       13
176
     1
 40
0.0
176
     1
 90
        0
176
     1
290
     0
176
     1
290
     1
176
     1
290
     1
176
     1
290
     0
176
     1
290
     0
176
     1
290
     0
176
     1
290
     0
176
     1
290
     0
176
     1
290
     0
176
     1
 90
       50
176
     1
 40
0.0
176
     1
 40
1.0
176
     1
 90
        0
176
     1
 62
    18
420
        0
176
     1
 90
       50
176
     1
 90
        3
176
     1
 62
     5
420
      255
176
     1
290
     0
176
     1
 90
       50
176
     1
 90
       50
176
     1
 90
       50
176
     1
290
     0
176
     1
 90
       50
176
     1
 62
   256
176
     0
 40
1.0
176
     0
 90
        2
176
     1
  1
strokes_ogs.tif
176
     1
290
     0
176
     1
 40
1.0
176
     1
 40
1.0
176
     1
  0
VISUALSTYLE
  5
2E
102
{ACAD_REACTORS
330
2A
102
}
330
2A
100
AcDbVisualStyle
  2
GouraudWithEdges
 70
     3
177
     3
291
     1
 70
    58
 90
        2
176
     1
 90
        2
176
     1
 90
        1
176
     1
 90
        2
176
     1
 40
0.6
176
     1
 40
30.0
176
     1
 62
     7
420
 16777215
176
     1
 90
        1
176
     1
 90
        0
176
     1
 62
     7
176
     1
 62
   257
176
     1
 90
        1
176
     1
 90
        1
176
     1
 40
1.0
176
     1
 90
        0
176
     1
 62
   257
176
     1
 40
1.0
176
     1
 90
        1
176
     1
 90
        6
176
     1
 90
        2
176
     1
 62
     7
176
     1
 90
        5
176
     1
 90
        0
176
     1
 90
        0
176
     1
290
     0
176
     1
 90
       13
176
     1
 40
0.0
176
     1
 90
        0
176
     1
290
     0
176
     1
290
     1
176
     1
290
     1
176
     1
290
     0
176
     1
290
     0
176
     1
290
     0
176
     1
290
     0
176
     1
290
     0
176
     1
290
     0
176
     1
 90
       50
176
     1
 40
0.0
176
     1
 40
1.0
176
     1
 90
        0
176
     1
 62
    18
420
        0
176
     1
 90
       50
176
     1
 90
        3
176
     1
 62
     5
420
      255
176
     1
290
     0
176
     1
 90
       50
176
     1
 90
       50
176
     1
 90
       50
176
     1
290
     0
176
     1
 90
       50
176
     1
 62
   256
176
     0
 40
1.0
176
     0
 90
        2
176
     1
  1
strokes_ogs.tif
176
     1
290
     0
176
     1
 40
1.0
176
     1
 40
1.0
176
     1
  0
VISUALSTYLE
  5
31
102
{ACAD_REACTORS
330
2A
102
}
330
2A
100
AcDbVisualStyle
  2
Hidden
 70
     6
177
     3
291
     0
 70
    58
 90
        1
176
     1
 90
        2
176
     1
 90
        2
176
     1
 90
        0
176
     1
 40
0.6
176
     1
 40
30.0
176
     1
 62
     7
420
 16777215
176
     1
 90
        2
176
     1
 90
        2
176
     1
 62
     7
176
     1
 62
   257
176
     1
 90
        2
176
     1
 90
        1
176
     1
 40
40.0
176
     1
 90
        0
176
     1
 62
   257
176
     1
 40
1.0
176
     1
 90
        1
176
     1
 90
        6
176
     1
 90
        2
176
     1
 62
     7
176
     1
 90
        3
176
     1
 90
        0
176
     1
 90
        0
176
     1
290
     0
176
     1
 90
        1
176
     1
 40
0.0
176
     1
 90
        0
176
     1
290
     0
176
     1
290
     1
176
     1
290
     1
176
     1
290
     0
176
     1
290
     0
176
     1
290
     0
176
     1
290
     0
176
     1
290
     0
176
     1
290
     0
176
     1
 90
       50
176
     1
 40
0.0
176
     1
 40
1.0
176
     1
 90
        0
176
     1
 62
    18
420
        0
176
     1
 90
       50
176
     1
 90
        3
176
     1
 62
     5
420
      255
176
     1
290
     0
176
     1
 90
       50
176
     1
 90
       50
176
     1
 90
       50
176
     1
290
     0
176
     1
 90
       50
176
     1
 62
   256
176
     0
 40
1.0
176
     0
 90
        2
176
     1
  1
strokes_ogs.tif
176
     1
290
     0
176
     1
 40
1.0
176
     1
 40
1.0
176
     1
  0
VISUALSTYLE
  5
3B
102
{ACAD_REACTORS
330
2A
102
}
330
2A
100
AcDbVisualStyle
  2
JitterOff
 70
    20
177
     3
291
     1
 70
    58
 90
        2
176
     0
 90
        2
176
     0
 90
        0
176
     0
 90
        0
176
     0
 40
0.6
176
     0
 40
30.0
176
     0
 62
     7
420
 16777215
176
     0
 90
        1
176
     0
 90
        4
176
     0
 62
     7
176
     0
 62
   257
176
     0
 90
        1
176
     0
 90
        1
176
     0
 40
1.0
176
     0
 90
       10
176
     2
 62
     7
176
     0
 40
1.0
176
     0
 90
        1
176
     0
 90
        6
176
     0
 90
        2
176
     0
 62
     7
176
     0
 90
        5
176
     0
 90
        0
176
     0
 90
        0
176
     0
290
     0
176
     0
 90
        1
176
     0
 40
0.0
176
     0
 90
        0
176
     0
290
     0
176
     0
290
     1
176
     0
290
     1
176
     0
290
     0
176
     0
290
     0
176
     0
290
     0
176
     0
290
     0
176
     0
290
     0
176
     0
290
     0
176
     0
 90
       50
176
     0
 40
0.0
176
     0
 40
1.0
176
     0
 90
        0
176
     0
 62
    18
420
        0
176
     0
 90
       50
176
     0
 90
        3
176
     0
 62
     5
420
      255
176
     0
290
     0
176
     0
 90
       50
176
     0
 90
       50
176
     0
 90
       50
176
     0
290
     0
176
     0
 90
       50
176
     0
 62
   256
176
     0
 40
1.0
176
     0
 90
        2
176
     0
  1
strokes_ogs.tif
176
     0
290
     0
176
     0
 40
1.0
176
     0
 40
1.0
176
     0
  0
VISUALSTYLE
  5
38
102
{ACAD_REACTORS
330
2A
102
}
330
2A
100
AcDbVisualStyle
  2
Linepattern
 70
    14
177
     3
291
     1
 70
    58
 90
        2
176
     1
 90
        2
176
     1
 90
        0
176
     1
 90
        0
176
     1
 40
0.6
176
     1
 40
30.0
176
     1
 62
     7
420
 16777215
176
     1
 90
        1
176
     1
 90
        4
176
     1
 62
     7
176
     1
 62
   257
176
     1
 90
        7
176
     1
 90
        7
176
     1
 40
1.0
176
     1
 90
        8
176
     1
 62
     7
176
     1
 40
1.0
176
     1
 90
        1
176
     1
 90
        6
176
     1
 90
        2
176
     1
 62
     7
176
     1
 90
        5
176
     1
 90
        0
176
     1
 90
        0
176
     1
290
     0
176
     1
 90
        1
176
     1
 40
0.0
176
     1
 90
        0
176
     1
290
     0
176
     1
290
     1
176
     1
290
     1
176
     1
290
     0
176
     1
290
     0
176
     1
290
     0
176
     1
290
     0
176
     1
290
     0
176
     1
290
     0
176
     1
 90
       50
176
     1
 40
0.0
176
     1
 40
1.0
176
     1
 90
        0
176
     1
 62
    18
420
        0
176
     1
 90
       50
176
     1
 90
        3
176
     1
 62
     5
420
      255
176
     1
290
     0
176
     1
 90
       50
176
     1
 90
       50
176
     1
 90
       50
176
     1
290
     0
176
     1
 90
       50
176
     1
 62
   256
176
     0
 40
1.0
176
     0
 90
        2
176
     1
  1
strokes_ogs.tif
176
     1
290
     0
176
     1
 40
1.0
176
     1
 40
1.0
176
     1
  0
VISUALSTYLE
  5
3C
102
{ACAD_REACTORS
330
2A
102
}
330
2A
100
AcDbVisualStyle
  2
OverhangOff
 70
    21
177
     3
291
     1
 70
    58
 90
        2
176
     0
 90
        2
176
     0
 90
        0
176
     0
 90
        0
176
     0
 40
0.6
176
     0
 40
30.0
176
     0
 62
     7
420
 16777215
176
     0
 90
        1
176
     0
 90
        4
176
     0
 62
     7
176
     0
 62
   257
176
     0
 90
        1
176
     0
 90
        1
176
     0
 40
1.0
176
     0
 90
        9
176
     2
 62
     7
176
     0
 40
1.0
176
     0
 90
        1
176
     0
 90
        6
176
     0
 90
        2
176
     0
 62
     7
176
     0
 90
        5
176
     0
 90
        0
176
     0
 90
        0
176
     0
290
     0
176
     0
 90
        1
176
     0
 40
0.0
176
     0
 90
        0
176
     0
290
     0
176
     0
290
     1
176
     0
290
     1
176
     0
290
     0
176
     0
290
     0
176
     0
290
     0
176
     0
290
     0
176
     0
290
     0
176
     0
290
     0
176
     0
 90
       50
176
     0
 40
0.0
176
     0
 40
1.0
176
     0
 90
        0
176
     0
 62
    18
420
        0
176
     0
 90
       50
176
     0
 90
        3
176
     0
 62
     5
420
      255
176
     0
290
     0
176
     0
 90
       50
176
     0
 90
       50
176
     0
 90
       50
176
     0
290
     0
176
     0
 90
       50
176
     0
 62
   256
176
     0
 40
1.0
176
     0
 90
        2
176
     0
  1
strokes_ogs.tif
176
     0
290
     0
176
     0
 40
1.0
176
     0
 40
1.0
176
     0
  0
VISUALSTYLE
  5
33
102
{ACAD_REACTORS
330
2A
102
}
330
2A
100
AcDbVisualStyle
  2
Realistic
 70
     8
177
     3
291
     0
 70
    58
 90
        2
176
     1
 90
        3
176
     1
 90
        0
176
     1
 90
        2
176
     1
 40
0.6
176
     1
 40
30.0
176
     1
 62
     7
420
 16777215
176
     1
 90
        0
176
     1
 90
        0
176
     1
 62
     7
176
     1
 62
   257
176
     1
 90
        1
176
     1
 90
        1
176
     1
 40
1.0
176
     1
 90
        8
176
     1
 62
   257
176
     1
 40
1.0
176
     1
 90
        1
176
     1
 90
        6
176
     1
 90
        2
176
     1
 62
     7
176
     1
 90
        3
176
     1
 90
        0
176
     1
 90
        0
176
     1
290
     0
176
     1
 90
       13
176
     1
 40
0.0
176
     1
 90
        0
176
     1
290
     0
176
     1
290
     1
176
     1
290
     1
176
     1
290
     0
176
     1
290
     0
176
     1
290
     0
176
     1
290
     0
176
     1
290
     0
176
     1
290
     0
176
     1
 90
       50
176
     1
 40
0.0
176
     1
 40
1.0
176
     1
 90
        0
176
     1
 62
    18
420
        0
176
     1
 90
       50
176
     1
 90
        3
176
     1
 62
     5
420
      255
176
     1
290
     0
176
     1
 90
       50
176
     1
 90
       50
176
     1
 90
       50
176
     1
290
     0
176
     1
 90
       50
176
     1
 62
   256
176
     0
 40
1.0
176
     0
 90
        2
176
     1
  1
strokes_ogs.tif
176
     1
290
     0
176
     1
 40
1.0
176
     1
 40
1.0
176
     1
  0
VISUALSTYLE
  5
42
102
{ACAD_REACTORS
330
2A
102
}
330
2A
100
AcDbVisualStyle
  2
Shaded
 70
    27
177
     3
291
     0
 70
    58
 90
        2
176
     1
 90
        2
176
     1
 90
        1
176
     1
 90
        2
176
     1
 40
0.6
176
     1
 40
30.0
176
     1
 62
     7
420
 16777215
176
     1
 90
        0
176
     1
 90
        4
176
     1
 62
     7
176
     1
 62
   257
176
     1
 90
        1
176
     1
 90
        1
176
     1
 40
1.0
176
     1
 90
        8
176
     1
 62
   257
176
     1
 40
1.0
176
     1
 90
        1
176
     1
 90
        6
176
     1
 90
        2
176
     1
 62
     8
420
  7895160
176
     1
 90
        3
176
     1
 90
        0
176
     1
 90
        0
176
     1
290
     0
176
     1
 90
        5
176
     1
 40
0.0
176
     1
 90
        0
176
     1
290
     0
176
     1
290
     1
176
     1
290
     1
176
     1
290
     0
176
     1
290
     0
176
     1
290
     0
176
     1
290
     0
176
     1
290
     0
176
     1
290
     0
176
     1
 90
       50
176
     1
 40
0.0
176
     1
 40
1.0
176
     1
 90
        0
176
     1
 62
    18
420
        0
176
     1
 90
       50
176
     1
 90
        3
176
     1
 62
     5
420
      255
176
     1
290
     0
176
     1
 90
       50
176
     1
 90
       50
176
     1
 90
       50
176
     1
290
     0
176
     1
 90
       50
176
     1
 62
   256
176
     0
 40
1.0
176
     0
 90
        2
176
     1
  1
strokes_ogs.tif
176
     1
290
     0
176
     1
 40
1.0
176
     1
 40
1.0
176
     1
  0
VISUALSTYLE
  5
41
102
{ACAD_REACTORS
330
2A
102
}
330
2A
100
AcDbVisualStyle
  2
Shaded with edges
 70
    26
177
     3
291
     0
 70
    58
 90
        2
176
     1
 90
        2
176
     1
 90
        1
176
     1
 90
        2
176
     1
 40
0.6
176
     1
 40
30.0
176
     1
 62
     7
420
 16777215
176
     1
 90
        1
176
     1
 90
       10
176
     1
 62
     7
176
     1
 62
   257
176
     1
 90
        2
176
     1
 90
        1
176
     1
 40
1.0
176
     1
 90
        8
176
     1
 62
   257
176
     1
 40
1.0
176
     1
 90
        1
176
     1
 90
        6
176
     1
 90
        2
176
     1
 62
     7
176
     1
 90
        3
176
     1
 90
        0
176
     1
 90
        0
176
     1
290
     0
176
     1
 90
        5
176
     1
 40
0.0
176
     1
 90
        0
176
     1
290
     0
176
     1
290
     1
176
     1
290
     1
176
     1
290
     0
176
     1
290
     0
176
     1
290
     0
176
     1
290
     0
176
     1
290
     0
176
     1
290
     0
176
     1
 90
       50
176
     1
 40
0.0
176
     1
 40
1.0
176
     1
 90
        0
176
     1
 62
    18
420
        0
176
     1
 90
       50
176
     1
 90
        3
176
     1
 62
     5
420
      255
176
     1
290
     0
176
     1
 90
       50
176
     1
 90
       50
176
     1
 90
       50
176
     1
290
     0
176
     1
 90
       50
176
     1
 62
   256
176
     0
 40
1.0
176
     0
 90
        2
176
     1
  1
strokes_ogs.tif
176
     1
290
     0
176
     1
 40
1.0
176
     1
 40
1.0
176
     1
  0
VISUALSTYLE
  5
3E
102
{ACAD_REACTORS
330
2A
102
}
330
2A
100
AcDbVisualStyle
  2
Shades of Gray
 70
    23
177
     3
291
     0
 70
    58
 90
        2
176
     1
 90
        2
176
     1
 90
        3
176
     1
 90
        0
176
     1
 40
0.6
176
     1
 40
30.0
176
     1
 62
     7
420
 16777215
176
     1
 90
        2
176
     1
 90
        2
176
     1
 62
     7
176
     1
 62
     7
176
     1
 90
        1
176
     1
 90
        1
176
     1
 40
40.0
176
     1
 90
        8
176
     1
 62
     7
176
     1
 40
1.0
176
     1
 90
        1
176
     1
 90
        6
176
     1
 90
        2
176
     1
 62
     7
176
     1
 90
        3
176
     1
 90
        0
176
     1
 90
        0
176
     1
290
     0
176
     1
 90
        1
176
     1
 40
0.0
176
     1
 90
        0
176
     1
290
     0
176
     1
290
     1
176
     1
290
     1
176
     1
290
     0
176
     1
290
     0
176
     1
290
     0
176
     1
290
     0
176
     1
290
     0
176
     1
290
     0
176
     1
 90
       50
176
     1
 40
0.0
176
     1
 40
1.0
176
     1
 90
        0
176
     1
 62
    18
420
        0
176
     1
 90
       50
176
     1
 90
        3
176
     1
 62
     5
420
      255
176
     1
290
     0
176
     1
 90
       50
176
     1
 90
       50
176
     1
 90
       50
176
     1
290
     0
176
     1
 90
       50
176
     1
 62
   256
176
     0
 40
1.0
176
     0
 90
        2
176
     1
  1
strokes_ogs.tif
176
     1
290
     0
176
     1
 40
1.0
176
     1
 40
1.0
176
     1
  0
VISUALSTYLE
  5
3F
102
{ACAD_REACTORS
330
2A
102
}
330
2A
100
AcDbVisualStyle
  2
Sketchy
 70
    24
177
     3
291
     0
 70
    58
 90
        1
176
     1
 90
        2
176
     1
 90
        2
176
     1
 90
        0
176
     1
 40
0.6
176
     1
 40
30.0
176
     1
 62
     7
420
 16777215
176
     1
 90
        2
176
     1
 90
        2
176
     1
 62
     7
176
     1
 62
     7
176
     1
 90
        1
176
     1
 90
        1
176
     1
 40
40.0
176
     1
 90
       11
176
     1
 62
     7
176
     1
 40
1.0
176
     1
 90
        1
176
     1
 90
        6
176
     1
 90
        2
176
     1
 62
     7
176
     1
 90
        6
176
     1
 90
        0
176
     1
 90
        0
176
     1
290
     0
176
     1
 90
        1
176
     1
 40
0.0
176
     1
 90
        0
176
     1
290
     0
176
     1
290
     1
176
     1
290
     1
176
     1
290
     0
176
     1
290
     0
176
     1
290
     0
176
     1
290
     0
176
     1
290
     0
176
     1
290
     0
176
     1
 90
       50
176
     1
 40
0.0
176
     1
 40
1.0
176
     1
 90
        0
176
     1
 62
    18
420
        0
176
     1
 90
       50
176
     1
 90
        3
176
     1
 62
     5
420
      255
176
     1
290
     0
176
     1
 90
       50
176
     1
 90
       50
176
     1
 90
       50
176
     1
290
     0
176
     1
 90
       50
176
     1
 62
   256
176
     0
 40
1.0
176
     0
 90
        2
176
     1
  1
strokes_ogs.tif
176
     1
290
     0
176
     1
 40
1.0
176
     1
 40
1.0
176
     1
  0
VISUALSTYLE
  5
37
102
{ACAD_REACTORS
330
2A
102
}
330
2A
100
AcDbVisualStyle
  2
Thicken
 70
    13
177
     3
291
     1
 70
    58
 90
        2
176
     1
 90
        2
176
     1
 90
        0
176
     1
 90
        0
176
     1
 40
0.6
176
     1
 40
30.0
176
     1
 62
     7
420
 16777215
176
     1
 90
        1
176
     1
 90
        4
176
     1
 62
     7
176
     1
 62
   257
176
     1
 90
        1
176
     1
 90
        1
176
     1
 40
1.0
176
     1
 90
       12
176
     1
 62
     7
176
     1
 40
1.0
176
     1
 90
        1
176
     1
 90
        6
176
     1
 90
        2
176
     1
 62
     7
176
     1
 90
        5
176
     1
 90
        0
176
     1
 90
        0
176
     1
290
     0
176
     1
 90
        1
176
     1
 40
0.0
176
     1
 90
        0
176
     1
290
     0
176
     1
290
     1
176
     1
290
     1
176
     1
290
     0
176
     1
290
     0
176
     1
290
     0
176
     1
290
     0
176
     1
290
     0
176
     1
290
     0
176
     1
 90
       50
176
     1
 40
0.0
176
     1
 40
1.0
176
     1
 90
        0
176
     1
 62
    18
420
        0
176
     1
 90
       50
176
     1
 90
        3
176
     1
 62
     5
420
      255
176
     1
290
     0
176
     1
 90
       50
176
     1
 90
       50
176
     1
 90
       50
176
     1
290
     0
176
     1
 90
       50
176
     1
 62
   256
176
     0
 40
1.0
176
     0
 90
        2
176
     1
  1
strokes_ogs.tif
176
     1
290
     0
176
     1
 40
1.0
176
     1
 40
1.0
176
     1
  0
VISUALSTYLE
  5
30
102
{ACAD_REACTORS
330
2A
102
}
330
2A
100
AcDbVisualStyle
  2
Wireframe
 70
     5
177
     3
291
     0
 70
    58
 90
        0
176
     1
 90
        2
176
     1
 90
        0
176
     1
 90
        0
176
     1
 40
0.6
176
     1
 40
30.0
176
     1
 62
     7
420
 16777215
176
     1
 90
        1
176
     1
 90
        4
176
     1
 62
     7
176
     1
 62
   257
176
     1
 90
        1
176
     1
 90
        1
176
     1
 40
1.0
176
     1
 90
        0
176
     1
 62
   257
176
     1
 40
1.0
176
     1
 90
        1
176
     1
 90
        6
176
     1
 90
        2
176
     1
 62
     7
176
     1
 90
        3
176
     1
 90
        0
176
     1
 90
        0
176
     1
290
     0
176
     1
 90
        1
176
     1
 40
0.0
176
     1
 90
        0
176
     1
290
     0
176
     1
290
     1
176
     1
290
     1
176
     1
290
     0
176
     1
290
     0
176
     1
290
     0
176
     1
290
     0
176
     1
290
     0
176
     1
290
     0
176
     1
 90
       50
176
     1
 40
0.0
176
     1
 40
1.0
176
     1
 90
        0
176
     1
 62
    18
420
        0
176
     1
 90
       50
176
     1
 90
        3
176
     1
 62
     5
420
      255
176
     1
290
     0
176
     1
 90
       50
176
     1
 90
       50
176
     1
 90
       50
176
     1
290
     0
176
     1
 90
       50
176
     1
 62
   256
176
     0
 40
1.0
176
     0
 90
        2
176
     1
  1
strokes_ogs.tif
176
     1
290
     0
176
     1
 40
1.0
176
     1
 40
1.0
176
     1
  0
VISUALSTYLE
  5
40
102
{ACAD_REACTORS
330
2A
102
}
330
2A
100
AcDbVisualStyle
  2
X-Ray
 70
    25
177
     3
291
     0
 70
    58
 90
        2
176
     1
 90
        2
176
     1
 90
        1
176
     1
 90
        1
176
     1
 40
0.5
176
     1
 40
30.0
176
     1
 62
     7
420
 16777215
176
     1
 90
        1
176
     1
 90
        0
176
     1
 62
     7
176
     1
 62
   257
176
     1
 90
        1
176
     1
 90
        1
176
     1
 40
1.0
176
     1
 90
        8
176
     1
 62
     7
176
     1
 40
1.0
176
     1
 90
        1
176
     1
 90
        6
176
     1
 90
        2
176
     1
 62
     7
176
     1
 90
        3
176
     1
 90
        0
176
     1
 90
        0
176
     1
290
     0
176
     1
 90
       13
176
     1
 40
0.0
176
     1
 90
        0
176
     1
290
     0
176
     1
290
     1
176
     1
290
     1
176
     1
290
     0
176
     1
290
     0
176
     1
290
     0
176
     1
290
     0
176
     1
290
     0
176
     1
290
     0
176
     1
 90
       50
176
     1
 40
0.0
176
     1
 40
1.0
176
     1
 90
        0
176
     1
 62
    18
420
        0
176
     1
 90
       50
176
     1
 90
        3
176
     1
 62
     5
420
      255
176
     1
290
     0
176
     1
 90
       50
176
     1
 90
       50
176
     1
 90
       50
176
     1
290
     0
176
     1
 90
       50
176
     1
 62
   256
176
     0
 40
1.0
176
     0
 90
        2
176
     1
  1
strokes_ogs.tif
176
     1
290
     0
176
     1
 40
1.0
176
     1
 40
1.0
176
     1
  0
DICTIONARYVAR
  5
212
102
{ACAD_REACTORS
330
211
102
}
330
211
100
DictionaryVariables
280
     0
  1
1:1
  0
DICTIONARYVAR
  5
217
102
{ACAD_REACTORS
330
211
102
}
330
211
100
DictionaryVariables
280
     0
  1
Standard
  0
DICTIONARYVAR
  5
216
102
{ACAD_REACTORS
330
211
102
}
330
211
100
DictionaryVariables
280
     0
  1
Standard
  0
DICTIONARY
  5
213
330
6A
100
AcDbDictionary
280
     1
281
     1
  3
ACAD_ROUNDTRIP_2008_TABLESTYLE_CELLSTYLEMAP
360
214
  0
CELLSTYLEMAP
  5
214
102
{ACAD_REACTORS
330
213
102
}
330
213
100
AcDbCellStyleMap
 90
        3
300
CELLSTYLE
  1
TABLEFORMAT_BEGIN
 90
        5
170
     1
 91
        0
 92
    32768
 62
   257
 93
        1
300
CONTENTFORMAT
  1
CONTENTFORMAT_BEGIN
 90
        0
 91
        0
 92
        4
 93
        0
300

 40
0.0
140
1.0
 94
        5
 62
     0
340
11
144
6.0
309
CONTENTFORMAT_END
171
     1
301
MARGIN
  1
CELLMARGIN_BEGIN
 40
1.5
 40
1.5
 40
1.5
 40
1.5
 40
1.5
 40
1.5
309
CELLMARGIN_END
 94
        6
 95
        1
302
GRIDFORMAT
  1
GRIDFORMAT_BEGIN
 90
        0
 91
        1
 62
     0
 92
       -2
340
14
 93
        0
 40
0.045
309
GRIDFORMAT_END
 95
        2
302
GRIDFORMAT
  1
GRIDFORMAT_BEGIN
 90
        0
 91
        1
 62
     0
 92
       -2
340
14
 93
        0
 40
0.045
309
GRIDFORMAT_END
 95
        4
302
GRIDFORMAT
  1
GRIDFORMAT_BEGIN
 90
        0
 91
        1
 62
     0
 92
       -2
340
14
 93
        0
 40
0.045
309
GRIDFORMAT_END
 95
        8
302
GRIDFORMAT
  1
GRIDFORMAT_BEGIN
 90
        0
 91
        1
 62
     0
 92
       -2
340
14
 93
        0
 40
0.045
309
GRIDFORMAT_END
 95
       16
302
GRIDFORMAT
  1
GRIDFORMAT_BEGIN
 90
        0
 91
        1
 62
     0
 92
       -2
340
14
 93
        0
 40
0.045
309
GRIDFORMAT_END
 95
       32
302
GRIDFORMAT
  1
GRIDFORMAT_BEGIN
 90
        0
 91
        1
 62
     0
 92
       -2
340
14
 93
        0
 40
0.045
309
GRIDFORMAT_END
309
TABLEFORMAT_END
  1
CELLSTYLE_BEGIN
 90
        1
 91
        1
300
_TITLE
309
CELLSTYLE_END
300
CELLSTYLE
  1
TABLEFORMAT_BEGIN
 90
        5
170
     1
 91
        0
 92
        0
 62
   257
 93
        1
300
CONTENTFORMAT
  1
CONTENTFORMAT_BEGIN
 90
        0
 91
        0
 92
        4
 93
        0
300

 40
0.0
140
1.0
 94
        5
 62
     0
340
11
144
4.5
309
CONTENTFORMAT_END
171
     1
301
MARGIN
  1
CELLMARGIN_BEGIN
 40
1.5
 40
1.5
 40
1.5
 40
1.5
 40
1.5
 40
1.5
309
CELLMARGIN_END
 94
        6
 95
        1
302
GRIDFORMAT
  1
GRIDFORMAT_BEGIN
 90
        0
 91
        1
 62
     0
 92
       -2
340
14
 93
        0
 40
0.045
309
GRIDFORMAT_END
 95
        2
302
GRIDFORMAT
  1
GRIDFORMAT_BEGIN
 90
        0
 91
        1
 62
     0
 92
       -2
340
14
 93
        0
 40
0.045
309
GRIDFORMAT_END
 95
        4
302
GRIDFORMAT
  1
GRIDFORMAT_BEGIN
 90
        0
 91
        1
 62
     0
 92
       -2
340
14
 93
        0
 40
0.045
309
GRIDFORMAT_END
 95
        8
302
GRIDFORMAT
  1
GRIDFORMAT_BEGIN
 90
        0
 91
        1
 62
     0
 92
       -2
340
14
 93
        0
 40
0.045
309
GRIDFORMAT_END
 95
       16
302
GRIDFORMAT
  1
GRIDFORMAT_BEGIN
 90
        0
 91
        1
 62
     0
 92
       -2
340
14
 93
        0
 40
0.045
309
GRIDFORMAT_END
 95
       32
302
GRIDFORMAT
  1
GRIDFORMAT_BEGIN
 90
        0
 91
        1
 62
     0
 92
       -2
340
14
 93
        0
 40
0.045
309
GRIDFORMAT_END
309
TABLEFORMAT_END
  1
CELLSTYLE_BEGIN
 90
        2
 91
        1
300
_HEADER
309
CELLSTYLE_END
300
CELLSTYLE
  1
TABLEFORMAT_BEGIN
 90
        5
170
     1
 91
        0
 92
        0
 62
   257
 93
        1
300
CONTENTFORMAT
  1
CONTENTFORMAT_BEGIN
 90
        0
 91
        0
 92
        4
 93
        0
300

 40
0.0
140
1.0
 94
        2
 62
     0
340
11
144
4.5
309
CONTENTFORMAT_END
171
     1
301
MARGIN
  1
CELLMARGIN_BEGIN
 40
1.5
 40
1.5
 40
1.5
 40
1.5
 40
1.5
 40
1.5
309
CELLMARGIN_END
 94
        6
 95
        1
302
GRIDFORMAT
  1
GRIDFORMAT_BEGIN
 90
        0
 91
        1
 62
     0
 92
       -2
340
14
 93
        0
 40
0.045
309
GRIDFORMAT_END
 95
        2
302
GRIDFORMAT
  1
GRIDFORMAT_BEGIN
 90
        0
 91
        1
 62
     0
 92
       -2
340
14
 93
        0
 40
0.045
309
GRIDFORMAT_END
 95
        4
302
GRIDFORMAT
  1
GRIDFORMAT_BEGIN
 90
        0
 91
        1
 62
     0
 92
       -2
340
14
 93
        0
 40
0.045
309
GRIDFORMAT_END
 95
        8
302
GRIDFORMAT
  1
GRIDFORMAT_BEGIN
 90
        0
 91
        1
 62
     0
 92
       -2
340
14
 93
        0
 40
0.045
309
GRIDFORMAT_END
 95
       16
302
GRIDFORMAT
  1
GRIDFORMAT_BEGIN
 90
        0
 91
        1
 62
     0
 92
       -2
340
14
 93
        0
 40
0.045
309
GRIDFORMAT_END
 95
       32
302
GRIDFORMAT
  1
GRIDFORMAT_BEGIN
 90
        0
 91
        1
 62
     0
 92
       -2
340
14
 93
        0
 40
0.045
309
GRIDFORMAT_END
309
TABLEFORMAT_END
  1
CELLSTYLE_BEGIN
 90
        3
 91
        2
300
_DATA
309
CELLSTYLE_END
  0
ENDSEC
  0
EOF