0
SECTION
  2
HEADER
  9
$ACADVER
  1
AC1027
  9
$ACADMAINTVER
 70
     8
  9
$DWGCODEPAGE
  3
ANSI_1252
  9
$REQUIREDVERSIONS
160
                 0
  9
$COMMENTS
  1
File was created by Cadenas
  9
$CUSTOMPROPERTYTAG
  1
NN
  9
$CUSTOMPROPERTY
  1
Grip Tight Two-Bolt Flange Metric Bore
  9
$CUSTOMPROPERTYTAG
  1
NT
  9
$CUSTOMPROPERTY
  1
GT Normal Duty 2 Bolt Flange Bearings
  9
$CUSTOMPROPERTYTAG
  1
NB
  9
$CUSTOMPROPERTY
  1
129329
  9
$CUSTOMPROPERTYTAG
  1
NBSYN
  9
$CUSTOMPROPERTY
  1
$PN.$LUBE.
  9
$CUSTOMPROPERTYTAG
  1
LINA
  9
$CUSTOMPROPERTY
  1
129329
  9
$CUSTOMPROPERTYTAG
  1
SERIES
  9
$CUSTOMPROPERTY
  1
211
  9
$CUSTOMPROPERTYTAG
  1
SS
  9
$CUSTOMPROPERTY
  1
55
  9
$CUSTOMPROPERTYTAG
  1
PN
  9
$CUSTOMPROPERTY
  1
129329
  9
$CUSTOMPROPERTYTAG
  1
DESCRIPTION
  9
$CUSTOMPROPERTY
  1
F2B-GT-55M
  9
$CUSTOMPROPERTYTAG
  1
A
  9
$CUSTOMPROPERTY
  1
48.8
  9
$CUSTOMPROPERTYTAG
  1
B
  9
$CUSTOMPROPERTY
  1
219.1
  9
$CUSTOMPROPERTYTAG
  1
C
  9
$CUSTOMPROPERTY
  1
54.8
  9
$CUSTOMPROPERTYTAG
  1
D
  9
$CUSTOMPROPERTY
  1
184.2
  9
$CUSTOMPROPERTYTAG
  1
F
  9
$CUSTOMPROPERTY
  1
M16
  9
$CUSTOMPROPERTYTAG
  1
H
  9
$CUSTOMPROPERTY
  1
17.5
  9
$CUSTOMPROPERTYTAG
  1
J
  9
$CUSTOMPROPERTY
  1
13.5
  9
$CUSTOMPROPERTYTAG
  1
L
  9
$CUSTOMPROPERTY
  1
82.6
  9
$CUSTOMPROPERTYTAG
  1
M
  9
$CUSTOMPROPERTY
  1
133.4
  9
$CUSTOMPROPERTYTAG
  1
N
  9
$CUSTOMPROPERTY
  1
57.5
  9
$CUSTOMPROPERTYTAG
  1
Z
  9
$CUSTOMPROPERTY
  1
54.0
  9
$CUSTOMPROPERTYTAG
  1
COMPANY
  9
$CUSTOMPROPERTY
  1
baldor
  9
$INSBASE
 10
0.0
 20
0.0
 30
0.0
  9
$EXTMIN
 10
1.000000000000000E+20
 20
1.000000000000000E+20
 30
1.000000000000000E+20
  9
$EXTMAX
 10
-1.000000000000000E+20
 20
-1.000000000000000E+20
 30
-1.000000000000000E+20
  9
$LIMMIN
 10
0.0
 20
0.0
  9
$LIMMAX
 10
420.0
 20
297.0
  9
$ORTHOMODE
 70
     0
  9
$REGENMODE
 70
     1
  9
$FILLMODE
 70
     1
  9
$QTEXTMODE
 70
     0
  9
$MIRRTEXT
 70
     1
  9
$LTSCALE
 40
1.0
  9
$ATTMODE
 70
     1
  9
$TEXTSIZE
 40
2.5
  9
$TRACEWID
 40
1.0
  9
$TEXTSTYLE
  7
Standard
  9
$CLAYER
  8
0
  9
$CELTYPE
  6
ByLayer
  9
$CECOLOR
 62
   256
  9
$CELTSCALE
 40
1.0
  9
$DISPSILH
 70
     0
  9
$DIMSCALE
 40
1.0
  9
$DIMASZ
 40
2.5
  9
$DIMEXO
 40
0.625
  9
$DIMDLI
 40
3.75
  9
$DIMRND
 40
0.0
  9
$DIMDLE
 40
0.0
  9
$DIMEXE
 40
1.25
  9
$DIMTP
 40
0.0
  9
$DIMTM
 40
0.0
  9
$DIMTXT
 40
2.5
  9
$DIMCEN
 40
2.5
  9
$DIMTSZ
 40
0.0
  9
$DIMTOL
 70
     0
  9
$DIMLIM
 70
     0
  9
$DIMTIH
 70
     0
  9
$DIMTOH
 70
     0
  9
$DIMSE1
 70
     0
  9
$DIMSE2
 70
     0
  9
$DIMTAD
 70
     1
  9
$DIMZIN
 70
     8
  9
$DIMBLK
  1

  9
$DIMASO
 70
     1
  9
$DIMSHO
 70
     1
  9
$DIMPOST
  1

  9
$DIMAPOST
  1

  9
$DIMALT
 70
     0
  9
$DIMALTD
 70
     3
  9
$DIMALTF
 40
0.03937007874016
  9
$DIMLFAC
 40
1.0
  9
$DIMTOFL
 70
     1
  9
$DIMTVP
 40
0.0
  9
$DIMTIX
 70
     0
  9
$DIMSOXD
 70
     0
  9
$DIMSAH
 70
     0
  9
$DIMBLK1
  1

  9
$DIMBLK2
  1

  9
$DIMSTYLE
  2
ISO-25
  9
$DIMCLRD
 70
     0
  9
$DIMCLRE
 70
     0
  9
$DIMCLRT
 70
     0
  9
$DIMTFAC
 40
1.0
  9
$DIMGAP
 40
0.625
  9
$DIMJUST
 70
     0
  9
$DIMSD1
 70
     0
  9
$DIMSD2
 70
     0
  9
$DIMTOLJ
 70
     0
  9
$DIMTZIN
 70
     8
  9
$DIMALTZ
 70
     0
  9
$DIMALTTZ
 70
     0
  9
$DIMUPT
 70
     0
  9
$DIMDEC
 70
     2
  9
$DIMTDEC
 70
     2
  9
$DIMALTU
 70
     2
  9
$DIMALTTD
 70
     3
  9
$DIMTXSTY
  7
Standard
  9
$DIMAUNIT
 70
     0
  9
$DIMADEC
 70
     0
  9
$DIMALTRND
 40
0.0
  9
$DIMAZIN
 70
     0
  9
$DIMDSEP
 70
    44
  9
$DIMATFIT
 70
     3
  9
$DIMFRAC
 70
     0
  9
$DIMLDRBLK
  1

  9
$DIMLUNIT
 70
     2
  9
$DIMLWD
 70
    -2
  9
$DIMLWE
 70
    -2
  9
$DIMTMOVE
 70
     0
  9
$DIMFXL
 40
1.0
  9
$DIMFXLON
 70
     0
  9
$DIMJOGANG
 40
0.7853981633974483
  9
$DIMTFILL
 70
     0
  9
$DIMTFILLCLR
 70
     0
  9
$DIMARCSYM
 70
     0
  9
$DIMLTYPE
  6

  9
$DIMLTEX1
  6

  9
$DIMLTEX2
  6

  9
$DIMTXTDIRECTION
 70
     0
  9
$LUNITS
 70
     2
  9
$LUPREC
 70
     4
  9
$SKETCHINC
 40
1.0
  9
$FILLETRAD
 40
10.0
  9
$AUNITS
 70
     0
  9
$AUPREC
 70
     0
  9
$MENU
  1
.
  9
$ELEVATION
 40
0.0
  9
$PELEVATION
 40
0.0
  9
$THICKNESS
 40
0.0
  9
$LIMCHECK
 70
     0
  9
$CHAMFERA
 40
0.0
  9
$CHAMFERB
 40
0.0
  9
$CHAMFERC
 40
0.0
  9
$CHAMFERD
 40
0.0
  9
$SKPOLY
 70
     0
  9
$TDCREATE
 40
2458168.995051285
  9
$TDUCREATE
 40
2458168.953384618
  9
$TDUPDATE
 40
2458168.99505147
  9
$TDUUPDATE
 40
2458168.953384803
  9
$TDINDWG
 40
0.0000000116
  9
$TDUSRTIMER
 40
0.0000000116
  9
$USRTIMER
 70
     1
  9
$ANGBASE
 50
0.0
  9
$ANGDIR
 70
     0
  9
$PDMODE
 70
     0
  9
$PDSIZE
 40
0.0
  9
$PLINEWID
 40
0.0
  9
$SPLFRAME
 70
     0
  9
$SPLINETYPE
 70
     6
  9
$SPLINESEGS
 70
     8
  9
$HANDSEED
  5
1FD
  9
$SURFTAB1
 70
     6
  9
$SURFTAB2
 70
     6
  9
$SURFTYPE
 70
     6
  9
$SURFU
 70
     6
  9
$SURFV
 70
     6
  9
$UCSBASE
  2

  9
$UCSNAME
  2

  9
$UCSORG
 10
0.0
 20
0.0
 30
0.0
  9
$UCSXDIR
 10
1.0
 20
0.0
 30
0.0
  9
$UCSYDIR
 10
0.0
 20
1.0
 30
0.0
  9
$UCSORTHOREF
  2

  9
$UCSORTHOVIEW
 70
     0
  9
$UCSORGTOP
 10
0.0
 20
0.0
 30
0.0
  9
$UCSORGBOTTOM
 10
0.0
 20
0.0
 30
0.0
  9
$UCSORGLEFT
 10
0.0
 20
0.0
 30
0.0
  9
$UCSORGRIGHT
 10
0.0
 20
0.0
 30
0.0
  9
$UCSORGFRONT
 10
0.0
 20
0.0
 30
0.0
  9
$UCSORGBACK
 10
0.0
 20
0.0
 30
0.0
  9
$PUCSBASE
  2

  9
$PUCSNAME
  2

  9
$PUCSORG
 10
0.0
 20
0.0
 30
0.0
  9
$PUCSXDIR
 10
1.0
 20
0.0
 30
0.0
  9
$PUCSYDIR
 10
0.0
 20
1.0
 30
0.0
  9
$PUCSORTHOREF
  2

  9
$PUCSORTHOVIEW
 70
     0
  9
$PUCSORGTOP
 10
0.0
 20
0.0
 30
0.0
  9
$PUCSORGBOTTOM
 10
0.0
 20
0.0
 30
0.0
  9
$PUCSORGLEFT
 10
0.0
 20
0.0
 30
0.0
  9
$PUCSORGRIGHT
 10
0.0
 20
0.0
 30
0.0
  9
$PUCSORGFRONT
 10
0.0
 20
0.0
 30
0.0
  9
$PUCSORGBACK
 10
0.0
 20
0.0
 30
0.0
  9
$USERI1
 70
     0
  9
$USERI2
 70
     0
  9
$USERI3
 70
     0
  9
$USERI4
 70
     0
  9
$USERI5
 70
     0
  9
$USERR1
 40
0.0
  9
$USERR2
 40
0.0
  9
$USERR3
 40
0.0
  9
$USERR4
 40
0.0
  9
$USERR5
 40
0.0
  9
$WORLDVIEW
 70
     1
  9
$SHADEDGE
 70
     3
  9
$SHADEDIF
 70
    70
  9
$TILEMODE
 70
     1
  9
$MAXACTVP
 70
    64
  9
$PINSBASE
 10
0.0
 20
0.0
 30
0.0
  9
$PLIMCHECK
 70
     0
  9
$PEXTMIN
 10
1.000000000000000E+20
 20
1.000000000000000E+20
 30
1.000000000000000E+20
  9
$PEXTMAX
 10
-1.000000000000000E+20
 20
-1.000000000000000E+20
 30
-1.000000000000000E+20
  9
$PLIMMIN
 10
0.0
 20
0.0
  9
$PLIMMAX
 10
420.0
 20
297.0
  9
$UNITMODE
 70
     0
  9
$VISRETAIN
 70
     1
  9
$PLINEGEN
 70
     0
  9
$PSLTSCALE
 70
     1
  9
$TREEDEPTH
 70
  3020
  9
$CMLSTYLE
  2
Standard
  9
$CMLJUST
 70
     0
  9
$CMLSCALE
 40
20.0
  9
$PROXYGRAPHICS
 70
     1
  9
$MEASUREMENT
 70
     1
  9
$CELWEIGHT
370
    -1
  9
$ENDCAPS
280
     0
  9
$JOINSTYLE
280
     0
  9
$LWDISPLAY
290
     0
  9
$INSUNITS
 70
     4
  9
$HYPERLINKBASE
  1

  9
$STYLESHEET
  1

  9
$XEDIT
290
     1
  9
$CEPSNTYPE
380
     0
  9
$PSTYLEMODE
290
     1
  9
$FINGERPRINTGUID
  2
{FE3B462C-2B7C-4B0D-9CA6-E9335E11F346}
  9
$VERSIONGUID
  2
{FAEB1C32-E019-11D5-929B-00C0DF256EC4}
  9
$EXTNAMES
290
     1
  9
$PSVPSCALE
 40
0.0
  9
$OLESTARTUP
290
     0
  9
$SORTENTS
280
   127
  9
$INDEXCTL
280
     0
  9
$HIDETEXT
280
     1
  9
$XCLIPFRAME
280
     2
  9
$HALOGAP
280
     0
  9
$OBSCOLOR
 70
   257
  9
$OBSLTYPE
280
     0
  9
$INTERSECTIONDISPLAY
280
     0
  9
$INTERSECTIONCOLOR
 70
   257
  9
$DIMASSOC
280
     2
  9
$PROJECTNAME
  1

  9
$CAMERADISPLAY
290
     0
  9
$LENSLENGTH
 40
50.0
  9
$CAMERAHEIGHT
 40
0.0
  9
$STEPSPERSEC
 40
2.0
  9
$STEPSIZE
 40
6.0
  9
$3DDWFPREC
 40
2.0
  9
$PSOLWIDTH
 40
5.0
  9
$PSOLHEIGHT
 40
80.0
  9
$LOFTANG1
 40
1.570796326794897
  9
$LOFTANG2
 40
1.570796326794897
  9
$LOFTMAG1
 40
0.0
  9
$LOFTMAG2
 40
0.0
  9
$LOFTPARAM
 70
     7
  9
$LOFTNORMALS
280
     1
  9
$LATITUDE
 40
37.795
  9
$LONGITUDE
 40
-122.394
  9
$NORTHDIRECTION
 40
0.0
  9
$TIMEZONE
 70
 -8000
  9
$LIGHTGLYPHDISPLAY
280
     1
  9
$TILEMODELIGHTSYNCH
280
     1
  9
$CMATERIAL
347
44
  9
$SOLIDHIST
280
     0
  9
$SHOWHIST
280
     1
  9
$DWFFRAME
280
     2
  9
$DGNFRAME
280
     2
  9
$REALWORLDSCALE
290
     1
  9
$INTERFERECOLOR
 62
   256
  9
$CSHADOW
280
     0
  9
$SHADOWPLANELOCATION
 40
0.0
  0
ENDSEC
  0
SECTION
  2
CLASSES
  0
CLASS
  1
ACDBDICTIONARYWDFLT
  2
AcDbDictionaryWithDefault
  3
ObjectDBX Classes
 90
        0
 91
        4
280
     0
281
     0
  0
CLASS
  1
VISUALSTYLE
  2
AcDbVisualStyle
  3
ObjectDBX Classes
 90
     4095
 91
        4
280
     0
281
     0
  0
CLASS
  1
MATERIAL
  2
AcDbMaterial
  3
ObjectDBX Classes
 90
     1153
 91
        4
280
     0
281
     0
  0
CLASS
  1
SCALE
  2
AcDbScale
  3
ObjectDBX Classes
 90
     1153
 91
        4
280
     0
281
     0
  0
CLASS
  1
TABLESTYLE
  2
AcDbTableStyle
  3
ObjectDBX Classes
 90
     4095
 91
        4
280
     0
281
     0
  0
CLASS
  1
MLEADERSTYLE
  2
AcDbMLeaderStyle
  3
ACDB_MLEADERSTYLE_CLASS
 90
     4095
 91
        4
280
     0
281
     0
  0
CLASS
  1
SUN
  2
AcDbSun
  3
SCENEOE
 90
     1153
 91
        4
280
     0
281
     0
  0
CLASS
  1
DICTIONARYVAR
  2
AcDbDictionaryVar
  3
ObjectDBX Classes
 90
        0
 91
        4
280
     0
281
     0
  0
CLASS
  1
CELLSTYLEMAP
  2
AcDbCellStyleMap
  3
ObjectDBX Classes
 90
     1152
 91
        4
280
     0
281
     0
  0
ENDSEC
  0
SECTION
  2
TABLES
  0
TABLE
  2
VPORT
  5
8
330
0
100
AcDbSymbolTable
 70
     1
  0
VPORT
  5
29
330
8
100
AcDbSymbolTableRecord
100
AcDbViewportTableRecord
  2
*Active
 70
     0
 10
0.0
 20
0.0
 11
1.0
 21
1.0
 12
0.0
 22
0.0
 13
0.0
 23
0.0
 14
10.0
 24
10.0
 15
10.0
 25
10.0
 16
0.0
 26
0.0
 36
1.0
 17
0.0
 27
0.0
 37
0.0
 40
223.482
 41
0.6088544043815608
 42
50.0
 43
0.0
 44
0.0
 50
0.0
 51
0.0
 71
     0
 72
   100
 73
     1
 74
     3
 75
     0
 76
     0
 77
     0
 78
     0
281
     0
 65
     1
110
0.0
120
0.0
130
0.0
111
1.0
121
0.0
131
0.0
112
0.0
122
1.0
132
0.0
 79
     0
146
0.0
348
2F
 60
     3
 61
     5
292
     1
282
     1
141
0.0
142
0.0
 63
   250
361
6D
  0
ENDTAB
  0
TABLE
  2
LTYPE
  5
5
330
0
100
AcDbSymbolTable
 70
     3
  0
LTYPE
  5
14
330
5
100
AcDbSymbolTableRecord
100
AcDbLinetypeTableRecord
  2
ByBlock
 70
     0
  3

 72
    65
 73
     0
 40
0.0
  0
LTYPE
  5
15
330
5
100
AcDbSymbolTableRecord
100
AcDbLinetypeTableRecord
  2
ByLayer
 70
     0
  3

 72
    65
 73
     0
 40
0.0
  0
LTYPE
  5
16
330
5
100
AcDbSymbolTableRecord
100
AcDbLinetypeTableRecord
  2
Continuous
 70
     0
  3
Solid line
 72
    65
 73
     0
 40
0.0
  0
LTYPE
  5
9E
330
5
100
AcDbSymbolTableRecord
100
AcDbLinetypeTableRecord
  2
Dashed
 70
     0
  3

 72
    65
 73
     2
 40
2.0
 49
1.0
 74
     0
 49
-1.0
 74
     0
  0
LTYPE
  5
118
330
5
100
AcDbSymbolTableRecord
100
AcDbLinetypeTableRecord
  2
Center
 70
     0
  3

 72
    65
 73
     4
 40
1.5
 49
0.45
 74
     0
 49
-0.5
 74
     0
 49
0.05
 74
     0
 49
-0.5
 74
     0
  0
ENDTAB
  0
TABLE
  2
LAYER
  5
2
330
0
100
AcDbSymbolTable
 70
     7
  0
LAYER
  5
10
330
2
100
AcDbSymbolTableRecord
100
AcDbLayerTableRecord
  2
0
 70
     0
 62
     7
  6
Continuous
370
    -3
390
F
347
46
348
0
  0
LAYER
  5
72
330
2
100
AcDbSymbolTableRecord
100
AcDbLayerTableRecord
  2
AM_6
 70
     0
 62
    -2
  6
Continuous
370
    35
390
F
347
46
348
0
  0
LAYER
  5
9F
330
2
100
AcDbSymbolTableRecord
100
AcDbLayerTableRecord
  2
AM_9
 70
     0
 62
     6
  6
Dashed
370
    25
390
F
347
46
348
0
  0
LAYER
  5
A9
330
2
100
AcDbSymbolTableRecord
100
AcDbLayerTableRecord
  2
AM_4
 70
     0
 62
     3
  6
Continuous
370
    25
390
F
347
46
348
0
  0
LAYER
  5
DB
330
2
100
AcDbSymbolTableRecord
100
AcDbLayerTableRecord
  2
AM_5
 70
     0
 62
     3
  6
Continuous
370
    25
390
F
347
46
348
0
  0
LAYER
  5
119
330
2
100
AcDbSymbolTableRecord
100
AcDbLayerTableRecord
  2
AM_7
 70
     0
 62
     7
  6
Center
370
    25
390
F
347
46
348
0
  0
LAYER
  5
1F0
330
2
100
AcDbSymbolTableRecord
100
AcDbLayerTableRecord
  2
ConnectionPoints
 70
     0
 62
     7
  6
Continuous
370
    50
390
F
347
46
348
0
  0
ENDTAB
  0
TABLE
  2
STYLE
  5
3
330
0
100
AcDbSymbolTable
 70
     1
  0
STYLE
  5
11
330
3
100
AcDbSymbolTableRecord
100
AcDbTextStyleTableRecord
  2
Standard
 70
     0
 40
0.0
 41
1.0
 50
0.0
 71
     0
 42
2.5
  3
txt
  4

  0
ENDTAB
  0
TABLE
  2
VIEW
  5
6
330
0
100
AcDbSymbolTable
 70
     0
  0
ENDTAB
  0
TABLE
  2
UCS
  5
7
330
0
100
AcDbSymbolTable
 70
     0
  0
ENDTAB
  0
TABLE
  2
APPID
  5
9
330
0
100
AcDbSymbolTable
 70
     1
  0
APPID
  5
12
330
9
100
AcDbSymbolTableRecord
100
AcDbRegAppTableRecord
  2
ACAD
 70
     0
  0
ENDTAB
  0
TABLE
  2
DIMSTYLE
  5
A
330
0
100
AcDbSymbolTable
 70
     1
100
AcDbDimStyleTable
  0
DIMSTYLE
105
27
330
A
100
AcDbSymbolTableRecord
100
AcDbDimStyleTableRecord
  2
ISO-25
 70
     0
 41
2.5
 42
0.625
 43
3.75
 44
1.25
 73
     0
 74
     0
 77
     1
 78
     8
140
2.5
141
2.5
143
0.03937007874016
147
0.625
171
     3
172
     1
178
     0
271
     2
272
     2
274
     3
278
    44
283
     0
284
     8
340
11
  0
ENDTAB
  0
TABLE
  2
BLOCK_RECORD
  5
1
330
0
100
AcDbSymbolTable
 70
     5
  0
BLOCK_RECORD
  5
1F
330
1
100
AcDbSymbolTableRecord
100
AcDbBlockTableRecord
  2
*Model_Space
340
22
 70
     0
280
     1
281
     0
  0
BLOCK_RECORD
  5
1B
330
1
100
AcDbSymbolTableRecord
100
AcDbBlockTableRecord
  2
*Paper_Space
340
1E
 70
     0
280
     1
281
     0
  0
BLOCK_RECORD
  5
23
330
1
100
AcDbSymbolTableRecord
100
AcDbBlockTableRecord
  2
*Paper_Space0
340
26
 70
     0
280
     1
281
     0
  0
BLOCK_RECORD
  5
6E
330
1
100
AcDbSymbolTableRecord
100
AcDbBlockTableRecord
  2
1_129329_0
340
0
102
{BLKREFS
331
6F
102
}
 70
     0
280
     1
281
     0
  0
BLOCK_RECORD
  5
88
330
1
100
AcDbSymbolTableRecord
100
AcDbBlockTableRecord
  2
2_129524_0_in_129329_0
340
0
102
{BLKREFS
331
89
102
}
 70
     0
280
     1
281
     0
  0
BLOCK_RECORD
  5
B3
330
1
100
AcDbSymbolTableRecord
100
AcDbBlockTableRecord
  2
3_129950_0_in_129329_0
340
0
102
{BLKREFS
331
B4
102
}
 70
     0
280
     1
281
     0
  0
BLOCK_RECORD
  5
F5
330
1
100
AcDbSymbolTableRecord
100
AcDbBlockTableRecord
  2
4_129498_0_in_129329_0
340
0
102
{BLKREFS
331
F6
102
}
 70
     0
280
     1
281
     0
  0
ENDTAB
  0
ENDSEC
  0
SECTION
  2
BLOCKS
  0
BLOCK
  5
20
330
1F
100
AcDbEntity
  8
0
100
AcDbBlockBegin
  2
*Model_Space
 70
     0
 10
0.0
 20
0.0
 30
0.0
  3
*Model_Space
  1

  0
ENDBLK
  5
21
330
1F
100
AcDbEntity
  8
0
100
AcDbBlockEnd
  0
BLOCK
  5
1C
330
1B
100
AcDbEntity
 67
     1
  8
0
100
AcDbBlockBegin
  2
*Paper_Space
 70
     0
 10
0.0
 20
0.0
 30
0.0
  3
*Paper_Space
  1

  0
ENDBLK
  5
1D
330
1B
100
AcDbEntity
 67
     1
  8
0
100
AcDbBlockEnd
  0
BLOCK
  5
24
330
23
100
AcDbEntity
  8
0
100
AcDbBlockBegin
  2
*Paper_Space0
 70
     0
 10
0.0
 20
0.0
 30
0.0
  3
*Paper_Space0
  1

  0
ENDBLK
  5
25
330
23
100
AcDbEntity
  8
0
100
AcDbBlockEnd
  0
BLOCK
  5
70
330
6E
100
AcDbEntity
  8
0
100
AcDbBlockBegin
  2
1_129329_0
 70
     2
 10
0.0
 20
0.0
 30
0.0
  3
1_129329_0
  1

  0
ATTDEF
  5
73
330
6E
100
AcDbEntity
  8
AM_6
100
AcDbText
 10
71.66379305425133
 20
109.55
 30
0.0
 40
0.5
  1
Grip Tight Two-Bolt Flange Metric Bore
100
AcDbAttributeDefinition
  3

  2
NN
 70
     8
280
     0
  0
ATTDEF
  5
74
330
6E
100
AcDbEntity
  8
AM_6
100
AcDbText
 10
71.66379305425133
 20
109.05
 30
0.0
 40
0.5
  1
GT Normal Duty 2 Bolt Flange Bearings
100
AcDbAttributeDefinition
  3

  2
NT
 70
     8
280
     0
  0
ATTDEF
  5
75
330
6E
100
AcDbEntity
  8
AM_6
100
AcDbText
 10
71.66379305425133
 20
108.55
 30
0.0
 40
0.5
  1
129329
100
AcDbAttributeDefinition
  3

  2
NB
 70
     8
280
     0
  0
ATTDEF
  5
76
330
6E
100
AcDbEntity
  8
AM_6
100
AcDbText
 10
71.66379305425133
 20
108.05
 30
0.0
 40
0.5
  1
$PN.$LUBE.
100
AcDbAttributeDefinition
  3

  2
NBSYN
 70
     8
280
     0
  0
ATTDEF
  5
77
330
6E
100
AcDbEntity
  8
AM_6
100
AcDbText
 10
71.66379305425133
 20
107.55
 30
0.0
 40
0.5
  1
129329
100
AcDbAttributeDefinition
  3

  2
LINA
 70
     8
280
     0
  0
ATTDEF
  5
78
330
6E
100
AcDbEntity
  8
AM_6
100
AcDbText
 10
71.66379305425133
 20
107.05
 30
0.0
 40
0.5
  1
211
100
AcDbAttributeDefinition
  3

  2
SERIES
 70
     8
280
     0
  0
ATTDEF
  5
79
330
6E
100
AcDbEntity
  8
AM_6
100
AcDbText
 10
71.66379305425133
 20
106.55
 30
0.0
 40
0.5
  1
55
100
AcDbAttributeDefinition
  3

  2
SS
 70
     8
280
     0
  0
ATTDEF
  5
7A
330
6E
100
AcDbEntity
  8
AM_6
100
AcDbText
 10
71.66379305425133
 20
106.05
 30
0.0
 40
0.5
  1
129329
100
AcDbAttributeDefinition
  3

  2
PN
 70
     8
280
     0
  0
ATTDEF
  5
7B
330
6E
100
AcDbEntity
  8
AM_6
100
AcDbText
 10
71.66379305425133
 20
105.55
 30
0.0
 40
0.5
  1
F2B-GT-55M
100
AcDbAttributeDefinition
  3

  2
DESCRIPTION
 70
     8
280
     0
  0
ATTDEF
  5
7C
330
6E
100
AcDbEntity
  8
AM_6
100
AcDbText
 10
71.66379305425133
 20
105.05
 30
0.0
 40
0.5
  1
48.8
100
AcDbAttributeDefinition
  3

  2
A
 70
     8
280
     0
  0
ATTDEF
  5
7D
330
6E
100
AcDbEntity
  8
AM_6
100
AcDbText
 10
71.66379305425133
 20
104.55
 30
0.0
 40
0.5
  1
219.1
100
AcDbAttributeDefinition
  3

  2
B
 70
     8
280
     0
  0
ATTDEF
  5
7E
330
6E
100
AcDbEntity
  8
AM_6
100
AcDbText
 10
71.66379305425133
 20
104.05
 30
0.0
 40
0.5
  1
54.8
100
AcDbAttributeDefinition
  3

  2
C
 70
     8
280
     0
  0
ATTDEF
  5
7F
330
6E
100
AcDbEntity
  8
AM_6
100
AcDbText
 10
71.66379305425133
 20
103.55
 30
0.0
 40
0.5
  1
184.2
100
AcDbAttributeDefinition
  3

  2
D
 70
     8
280
     0
  0
ATTDEF
  5
80
330
6E
100
AcDbEntity
  8
AM_6
100
AcDbText
 10
71.66379305425133
 20
103.05
 30
0.0
 40
0.5
  1
M16
100
AcDbAttributeDefinition
  3

  2
F
 70
     8
280
     0
  0
ATTDEF
  5
81
330
6E
100
AcDbEntity
  8
AM_6
100
AcDbText
 10
71.66379305425133
 20
102.55
 30
0.0
 40
0.5
  1
17.5
100
AcDbAttributeDefinition
  3

  2
H
 70
     8
280
     0
  0
ATTDEF
  5
82
330
6E
100
AcDbEntity
  8
AM_6
100
AcDbText
 10
71.66379305425133
 20
102.05
 30
0.0
 40
0.5
  1
13.5
100
AcDbAttributeDefinition
  3

  2
J
 70
     8
280
     0
  0
ATTDEF
  5
83
330
6E
100
AcDbEntity
  8
AM_6
100
AcDbText
 10
71.66379305425133
 20
101.55
 30
0.0
 40
0.5
  1
82.6
100
AcDbAttributeDefinition
  3

  2
L
 70
     8
280
     0
  0
ATTDEF
  5
84
330
6E
100
AcDbEntity
  8
AM_6
100
AcDbText
 10
71.66379305425133
 20
101.05
 30
0.0
 40
0.5
  1
133.4
100
AcDbAttributeDefinition
  3

  2
M
 70
     8
280
     0
  0
ATTDEF
  5
85
330
6E
100
AcDbEntity
  8
AM_6
100
AcDbText
 10
71.66379305425133
 20
100.55
 30
0.0
 40
0.5
  1
57.5
100
AcDbAttributeDefinition
  3

  2
N
 70
     8
280
     0
  0
ATTDEF
  5
86
330
6E
100
AcDbEntity
  8
AM_6
100
AcDbText
 10
71.66379305425133
 20
100.05
 30
0.0
 40
0.5
  1
54.0
100
AcDbAttributeDefinition
  3

  2
Z
 70
     8
280
     0
  0
ATTDEF
  5
87
330
6E
100
AcDbEntity
  8
AM_6
100
AcDbText
 10
71.66379305425133
 20
99.55000000000001
 30
0.0
 40
0.5
  1
baldor
100
AcDbAttributeDefinition
  3

  2
COMPANY
 70
     8
280
     0
  0
INSERT
  5
89
330
6E
100
AcDbEntity
  8
0
100
AcDbBlockReference
  2
2_129524_0_in_129329_0
 10
0.0
 20
0.0
 30
0.0
  0
INSERT
  5
B4
330
6E
100
AcDbEntity
  8
0
100
AcDbBlockReference
  2
3_129950_0_in_129329_0
 10
0.0
 20
0.0
 30
0.0
  0
INSERT
  5
F6
330
6E
100
AcDbEntity
  8
0
100
AcDbBlockReference
  2
4_129498_0_in_129329_0
 10
0.0
 20
0.0
 30
0.0
  0
ENDBLK
  5
71
330
6E
100
AcDbEntity
  8
0
100
AcDbBlockEnd
  0
BLOCK
  5
8A
330
88
100
AcDbEntity
  8
0
100
AcDbBlockBegin
  2
2_129524_0_in_129329_0
 70
     2
 10
0.0
 20
0.0
 30
0.0
  3
2_129524_0_in_129329_0
  1

  0
ATTDEF
  5
8C
330
88
100
AcDbEntity
  8
AM_6
100
AcDbText
 10
54.57263522408057
 20
49.57263522408057
 30
0.0
 40
0.5
  1
INS-GT-M B
100
AcDbAttributeDefinition
  3

  2
NN
 70
     8
280
     0
  0
ATTDEF
  5
8D
330
88
100
AcDbEntity
  8
AM_6
100
AcDbText
 10
54.57263522408057
 20
49.07263522408057
 30
0.0
 40
0.5
  1
GT Normal Duty Bearing Inserts
100
AcDbAttributeDefinition
  3

  2
NT
 70
     8
280
     0
  0
ATTDEF
  5
8E
330
88
100
AcDbEntity
  8
AM_6
100
AcDbText
 10
54.57263522408057
 20
48.57263522408057
 30
0.0
 40
0.5
  1
129524
100
AcDbAttributeDefinition
  3

  2
NB
 70
     8
280
     0
  0
ATTDEF
  5
8F
330
88
100
AcDbEntity
  8
AM_6
100
AcDbText
 10
54.57263522408057
 20
48.07263522408057
 30
0.0
 40
0.5
  1
$PN.
100
AcDbAttributeDefinition
  3

  2
NBSYN
 70
     8
280
     0
  0
ATTDEF
  5
90
330
88
100
AcDbEntity
  8
AM_6
100
AcDbText
 10
54.57263522408057
 20
47.57263522408057
 30
0.0
 40
0.5
  1
129524
100
AcDbAttributeDefinition
  3

  2
LINA
 70
     8
280
     0
  0
ATTDEF
  5
91
330
88
100
AcDbEntity
  8
AM_6
100
AcDbText
 10
54.57263522408057
 20
47.07263522408057
 30
0.0
 40
0.5
  1
211
100
AcDbAttributeDefinition
  3

  2
SERIES
 70
     8
280
     0
  0
ATTDEF
  5
92
330
88
100
AcDbEntity
  8
AM_6
100
AcDbText
 10
54.57263522408057
 20
46.57263522408057
 30
0.0
 40
0.5
  1
129524
100
AcDbAttributeDefinition
  3

  2
PN
 70
     8
280
     0
  0
ATTDEF
  5
93
330
88
100
AcDbEntity
  8
AM_6
100
AcDbText
 10
54.57263522408057
 20
46.07263522408057
 30
0.0
 40
0.5
  1
INS-GT-11
100
AcDbAttributeDefinition
  3

  2
DESCRIPTION
 70
     8
280
     0
  0
ATTDEF
  5
94
330
88
100
AcDbEntity
  8
AM_6
100
AcDbText
 10
54.57263522408057
 20
45.57263522408057
 30
0.0
 40
0.5
  1
49.0
100
AcDbAttributeDefinition
  3

  2
A
 70
     8
280
     0
  0
ATTDEF
  5
95
330
88
100
AcDbEntity
  8
AM_6
100
AcDbText
 10
54.57263522408057
 20
45.07263522408057
 30
0.0
 40
0.5
  1
22.1
100
AcDbAttributeDefinition
  3

  2
C
 70
     8
280
     0
  0
ATTDEF
  5
96
330
88
100
AcDbEntity
  8
AM_6
100
AcDbText
 10
54.57263522408057
 20
44.57263522408057
 30
0.0
 40
0.5
  1
100.0
100
AcDbAttributeDefinition
  3

  2
D
 70
     8
280
     0
  0
ATTDEF
  5
97
330
88
100
AcDbEntity
  8
AM_6
100
AcDbText
 10
54.57263522408057
 20
44.07263522408057
 30
0.0
 40
0.5
  1
6.4
100
AcDbAttributeDefinition
  3

  2
J
 70
     8
280
     0
  0
ATTDEF
  5
98
330
88
100
AcDbEntity
  8
AM_6
100
AcDbText
 10
54.57263522408057
 20
43.57263522408057
 30
0.0
 40
0.5
  1
87.1
100
AcDbAttributeDefinition
  3

  2
L
 70
     8
280
     0
  0
ATTDEF
  5
99
330
88
100
AcDbEntity
  8
AM_6
100
AcDbText
 10
54.57263522408057
 20
43.07263522408057
 30
0.0
 40
0.5
  1
#10 - 32 x 1/4
100
AcDbAttributeDefinition
  3

  2
N
 70
     8
280
     0
  0
ATTDEF
  5
9A
330
88
100
AcDbEntity
  8
AM_6
100
AcDbText
 10
54.57263522408057
 20
42.57263522408057
 30
0.0
 40
0.5
  1
17.0
100
AcDbAttributeDefinition
  3

  2
W
 70
     8
280
     0
  0
ATTDEF
  5
9B
330
88
100
AcDbEntity
  8
AM_6
100
AcDbText
 10
54.57263522408057
 20
42.07263522408057
 30
0.0
 40
0.5
  1
33.5
100
AcDbAttributeDefinition
  3

  2
X
 70
     8
280
     0
  0
ATTDEF
  5
9C
330
88
100
AcDbEntity
  8
AM_6
100
AcDbText
 10
54.57263522408057
 20
41.57263522408057
 30
0.0
 40
0.5
  1
32.0
100
AcDbAttributeDefinition
  3

  2
Y
 70
     8
280
     0
  0
ATTDEF
  5
9D
330
88
100
AcDbEntity
  8
AM_6
100
AcDbText
 10
54.57263522408057
 20
41.07263522408057
 30
0.0
 40
0.5
  1
baldor
100
AcDbAttributeDefinition
  3

  2
COMPANY
 70
     8
280
     0
  0
CIRCLE
  5
A0
330
88
100
AcDbEntity
  8
AM_9
100
AcDbCircle
 10
0.0000000000000022
 20
0.0
 30
0.0
 40
33.46266247964636
  0
CIRCLE
  5
A1
330
88
100
AcDbEntity
  8
AM_9
100
AcDbCircle
 10
0.0000000000000022
 20
0.0
 30
0.0
 40
47.79
  0
CIRCLE
  5
A2
330
88
100
AcDbEntity
  8
AM_9
100
AcDbCircle
 10
0.0000000000000022
 20
0.0
 30
0.0
 40
48.66228504524587
  0
CIRCLE
  5
A3
330
88
100
AcDbEntity
  8
AM_9
100
AcDbCircle
 10
0.0000000000000022
 20
0.0
 30
0.0
 40
35.60039682539682
  0
ARC
  5
A4
330
88
100
AcDbEntity
  8
AM_9
100
AcDbCircle
 10
-0.0000000000000568
 20
-0.0000000000001066
 30
0.0
 40
38.71111111111117
100
AcDbArc
 50
5.038785436970169
 51
114.9612145630298
  0
ARC
  5
A5
330
88
100
AcDbEntity
  8
AM_9
100
AcDbCircle
 10
-0.0000000000000107
 20
-0.0000000000000018
 30
0.0
 40
38.7111111111111
100
AcDbArc
 50
125.0387854369701
 51
234.9612145630299
  0
ARC
  5
A6
330
88
100
AcDbEntity
  8
AM_9
100
AcDbCircle
 10
0.0000000000000115
 20
-0.0000000000000142
 30
0.0
 40
38.7111111111111
100
AcDbArc
 50
245.0387854369701
 51
354.9612145630299
  0
CIRCLE
  5
A7
330
88
100
AcDbEntity
  8
AM_9
100
AcDbCircle
 10
0.0000000000000022
 20
0.0
 30
0.0
 40
32.48968253968254
  0
CIRCLE
  5
A8
330
88
100
AcDbEntity
  8
AM_9
100
AcDbCircle
 10
0.0000000000000022
 20
0.0
 30
0.0
 40
37.82711111111111
  0
CIRCLE
  5
AA
330
88
100
AcDbEntity
  8
AM_4
100
AcDbCircle
 10
0.0000000000000022
 20
0.0
 30
0.0
 40
49.57263522408057
  0
CIRCLE
  5
AB
330
88
100
AcDbEntity
  8
AM_4
100
AcDbCircle
 10
0.0000000000000022
 20
0.0
 30
0.0
 40
49.3549226454338
  0
CIRCLE
  5
AC
330
88
100
AcDbEntity
  8
AM_4
100
AcDbCircle
 10
0.0000000000000022
 20
0.0
 30
0.0
 40
48.88328504524586
  0
CIRCLE
  5
AD
330
88
100
AcDbEntity
  8
AM_4
100
AcDbCircle
 10
0.0000000000000022
 20
0.0
 30
0.0
 40
48.87462836067637
  0
CIRCLE
  5
AE
330
88
100
AcDbEntity
  8
AM_4
100
AcDbCircle
 10
0.0000000000000022
 20
0.0
 30
0.0
 40
48.01695196947391
  0
CIRCLE
  5
AF
330
88
100
AcDbEntity
  8
AM_4
100
AcDbCircle
 10
0.0000000000000022
 20
0.0
 30
0.0
 40
47.19396883195165
  0
ARC
  5
B0
330
88
100
AcDbEntity
  8
AM_4
100
AcDbCircle
 10
-0.0000000000001705
 20
0.0000000000002913
 30
0.0
 40
38.71111111111077
100
AcDbArc
 50
114.9612145630299
 51
125.0387854369702
  0
ARC
  5
B1
330
88
100
AcDbEntity
  8
AM_4
100
AcDbCircle
 10
0.0000000000003162
 20
0.0000000000005471
 30
0.0
 40
38.71111111111174
100
AcDbArc
 50
234.96121456303
 51
245.03878543697
  0
ARC
  5
B2
330
88
100
AcDbEntity
  8
AM_4
100
AcDbCircle
 10
0.0000000000014495
 20
-0.0000000000000009
 30
0.0
 40
38.71111111110967
100
AcDbArc
 50
354.9612145630297
 51
5.038785436970241
  0
ENDBLK
  5
8B
330
88
100
AcDbEntity
  8
0
100
AcDbBlockEnd
  0
BLOCK
  5
B5
330
B3
100
AcDbEntity
  8
0
100
AcDbBlockBegin
  2
3_129950_0_in_129329_0
 70
     2
 10
0.0
 20
0.0
 30
0.0
  3
3_129950_0_in_129329_0
  1

  0
ATTDEF
  5
B7
330
B3
100
AcDbEntity
  8
AM_6
100
AcDbText
 10
46.15981049519058
 20
41.29026614249717
 30
0.0
 40
0.5
  1
Grip Tight Normal Duty Adapter and Nut Metric Bore
100
AcDbAttributeDefinition
  3

  2
NN
 70
     8
280
     0
  0
ATTDEF
  5
B8
330
B3
100
AcDbEntity
  8
AM_6
100
AcDbText
 10
46.15981049519058
 20
40.79026614249717
 30
0.0
 40
0.5
  1
GT and GTM Adapter & Lock Nut Assemblies
100
AcDbAttributeDefinition
  3

  2
NT
 70
     8
280
     0
  0
ATTDEF
  5
B9
330
B3
100
AcDbEntity
  8
AM_6
100
AcDbText
 10
46.15981049519058
 20
40.29026614249717
 30
0.0
 40
0.5
  1
129950
100
AcDbAttributeDefinition
  3

  2
NB
 70
     8
280
     0
  0
ATTDEF
  5
BA
330
B3
100
AcDbEntity
  8
AM_6
100
AcDbText
 10
46.15981049519058
 20
39.79026614249717
 30
0.0
 40
0.5
  1
$PN.
100
AcDbAttributeDefinition
  3

  2
NBSYN
 70
     8
280
     0
  0
ATTDEF
  5
BB
330
B3
100
AcDbEntity
  8
AM_6
100
AcDbText
 10
46.15981049519058
 20
39.29026614249717
 30
0.0
 40
0.5
  1
129950
100
AcDbAttributeDefinition
  3

  2
LINA
 70
     8
280
     0
  0
ATTDEF
  5
BC
330
B3
100
AcDbEntity
  8
AM_6
100
AcDbText
 10
46.15981049519058
 20
38.79026614249717
 30
0.0
 40
0.5
  1
211
100
AcDbAttributeDefinition
  3

  2
SERIES
 70
     8
280
     0
  0
ATTDEF
  5
BD
330
B3
100
AcDbEntity
  8
AM_6
100
AcDbText
 10
46.15981049519058
 20
38.29026614249717
 30
0.0
 40
0.5
  1
55
100
AcDbAttributeDefinition
  3

  2
SS
 70
     8
280
     0
  0
ATTDEF
  5
BE
330
B3
100
AcDbEntity
  8
AM_6
100
AcDbText
 10
46.15981049519058
 20
37.79026614249717
 30
0.0
 40
0.5
  1
129950
100
AcDbAttributeDefinition
  3

  2
PN
 70
     8
280
     0
  0
ATTDEF
  5
BF
330
B3
100
AcDbEntity
  8
AM_6
100
AcDbText
 10
46.15981049519058
 20
37.29026614249717
 30
0.0
 40
0.5
  1
AN-GT-11-55M
100
AcDbAttributeDefinition
  3

  2
DESCRIPTION
 70
     8
280
     0
  0
ATTDEF
  5
C0
330
B3
100
AcDbEntity
  8
AM_6
100
AcDbText
 10
46.15981049519058
 20
36.79026614249717
 30
0.0
 40
0.5
  1
48.8
100
AcDbAttributeDefinition
  3

  2
A
 70
     8
280
     0
  0
ATTDEF
  5
C1
330
B3
100
AcDbEntity
  8
AM_6
100
AcDbText
 10
46.15981049519058
 20
36.29026614249717
 30
0.0
 40
0.5
  1
24.0
100
AcDbAttributeDefinition
  3

  2
C
 70
     8
280
     0
  0
ATTDEF
  5
C2
330
B3
100
AcDbEntity
  8
AM_6
100
AcDbText
 10
46.15981049519058
 20
35.79026614249717
 30
0.0
 40
0.5
  1
100.0
100
AcDbAttributeDefinition
  3

  2
D
 70
     8
280
     0
  0
ATTDEF
  5
C3
330
B3
100
AcDbEntity
  8
AM_6
100
AcDbText
 10
46.15981049519058
 20
35.29026614249717
 30
0.0
 40
0.5
  1
6.8
100
AcDbAttributeDefinition
  3

  2
J
 70
     8
280
     0
  0
ATTDEF
  5
C4
330
B3
100
AcDbEntity
  8
AM_6
100
AcDbText
 10
46.15981049519058
 20
34.79026614249717
 30
0.0
 40
0.5
  1
82.6
100
AcDbAttributeDefinition
  3

  2
L
 70
     8
280
     0
  0
ATTDEF
  5
C5
330
B3
100
AcDbEntity
  8
AM_6
100
AcDbText
 10
46.15981049519058
 20
34.29026614249717
 30
0.0
 40
0.5
  1
10 - 32 x 1/4
100
AcDbAttributeDefinition
  3

  2
N
 70
     8
280
     0
  0
ATTDEF
  5
C6
330
B3
100
AcDbEntity
  8
AM_6
100
AcDbText
 10
46.15981049519058
 20
33.79026614249717
 30
0.0
 40
0.5
  1
17.9
100
AcDbAttributeDefinition
  3

  2
W
 70
     8
280
     0
  0
ATTDEF
  5
C7
330
B3
100
AcDbEntity
  8
AM_6
100
AcDbText
 10
46.15981049519058
 20
33.29026614249717
 30
0.0
 40
0.5
  1
30.2
100
AcDbAttributeDefinition
  3

  2
X
 70
     8
280
     0
  0
ATTDEF
  5
C8
330
B3
100
AcDbEntity
  8
AM_6
100
AcDbText
 10
46.15981049519058
 20
32.79026614249717
 30
0.0
 40
0.5
  1
31.0
100
AcDbAttributeDefinition
  3

  2
Y
 70
     8
280
     0
  0
ATTDEF
  5
C9
330
B3
100
AcDbEntity
  8
AM_6
100
AcDbText
 10
46.15981049519058
 20
32.29026614249717
 30
0.0
 40
0.5
  1
baldor
100
AcDbAttributeDefinition
  3

  2
COMPANY
 70
     8
280
     0
  0
LINE
  5
CA
330
B3
100
AcDbEntity
  8
AM_9
100
AcDbLine
 10
1.250000000000002
 20
30.81125355032462
 30
0.0
 11
1.250000000000002
 21
31.80711796368143
 31
0.0
  0
LINE
  5
CB
330
B3
100
AcDbEntity
  8
AM_9
100
AcDbLine
 10
-1.249999999999998
 20
30.81125355032461
 30
0.0
 11
-1.249999999999998
 21
31.80711796368143
 31
0.0
  0
ARC
  5
CC
330
B3
100
AcDbEntity
  8
AM_9
100
AcDbCircle
 10
0.0000000000000021
 20
-0.0000000000000045
 30
0.0
 40
31.83167059950744
100
AcDbArc
 50
92.2505304562306
 51
87.7494695437694
  0
CIRCLE
  5
CD
330
B3
100
AcDbEntity
  8
AM_9
100
AcDbCircle
 10
0.0000000000000022
 20
0.0
 30
0.0
 40
33.76111111111115
  0
CIRCLE
  5
CE
330
B3
100
AcDbEntity
  8
AM_9
100
AcDbCircle
 10
0.0000000000000022
 20
0.0
 30
0.0
 40
37.12411111111111
  0
LINE
  5
CF
330
B3
100
AcDbEntity
  8
AM_9
100
AcDbLine
 10
-40.8682
 20
-1.981200000000003
 30
0.0
 11
-31.4068
 21
-1.981200000000003
 31
0.0
  0
LINE
  5
D0
330
B3
100
AcDbEntity
  8
AM_9
100
AcDbLine
 10
-31.4068
 20
1.981200000000003
 30
0.0
 11
-40.8682
 21
1.981200000000003
 31
0.0
  0
LINE
  5
D1
330
B3
100
AcDbEntity
  8
AM_9
100
AcDbLine
 10
-40.8682
 20
1.981200000000003
 30
0.0
 11
-41.22247257972895
 21
2.335472579728952
 31
0.0
  0
LINE
  5
D2
330
B3
100
AcDbEntity
  8
AM_9
100
AcDbLine
 10
-41.21706553218775
 20
-2.330065532187757
 30
0.0
 11
-40.8682
 21
-1.981200000000003
 31
0.0
  0
LINE
  5
D3
330
B3
100
AcDbEntity
  8
AM_9
100
AcDbLine
 10
-40.8682
 20
1.981200000000003
 30
0.0
 11
-40.8682
 21
-1.981200000000003
 31
0.0
  0
LINE
  5
D4
330
B3
100
AcDbEntity
  8
AM_9
100
AcDbLine
 10
-41.26863464625072
 20
1.609283826512763
 30
0.0
 11
-41.23329826685008
 21
2.346297942925966
 31
0.0
  0
LINE
  5
D5
330
B3
100
AcDbEntity
  8
AM_9
100
AcDbLine
 10
-41.25502874974189
 20
-1.926811578221824
 30
0.0
 11
-41.26964316508229
 21
-1.583209722929267
 31
0.0
  0
LINE
  5
D6
330
B3
100
AcDbEntity
  8
AM_9
100
AcDbLine
 10
-41.23329824983188
 20
-2.34629824199973
 30
0.0
 11
-41.24841205124315
 21
-2.063614123536654
 31
0.0
  0
LINE
  5
D7
330
B3
100
AcDbEntity
  8
AM_9
100
AcDbLine
 10
-31.4068
 20
-1.981200000000003
 30
0.0
 11
-30.97499999999999
 21
-2.413000000000002
 31
0.0
  0
LINE
  5
D8
330
B3
100
AcDbEntity
  8
AM_9
100
AcDbLine
 10
-30.97499999999999
 20
2.413000000000002
 30
0.0
 11
-31.4068
 21
1.981200000000003
 31
0.0
  0
LINE
  5
D9
330
B3
100
AcDbEntity
  8
AM_9
100
AcDbLine
 10
-30.97499999999999
 20
2.413000000000002
 30
0.0
 11
-30.97499999999999
 21
-2.413000000000002
 31
0.0
  0
LINE
  5
DA
330
B3
100
AcDbEntity
  8
AM_9
100
AcDbLine
 10
-31.4068
 20
1.981200000000003
 30
0.0
 11
-31.4068
 21
-1.981200000000003
 31
0.0
  0
LINE
  5
DC
330
B3
100
AcDbEntity
  8
AM_5
100
AcDbLine
 10
-41.22944858957005
 20
-2.413000000000002
 30
0.0
 11
-30.97499999999999
 21
-2.413000000000002
 31
0.0
  0
LINE
  5
DD
330
B3
100
AcDbEntity
  8
AM_5
100
AcDbLine
 10
-41.22944858957005
 20
2.412999999999998
 30
0.0
 11
-30.975
 21
2.412999999999998
 31
0.0
  0
LWPOLYLINE
  5
DE
330
B3
100
AcDbEntity
  8
AM_4
100
AcDbPolyline
 90
        7
 70
     0
 43
0.0
 10
-41.26964316508229
 20
-1.583209722929267
 10
-41.27269474602571
 20
-1.501555327446133
 10
-41.29209226460674
 20
-0.8081561799579773
 10
-41.29998221372675
 20
-0.0383294384767807
 10
-41.29371565756558
 20
0.7204492987874881
 10
-41.27634669636089
 20
1.397570535542927
 10
-41.26863464625072
 20
1.609283826512763
  0
LINE
  5
DF
330
B3
100
AcDbEntity
  8
AM_4
100
AcDbLine
 10
-16.32884237156206
 20
35.08238461632895
 30
0.0
 11
-17.6354188747282
 21
37.34544150378838
 31
0.0
  0
LINE
  5
E0
330
B3
100
AcDbEntity
  8
AM_4
100
AcDbLine
 10
41.15981049519058
 20
3.4
 30
0.0
 11
38.54665748885829
 21
3.4
 31
0.0
  0
ARC
  5
E1
330
B3
100
AcDbEntity
  8
AM_4
100
AcDbCircle
 10
0.0000000000000071
 20
0.0
 30
0.0
 40
41.3
100
AcDbArc
 50
4.72218807239237
 51
115.2778119276076
  0
LINE
  5
E2
330
B3
100
AcDbEntity
  8
AM_4
100
AcDbLine
 10
-23.52439162046239
 20
33.94544150378838
 30
0.0
 11
-22.21781511729625
 21
31.68238461632895
 31
0.0
  0
LINE
  5
E3
330
B3
100
AcDbEntity
  8
AM_4
100
AcDbLine
 10
-22.21781511729623
 20
-31.68238461632896
 30
0.0
 11
-23.52439162046236
 21
-33.94544150378839
 31
0.0
  0
ARC
  5
E4
330
B3
100
AcDbEntity
  8
AM_4
100
AcDbCircle
 10
0.0000000000000178
 20
-0.0000000000000071
 30
0.0
 40
41.30000000000001
100
AcDbArc
 50
124.7221880723925
 51
177.8170629050593
  0
LWPOLYLINE
  5
E5
330
B3
100
AcDbEntity
  8
AM_4
100
AcDbPolyline
 90
        6
 70
     0
 43
0.0
 10
-41.27002876089095
 20
1.573126210840529
 10
-41.10351310051768
 20
1.007833907967294
 10
-41.00547432280064
 20
0.3877169251083675
 10
-40.99248989507408
 20
-0.1880093895046154
 10
-41.05710181629712
 20
-0.7788755175501816
 10
-41.27002876089094
 20
-1.573126210840527
  0
ARC
  5
E6
330
B3
100
AcDbEntity
  8
AM_4
100
AcDbCircle
 10
-0.0000000000000568
 20
-0.000000000000032
 30
0.0
 40
41.29999999999993
100
AcDbArc
 50
182.1829370949407
 51
235.2778119276076
  0
LINE
  5
E7
330
B3
100
AcDbEntity
  8
AM_4
100
AcDbLine
 10
-17.63541887472818
 20
-37.34544150378839
 30
0.0
 11
-16.32884237156204
 21
-35.08238461632897
 31
0.0
  0
LINE
  5
E8
330
B3
100
AcDbEntity
  8
AM_4
100
AcDbLine
 10
38.54665748885829
 20
-3.4
 30
0.0
 11
41.15981049519057
 21
-3.4
 31
0.0
  0
ARC
  5
E9
330
B3
100
AcDbEntity
  8
AM_4
100
AcDbCircle
 10
0.0000000000000049
 20
-0.0000000000000071
 30
0.0
 40
41.29999999999999
100
AcDbArc
 50
244.7221880723924
 51
355.2778119276076
  0
LINE
  5
EA
330
B3
100
AcDbEntity
  8
AM_4
100
AcDbLine
 10
1.250000000000002
 20
27.47157621979489
 30
0.0
 11
1.250000000000002
 21
30.81111111111111
 31
0.0
  0
LINE
  5
EB
330
B3
100
AcDbEntity
  8
AM_4
100
AcDbLine
 10
-1.249999999999998
 20
27.47157621979489
 30
0.0
 11
-1.249999999999999
 21
30.81111111111111
 31
0.0
  0
LINE
  5
EC
330
B3
100
AcDbEntity
  8
AM_4
100
AcDbLine
 10
-1.249999999999999
 20
30.81111111111111
 30
0.0
 11
1.250000000000002
 21
30.81111111111111
 31
0.0
  0
LINE
  5
ED
330
B3
100
AcDbEntity
  8
AM_4
100
AcDbLine
 10
38.54665748885829
 20
3.4
 30
0.0
 11
38.54665748885829
 21
-3.4
 31
0.0
  0
ARC
  5
EE
330
B3
100
AcDbEntity
  8
AM_4
100
AcDbCircle
 10
-0.0000000000000142
 20
-0.0000000000000178
 30
0.0
 40
40.34000000000001
100
AcDbArc
 50
4.834829739034658
 51
115.1651702609654
  0
LINE
  5
EF
330
B3
100
AcDbEntity
  8
AM_4
100
AcDbLine
 10
-22.21781511729625
 20
31.68238461632895
 30
0.0
 11
-16.32884237156206
 21
35.08238461632895
 31
0.0
  0
ARC
  5
F0
330
B3
100
AcDbEntity
  8
AM_4
100
AcDbCircle
 10
0.0000000000000071
 20
0.0000000000000036
 30
0.0
 40
40.34
100
AcDbArc
 50
124.8348297390347
 51
235.1651702609654
  0
LINE
  5
F1
330
B3
100
AcDbEntity
  8
AM_4
100
AcDbLine
 10
-16.32884237156204
 20
-35.08238461632897
 30
0.0
 11
-22.21781511729623
 21
-31.68238461632896
 31
0.0
  0
ARC
  5
F2
330
B3
100
AcDbEntity
  8
AM_4
100
AcDbCircle
 10
-0.0000000000000042
 20
0.0000000000000142
 30
0.0
 40
40.34
100
AcDbArc
 50
244.8348297390346
 51
355.1651702609653
  0
ARC
  5
F3
330
B3
100
AcDbEntity
  8
AM_4
100
AcDbCircle
 10
0.0000000000000022
 20
-0.0000000000000024
 30
0.0
 40
27.50000000000001
100
AcDbArc
 50
92.6052512650573
 51
87.39474873494272
  0
ARC
  5
F4
330
B3
100
AcDbEntity
  8
AM_4
100
AcDbCircle
 10
0.0000000000000022
 20
0.0000000000000007
 30
0.0
 40
30.81111111111111
100
AcDbArc
 50
92.32511528931556
 51
87.67488471068448
  0
ENDBLK
  5
B6
330
B3
100
AcDbEntity
  8
0
100
AcDbBlockEnd
  0
BLOCK
  5
F7
330
F5
100
AcDbEntity
  8
0
100
AcDbBlockBegin
  2
4_129498_0_in_129329_0
 70
     2
 10
0.0
 20
0.0
 30
0.0
  3
4_129498_0_in_129329_0
  1

  0
ATTDEF
  5
F9
330
F5
100
AcDbEntity
  8
AM_6
100
AcDbText
 10
71.66379305425133
 20
109.55
 30
0.0
 40
0.5
  1
F2B-GT-M-B
100
AcDbAttributeDefinition
  3

  2
NN
 70
     8
280
     0
  0
ATTDEF
  5
FA
330
F5
100
AcDbEntity
  8
AM_6
100
AcDbText
 10
71.66379305425133
 20
109.05
 30
0.0
 40
0.5
  1
GT Normal Duty 2 Bolt Flange Bearings
100
AcDbAttributeDefinition
  3

  2
NT
 70
     8
280
     0
  0
ATTDEF
  5
FB
330
F5
100
AcDbEntity
  8
AM_6
100
AcDbText
 10
71.66379305425133
 20
108.55
 30
0.0
 40
0.5
  1
129498
100
AcDbAttributeDefinition
  3

  2
NB
 70
     8
280
     0
  0
ATTDEF
  5
FC
330
F5
100
AcDbEntity
  8
AM_6
100
AcDbText
 10
71.66379305425133
 20
108.05
 30
0.0
 40
0.5
  1
$PN.$LUBE.
100
AcDbAttributeDefinition
  3

  2
NBSYN
 70
     8
280
     0
  0
ATTDEF
  5
FD
330
F5
100
AcDbEntity
  8
AM_6
100
AcDbText
 10
71.66379305425133
 20
107.55
 30
0.0
 40
0.5
  1
129498
100
AcDbAttributeDefinition
  3

  2
LINA
 70
     8
280
     0
  0
ATTDEF
  5
FE
330
F5
100
AcDbEntity
  8
AM_6
100
AcDbText
 10
71.66379305425133
 20
107.05
 30
0.0
 40
0.5
  1
211
100
AcDbAttributeDefinition
  3

  2
SERIES
 70
     8
280
     0
  0
ATTDEF
  5
FF
330
F5
100
AcDbEntity
  8
AM_6
100
AcDbText
 10
71.66379305425133
 20
106.55
 30
0.0
 40
0.5
  1
100
100
AcDbAttributeDefinition
  3

  2
BOD
 70
     8
280
     0
  0
ATTDEF
  5
100
330
F5
100
AcDbEntity
  8
AM_6
100
AcDbText
 10
71.66379305425133
 20
106.05
 30
0.0
 40
0.5
  1
55
100
AcDbAttributeDefinition
  3

  2
SS
 70
     8
280
     0
  0
ATTDEF
  5
101
330
F5
100
AcDbEntity
  8
AM_6
100
AcDbText
 10
71.66379305425133
 20
105.55
 30
0.0
 40
0.5
  1
129498
100
AcDbAttributeDefinition
  3

  2
PN
 70
     8
280
     0
  0
ATTDEF
  5
102
330
F5
100
AcDbEntity
  8
AM_6
100
AcDbText
 10
71.66379305425133
 20
105.05
 30
0.0
 40
0.5
  1
F2B-GT-11
100
AcDbAttributeDefinition
  3

  2
DESCRIPTION
 70
     8
280
     0
  0
ATTDEF
  5
103
330
F5
100
AcDbEntity
  8
AM_6
100
AcDbText
 10
71.66379305425133
 20
104.55
 30
0.0
 40
0.5
  1
With Lube
100
AcDbAttributeDefinition
  3

  2
LUBE
 70
     8
280
     0
  0
ATTDEF
  5
104
330
F5
100
AcDbEntity
  8
AM_6
100
AcDbText
 10
71.66379305425133
 20
104.05
 30
0.0
 40
0.5
  1
3.7
100
AcDbAttributeDefinition
  3

  2
WEIGHT
 70
     8
280
     0
  0
ATTDEF
  5
105
330
F5
100
AcDbEntity
  8
AM_6
100
AcDbText
 10
71.66379305425133
 20
103.55
 30
0.0
 40
0.5
  1
48.8
100
AcDbAttributeDefinition
  3

  2
A
 70
     8
280
     0
  0
ATTDEF
  5
106
330
F5
100
AcDbEntity
  8
AM_6
100
AcDbText
 10
71.66379305425133
 20
103.05
 30
0.0
 40
0.5
  1
219.1
100
AcDbAttributeDefinition
  3

  2
B
 70
     8
280
     0
  0
ATTDEF
  5
107
330
F5
100
AcDbEntity
  8
AM_6
100
AcDbText
 10
71.66379305425133
 20
102.55
 30
0.0
 40
0.5
  1
54.8
100
AcDbAttributeDefinition
  3

  2
C
 70
     8
280
     0
  0
ATTDEF
  5
108
330
F5
100
AcDbEntity
  8
AM_6
100
AcDbText
 10
71.66379305425133
 20
102.05
 30
0.0
 40
0.5
  1
184.2
100
AcDbAttributeDefinition
  3

  2
D
 70
     8
280
     0
  0
ATTDEF
  5
109
330
F5
100
AcDbEntity
  8
AM_6
100
AcDbText
 10
71.66379305425133
 20
101.55
 30
0.0
 40
0.5
  1
M16
100
AcDbAttributeDefinition
  3

  2
F
 70
     8
280
     0
  0
ATTDEF
  5
10A
330
F5
100
AcDbEntity
  8
AM_6
100
AcDbText
 10
71.66379305425133
 20
101.05
 30
0.0
 40
0.5
  1
17.5
100
AcDbAttributeDefinition
  3

  2
H
 70
     8
280
     0
  0
ATTDEF
  5
10B
330
F5
100
AcDbEntity
  8
AM_6
100
AcDbText
 10
71.66379305425133
 20
100.55
 30
0.0
 40
0.5
  1
13.5
100
AcDbAttributeDefinition
  3

  2
J
 70
     8
280
     0
  0
ATTDEF
  5
10C
330
F5
100
AcDbEntity
  8
AM_6
100
AcDbText
 10
71.66379305425133
 20
100.05
 30
0.0
 40
0.5
  1
82.6
100
AcDbAttributeDefinition
  3

  2
L
 70
     8
280
     0
  0
ATTDEF
  5
10D
330
F5
100
AcDbEntity
  8
AM_6
100
AcDbText
 10
71.66379305425133
 20
99.55000000000001
 30
0.0
 40
0.5
  1
133.4
100
AcDbAttributeDefinition
  3

  2
M
 70
     8
280
     0
  0
ATTDEF
  5
10E
330
F5
100
AcDbEntity
  8
AM_6
100
AcDbText
 10
71.66379305425133
 20
99.05000000000001
 30
0.0
 40
0.5
  1
57.5
100
AcDbAttributeDefinition
  3

  2
N
 70
     8
280
     0
  0
ATTDEF
  5
10F
330
F5
100
AcDbEntity
  8
AM_6
100
AcDbText
 10
71.66379305425133
 20
98.55000000000001
 30
0.0
 40
0.5
  1
54.0
100
AcDbAttributeDefinition
  3

  2
Z
 70
     8
280
     0
  0
ATTDEF
  5
110
330
F5
100
AcDbEntity
  8
AM_6
100
AcDbText
 10
71.66379305425133
 20
98.05000000000001
 30
0.0
 40
0.5
  1
16.8
100
AcDbAttributeDefinition
  3

  2
F1
 70
     8
280
     0
  0
ATTDEF
  5
111
330
F5
100
AcDbEntity
  8
AM_6
100
AcDbText
 10
71.66379305425133
 20
97.55000000000001
 30
0.0
 40
0.5
  1
baldor
100
AcDbAttributeDefinition
  3

  2
COMPANY
 70
     8
280
     0
  0
ARC
  5
112
330
F5
100
AcDbEntity
  8
AM_9
100
AcDbCircle
 10
16.11922613101896
 20
-70.67803679837021
 30
0.0
 40
15.35
100
AcDbArc
 50
332.9756044632192
 51
102.8474535570745
  0
ARC
  5
113
330
F5
100
AcDbEntity
  8
AM_9
100
AcDbCircle
 10
-16.11922613101899
 20
-70.67803679837019
 30
0.0
 40
15.35000000000001
100
AcDbArc
 50
77.15254644292544
 51
207.0243955367805
  0
ARC
  5
114
330
F5
100
AcDbEntity
  8
AM_9
100
AcDbCircle
 10
0.0000000000000169
 20
0.0000000000002416
 30
0.0
 40
57.1428571428569
100
AcDbArc
 50
77.15254644292541
 51
102.8474535570746
  0
ARC
  5
115
330
F5
100
AcDbEntity
  8
AM_9
100
AcDbCircle
 10
16.11922613101899
 20
70.67803679837017
 30
0.0
 40
15.35
100
AcDbArc
 50
257.1525464429255
 51
27.02439553678091
  0
ARC
  5
116
330
F5
100
AcDbEntity
  8
AM_9
100
AcDbCircle
 10
0.0000000000000533
 20
0.0000000000000995
 30
0.0
 40
57.14285714285725
100
AcDbArc
 50
257.1525464429254
 51
282.8474535570745
  0
ARC
  5
117
330
F5
100
AcDbEntity
  8
AM_9
100
AcDbCircle
 10
-16.11922613101898
 20
70.67803679837017
 30
0.0
 40
15.35000000000001
100
AcDbArc
 50
152.9756044632192
 51
282.8474535570746
  0
LINE
  5
11A
330
F5
100
AcDbEntity
  8
AM_7
100
AcDbLine
 10
-8.82
 20
92.1
 30
0.0
 11
8.82
 21
92.1
 31
0.0
  0
LINE
  5
11B
330
F5
100
AcDbEntity
  8
AM_7
100
AcDbLine
 10
0.0
 20
83.28
 30
0.0
 11
0.0
 21
100.92
 31
0.0
  0
LINE
  5
11C
330
F5
100
AcDbEntity
  8
AM_7
100
AcDbLine
 10
-8.82
 20
-92.1
 30
0.0
 11
8.82
 21
-92.1
 31
0.0
  0
LINE
  5
11D
330
F5
100
AcDbEntity
  8
AM_7
100
AcDbLine
 10
0.0
 20
-100.92
 30
0.0
 11
0.0
 21
-83.28
 31
0.0
  0
LINE
  5
11E
330
F5
100
AcDbEntity
  8
AM_7
100
AcDbLine
 10
-52.5
 20
0.0
 30
0.0
 11
52.5
 21
0.0
 31
0.0
  0
LINE
  5
11F
330
F5
100
AcDbEntity
  8
AM_7
100
AcDbLine
 10
0.0
 20
-52.5
 30
0.0
 11
0.0
 21
52.5
 31
0.0
  0
LINE
  5
120
330
F5
100
AcDbEntity
  8
AM_7
100
AcDbLine
 10
47.52544331120912
 20
50.35387043595532
 30
0.0
 11
57.23420035727081
 21
60.062627482017
 31
0.0
  0
LINE
  5
121
330
F5
100
AcDbEntity
  8
AM_4
100
AcDbLine
 10
-56.36240590315586
 20
35.66748099891422
 30
0.0
 11
-14.74548700165022
 21
101.4312975027144
 31
0.0
  0
LINE
  5
122
330
F5
100
AcDbEntity
  8
AM_4
100
AcDbLine
 10
14.74548700165022
 20
101.4312975027144
 30
0.0
 11
41.60951176425753
 21
58.98027417677239
 31
0.0
  0
LINE
  5
123
330
F5
100
AcDbEntity
  8
AM_4
100
AcDbLine
 10
56.36240590315582
 20
-35.66748099891419
 30
0.0
 11
14.74548700165021
 21
-101.4312975027144
 31
0.0
  0
LINE
  5
124
330
F5
100
AcDbEntity
  8
AM_4
100
AcDbLine
 10
52.9757187821856
 20
41.0191859366676
 30
0.0
 11
56.36240590315581
 21
35.66748099891423
 31
0.0
  0
LINE
  5
125
330
F5
100
AcDbEntity
  8
AM_4
100
AcDbLine
 10
-14.74548700165021
 20
-101.4312975027144
 30
0.0
 11
-56.36240590315582
 21
-35.66748099891421
 31
0.0
  0
CIRCLE
  5
126
330
F5
100
AcDbEntity
  8
AM_4
100
AcDbCircle
 10
0.0
 20
92.1
 30
0.0
 40
8.4
  0
ARC
  5
127
330
F5
100
AcDbEntity
  8
AM_4
100
AcDbCircle
 10
-0.0000000000000053
 20
92.10000000000002
 30
0.0
 40
17.44999999999999
100
AcDbArc
 50
32.32660892026756
 51
147.6733910797323
  0
ARC
  5
128
330
F5
100
AcDbEntity
  8
AM_4
100
AcDbCircle
 10
0.0000000000000018
 20
-92.10000000000001
 30
0.0
 40
17.45
100
AcDbArc
 50
212.3266089202677
 51
327.6733910797324
  0
CIRCLE
  5
129
330
F5
100
AcDbEntity
  8
AM_4
100
AcDbCircle
 10
0.0
 20
-92.1
 30
0.0
 40
8.4
  0
ARC
  5
12A
330
F5
100
AcDbEntity
  8
AM_4
100
AcDbCircle
 10
0.0000000000017497
 20
-0.0000000000000568
 30
0.0
 40
68.02399882812563
100
AcDbArc
 50
71.80952130341296
 51
108.1904786965903
  0
ARC
  5
12B
330
F5
100
AcDbEntity
  8
AM_4
100
AcDbCircle
 10
-0.0000000000017462
 20
0.0000000000000711
 30
0.0
 40
68.02399882812564
100
AcDbArc
 50
251.809521303413
 51
288.1904786965903
  0
LINE
  5
12C
330
F5
100
AcDbEntity
  8
AM_4
100
AcDbLine
 10
57.5
 20
57.5
 30
0.0
 11
54.67157287525381
 21
60.3284271247462
 31
0.0
  0
LINE
  5
12D
330
F5
100
AcDbEntity
  8
AM_4
100
AcDbLine
 10
54.67157287525381
 20
60.3284271247462
 30
0.0
 11
53.02852829721279
 21
59.62426516272862
 31
0.0
  0
LINE
  5
12E
330
F5
100
AcDbEntity
  8
AM_4
100
AcDbLine
 10
56.79583803798242
 20
55.85695542195899
 30
0.0
 11
57.5
 21
57.5
 31
0.0
  0
LINE
  5
12F
330
F5
100
AcDbEntity
  8
AM_4
100
AcDbLine
 10
56.79583803798243
 20
55.85695542195899
 30
0.0
 11
53.02852829721279
 21
59.62426516272863
 31
0.0
  0
ARC
  5
130
330
F5
100
AcDbEntity
  8
AM_4
100
AcDbCircle
 10
53.22548794650237
 20
59.16469264771959
 30
0.0
 40
0.5000000000000028
100
AcDbArc
 50
113.1985905136469
 51
180.8429160447772
  0
ARC
  5
131
330
F5
100
AcDbEntity
  8
AM_4
100
AcDbCircle
 10
56.33626552297339
 20
56.05391507124857
 30
0.0
 40
0.5000000000000048
100
AcDbArc
 50
269.1570839552232
 51
336.8014094863524
  0
LINE
  5
132
330
F5
100
AcDbEntity
  8
AM_4
100
AcDbLine
 10
56.32890995816157
 20
55.55396917850986
 30
0.0
 11
52.72554205376367
 21
59.15733708290777
 31
0.0
  0
ARC
  5
133
330
F5
100
AcDbEntity
  8
AM_4
100
AcDbCircle
 10
50.9194875175827
 20
59.13076501411147
 30
0.0
 40
1.806249999999999
100
AcDbArc
 50
258.8550261282942
 51
0.8429189289450312
  0
ARC
  5
134
330
F5
100
AcDbEntity
  8
AM_4
100
AcDbCircle
 10
56.30233788936528
 20
53.74791464232889
 30
0.0
 40
1.806249999999996
100
AcDbArc
 50
89.15708107105529
 51
191.1449738717057
  0
LINE
  5
135
330
F5
100
AcDbEntity
  8
AM_4
100
AcDbLine
 10
54.5301515190165
 20
53.39878066911803
 30
0.0
 11
50.57035354437183
 21
57.3585786437627
 31
0.0
  0
LINE
  5
136
330
F5
100
AcDbEntity
  8
AM_4
100
AcDbLine
 10
50.57035354437183
 20
57.3585786437627
 30
0.0
 11
50.21680015377856
 21
57.00502525316943
 31
0.0
  0
LINE
  5
137
330
F5
100
AcDbEntity
  8
AM_4
100
AcDbLine
 10
54.17659812842324
 20
53.04522727852476
 30
0.0
 11
54.5301515190165
 21
53.39878066911803
 31
0.0
  0
LINE
  5
138
330
F5
100
AcDbEntity
  8
AM_4
100
AcDbLine
 10
48.09547981021892
 20
54.88370490960978
 30
0.0
 11
47.74192641962563
 21
54.5301515190165
 31
0.0
  0
LINE
  5
139
330
F5
100
AcDbEntity
  8
AM_4
100
AcDbLine
 10
51.70172439427031
 20
50.57035354437183
 30
0.0
 11
52.05527778486359
 21
50.92390693496511
 31
0.0
  0
LINE
  5
13A
330
F5
100
AcDbEntity
  8
AM_4
100
AcDbLine
 10
52.90380592228743
 20
50.07537879754127
 30
0.0
 11
47.24695167279505
 21
55.73223304703365
 31
0.0
  0
LINE
  5
13B
330
F5
100
AcDbEntity
  8
AM_4
100
AcDbLine
 10
47.24695167279505
 20
55.73223304703365
 30
0.0
 11
49.36827201635473
 21
57.85355339059331
 31
0.0
  0
LINE
  5
13C
330
F5
100
AcDbEntity
  8
AM_4
100
AcDbLine
 10
55.02512626584708
 20
52.19669914110089
 30
0.0
 11
49.36827201635473
 21
57.85355339059331
 31
0.0
  0
LINE
  5
13D
330
F5
100
AcDbEntity
  8
AM_4
100
AcDbLine
 10
55.02512626584708
 20
52.19669914110089
 30
0.0
 11
52.90380592228743
 21
50.07537879754127
 31
0.0
  0
LINE
  5
13E
330
F5
100
AcDbEntity
  8
AM_4
100
AcDbLine
 10
54.90788263184368
 20
52.07945550709749
 30
0.0
 11
53.61091270347396
 21
53.61091270347404
 31
0.0
  0
LINE
  5
13F
330
F5
100
AcDbEntity
  8
AM_4
100
AcDbLine
 10
53.61091270347396
 20
53.61091270347404
 30
0.0
 11
52.07945550709749
 21
54.90788263184368
 31
0.0
  0
LINE
  5
140
330
F5
100
AcDbEntity
  8
AM_4
100
AcDbLine
 10
51.48959235991434
 20
51.48959235991435
 30
0.0
 11
53.02104955629084
 21
50.19262243154467
 31
0.0
  0
LINE
  5
141
330
F5
100
AcDbEntity
  8
AM_4
100
AcDbLine
 10
50.19262243154465
 20
53.02104955629086
 30
0.0
 11
51.48959235991434
 21
51.48959235991435
 31
0.0
  0
LINE
  5
142
330
F5
100
AcDbEntity
  8
AM_4
100
AcDbLine
 10
52.07945550709749
 20
54.90788263184368
 30
0.0
 11
50.78248557872776
 21
56.43933982822023
 31
0.0
  0
LINE
  5
143
330
F5
100
AcDbEntity
  8
AM_4
100
AcDbLine
 10
50.78248557872776
 20
56.43933982822023
 30
0.0
 11
49.2510283823513
 21
57.73630975658988
 31
0.0
  0
LINE
  5
144
330
F5
100
AcDbEntity
  8
AM_4
100
AcDbLine
 10
47.36419530679846
 20
55.84947668103705
 30
0.0
 11
48.66116523516816
 21
54.31801948466055
 31
0.0
  0
LINE
  5
145
330
F5
100
AcDbEntity
  8
AM_4
100
AcDbLine
 10
48.66116523516816
 20
54.31801948466055
 30
0.0
 11
50.19262243154465
 21
53.02104955629086
 31
0.0
  0
LINE
  5
146
330
F5
100
AcDbEntity
  8
AM_4
100
AcDbLine
 10
50.19262243154465
 20
53.02104955629086
 30
0.0
 11
52.07945550709749
 21
54.90788263184368
 31
0.0
  0
ARC
  5
147
330
F5
100
AcDbEntity
  8
AM_4
100
AcDbCircle
 10
-0.0000000000004121
 20
-0.0000000000007461
 30
0.0
 40
66.70000000000083
100
AcDbArc
 50
55.76170976641706
 51
71.1981768712851
  0
LINE
  5
148
330
F5
100
AcDbEntity
  8
AM_4
100
AcDbLine
 10
14.74548700165022
 20
101.4312975027144
 30
0.0
 11
21.49713099836788
 21
63.14082165159881
 31
0.0
  0
ARC
  5
149
330
F5
100
AcDbEntity
  8
AM_4
100
AcDbCircle
 10
0.0000000000000018
 20
0.0000000000000711
 30
0.0
 40
67.0391910751133
100
AcDbArc
 50
71.35743762458034
 51
108.6425623754197
  0
LINE
  5
14A
330
F5
100
AcDbEntity
  8
AM_4
100
AcDbLine
 10
-21.49713099836782
 20
63.14082165159884
 30
0.0
 11
-14.74548700165021
 21
101.4312975027144
 31
0.0
  0
ARC
  5
14B
330
F5
100
AcDbEntity
  8
AM_4
100
AcDbCircle
 10
0.0000000000000497
 20
0.0000000000000036
 30
0.0
 40
66.70000000000002
100
AcDbArc
 50
108.8018231287147
 51
251.1981768712853
  0
LINE
  5
14C
330
F5
100
AcDbEntity
  8
AM_4
100
AcDbLine
 10
-14.74548700165021
 20
-101.4312975027144
 30
0.0
 11
-21.4971309983678
 21
-63.14082165159884
 31
0.0
  0
ARC
  5
14D
330
F5
100
AcDbEntity
  8
AM_4
100
AcDbCircle
 10
-0.0000000000000018
 20
-0.0000000000000426
 30
0.0
 40
67.03919107511332
100
AcDbArc
 50
251.3574376245803
 51
288.6425623754196
  0
LINE
  5
14E
330
F5
100
AcDbEntity
  8
AM_4
100
AcDbLine
 10
21.49713099836782
 20
-63.14082165159884
 30
0.0
 11
14.74548700165022
 21
-101.4312975027144
 31
0.0
  0
ARC
  5
14F
330
F5
100
AcDbEntity
  8
AM_4
100
AcDbCircle
 10
-0.0000000000000995
 20
0.0000000000000426
 30
0.0
 40
66.70000000000007
100
AcDbArc
 50
288.8018231287148
 51
37.71789516780189
  0
LINE
  5
150
330
F5
100
AcDbEntity
  8
AM_4
100
AcDbLine
 10
54.65211500000001
 20
-2.50732
 30
0.0
 11
54.72612000000001
 21
-2.351825
 31
0.0
  0
LINE
  5
151
330
F5
100
AcDbEntity
  8
AM_4
100
AcDbLine
 10
53.616094
 20
-1.41887
 30
0.0
 11
54.17110600000001
 21
-1.41887
 31
0.0
  0
LINE
  5
152
330
F5
100
AcDbEntity
  8
AM_4
100
AcDbLine
 10
53.76409700000001
 20
-2.468445
 30
0.0
 11
53.46809050000001
 21
-2.468445
 31
0.0
  0
LINE
  5
153
330
F5
100
AcDbEntity
  8
AM_4
100
AcDbLine
 10
53.06108
 20
-2.351825
 30
0.0
 11
53.135085
 21
-2.50732
 31
0.0
  0
LINE
  5
154
330
F5
100
AcDbEntity
  8
AM_4
100
AcDbLine
 10
53.135085
 20
-2.50732
 30
0.0
 11
53.28308500000001
 21
-2.66281
 31
0.0
  0
LINE
  5
155
330
F5
100
AcDbEntity
  8
AM_4
100
AcDbLine
 10
53.28308500000001
 20
-2.66281
 30
0.0
 11
53.43109
 21
-2.701685
 31
0.0
  0
LINE
  5
156
330
F5
100
AcDbEntity
  8
AM_4
100
AcDbLine
 10
54.72612000000001
 20
-2.351825
 30
0.0
 11
54.76312000000001
 21
-2.15746
 31
0.0
  0
LINE
  5
157
330
F5
100
AcDbEntity
  8
AM_4
100
AcDbLine
 10
53.02408
 20
-2.15746
 30
0.0
 11
53.06108
 21
-2.351825
 31
0.0
  0
LINE
  5
158
330
F5
100
AcDbEntity
  8
AM_4
100
AcDbLine
 10
53.35709000000001
 20
-2.42957
 30
0.0
 11
53.28308500000001
 21
-2.31295
 31
0.0
  0
LINE
  5
159
330
F5
100
AcDbEntity
  8
AM_4
100
AcDbLine
 10
53.28308500000001
 20
-2.31295
 30
0.0
 11
53.24608500000001
 21
-2.15746
 31
0.0
  0
LINE
  5
15A
330
F5
100
AcDbEntity
  8
AM_4
100
AcDbLine
 10
53.76409700000001
 20
-2.118585
 30
0.0
 11
53.76409700000001
 21
-2.468445
 31
0.0
  0
LINE
  5
15B
330
F5
100
AcDbEntity
  8
AM_4
100
AcDbLine
 10
54.72612000000001
 20
3.28478
 30
0.0
 11
54.76312000000001
 21
3.479144999999996
 31
0.0
  0
LINE
  5
15C
330
F5
100
AcDbEntity
  8
AM_4
100
AcDbLine
 10
53.43109
 20
-2.701685
 30
0.0
 11
53.98610200000001
 21
-2.701685
 31
0.0
  0
LINE
  5
15D
330
F5
100
AcDbEntity
  8
AM_4
100
AcDbLine
 10
54.541115
 20
-2.15746
 30
0.0
 11
54.50411500000001
 21
-2.31295
 31
0.0
  0
LINE
  5
15E
330
F5
100
AcDbEntity
  8
AM_4
100
AcDbLine
 10
54.50411500000001
 20
-2.31295
 30
0.0
 11
54.43011000000001
 21
-2.42957
 31
0.0
  0
LINE
  5
15F
330
F5
100
AcDbEntity
  8
AM_4
100
AcDbLine
 10
54.76312000000001
 20
3.479144999999996
 30
0.0
 11
54.76312000000001
 21
4.4121
 31
0.0
  0
LINE
  5
160
330
F5
100
AcDbEntity
  8
AM_4
100
AcDbLine
 10
53.98610200000001
 20
-2.701685
 30
0.0
 11
53.98610200000001
 21
-2.118585
 31
0.0
  0
LINE
  5
161
330
F5
100
AcDbEntity
  8
AM_4
100
AcDbLine
 10
53.46809050000001
 20
-1.457745
 30
0.0
 11
53.616094
 21
-1.41887
 31
0.0
  0
LINE
  5
162
330
F5
100
AcDbEntity
  8
AM_4
100
AcDbLine
 10
53.02408
 20
1.613235
 30
0.0
 11
53.06108
 21
1.41887
 31
0.0
  0
LINE
  5
163
330
F5
100
AcDbEntity
  8
AM_4
100
AcDbLine
 10
53.06108
 20
1.41887
 30
0.0
 11
53.135085
 21
1.263375
 31
0.0
  0
LINE
  5
164
330
F5
100
AcDbEntity
  8
AM_4
100
AcDbLine
 10
53.135085
 20
1.263375
 30
0.0
 11
53.28308500000001
 21
1.107885
 31
0.0
  0
LINE
  5
165
330
F5
100
AcDbEntity
  8
AM_4
100
AcDbLine
 10
53.28308500000001
 20
1.107885
 30
0.0
 11
53.43109
 21
1.03014
 31
0.0
  0
LINE
  5
166
330
F5
100
AcDbEntity
  8
AM_4
100
AcDbLine
 10
53.43109
 20
1.03014
 30
0.0
 11
53.616094
 21
0.9912650000000001
 31
0.0
  0
LINE
  5
167
330
F5
100
AcDbEntity
  8
AM_4
100
AcDbLine
 10
53.616094
 20
0.9912650000000001
 30
0.0
 11
54.17110600000001
 21
0.9912650000000001
 31
0.0
  0
LINE
  5
168
330
F5
100
AcDbEntity
  8
AM_4
100
AcDbLine
 10
53.98610200000001
 20
-2.118585
 30
0.0
 11
53.76409700000001
 21
-2.118585
 31
0.0
  0
LINE
  5
169
330
F5
100
AcDbEntity
  8
AM_4
100
AcDbLine
 10
54.50411500000001
 20
1.107885
 30
0.0
 11
54.65211500000001
 21
1.263375
 31
0.0
  0
LINE
  5
16A
330
F5
100
AcDbEntity
  8
AM_4
100
AcDbLine
 10
54.65211500000001
 20
1.263375
 30
0.0
 11
54.72612000000001
 21
1.41887
 31
0.0
  0
LINE
  5
16B
330
F5
100
AcDbEntity
  8
AM_4
100
AcDbLine
 10
54.72612000000001
 20
1.41887
 30
0.0
 11
54.76312000000001
 21
1.613235
 31
0.0
  0
LINE
  5
16C
330
F5
100
AcDbEntity
  8
AM_4
100
AcDbLine
 10
54.76312000000001
 20
1.613235
 30
0.0
 11
54.76312000000001
 21
1.92422
 31
0.0
  0
LINE
  5
16D
330
F5
100
AcDbEntity
  8
AM_4
100
AcDbLine
 10
54.76312000000001
 20
1.92422
 30
0.0
 11
54.72612000000001
 21
2.118585
 31
0.0
  0
LINE
  5
16E
330
F5
100
AcDbEntity
  8
AM_4
100
AcDbLine
 10
53.24608500000001
 20
-2.15746
 30
0.0
 11
53.24608500000001
 21
-1.8076
 31
0.0
  0
LINE
  5
16F
330
F5
100
AcDbEntity
  8
AM_4
100
AcDbLine
 10
53.24608500000001
 20
-1.8076
 30
0.0
 11
53.28308500000001
 21
-1.65211
 31
0.0
  0
LINE
  5
170
330
F5
100
AcDbEntity
  8
AM_4
100
AcDbLine
 10
54.17110600000001
 20
0.9912650000000001
 30
0.0
 11
54.35611000000001
 21
1.03014
 31
0.0
  0
LINE
  5
171
330
F5
100
AcDbEntity
  8
AM_4
100
AcDbLine
 10
53.35709000000001
 20
-1.53549
 30
0.0
 11
53.46809050000001
 21
-1.457745
 31
0.0
  0
LINE
  5
172
330
F5
100
AcDbEntity
  8
AM_4
100
AcDbLine
 10
54.65211500000001
 20
3.12929
 30
0.0
 11
54.72612000000001
 21
3.28478
 31
0.0
  0
LINE
  5
173
330
F5
100
AcDbEntity
  8
AM_4
100
AcDbLine
 10
53.616094
 20
2.54619
 30
0.0
 11
53.43109
 21
2.50732
 31
0.0
  0
LINE
  5
174
330
F5
100
AcDbEntity
  8
AM_4
100
AcDbLine
 10
54.17110600000001
 20
-1.41887
 30
0.0
 11
54.3191095
 21
-1.457745
 31
0.0
  0
LINE
  5
175
330
F5
100
AcDbEntity
  8
AM_4
100
AcDbLine
 10
54.3191095
 20
-1.457745
 30
0.0
 11
54.43011000000001
 21
-1.53549
 31
0.0
  0
CIRCLE
  5
176
330
F5
100
AcDbEntity
  8
AM_4
100
AcDbCircle
 10
0.0
 20
0.0
 30
0.0
 40
50.0
  0
LINE
  5
177
330
F5
100
AcDbEntity
  8
AM_4
100
AcDbLine
 10
53.02408
 20
-3.01267
 30
0.0
 11
53.02408
 21
-4.4121
 31
0.0
  0
LINE
  5
178
330
F5
100
AcDbEntity
  8
AM_4
100
AcDbLine
 10
54.76312000000001
 20
-3.01267
 30
0.0
 11
53.02408
 21
-3.01267
 31
0.0
  0
LINE
  5
179
330
F5
100
AcDbEntity
  8
AM_4
100
AcDbLine
 10
54.76312000000001
 20
-4.412099999999995
 30
0.0
 11
54.76312000000001
 21
-3.01267
 31
0.0
  0
LINE
  5
17A
330
F5
100
AcDbEntity
  8
AM_4
100
AcDbLine
 10
54.541115
 20
-4.4121
 30
0.0
 11
54.76312000000001
 21
-4.412099999999995
 31
0.0
  0
LINE
  5
17B
330
F5
100
AcDbEntity
  8
AM_4
100
AcDbLine
 10
54.541115
 20
-3.245905
 30
0.0
 11
54.541115
 21
-4.4121
 31
0.0
  0
LINE
  5
17C
330
F5
100
AcDbEntity
  8
AM_4
100
AcDbLine
 10
54.0601035
 20
-3.245905
 30
0.0
 11
54.541115
 21
-3.245905
 31
0.0
  0
LINE
  5
17D
330
F5
100
AcDbEntity
  8
AM_4
100
AcDbLine
 10
54.0601035
 20
-4.25661
 30
0.0
 11
54.0601035
 21
-3.245905
 31
0.0
  0
LINE
  5
17E
330
F5
100
AcDbEntity
  8
AM_4
100
AcDbLine
 10
53.83809900000001
 20
-4.25661
 30
0.0
 11
54.0601035
 21
-4.25661
 31
0.0
  0
LINE
  5
17F
330
F5
100
AcDbEntity
  8
AM_4
100
AcDbLine
 10
53.83809900000001
 20
-3.245905
 30
0.0
 11
53.83809900000001
 21
-4.25661
 31
0.0
  0
LINE
  5
180
330
F5
100
AcDbEntity
  8
AM_4
100
AcDbLine
 10
53.24608500000001
 20
-3.245905
 30
0.0
 11
53.83809900000001
 21
-3.245905
 31
0.0
  0
LINE
  5
181
330
F5
100
AcDbEntity
  8
AM_4
100
AcDbLine
 10
53.24608500000001
 20
-4.4121
 30
0.0
 11
53.24608500000001
 21
-3.245905
 31
0.0
  0
LINE
  5
182
330
F5
100
AcDbEntity
  8
AM_4
100
AcDbLine
 10
53.02408
 20
-4.4121
 30
0.0
 11
53.24608500000001
 21
-4.4121
 31
0.0
  0
LINE
  5
183
330
F5
100
AcDbEntity
  8
AM_4
100
AcDbLine
 10
53.02408
 20
-1.8076
 30
0.0
 11
53.02408
 21
-2.15746
 31
0.0
  0
LINE
  5
184
330
F5
100
AcDbEntity
  8
AM_4
100
AcDbLine
 10
53.06108
 20
-1.613235000000004
 30
0.0
 11
53.02408
 21
-1.8076
 31
0.0
  0
LINE
  5
185
330
F5
100
AcDbEntity
  8
AM_4
100
AcDbLine
 10
53.135085
 20
-1.457745
 30
0.0
 11
53.06108
 21
-1.613235000000004
 31
0.0
  0
LINE
  5
186
330
F5
100
AcDbEntity
  8
AM_4
100
AcDbLine
 10
53.28308500000001
 20
-1.30225
 30
0.0
 11
53.135085
 21
-1.457745
 31
0.0
  0
LINE
  5
187
330
F5
100
AcDbEntity
  8
AM_4
100
AcDbLine
 10
53.43109
 20
-1.224505
 30
0.0
 11
53.28308500000001
 21
-1.30225
 31
0.0
  0
LINE
  5
188
330
F5
100
AcDbEntity
  8
AM_4
100
AcDbLine
 10
53.616094
 20
-1.18563
 30
0.0
 11
53.43109
 21
-1.224505
 31
0.0
  0
LINE
  5
189
330
F5
100
AcDbEntity
  8
AM_4
100
AcDbLine
 10
54.17110600000001
 20
-1.18563
 30
0.0
 11
53.616094
 21
-1.18563
 31
0.0
  0
LINE
  5
18A
330
F5
100
AcDbEntity
  8
AM_4
100
AcDbLine
 10
54.35611000000001
 20
-1.224505
 30
0.0
 11
54.17110600000001
 21
-1.18563
 31
0.0
  0
LINE
  5
18B
330
F5
100
AcDbEntity
  8
AM_4
100
AcDbLine
 10
54.50411500000001
 20
-1.30225
 30
0.0
 11
54.35611000000001
 21
-1.224505
 31
0.0
  0
LINE
  5
18C
330
F5
100
AcDbEntity
  8
AM_4
100
AcDbLine
 10
54.65211500000001
 20
-1.457745
 30
0.0
 11
54.50411500000001
 21
-1.30225
 31
0.0
  0
LINE
  5
18D
330
F5
100
AcDbEntity
  8
AM_4
100
AcDbLine
 10
54.72612000000001
 20
-1.613235
 30
0.0
 11
54.65211500000001
 21
-1.457745
 31
0.0
  0
LINE
  5
18E
330
F5
100
AcDbEntity
  8
AM_4
100
AcDbLine
 10
54.76312000000001
 20
-1.8076
 30
0.0
 11
54.72612000000001
 21
-1.613235
 31
0.0
  0
LINE
  5
18F
330
F5
100
AcDbEntity
  8
AM_4
100
AcDbLine
 10
54.76312000000001
 20
-2.15746
 30
0.0
 11
54.76312000000001
 21
-1.8076
 31
0.0
  0
LINE
  5
190
330
F5
100
AcDbEntity
  8
AM_4
100
AcDbLine
 10
54.50411500000001
 20
-2.66281
 30
0.0
 11
54.65211500000001
 21
-2.50732
 31
0.0
  0
LINE
  5
191
330
F5
100
AcDbEntity
  8
AM_4
100
AcDbLine
 10
54.3191095
 20
-2.701685
 30
0.0
 11
54.50411500000001
 21
-2.66281
 31
0.0
  0
LINE
  5
192
330
F5
100
AcDbEntity
  8
AM_4
100
AcDbLine
 10
54.3191095
 20
-2.468445
 30
0.0
 11
54.3191095
 21
-2.701685
 31
0.0
  0
LINE
  5
193
330
F5
100
AcDbEntity
  8
AM_4
100
AcDbLine
 10
54.43011000000001
 20
-2.42957
 30
0.0
 11
54.3191095
 21
-2.468445
 31
0.0
  0
LINE
  5
194
330
F5
100
AcDbEntity
  8
AM_4
100
AcDbLine
 10
54.541115
 20
-1.8076
 30
0.0
 11
54.541115
 21
-2.15746
 31
0.0
  0
LINE
  5
195
330
F5
100
AcDbEntity
  8
AM_4
100
AcDbLine
 10
54.50411500000001
 20
-1.65211
 30
0.0
 11
54.541115
 21
-1.8076
 31
0.0
  0
LINE
  5
196
330
F5
100
AcDbEntity
  8
AM_4
100
AcDbLine
 10
54.43011000000001
 20
-1.53549
 30
0.0
 11
54.50411500000001
 21
-1.65211
 31
0.0
  0
LINE
  5
197
330
F5
100
AcDbEntity
  8
AM_4
100
AcDbLine
 10
53.28308500000001
 20
-1.65211
 30
0.0
 11
53.35709000000001
 21
-1.53549
 31
0.0
  0
LINE
  5
198
330
F5
100
AcDbEntity
  8
AM_4
100
AcDbLine
 10
53.46809050000001
 20
-2.468445
 30
0.0
 11
53.35709000000001
 21
-2.42957
 31
0.0
  0
LINE
  5
199
330
F5
100
AcDbEntity
  8
AM_4
100
AcDbLine
 10
53.29088000000001
 20
-0.2526755000000001
 30
0.0
 11
53.32788
 21
-0.4470410000000001
 31
0.0
  0
LINE
  5
19A
330
F5
100
AcDbEntity
  8
AM_4
100
AcDbLine
 10
53.29088000000001
 20
0.68028
 30
0.0
 11
53.29088000000001
 21
-0.2526755000000001
 31
0.0
  0
LINE
  5
19B
330
F5
100
AcDbEntity
  8
AM_4
100
AcDbLine
 10
55.02992
 20
0.6802799999999984
 30
0.0
 11
53.29088000000001
 21
0.68028
 31
0.0
  0
LINE
  5
19C
330
F5
100
AcDbEntity
  8
AM_4
100
AcDbLine
 10
55.02992
 20
-0.2526754999999999
 30
0.0
 11
55.02992
 21
0.6802799999999984
 31
0.0
  0
LINE
  5
19D
330
F5
100
AcDbEntity
  8
AM_4
100
AcDbLine
 10
54.99292000000001
 20
-0.447041
 30
0.0
 11
55.02992
 21
-0.2526754999999999
 31
0.0
  0
LINE
  5
19E
330
F5
100
AcDbEntity
  8
AM_4
100
AcDbLine
 10
54.91891500000001
 20
-0.602535
 30
0.0
 11
54.99292000000001
 21
-0.447041
 31
0.0
  0
LINE
  5
19F
330
F5
100
AcDbEntity
  8
AM_4
100
AcDbLine
 10
54.770915
 20
-0.758025
 30
0.0
 11
54.91891500000001
 21
-0.602535
 31
0.0
  0
LINE
  5
1A0
330
F5
100
AcDbEntity
  8
AM_4
100
AcDbLine
 10
54.62291
 20
-0.835775
 30
0.0
 11
54.770915
 21
-0.758025
 31
0.0
  0
LINE
  5
1A1
330
F5
100
AcDbEntity
  8
AM_4
100
AcDbLine
 10
54.43790600000001
 20
-0.8746450000000001
 30
0.0
 11
54.62291
 21
-0.835775
 31
0.0
  0
LINE
  5
1A2
330
F5
100
AcDbEntity
  8
AM_4
100
AcDbLine
 10
53.882894
 20
-0.8746450000000001
 30
0.0
 11
54.43790600000001
 21
-0.8746450000000001
 31
0.0
  0
LINE
  5
1A3
330
F5
100
AcDbEntity
  8
AM_4
100
AcDbLine
 10
53.69789000000001
 20
-0.835775
 30
0.0
 11
53.882894
 21
-0.8746450000000001
 31
0.0
  0
LINE
  5
1A4
330
F5
100
AcDbEntity
  8
AM_4
100
AcDbLine
 10
53.549885
 20
-0.758025
 30
0.0
 11
53.69789000000001
 21
-0.835775
 31
0.0
  0
LINE
  5
1A5
330
F5
100
AcDbEntity
  8
AM_4
100
AcDbLine
 10
53.401885
 20
-0.602535
 30
0.0
 11
53.549885
 21
-0.758025
 31
0.0
  0
LINE
  5
1A6
330
F5
100
AcDbEntity
  8
AM_4
100
AcDbLine
 10
53.32788
 20
-0.4470410000000001
 30
0.0
 11
53.401885
 21
-0.602535
 31
0.0
  0
LINE
  5
1A7
330
F5
100
AcDbEntity
  8
AM_4
100
AcDbLine
 10
53.02408
 20
1.92422
 30
0.0
 11
53.02408
 21
1.613235
 31
0.0
  0
LINE
  5
1A8
330
F5
100
AcDbEntity
  8
AM_4
100
AcDbLine
 10
53.06108
 20
2.118585
 30
0.0
 11
53.02408
 21
1.92422
 31
0.0
  0
LINE
  5
1A9
330
F5
100
AcDbEntity
  8
AM_4
100
AcDbLine
 10
53.13508500000001
 20
2.274079999999998
 30
0.0
 11
53.06108
 21
2.118585
 31
0.0
  0
LINE
  5
1AA
330
F5
100
AcDbEntity
  8
AM_4
100
AcDbLine
 10
53.28308500000001
 20
2.42957
 30
0.0
 11
53.13508500000001
 21
2.274079999999998
 31
0.0
  0
LINE
  5
1AB
330
F5
100
AcDbEntity
  8
AM_4
100
AcDbLine
 10
53.43109
 20
2.50732
 30
0.0
 11
53.28308500000001
 21
2.42957
 31
0.0
  0
LINE
  5
1AC
330
F5
100
AcDbEntity
  8
AM_4
100
AcDbLine
 10
54.17110600000001
 20
2.54619
 30
0.0
 11
53.616094
 21
2.54619
 31
0.0
  0
LINE
  5
1AD
330
F5
100
AcDbEntity
  8
AM_4
100
AcDbLine
 10
54.35611000000001
 20
2.50732
 30
0.0
 11
54.17110600000001
 21
2.54619
 31
0.0
  0
LINE
  5
1AE
330
F5
100
AcDbEntity
  8
AM_4
100
AcDbLine
 10
54.50411500000001
 20
2.42957
 30
0.0
 11
54.35611000000001
 21
2.50732
 31
0.0
  0
LINE
  5
1AF
330
F5
100
AcDbEntity
  8
AM_4
100
AcDbLine
 10
54.65211500000001
 20
2.27408
 30
0.0
 11
54.50411500000001
 21
2.42957
 31
0.0
  0
LINE
  5
1B0
330
F5
100
AcDbEntity
  8
AM_4
100
AcDbLine
 10
54.72612000000001
 20
2.118585
 30
0.0
 11
54.65211500000001
 21
2.27408
 31
0.0
  0
LINE
  5
1B1
330
F5
100
AcDbEntity
  8
AM_4
100
AcDbLine
 10
54.35611000000001
 20
1.03014
 30
0.0
 11
54.50411500000001
 21
1.107885
 31
0.0
  0
LINE
  5
1B2
330
F5
100
AcDbEntity
  8
AM_4
100
AcDbLine
 10
53.02408
 20
4.4121
 30
0.0
 11
53.02408
 21
3.479145
 31
0.0
  0
LINE
  5
1B3
330
F5
100
AcDbEntity
  8
AM_4
100
AcDbLine
 10
54.76312000000001
 20
4.4121
 30
0.0
 11
53.02408
 21
4.4121
 31
0.0
  0
LINE
  5
1B4
330
F5
100
AcDbEntity
  8
AM_4
100
AcDbLine
 10
54.50411500000001
 20
2.973795
 30
0.0
 11
54.65211500000001
 21
3.12929
 31
0.0
  0
LINE
  5
1B5
330
F5
100
AcDbEntity
  8
AM_4
100
AcDbLine
 10
54.35611000000001
 20
2.89605
 30
0.0
 11
54.50411500000001
 21
2.973795
 31
0.0
  0
LINE
  5
1B6
330
F5
100
AcDbEntity
  8
AM_4
100
AcDbLine
 10
54.17110600000001
 20
2.857175
 30
0.0
 11
54.35611000000001
 21
2.89605
 31
0.0
  0
LINE
  5
1B7
330
F5
100
AcDbEntity
  8
AM_4
100
AcDbLine
 10
53.616094
 20
2.857175
 30
0.0
 11
54.17110600000001
 21
2.857175
 31
0.0
  0
LINE
  5
1B8
330
F5
100
AcDbEntity
  8
AM_4
100
AcDbLine
 10
53.43109
 20
2.89605
 30
0.0
 11
53.616094
 21
2.857175
 31
0.0
  0
LINE
  5
1B9
330
F5
100
AcDbEntity
  8
AM_4
100
AcDbLine
 10
53.28308500000001
 20
2.973795
 30
0.0
 11
53.43109
 21
2.89605
 31
0.0
  0
LINE
  5
1BA
330
F5
100
AcDbEntity
  8
AM_4
100
AcDbLine
 10
53.135085
 20
3.12929
 30
0.0
 11
53.28308500000001
 21
2.973795
 31
0.0
  0
LINE
  5
1BB
330
F5
100
AcDbEntity
  8
AM_4
100
AcDbLine
 10
53.06108
 20
3.28478
 30
0.0
 11
53.135085
 21
3.12929
 31
0.0
  0
LINE
  5
1BC
330
F5
100
AcDbEntity
  8
AM_4
100
AcDbLine
 10
53.02408
 20
3.479145
 30
0.0
 11
53.06108
 21
3.28478
 31
0.0
  0
LINE
  5
1BD
330
F5
100
AcDbEntity
  8
AM_4
100
AcDbLine
 10
49.6165496167358
 20
37.66001677121781
 30
0.0
 11
55.70009182970698
 21
43.74355898418899
 31
0.0
  0
ARC
  5
1BE
330
F5
100
AcDbEntity
  8
AM_4
100
AcDbCircle
 10
54.28587826733392
 20
45.15777254656208
 30
0.0
 40
1.999999999999971
100
AcDbArc
 50
314.9999999999993
 51
45.00000000000085
  0
LINE
  5
1BF
330
F5
100
AcDbEntity
  8
AM_4
100
AcDbLine
 10
55.70009182970698
 20
46.57198610893518
 30
0.0
 11
43.74355898418897
 21
58.52851895445316
 31
0.0
  0
ARC
  5
1C0
330
F5
100
AcDbEntity
  8
AM_4
100
AcDbCircle
 10
42.32934542181589
 20
57.11430539208006
 30
0.0
 40
1.999999999999996
100
AcDbArc
 50
45.00000000000029
 51
135.0000000000002
  0
LINE
  5
1C1
330
F5
100
AcDbEntity
  8
AM_4
100
AcDbLine
 10
40.91513185944279
 20
58.52851895445315
 30
0.0
 11
34.34978427795615
 21
51.96317137296652
 31
0.0
  0
LINE
  5
1C2
330
F5
100
AcDbEntity
  8
AM_4
100
AcDbLine
 10
54.541115
 20
4.178865
 30
0.0
 11
53.24608500000001
 21
4.178865
 31
0.0
  0
LINE
  5
1C3
330
F5
100
AcDbEntity
  8
AM_4
100
AcDbLine
 10
53.24608500000001
 20
4.178865
 30
0.0
 11
53.24608500000001
 21
3.479144999999996
 31
0.0
  0
LINE
  5
1C4
330
F5
100
AcDbEntity
  8
AM_4
100
AcDbLine
 10
53.24608500000001
 20
3.479144999999996
 30
0.0
 11
53.28308500000001
 21
3.323655
 31
0.0
  0
LINE
  5
1C5
330
F5
100
AcDbEntity
  8
AM_4
100
AcDbLine
 10
53.28308500000001
 20
3.323655
 30
0.0
 11
53.35709000000001
 21
3.207035
 31
0.0
  0
LINE
  5
1C6
330
F5
100
AcDbEntity
  8
AM_4
100
AcDbLine
 10
53.35709000000001
 20
3.207035
 30
0.0
 11
53.46809050000001
 21
3.12929
 31
0.0
  0
LINE
  5
1C7
330
F5
100
AcDbEntity
  8
AM_4
100
AcDbLine
 10
53.46809050000001
 20
3.12929
 30
0.0
 11
53.616094
 21
3.090415
 31
0.0
  0
LINE
  5
1C8
330
F5
100
AcDbEntity
  8
AM_4
100
AcDbLine
 10
53.616094
 20
3.090415
 30
0.0
 11
54.17110600000001
 21
3.090415
 31
0.0
  0
LINE
  5
1C9
330
F5
100
AcDbEntity
  8
AM_4
100
AcDbLine
 10
54.17110600000001
 20
3.090415
 30
0.0
 11
54.3191095
 21
3.12929
 31
0.0
  0
LINE
  5
1CA
330
F5
100
AcDbEntity
  8
AM_4
100
AcDbLine
 10
54.3191095
 20
3.12929
 30
0.0
 11
54.43011000000001
 21
3.207035
 31
0.0
  0
LINE
  5
1CB
330
F5
100
AcDbEntity
  8
AM_4
100
AcDbLine
 10
54.43011000000001
 20
3.207035
 30
0.0
 11
54.50411500000001
 21
3.323655
 31
0.0
  0
LINE
  5
1CC
330
F5
100
AcDbEntity
  8
AM_4
100
AcDbLine
 10
54.50411500000001
 20
3.323655
 30
0.0
 11
54.541115
 21
3.479145
 31
0.0
  0
LINE
  5
1CD
330
F5
100
AcDbEntity
  8
AM_4
100
AcDbLine
 10
54.541115
 20
3.479145
 30
0.0
 11
54.541115
 21
4.178865
 31
0.0
  0
LINE
  5
1CE
330
F5
100
AcDbEntity
  8
AM_4
100
AcDbLine
 10
53.28308500000001
 20
2.079715
 30
0.0
 11
53.24608500000001
 21
1.92422
 31
0.0
  0
LINE
  5
1CF
330
F5
100
AcDbEntity
  8
AM_4
100
AcDbLine
 10
53.24608500000001
 20
1.92422
 30
0.0
 11
53.24608500000001
 21
1.613234999999998
 31
0.0
  0
LINE
  5
1D0
330
F5
100
AcDbEntity
  8
AM_4
100
AcDbLine
 10
53.24608500000001
 20
1.613234999999998
 30
0.0
 11
53.28308500000001
 21
1.457745
 31
0.0
  0
LINE
  5
1D1
330
F5
100
AcDbEntity
  8
AM_4
100
AcDbLine
 10
53.28308500000001
 20
1.457745
 30
0.0
 11
53.35709000000001
 21
1.341125
 31
0.0
  0
LINE
  5
1D2
330
F5
100
AcDbEntity
  8
AM_4
100
AcDbLine
 10
53.35709000000001
 20
1.341125
 30
0.0
 11
53.46809050000001
 21
1.263375
 31
0.0
  0
LINE
  5
1D3
330
F5
100
AcDbEntity
  8
AM_4
100
AcDbLine
 10
53.46809050000001
 20
1.263375
 30
0.0
 11
53.616094
 21
1.224505
 31
0.0
  0
LINE
  5
1D4
330
F5
100
AcDbEntity
  8
AM_4
100
AcDbLine
 10
53.616094
 20
1.224505
 30
0.0
 11
54.17110600000001
 21
1.224505
 31
0.0
  0
LINE
  5
1D5
330
F5
100
AcDbEntity
  8
AM_4
100
AcDbLine
 10
54.17110600000001
 20
1.224505
 30
0.0
 11
54.3191095
 21
1.263375
 31
0.0
  0
LINE
  5
1D6
330
F5
100
AcDbEntity
  8
AM_4
100
AcDbLine
 10
54.3191095
 20
1.263375
 30
0.0
 11
54.43011000000001
 21
1.341125
 31
0.0
  0
LINE
  5
1D7
330
F5
100
AcDbEntity
  8
AM_4
100
AcDbLine
 10
54.43011000000001
 20
1.341125
 30
0.0
 11
54.50411500000001
 21
1.457745
 31
0.0
  0
LINE
  5
1D8
330
F5
100
AcDbEntity
  8
AM_4
100
AcDbLine
 10
54.50411500000001
 20
1.457745
 30
0.0
 11
54.541115
 21
1.613235
 31
0.0
  0
LINE
  5
1D9
330
F5
100
AcDbEntity
  8
AM_4
100
AcDbLine
 10
54.541115
 20
1.613235
 30
0.0
 11
54.541115
 21
1.92422
 31
0.0
  0
LINE
  5
1DA
330
F5
100
AcDbEntity
  8
AM_4
100
AcDbLine
 10
54.541115
 20
1.92422
 30
0.0
 11
54.50411500000001
 21
2.079715
 31
0.0
  0
LINE
  5
1DB
330
F5
100
AcDbEntity
  8
AM_4
100
AcDbLine
 10
54.50411500000001
 20
2.079715
 30
0.0
 11
54.43011000000001
 21
2.19633
 31
0.0
  0
LINE
  5
1DC
330
F5
100
AcDbEntity
  8
AM_4
100
AcDbLine
 10
54.43011000000001
 20
2.19633
 30
0.0
 11
54.3191095
 21
2.27408
 31
0.0
  0
LINE
  5
1DD
330
F5
100
AcDbEntity
  8
AM_4
100
AcDbLine
 10
54.3191095
 20
2.27408
 30
0.0
 11
54.17110600000001
 21
2.31295
 31
0.0
  0
LINE
  5
1DE
330
F5
100
AcDbEntity
  8
AM_4
100
AcDbLine
 10
54.17110600000001
 20
2.31295
 30
0.0
 11
53.616094
 21
2.31295
 31
0.0
  0
LINE
  5
1DF
330
F5
100
AcDbEntity
  8
AM_4
100
AcDbLine
 10
53.616094
 20
2.31295
 30
0.0
 11
53.46809050000001
 21
2.27408
 31
0.0
  0
LINE
  5
1E0
330
F5
100
AcDbEntity
  8
AM_4
100
AcDbLine
 10
53.46809050000001
 20
2.27408
 30
0.0
 11
53.35709000000001
 21
2.19633
 31
0.0
  0
LINE
  5
1E1
330
F5
100
AcDbEntity
  8
AM_4
100
AcDbLine
 10
53.35709000000001
 20
2.19633
 30
0.0
 11
53.28308500000001
 21
2.079715
 31
0.0
  0
LINE
  5
1E2
330
F5
100
AcDbEntity
  8
AM_4
100
AcDbLine
 10
54.80791500000001
 20
0.4470410000000002
 30
0.0
 11
53.512885
 21
0.447041
 31
0.0
  0
LINE
  5
1E3
330
F5
100
AcDbEntity
  8
AM_4
100
AcDbLine
 10
53.512885
 20
0.447041
 30
0.0
 11
53.512885
 21
-0.2526755000000006
 31
0.0
  0
LINE
  5
1E4
330
F5
100
AcDbEntity
  8
AM_4
100
AcDbLine
 10
53.512885
 20
-0.2526755000000006
 30
0.0
 11
53.549885
 21
-0.408168
 31
0.0
  0
LINE
  5
1E5
330
F5
100
AcDbEntity
  8
AM_4
100
AcDbLine
 10
53.549885
 20
-0.408168
 30
0.0
 11
53.62389000000001
 21
-0.524785
 31
0.0
  0
LINE
  5
1E6
330
F5
100
AcDbEntity
  8
AM_4
100
AcDbLine
 10
53.62389000000001
 20
-0.524785
 30
0.0
 11
53.73489050000001
 21
-0.602535
 31
0.0
  0
LINE
  5
1E7
330
F5
100
AcDbEntity
  8
AM_4
100
AcDbLine
 10
53.73489050000001
 20
-0.602535
 30
0.0
 11
53.882894
 21
-0.641405
 31
0.0
  0
LINE
  5
1E8
330
F5
100
AcDbEntity
  8
AM_4
100
AcDbLine
 10
53.882894
 20
-0.641405
 30
0.0
 11
54.43790600000001
 21
-0.641405
 31
0.0
  0
LINE
  5
1E9
330
F5
100
AcDbEntity
  8
AM_4
100
AcDbLine
 10
54.43790600000001
 20
-0.641405
 30
0.0
 11
54.5859095
 21
-0.602535
 31
0.0
  0
LINE
  5
1EA
330
F5
100
AcDbEntity
  8
AM_4
100
AcDbLine
 10
54.5859095
 20
-0.602535
 30
0.0
 11
54.69691
 21
-0.524785
 31
0.0
  0
LINE
  5
1EB
330
F5
100
AcDbEntity
  8
AM_4
100
AcDbLine
 10
54.69691
 20
-0.524785
 30
0.0
 11
54.770915
 21
-0.4081679999999999
 31
0.0
  0
LINE
  5
1EC
330
F5
100
AcDbEntity
  8
AM_4
100
AcDbLine
 10
54.770915
 20
-0.4081679999999999
 30
0.0
 11
54.80791500000001
 21
-0.2526754999999999
 31
0.0
  0
LINE
  5
1ED
330
F5
100
AcDbEntity
  8
AM_4
100
AcDbLine
 10
54.80791500000001
 20
-0.2526754999999999
 30
0.0
 11
54.80791500000001
 21
0.4470410000000002
 31
0.0
  0
ARC
  5
1EE
330
F5
100
AcDbEntity
  8
AM_4
100
AcDbCircle
 10
-0.0000000000000071
 20
0.0000000000000084
 30
0.0
 40
63.27508676248852
100
AcDbArc
 50
56.35174867679979
 51
37.32141944753305
  0
ARC
  5
1EF
330
F5
100
AcDbEntity
  8
AM_4
100
AcDbCircle
 10
0.0000000000000391
 20
-0.0000000000000333
 30
0.0
 40
62.29027900947637
100
AcDbArc
 50
56.53366358618474
 51
37.19927158687238
  0
ENDBLK
  5
F8
330
F5
100
AcDbEntity
  8
0
100
AcDbBlockEnd
  0
ENDSEC
  0
SECTION
  2
ENTITIES
  0
INSERT
  5
6F
330
1F
100
AcDbEntity
  8
0
100
AcDbBlockReference
  2
1_129329_0
 10
0.0
 20
0.0
 30
0.0
  0
POINT
  5
1F1
330
1F
100
AcDbEntity
  8
ConnectionPoints
100
AcDbPoint
 10
0.0000000000000022
 20
0.0
 30
23.9
  0
POINT
  5
1F2
330
1F
100
AcDbEntity
  8
ConnectionPoints
100
AcDbPoint
 10
0.0000000000000022
 20
0.0
 30
6.0
  0
POINT
  5
1F3
330
1F
100
AcDbEntity
  8
ConnectionPoints
100
AcDbPoint
 10
0.0
 20
0.0
 30
6.0
  0
ENDSEC
  0
SECTION
  2
OBJECTS
  0
DICTIONARY
  5
C
330
0
100
AcDbDictionary
281
     1
  3
ACAD_DETAILVIEWSTYLE
350
1FB
  3
ACAD_GROUP
350
D
  3
ACAD_LAYOUT
350
1A
  3
ACAD_MATERIAL
350
43
  3
ACAD_MLEADERSTYLE
350
6B
  3
ACAD_MLINESTYLE
350
17
  3
ACAD_PLOTSETTINGS
350
19
  3
ACAD_PLOTSTYLENAME
350
E
  3
ACAD_SCALELIST
350
47
  3
ACAD_SECTIONVIEWSTYLE
350
1FC
  3
ACAD_TABLESTYLE
350
69
  3
ACAD_VISUALSTYLE
350
2A
  3
ACDB_RECOMPOSE_DATA
350
1F8
  3
AcDbVariableDictionary
350
1F4
  0
SUN
  5
6D
330
29
100
AcDbSun
 90
        1
290
     0
 63
     7
421
 16777215
 40
1.0
291
     1
 91
  2455826
 92
 54000000
292
     0
 70
     2
 71
   256
280
     1
  0
DICTIONARY
  5
1FB
102
{ACAD_REACTORS
330
C
102
}
330
C
100
AcDbDictionary
281
     1
  0
DICTIONARY
  5
D
102
{ACAD_REACTORS
330
C
102
}
330
C
100
AcDbDictionary
281
     1
  0
DICTIONARY
  5
1A
102
{ACAD_REACTORS
330
C
102
}
330
C
100
AcDbDictionary
281
     1
  3
Layout1
350
1E
  3
Layout2
350
26
  3
Model
350
22
  0
DICTIONARY
  5
43
102
{ACAD_REACTORS
330
C
102
}
330
C
100
AcDbDictionary
281
     1
  3
ByBlock
350
45
  3
ByLayer
350
44
  3
Global
350
46
  0
DICTIONARY
  5
6B
102
{ACAD_REACTORS
330
C
102
}
330
C
100
AcDbDictionary
281
     1
  3
Standard
350
6C
  0
DICTIONARY
  5
17
102
{ACAD_REACTORS
330
C
102
}
330
C
100
AcDbDictionary
281
     1
  3
Standard
350
18
  0
DICTIONARY
  5
19
102
{ACAD_REACTORS
330
C
102
}
330
C
100
AcDbDictionary
281
     1
  0
ACDBDICTIONARYWDFLT
  5
E
102
{ACAD_REACTORS
330
C
102
}
330
C
100
AcDbDictionary
281
     1
  3
Normal
350
F
100
AcDbDictionaryWithDefault
340
F
  0
DICTIONARY
  5
47
102
{ACAD_REACTORS
330
C
102
}
330
C
100
AcDbDictionary
281
     1
  3
A0
350
48
  3
A1
350
49
  3
A2
350
4A
  3
A3
350
4B
  3
A4
350
4C
  3
A5
350
4D
  3
A6
350
4E
  3
A7
350
4F
  3
A8
350
50
  3
A9
350
51
  3
B0
350
52
  3
B1
350
53
  3
B2
350
54
  3
B3
350
55
  3
B4
350
56
  3
B5
350
57
  3
B6
350
58
  3
B7
350
59
  3
B8
350
5A
  3
B9
350
5B
  3
C0
350
5C
  3
C1
350
5D
  3
C2
350
5E
  3
C3
350
5F
  3
C4
350
60
  3
C5
350
61
  3
C6
350
62
  3
C7
350
63
  3
C8
350
64
  3
C9
350
65
  3
D0
350
66
  3
D1
350
67
  3
D2
350
68
  0
DICTIONARY
  5
1FC
102
{ACAD_REACTORS
330
C
102
}
330
C
100
AcDbDictionary
281
     1
  0
DICTIONARY
  5
69
102
{ACAD_REACTORS
330
C
102
}
330
C
100
AcDbDictionary
281
     1
  3
Standard
350
6A
  0
DICTIONARY
  5
2A
102
{ACAD_REACTORS
330
C
102
}
330
C
100
AcDbDictionary
281
     1
  3
2dWireframe
350
2F
  3
Basic
350
32
  3
Brighten
350
36
  3
ColorChange
350
3A
  3
Conceptual
350
34
  3
Dim
350
35
  3
EdgeColorOff
350
3D
  3
Facepattern
350
39
  3
Flat
350
2B
  3
FlatWithEdges
350
2C
  3
Gouraud
350
2D
  3
GouraudWithEdges
350
2E
  3
Hidden
350
31
  3
JitterOff
350
3B
  3
Linepattern
350
38
  3
OverhangOff
350
3C
  3
Realistic
350
33
  3
Shaded
350
42
  3
Shaded with edges
350
41
  3
Shades of Gray
350
3E
  3
Sketchy
350
3F
  3
Thicken
350
37
  3
Wireframe
350
30
  3
X-Ray
350
40
  0
XRECORD
  5
1F8
102
{ACAD_REACTORS
330
C
102
}
330
C
100
AcDbXrecord
280
     1
 90
        1
330
6A
  0
DICTIONARY
  5
1F4
102
{ACAD_REACTORS
330
C
102
}
330
C
100
AcDbDictionary
281
     1
  3
CANNOSCALE
350
1F5
  3
CMLEADERSTYLE
350
1FA
  3
CTABLESTYLE
350
1F9
  0
LAYOUT
  5
1E
102
{ACAD_REACTORS
330
1A
102
}
330
1A
100
AcDbPlotSettings
  1

  2
none_device
  4

  6

 40
0.0
 41
0.0
 42
0.0
 43
0.0
 44
0.0
 45
0.0
 46
0.0
 47
0.0
 48
0.0
 49
0.0
140
0.0
141
0.0
142
1.0
143
1.0
 70
   688
 72
     1
 73
     0
 74
     5
  7

 75
    16
 76
     0
 77
     2
 78
   300
147
1.0
148
0.0
149
0.0
100
AcDbLayout
  1
Layout1
 70
     1
 71
     1
 10
0.0
 20
0.0
 11
420.0
 21
297.0
 12
0.0
 22
0.0
 32
0.0
 14
1.000000000000000E+20
 24
1.000000000000000E+20
 34
1.000000000000000E+20
 15
-1.000000000000000E+20
 25
-1.000000000000000E+20
 35
-1.000000000000000E+20
146
0.0
 13
0.0
 23
0.0
 33
0.0
 16
1.0
 26
0.0
 36
0.0
 17
0.0
 27
1.0
 37
0.0
 76
     0
330
1B
  0
LAYOUT
  5
26
102
{ACAD_REACTORS
330
1A
102
}
330
1A
100
AcDbPlotSettings
  1

  2
none_device
  4

  6

 40
0.0
 41
0.0
 42
0.0
 43
0.0
 44
0.0
 45
0.0
 46
0.0
 47
0.0
 48
0.0
 49
0.0
140
0.0
141
0.0
142
1.0
143
1.0
 70
   688
 72
     1
 73
     0
 74
     5
  7

 75
    16
 76
     0
 77
     2
 78
   300
147
1.0
148
0.0
149
0.0
100
AcDbLayout
  1
Layout2
 70
     1
 71
     2
 10
0.0
 20
0.0
 11
0.0
 21
0.0
 12
0.0
 22
0.0
 32
0.0
 14
0.0
 24
0.0
 34
0.0
 15
0.0
 25
0.0
 35
0.0
146
0.0
 13
0.0
 23
0.0
 33
0.0
 16
1.0
 26
0.0
 36
0.0
 17
0.0
 27
1.0
 37
0.0
 76
     0
330
23
  0
LAYOUT
  5
22
102
{ACAD_REACTORS
330
1A
102
}
330
1A
100
AcDbPlotSettings
  1

  2
none_device
  4
Letter_(8.50_x_11.00_Inches)
  6

 40
6.35
 41
6.35
 42
6.35000508
 43
6.35000508
 44
215.9
 45
279.4
 46
0.0
 47
0.0
 48
0.0
 49
0.0
140
0.0
141
0.0
142
1.0
143
1.0
 70
  1712
 72
     1
 73
     0
 74
     0
  7

 75
     0
 76
     0
 77
     2
 78
   300
147
1.0
148
0.0
149
0.0
100
AcDbLayout
  1
Model
 70
     1
 71
     0
 10
0.0
 20
0.0
 11
420.0
 21
297.0
 12
0.0
 22
0.0
 32
0.0
 14
1.000000000000000E+20
 24
1.000000000000000E+20
 34
1.000000000000000E+20
 15
-1.000000000000000E+20
 25
-1.000000000000000E+20
 35
-1.000000000000000E+20
146
0.0
 13
0.0
 23
0.0
 33
0.0
 16
1.0
 26
0.0
 36
0.0
 17
0.0
 27
1.0
 37
0.0
 76
     0
330
1F
331
29
  0
MATERIAL
  5
45
102
{ACAD_REACTORS
330
43
102
}
330
43
100
AcDbMaterial
  1
ByBlock
 72
     1
 94
      127
  0
MATERIAL
  5
44
102
{ACAD_REACTORS
330
43
102
}
330
43
100
AcDbMaterial
  1
ByLayer
 72
     1
 94
      127
  0
MATERIAL
  5
46
102
{ACAD_REACTORS
330
43
102
}
330
43
100
AcDbMaterial
  1
Global
 72
     1
 94
      127
  0
MLEADERSTYLE
  5
6C
102
{ACAD_REACTORS
330
6B
102
}
330
6B
100
AcDbMLeaderStyle
179
     2
170
     2
171
     1
172
     0
 90
        2
 40
0.0
 41
0.0
173
     1
 91
-1056964608
340
14
 92
       -2
290
     1
 42
2.0
291
     1
 43
8.0
  3
Standard
341
0
 44
4.0
300

342
11
174
     1
178
     6
175
     1
176
     0
 93
-1056964608
 45
4.0
292
     0
297
     0
 46
4.0
343
0
 94
-1056964608
 47
1.0
 49
1.0
140
1.0
293
     1
141
0.0
294
     1
177
     0
142
1.0
295
     0
296
     0
143
3.75
271
     0
272
     9
273
     9
298
     0
  0
MLINESTYLE
  5
18
102
{ACAD_REACTORS
330
17
102
}
330
17
100
AcDbMlineStyle
  2
Standard
 70
     0
  3

 62
   256
 51
90.0
 52
90.0
 71
     2
 49
0.5
 62
   256
  6
BYLAYER
 49
-0.5
 62
   256
  6
BYLAYER
  0
ACDBPLACEHOLDER
  5
F
102
{ACAD_REACTORS
330
E
102
}
330
E
  0
SCALE
  5
48
102
{ACAD_REACTORS
330
47
102
}
330
47
100
AcDbScale
 70
     0
300
1:1
140
1.0
141
1.0
290
     1
  0
SCALE
  5
49
102
{ACAD_REACTORS
330
47
102
}
330
47
100
AcDbScale
 70
     0
300
1:2
140
1.0
141
2.0
290
     0
  0
SCALE
  5
4A
102
{ACAD_REACTORS
330
47
102
}
330
47
100
AcDbScale
 70
     0
300
1:4
140
1.0
141
4.0
290
     0
  0
SCALE
  5
4B
102
{ACAD_REACTORS
330
47
102
}
330
47
100
AcDbScale
 70
     0
300
1:5
140
1.0
141
5.0
290
     0
  0
SCALE
  5
4C
102
{ACAD_REACTORS
330
47
102
}
330
47
100
AcDbScale
 70
     0
300
1:8
140
1.0
141
8.0
290
     0
  0
SCALE
  5
4D
102
{ACAD_REACTORS
330
47
102
}
330
47
100
AcDbScale
 70
     0
300
1:10
140
1.0
141
10.0
290
     0
  0
SCALE
  5
4E
102
{ACAD_REACTORS
330
47
102
}
330
47
100
AcDbScale
 70
     0
300
1:16
140
1.0
141
16.0
290
     0
  0
SCALE
  5
4F
102
{ACAD_REACTORS
330
47
102
}
330
47
100
AcDbScale
 70
     0
300
1:20
140
1.0
141
20.0
290
     0
  0
SCALE
  5
50
102
{ACAD_REACTORS
330
47
102
}
330
47
100
AcDbScale
 70
     0
300
1:30
140
1.0
141
30.0
290
     0
  0
SCALE
  5
51
102
{ACAD_REACTORS
330
47
102
}
330
47
100
AcDbScale
 70
     0
300
1:40
140
1.0
141
40.0
290
     0
  0
SCALE
  5
52
102
{ACAD_REACTORS
330
47
102
}
330
47
100
AcDbScale
 70
     0
300
1:50
140
1.0
141
50.0
290
     0
  0
SCALE
  5
53
102
{ACAD_REACTORS
330
47
102
}
330
47
100
AcDbScale
 70
     0
300
1:100
140
1.0
141
100.0
290
     0
  0
SCALE
  5
54
102
{ACAD_REACTORS
330
47
102
}
330
47
100
AcDbScale
 70
     0
300
2:1
140
2.0
141
1.0
290
     0
  0
SCALE
  5
55
102
{ACAD_REACTORS
330
47
102
}
330
47
100
AcDbScale
 70
     0
300
4:1
140
4.0
141
1.0
290
     0
  0
SCALE
  5
56
102
{ACAD_REACTORS
330
47
102
}
330
47
100
AcDbScale
 70
     0
300
8:1
140
8.0
141
1.0
290
     0
  0
SCALE
  5
57
102
{ACAD_REACTORS
330
47
102
}
330
47
100
AcDbScale
 70
     0
300
10:1
140
10.0
141
1.0
290
     0
  0
SCALE
  5
58
102
{ACAD_REACTORS
330
47
102
}
330
47
100
AcDbScale
 70
     0
300
100:1
140
100.0
141
1.0
290
     0
  0
SCALE
  5
59
102
{ACAD_REACTORS
330
47
102
}
330
47
100
AcDbScale
 70
     0
300
1/128" = 1'-0"
140
0.0078125
141
12.0
290
     0
  0
SCALE
  5
5A
102
{ACAD_REACTORS
330
47
102
}
330
47
100
AcDbScale
 70
     0
300
1/64" = 1'-0"
140
0.015625
141
12.0
290
     0
  0
SCALE
  5
5B
102
{ACAD_REACTORS
330
47
102
}
330
47
100
AcDbScale
 70
     0
300
1/32" = 1'-0"
140
0.03125
141
12.0
290
     0
  0
SCALE
  5
5C
102
{ACAD_REACTORS
330
47
102
}
330
47
100
AcDbScale
 70
     0
300
1/16" = 1'-0"
140
0.0625
141
12.0
290
     0
  0
SCALE
  5
5D
102
{ACAD_REACTORS
330
47
102
}
330
47
100
AcDbScale
 70
     0
300
3/32" = 1'-0"
140
0.09375
141
12.0
290
     0
  0
SCALE
  5
5E
102
{ACAD_REACTORS
330
47
102
}
330
47
100
AcDbScale
 70
     0
300
1/8" = 1'-0"
140
0.125
141
12.0
290
     0
  0
SCALE
  5
5F
102
{ACAD_REACTORS
330
47
102
}
330
47
100
AcDbScale
 70
     0
300
3/16" = 1'-0"
140
0.1875
141
12.0
290
     0
  0
SCALE
  5
60
102
{ACAD_REACTORS
330
47
102
}
330
47
100
AcDbScale
 70
     0
300
1/4" = 1'-0"
140
0.25
141
12.0
290
     0
  0
SCALE
  5
61
102
{ACAD_REACTORS
330
47
102
}
330
47
100
AcDbScale
 70
     0
300
3/8" = 1'-0"
140
0.375
141
12.0
290
     0
  0
SCALE
  5
62
102
{ACAD_REACTORS
330
47
102
}
330
47
100
AcDbScale
 70
     0
300
1/2" = 1'-0"
140
0.5
141
12.0
290
     0
  0
SCALE
  5
63
102
{ACAD_REACTORS
330
47
102
}
330
47
100
AcDbScale
 70
     0
300
3/4" = 1'-0"
140
0.75
141
12.0
290
     0
  0
SCALE
  5
64
102
{ACAD_REACTORS
330
47
102
}
330
47
100
AcDbScale
 70
     0
300
1" = 1'-0"
140
1.0
141
12.0
290
     0
  0
SCALE
  5
65
102
{ACAD_REACTORS
330
47
102
}
330
47
100
AcDbScale
 70
     0
300
1-1/2" = 1'-0"
140
1.5
141
12.0
290
     0
  0
SCALE
  5
66
102
{ACAD_REACTORS
330
47
102
}
330
47
100
AcDbScale
 70
     0
300
3" = 1'-0"
140
3.0
141
12.0
290
     0
  0
SCALE
  5
67
102
{ACAD_REACTORS
330
47
102
}
330
47
100
AcDbScale
 70
     0
300
6" = 1'-0"
140
6.0
141
12.0
290
     0
  0
SCALE
  5
68
102
{ACAD_REACTORS
330
47
102
}
330
47
100
AcDbScale
 70
     0
300
1'-0" = 1'-0"
140
12.0
141
12.0
290
     0
  0
TABLESTYLE
  5
6A
102
{ACAD_REACTORS
330
69
102
}
102
{ACAD_XDICTIONARY
360
1F6
102
}
330
69
100
AcDbTableStyle
  3
Standard
 70
     0
 71
     0
 40
0.06
 41
0.06
280
     0
281
     0
  7
Standard
140
4.5
170
     2
 62
     0
 63
   257
283
     0
 90
        4
 91
        0
  1

274
    -2
284
     1
 64
     0
275
    -2
285
     1
 65
     0
276
    -2
286
     1
 66
     0
277
    -2
287
     1
 67
     0
278
    -2
288
     1
 68
     0
279
    -2
289
     1
 69
     0
  7
Standard
140
6.0
170
     5
 62
     0
 63
   257
283
     0
 90
        4
 91
        0
  1

274
    -2
284
     1
 64
     0
275
    -2
285
     1
 65
     0
276
    -2
286
     1
 66
     0
277
    -2
287
     1
 67
     0
278
    -2
288
     1
 68
     0
279
    -2
289
     1
 69
     0
  7
Standard
140
4.5
170
     5
 62
     0
 63
   257
283
     0
 90
        4
 91
        0
  1

274
    -2
284
     1
 64
     0
275
    -2
285
     1
 65
     0
276
    -2
286
     1
 66
     0
277
    -2
287
     1
 67
     0
278
    -2
288
     1
 68
     0
279
    -2
289
     1
 69
     0
  0
VISUALSTYLE
  5
2F
102
{ACAD_REACTORS
330
2A
102
}
330
2A
100
AcDbVisualStyle
  2
2dWireframe
 70
     4
177
     3
291
     0
 70
    58
 90
        0
176
     1
 90
        2
176
     1
 90
        0
176
     1
 90
        0
176
     1
 40
0.6
176
     1
 40
30.0
176
     1
 62
     7
420
 16777215
176
     1
 90
        1
176
     1
 90
        4
176
     1
 62
     7
176
     1
 62
   257
176
     1
 90
        1
176
     1
 90
        1
176
     1
 40
1.0
176
     1
 90
        0
176
     1
 62
   257
176
     1
 40
1.0
176
     1
 90
        1
176
     1
 90
        6
176
     1
 90
        2
176
     1
 62
     7
176
     1
 90
        5
176
     1
 90
        0
176
     1
 90
        0
176
     1
290
     0
176
     1
 90
        1
176
     1
 40
0.0
176
     1
 90
        0
176
     1
290
     1
176
     1
290
     1
176
     1
290
     0
176
     1
290
     0
176
     1
290
     0
176
     1
290
     0
176
     1
290
     0
176
     1
290
     0
176
     1
290
     0
176
     1
 90
       50
176
     1
 40
0.0
176
     1
 40
1.0
176
     1
 90
        0
176
     1
 62
    18
420
        0
176
     1
 90
       50
176
     1
 90
        3
176
     1
 62
     5
420
      255
176
     1
290
     0
176
     1
 90
       50
176
     1
 90
       50
176
     1
 90
       50
176
     1
290
     0
176
     1
 90
       50
176
     1
 62
   256
176
     0
 40
1.0
176
     0
 90
        2
176
     1
  1
strokes_ogs.tif
176
     1
290
     0
176
     1
 40
1.0
176
     1
 40
1.0
176
     1
  0
VISUALSTYLE
  5
32
102
{ACAD_REACTORS
330
2A
102
}
330
2A
100
AcDbVisualStyle
  2
Basic
 70
     7
177
     3
291
     1
 70
    58
 90
        1
176
     1
 90
        0
176
     1
 90
        1
176
     1
 90
        0
176
     1
 40
0.6
176
     1
 40
30.0
176
     1
 62
     7
420
 16777215
176
     1
 90
        0
176
     1
 90
        4
176
     1
 62
     7
176
     1
 62
   257
176
     1
 90
        1
176
     1
 90
        1
176
     1
 40
1.0
176
     1
 90
        8
176
     1
 62
     7
176
     1
 40
1.0
176
     1
 90
        1
176
     1
 90
        6
176
     1
 90
        2
176
     1
 62
     7
176
     1
 90
        5
176
     1
 90
        0
176
     1
 90
        0
176
     1
290
     0
176
     1
 90
        1
176
     1
 40
0.0
176
     1
 90
        0
176
     1
290
     0
176
     1
290
     1
176
     1
290
     1
176
     1
290
     0
176
     1
290
     0
176
     1
290
     0
176
     1
290
     0
176
     1
290
     0
176
     1
290
     0
176
     1
 90
       50
176
     1
 40
0.0
176
     1
 40
1.0
176
     1
 90
        0
176
     1
 62
    18
420
        0
176
     1
 90
       50
176
     1
 90
        3
176
     1
 62
     5
420
      255
176
     1
290
     0
176
     1
 90
       50
176
     1
 90
       50
176
     1
 90
       50
176
     1
290
     0
176
     1
 90
       50
176
     1
 62
   256
176
     0
 40
1.0
176
     0
 90
        2
176
     1
  1
strokes_ogs.tif
176
     1
290
     0
176
     1
 40
1.0
176
     1
 40
1.0
176
     1
  0
VISUALSTYLE
  5
36
102
{ACAD_REACTORS
330
2A
102
}
330
2A
100
AcDbVisualStyle
  2
Brighten
 70
    12
177
     3
291
     1
 70
    58
 90
        2
176
     1
 90
        2
176
     1
 90
        0
176
     1
 90
        0
176
     1
 40
0.6
176
     1
 40
30.0
176
     1
 62
     7
420
 16777215
176
     1
 90
        1
176
     1
 90
        4
176
     1
 62
     7
176
     1
 62
   257
176
     1
 90
        1
176
     1
 90
        1
176
     1
 40
1.0
176
     1
 90
        8
176
     1
 62
     7
176
     1
 40
1.0
176
     1
 90
        1
176
     1
 90
        6
176
     1
 90
        2
176
     1
 62
     7
176
     1
 90
        5
176
     1
 90
        0
176
     1
 90
        0
176
     1
290
     0
176
     1
 90
        1
176
     1
 40
50.0
176
     1
 90
        0
176
     1
290
     0
176
     1
290
     1
176
     1
290
     1
176
     1
290
     0
176
     1
290
     0
176
     1
290
     0
176
     1
290
     0
176
     1
290
     0
176
     1
290
     0
176
     1
 90
       50
176
     1
 40
0.0
176
     1
 40
1.0
176
     1
 90
        0
176
     1
 62
    18
420
        0
176
     1
 90
       50
176
     1
 90
        3
176
     1
 62
     5
420
      255
176
     1
290
     0
176
     1
 90
       50
176
     1
 90
       50
176
     1
 90
       50
176
     1
290
     0
176
     1
 90
       50
176
     1
 62
   256
176
     0
 40
1.0
176
     0
 90
        2
176
     1
  1
strokes_ogs.tif
176
     1
290
     0
176
     1
 40
1.0
176
     1
 40
1.0
176
     1
  0
VISUALSTYLE
  5
3A
102
{ACAD_REACTORS
330
2A
102
}
330
2A
100
AcDbVisualStyle
  2
ColorChange
 70
    16
177
     3
291
     1
 70
    58
 90
        2
176
     1
 90
        2
176
     1
 90
        3
176
     1
 90
        0
176
     1
 40
0.6
176
     1
 40
30.0
176
     1
 62
     8
420
  8421504
176
     1
 90
        1
176
     1
 90
        4
176
     1
 62
     7
176
     1
 62
   257
176
     1
 90
        1
176
     1
 90
        1
176
     1
 40
1.0
176
     1
 90
        8
176
     1
 62
     8
420
  8421504
176
     1
 40
1.0
176
     1
 90
        1
176
     1
 90
        6
176
     1
 90
        2
176
     1
 62
     7
176
     1
 90
        5
176
     1
 90
        0
176
     1
 90
        0
176
     1
290
     0
176
     1
 90
        1
176
     1
 40
0.0
176
     1
 90
        0
176
     1
290
     0
176
     1
290
     1
176
     1
290
     1
176
     1
290
     0
176
     1
290
     0
176
     1
290
     0
176
     1
290
     0
176
     1
290
     0
176
     1
290
     0
176
     1
 90
       50
176
     1
 40
0.0
176
     1
 40
1.0
176
     1
 90
        0
176
     1
 62
    18
420
        0
176
     1
 90
       50
176
     1
 90
        3
176
     1
 62
     5
420
      255
176
     1
290
     0
176
     1
 90
       50
176
     1
 90
       50
176
     1
 90
       50
176
     1
290
     0
176
     1
 90
       50
176
     1
 62
   256
176
     0
 40
1.0
176
     0
 90
        2
176
     1
  1
strokes_ogs.tif
176
     1
290
     0
176
     1
 40
1.0
176
     1
 40
1.0
176
     1
  0
VISUALSTYLE
  5
34
102
{ACAD_REACTORS
330
2A
102
}
330
2A
100
AcDbVisualStyle
  2
Conceptual
 70
     9
177
     3
291
     0
 70
    58
 90
        3
176
     1
 90
        2
176
     1
 90
        0
176
     1
 90
        0
176
     1
 40
0.6
176
     1
 40
30.0
176
     1
 62
     7
420
 16777215
176
     1
 90
        2
176
     1
 90
        2
176
     1
 62
     7
176
     1
 62
   257
176
     1
 90
        1
176
     1
 90
        1
176
     1
 40
179.0
176
     1
 90
        8
176
     1
 62
     7
176
     1
 40
1.0
176
     1
 90
        1
176
     1
 90
        6
176
     1
 90
        2
176
     1
 62
     7
176
     1
 90
        3
176
     1
 90
        0
176
     1
 90
        0
176
     1
290
     0
176
     1
 90
        1
176
     1
 40
0.0
176
     1
 90
        0
176
     1
290
     0
176
     1
290
     1
176
     1
290
     1
176
     1
290
     0
176
     1
290
     0
176
     1
290
     0
176
     1
290
     0
176
     1
290
     0
176
     1
290
     0
176
     1
 90
       50
176
     1
 40
0.0
176
     1
 40
1.0
176
     1
 90
        0
176
     1
 62
    18
420
        0
176
     1
 90
       50
176
     1
 90
        3
176
     1
 62
     5
420
      255
176
     1
290
     0
176
     1
 90
       50
176
     1
 90
       50
176
     1
 90
       50
176
     1
290
     0
176
     1
 90
       50
176
     1
 62
   256
176
     0
 40
1.0
176
     0
 90
        2
176
     1
  1
strokes_ogs.tif
176
     1
290
     0
176
     1
 40
1.0
176
     1
 40
1.0
176
     1
  0
VISUALSTYLE
  5
35
102
{ACAD_REACTORS
330
2A
102
}
330
2A
100
AcDbVisualStyle
  2
Dim
 70
    11
177
     3
291
     1
 70
    58
 90
        2
176
     1
 90
        2
176
     1
 90
        0
176
     1
 90
        0
176
     1
 40
0.6
176
     1
 40
30.0
176
     1
 62
     7
420
 16777215
176
     1
 90
        1
176
     1
 90
        4
176
     1
 62
     7
176
     1
 62
   257
176
     1
 90
        1
176
     1
 90
        1
176
     1
 40
1.0
176
     1
 90
        8
176
     1
 62
     7
176
     1
 40
1.0
176
     1
 90
        1
176
     1
 90
        6
176
     1
 90
        2
176
     1
 62
     7
176
     1
 90
        5
176
     1
 90
        0
176
     1
 90
        0
176
     1
290
     0
176
     1
 90
        1
176
     1
 40
-50.0
176
     1
 90
        0
176
     1
290
     0
176
     1
290
     1
176
     1
290
     1
176
     1
290
     0
176
     1
290
     0
176
     1
290
     0
176
     1
290
     0
176
     1
290
     0
176
     1
290
     0
176
     1
 90
       50
176
     1
 40
0.0
176
     1
 40
1.0
176
     1
 90
        0
176
     1
 62
    18
420
        0
176
     1
 90
       50
176
     1
 90
        3
176
     1
 62
     5
420
      255
176
     1
290
     0
176
     1
 90
       50
176
     1
 90
       50
176
     1
 90
       50
176
     1
290
     0
176
     1
 90
       50
176
     1
 62
   256
176
     0
 40
1.0
176
     0
 90
        2
176
     1
  1
strokes_ogs.tif
176
     1
290
     0
176
     1
 40
1.0
176
     1
 40
1.0
176
     1
  0
VISUALSTYLE
  5
3D
102
{ACAD_REACTORS
330
2A
102
}
330
2A
100
AcDbVisualStyle
  2
EdgeColorOff
 70
    22
177
     3
291
     1
 70
    58
 90
        2
176
     0
 90
        2
176
     0
 90
        0
176
     0
 90
        0
176
     0
 40
0.6
176
     0
 40
30.0
176
     0
 62
     7
420
 16777215
176
     0
 90
        1
176
     0
 90
        4
176
     0
 62
     7
176
     0
 62
   257
176
     0
 90
        1
176
     0
 90
        1
176
     0
 40
1.0
176
     0
 90
        8
176
     2
 62
     7
176
     0
 40
1.0
176
     0
 90
        1
176
     0
 90
        6
176
     0
 90
        2
176
     0
 62
     7
176
     0
 90
        5
176
     0
 90
        0
176
     0
 90
        0
176
     0
290
     0
176
     0
 90
        1
176
     0
 40
0.0
176
     0
 90
        0
176
     0
290
     0
176
     0
290
     1
176
     0
290
     1
176
     0
290
     0
176
     0
290
     0
176
     0
290
     0
176
     0
290
     0
176
     0
290
     0
176
     0
290
     0
176
     0
 90
       50
176
     0
 40
0.0
176
     0
 40
1.0
176
     0
 90
        0
176
     0
 62
    18
420
        0
176
     0
 90
       50
176
     0
 90
        3
176
     0
 62
     5
420
      255
176
     0
290
     0
176
     0
 90
       50
176
     0
 90
       50
176
     0
 90
       50
176
     0
290
     0
176
     0
 90
       50
176
     0
 62
   256
176
     0
 40
1.0
176
     0
 90
        2
176
     0
  1
strokes_ogs.tif
176
     0
290
     0
176
     0
 40
1.0
176
     0
 40
1.0
176
     0
  0
VISUALSTYLE
  5
39
102
{ACAD_REACTORS
330
2A
102
}
330
2A
100
AcDbVisualStyle
  2
Facepattern
 70
    15
177
     3
291
     1
 70
    58
 90
        2
176
     1
 90
        2
176
     1
 90
        0
176
     1
 90
        0
176
     1
 40
0.6
176
     1
 40
30.0
176
     1
 62
     7
420
 16777215
176
     1
 90
        1
176
     1
 90
        4
176
     1
 62
     7
176
     1
 62
   257
176
     1
 90
        1
176
     1
 90
        1
176
     1
 40
1.0
176
     1
 90
        8
176
     1
 62
     7
176
     1
 40
1.0
176
     1
 90
        1
176
     1
 90
        6
176
     1
 90
        2
176
     1
 62
     7
176
     1
 90
        5
176
     1
 90
        0
176
     1
 90
        0
176
     1
290
     0
176
     1
 90
        1
176
     1
 40
0.0
176
     1
 90
        0
176
     1
290
     0
176
     1
290
     1
176
     1
290
     1
176
     1
290
     0
176
     1
290
     0
176
     1
290
     0
176
     1
290
     0
176
     1
290
     0
176
     1
290
     0
176
     1
 90
       50
176
     1
 40
0.0
176
     1
 40
1.0
176
     1
 90
        0
176
     1
 62
    18
420
        0
176
     1
 90
       50
176
     1
 90
        3
176
     1
 62
     5
420
      255
176
     1
290
     0
176
     1
 90
       50
176
     1
 90
       50
176
     1
 90
       50
176
     1
290
     0
176
     1
 90
       50
176
     1
 62
   256
176
     0
 40
1.0
176
     0
 90
        2
176
     1
  1
strokes_ogs.tif
176
     1
290
     0
176
     1
 40
1.0
176
     1
 40
1.0
176
     1
  0
VISUALSTYLE
  5
2B
102
{ACAD_REACTORS
330
2A
102
}
330
2A
100
AcDbVisualStyle
  2
Flat
 70
     0
177
     3
291
     1
 70
    58
 90
        2
176
     1
 90
        1
176
     1
 90
        1
176
     1
 90
        2
176
     1
 40
0.6
176
     1
 40
30.0
176
     1
 62
     7
420
 16777215
176
     1
 90
        0
176
     1
 90
        0
176
     1
 62
     7
176
     1
 62
   257
176
     1
 90
        1
176
     1
 90
        1
176
     1
 40
1.0
176
     1
 90
        8
176
     1
 62
     7
176
     1
 40
1.0
176
     1
 90
        1
176
     1
 90
        6
176
     1
 90
        2
176
     1
 62
     7
176
     1
 90
        5
176
     1
 90
        0
176
     1
 90
        0
176
     1
290
     0
176
     1
 90
       13
176
     1
 40
0.0
176
     1
 90
        0
176
     1
290
     0
176
     1
290
     1
176
     1
290
     1
176
     1
290
     0
176
     1
290
     0
176
     1
290
     0
176
     1
290
     0
176
     1
290
     0
176
     1
290
     0
176
     1
 90
       50
176
     1
 40
0.0
176
     1
 40
1.0
176
     1
 90
        0
176
     1
 62
    18
420
        0
176
     1
 90
       50
176
     1
 90
        3
176
     1
 62
     5
420
      255
176
     1
290
     0
176
     1
 90
       50
176
     1
 90
       50
176
     1
 90
       50
176
     1
290
     0
176
     1
 90
       50
176
     1
 62
   256
176
     0
 40
1.0
176
     0
 90
        2
176
     1
  1
strokes_ogs.tif
176
     1
290
     0
176
     1
 40
1.0
176
     1
 40
1.0
176
     1
  0
VISUALSTYLE
  5
2C
102
{ACAD_REACTORS
330
2A
102
}
330
2A
100
AcDbVisualStyle
  2
FlatWithEdges
 70
     1
177
     3
291
     1
 70
    58
 90
        2
176
     1
 90
        1
176
     1
 90
        1
176
     1
 90
        2
176
     1
 40
0.6
176
     1
 40
30.0
176
     1
 62
     7
420
 16777215
176
     1
 90
        1
176
     1
 90
        0
176
     1
 62
     7
176
     1
 62
   257
176
     1
 90
        1
176
     1
 90
        1
176
     1
 40
1.0
176
     1
 90
        0
176
     1
 62
   257
176
     1
 40
1.0
176
     1
 90
        1
176
     1
 90
        6
176
     1
 90
        2
176
     1
 62
     7
176
     1
 90
        5
176
     1
 90
        0
176
     1
 90
        0
176
     1
290
     0
176
     1
 90
       13
176
     1
 40
0.0
176
     1
 90
        0
176
     1
290
     0
176
     1
290
     1
176
     1
290
     1
176
     1
290
     0
176
     1
290
     0
176
     1
290
     0
176
     1
290
     0
176
     1
290
     0
176
     1
290
     0
176
     1
 90
       50
176
     1
 40
0.0
176
     1
 40
1.0
176
     1
 90
        0
176
     1
 62
    18
420
        0
176
     1
 90
       50
176
     1
 90
        3
176
     1
 62
     5
420
      255
176
     1
290
     0
176
     1
 90
       50
176
     1
 90
       50
176
     1
 90
       50
176
     1
290
     0
176
     1
 90
       50
176
     1
 62
   256
176
     0
 40
1.0
176
     0
 90
        2
176
     1
  1
strokes_ogs.tif
176
     1
290
     0
176
     1
 40
1.0
176
     1
 40
1.0
176
     1
  0
VISUALSTYLE
  5
2D
102
{ACAD_REACTORS
330
2A
102
}
330
2A
100
AcDbVisualStyle
  2
Gouraud
 70
     2
177
     3
291
     1
 70
    58
 90
        2
176
     1
 90
        2
176
     1
 90
        1
176
     1
 90
        2
176
     1
 40
0.6
176
     1
 40
30.0
176
     1
 62
     7
420
 16777215
176
     1
 90
        0
176
     1
 90
        0
176
     1
 62
     7
176
     1
 62
   257
176
     1
 90
        1
176
     1
 90
        1
176
     1
 40
1.0
176
     1
 90
        0
176
     1
 62
     7
176
     1
 40
1.0
176
     1
 90
        1
176
     1
 90
        6
176
     1
 90
        2
176
     1
 62
     7
176
     1
 90
        5
176
     1
 90
        0
176
     1
 90
        0
176
     1
290
     0
176
     1
 90
       13
176
     1
 40
0.0
176
     1
 90
        0
176
     1
290
     0
176
     1
290
     1
176
     1
290
     1
176
     1
290
     0
176
     1
290
     0
176
     1
290
     0
176
     1
290
     0
176
     1
290
     0
176
     1
290
     0
176
     1
 90
       50
176
     1
 40
0.0
176
     1
 40
1.0
176
     1
 90
        0
176
     1
 62
    18
420
        0
176
     1
 90
       50
176
     1
 90
        3
176
     1
 62
     5
420
      255
176
     1
290
     0
176
     1
 90
       50
176
     1
 90
       50
176
     1
 90
       50
176
     1
290
     0
176
     1
 90
       50
176
     1
 62
   256
176
     0
 40
1.0
176
     0
 90
        2
176
     1
  1
strokes_ogs.tif
176
     1
290
     0
176
     1
 40
1.0
176
     1
 40
1.0
176
     1
  0
VISUALSTYLE
  5
2E
102
{ACAD_REACTORS
330
2A
102
}
330
2A
100
AcDbVisualStyle
  2
GouraudWithEdges
 70
     3
177
     3
291
     1
 70
    58
 90
        2
176
     1
 90
        2
176
     1
 90
        1
176
     1
 90
        2
176
     1
 40
0.6
176
     1
 40
30.0
176
     1
 62
     7
420
 16777215
176
     1
 90
        1
176
     1
 90
        0
176
     1
 62
     7
176
     1
 62
   257
176
     1
 90
        1
176
     1
 90
        1
176
     1
 40
1.0
176
     1
 90
        0
176
     1
 62
   257
176
     1
 40
1.0
176
     1
 90
        1
176
     1
 90
        6
176
     1
 90
        2
176
     1
 62
     7
176
     1
 90
        5
176
     1
 90
        0
176
     1
 90
        0
176
     1
290
     0
176
     1
 90
       13
176
     1
 40
0.0
176
     1
 90
        0
176
     1
290
     0
176
     1
290
     1
176
     1
290
     1
176
     1
290
     0
176
     1
290
     0
176
     1
290
     0
176
     1
290
     0
176
     1
290
     0
176
     1
290
     0
176
     1
 90
       50
176
     1
 40
0.0
176
     1
 40
1.0
176
     1
 90
        0
176
     1
 62
    18
420
        0
176
     1
 90
       50
176
     1
 90
        3
176
     1
 62
     5
420
      255
176
     1
290
     0
176
     1
 90
       50
176
     1
 90
       50
176
     1
 90
       50
176
     1
290
     0
176
     1
 90
       50
176
     1
 62
   256
176
     0
 40
1.0
176
     0
 90
        2
176
     1
  1
strokes_ogs.tif
176
     1
290
     0
176
     1
 40
1.0
176
     1
 40
1.0
176
     1
  0
VISUALSTYLE
  5
31
102
{ACAD_REACTORS
330
2A
102
}
330
2A
100
AcDbVisualStyle
  2
Hidden
 70
     6
177
     3
291
     0
 70
    58
 90
        1
176
     1
 90
        2
176
     1
 90
        2
176
     1
 90
        0
176
     1
 40
0.6
176
     1
 40
30.0
176
     1
 62
     7
420
 16777215
176
     1
 90
        2
176
     1
 90
        2
176
     1
 62
     7
176
     1
 62
   257
176
     1
 90
        2
176
     1
 90
        1
176
     1
 40
40.0
176
     1
 90
        0
176
     1
 62
   257
176
     1
 40
1.0
176
     1
 90
        1
176
     1
 90
        6
176
     1
 90
        2
176
     1
 62
     7
176
     1
 90
        3
176
     1
 90
        0
176
     1
 90
        0
176
     1
290
     0
176
     1
 90
        1
176
     1
 40
0.0
176
     1
 90
        0
176
     1
290
     0
176
     1
290
     1
176
     1
290
     1
176
     1
290
     0
176
     1
290
     0
176
     1
290
     0
176
     1
290
     0
176
     1
290
     0
176
     1
290
     0
176
     1
 90
       50
176
     1
 40
0.0
176
     1
 40
1.0
176
     1
 90
        0
176
     1
 62
    18
420
        0
176
     1
 90
       50
176
     1
 90
        3
176
     1
 62
     5
420
      255
176
     1
290
     0
176
     1
 90
       50
176
     1
 90
       50
176
     1
 90
       50
176
     1
290
     0
176
     1
 90
       50
176
     1
 62
   256
176
     0
 40
1.0
176
     0
 90
        2
176
     1
  1
strokes_ogs.tif
176
     1
290
     0
176
     1
 40
1.0
176
     1
 40
1.0
176
     1
  0
VISUALSTYLE
  5
3B
102
{ACAD_REACTORS
330
2A
102
}
330
2A
100
AcDbVisualStyle
  2
JitterOff
 70
    20
177
     3
291
     1
 70
    58
 90
        2
176
     0
 90
        2
176
     0
 90
        0
176
     0
 90
        0
176
     0
 40
0.6
176
     0
 40
30.0
176
     0
 62
     7
420
 16777215
176
     0
 90
        1
176
     0
 90
        4
176
     0
 62
     7
176
     0
 62
   257
176
     0
 90
        1
176
     0
 90
        1
176
     0
 40
1.0
176
     0
 90
       10
176
     2
 62
     7
176
     0
 40
1.0
176
     0
 90
        1
176
     0
 90
        6
176
     0
 90
        2
176
     0
 62
     7
176
     0
 90
        5
176
     0
 90
        0
176
     0
 90
        0
176
     0
290
     0
176
     0
 90
        1
176
     0
 40
0.0
176
     0
 90
        0
176
     0
290
     0
176
     0
290
     1
176
     0
290
     1
176
     0
290
     0
176
     0
290
     0
176
     0
290
     0
176
     0
290
     0
176
     0
290
     0
176
     0
290
     0
176
     0
 90
       50
176
     0
 40
0.0
176
     0
 40
1.0
176
     0
 90
        0
176
     0
 62
    18
420
        0
176
     0
 90
       50
176
     0
 90
        3
176
     0
 62
     5
420
      255
176
     0
290
     0
176
     0
 90
       50
176
     0
 90
       50
176
     0
 90
       50
176
     0
290
     0
176
     0
 90
       50
176
     0
 62
   256
176
     0
 40
1.0
176
     0
 90
        2
176
     0
  1
strokes_ogs.tif
176
     0
290
     0
176
     0
 40
1.0
176
     0
 40
1.0
176
     0
  0
VISUALSTYLE
  5
38
102
{ACAD_REACTORS
330
2A
102
}
330
2A
100
AcDbVisualStyle
  2
Linepattern
 70
    14
177
     3
291
     1
 70
    58
 90
        2
176
     1
 90
        2
176
     1
 90
        0
176
     1
 90
        0
176
     1
 40
0.6
176
     1
 40
30.0
176
     1
 62
     7
420
 16777215
176
     1
 90
        1
176
     1
 90
        4
176
     1
 62
     7
176
     1
 62
   257
176
     1
 90
        7
176
     1
 90
        7
176
     1
 40
1.0
176
     1
 90
        8
176
     1
 62
     7
176
     1
 40
1.0
176
     1
 90
        1
176
     1
 90
        6
176
     1
 90
        2
176
     1
 62
     7
176
     1
 90
        5
176
     1
 90
        0
176
     1
 90
        0
176
     1
290
     0
176
     1
 90
        1
176
     1
 40
0.0
176
     1
 90
        0
176
     1
290
     0
176
     1
290
     1
176
     1
290
     1
176
     1
290
     0
176
     1
290
     0
176
     1
290
     0
176
     1
290
     0
176
     1
290
     0
176
     1
290
     0
176
     1
 90
       50
176
     1
 40
0.0
176
     1
 40
1.0
176
     1
 90
        0
176
     1
 62
    18
420
        0
176
     1
 90
       50
176
     1
 90
        3
176
     1
 62
     5
420
      255
176
     1
290
     0
176
     1
 90
       50
176
     1
 90
       50
176
     1
 90
       50
176
     1
290
     0
176
     1
 90
       50
176
     1
 62
   256
176
     0
 40
1.0
176
     0
 90
        2
176
     1
  1
strokes_ogs.tif
176
     1
290
     0
176
     1
 40
1.0
176
     1
 40
1.0
176
     1
  0
VISUALSTYLE
  5
3C
102
{ACAD_REACTORS
330
2A
102
}
330
2A
100
AcDbVisualStyle
  2
OverhangOff
 70
    21
177
     3
291
     1
 70
    58
 90
        2
176
     0
 90
        2
176
     0
 90
        0
176
     0
 90
        0
176
     0
 40
0.6
176
     0
 40
30.0
176
     0
 62
     7
420
 16777215
176
     0
 90
        1
176
     0
 90
        4
176
     0
 62
     7
176
     0
 62
   257
176
     0
 90
        1
176
     0
 90
        1
176
     0
 40
1.0
176
     0
 90
        9
176
     2
 62
     7
176
     0
 40
1.0
176
     0
 90
        1
176
     0
 90
        6
176
     0
 90
        2
176
     0
 62
     7
176
     0
 90
        5
176
     0
 90
        0
176
     0
 90
        0
176
     0
290
     0
176
     0
 90
        1
176
     0
 40
0.0
176
     0
 90
        0
176
     0
290
     0
176
     0
290
     1
176
     0
290
     1
176
     0
290
     0
176
     0
290
     0
176
     0
290
     0
176
     0
290
     0
176
     0
290
     0
176
     0
290
     0
176
     0
 90
       50
176
     0
 40
0.0
176
     0
 40
1.0
176
     0
 90
        0
176
     0
 62
    18
420
        0
176
     0
 90
       50
176
     0
 90
        3
176
     0
 62
     5
420
      255
176
     0
290
     0
176
     0
 90
       50
176
     0
 90
       50
176
     0
 90
       50
176
     0
290
     0
176
     0
 90
       50
176
     0
 62
   256
176
     0
 40
1.0
176
     0
 90
        2
176
     0
  1
strokes_ogs.tif
176
     0
290
     0
176
     0
 40
1.0
176
     0
 40
1.0
176
     0
  0
VISUALSTYLE
  5
33
102
{ACAD_REACTORS
330
2A
102
}
330
2A
100
AcDbVisualStyle
  2
Realistic
 70
     8
177
     3
291
     0
 70
    58
 90
        2
176
     1
 90
        3
176
     1
 90
        0
176
     1
 90
        2
176
     1
 40
0.6
176
     1
 40
30.0
176
     1
 62
     7
420
 16777215
176
     1
 90
        0
176
     1
 90
        0
176
     1
 62
     7
176
     1
 62
   257
176
     1
 90
        1
176
     1
 90
        1
176
     1
 40
1.0
176
     1
 90
        8
176
     1
 62
   257
176
     1
 40
1.0
176
     1
 90
        1
176
     1
 90
        6
176
     1
 90
        2
176
     1
 62
     7
176
     1
 90
        3
176
     1
 90
        0
176
     1
 90
        0
176
     1
290
     0
176
     1
 90
       13
176
     1
 40
0.0
176
     1
 90
        0
176
     1
290
     0
176
     1
290
     1
176
     1
290
     1
176
     1
290
     0
176
     1
290
     0
176
     1
290
     0
176
     1
290
     0
176
     1
290
     0
176
     1
290
     0
176
     1
 90
       50
176
     1
 40
0.0
176
     1
 40
1.0
176
     1
 90
        0
176
     1
 62
    18
420
        0
176
     1
 90
       50
176
     1
 90
        3
176
     1
 62
     5
420
      255
176
     1
290
     0
176
     1
 90
       50
176
     1
 90
       50
176
     1
 90
       50
176
     1
290
     0
176
     1
 90
       50
176
     1
 62
   256
176
     0
 40
1.0
176
     0
 90
        2
176
     1
  1
strokes_ogs.tif
176
     1
290
     0
176
     1
 40
1.0
176
     1
 40
1.0
176
     1
  0
VISUALSTYLE
  5
42
102
{ACAD_REACTORS
330
2A
102
}
330
2A
100
AcDbVisualStyle
  2
Shaded
 70
    27
177
     3
291
     0
 70
    58
 90
        2
176
     1
 90
        2
176
     1
 90
        1
176
     1
 90
        2
176
     1
 40
0.6
176
     1
 40
30.0
176
     1
 62
     7
420
 16777215
176
     1
 90
        0
176
     1
 90
        4
176
     1
 62
     7
176
     1
 62
   257
176
     1
 90
        1
176
     1
 90
        1
176
     1
 40
1.0
176
     1
 90
        8
176
     1
 62
   257
176
     1
 40
1.0
176
     1
 90
        1
176
     1
 90
        6
176
     1
 90
        2
176
     1
 62
     8
420
  7895160
176
     1
 90
        3
176
     1
 90
        0
176
     1
 90
        0
176
     1
290
     0
176
     1
 90
        5
176
     1
 40
0.0
176
     1
 90
        0
176
     1
290
     0
176
     1
290
     1
176
     1
290
     1
176
     1
290
     0
176
     1
290
     0
176
     1
290
     0
176
     1
290
     0
176
     1
290
     0
176
     1
290
     0
176
     1
 90
       50
176
     1
 40
0.0
176
     1
 40
1.0
176
     1
 90
        0
176
     1
 62
    18
420
        0
176
     1
 90
       50
176
     1
 90
        3
176
     1
 62
     5
420
      255
176
     1
290
     0
176
     1
 90
       50
176
     1
 90
       50
176
     1
 90
       50
176
     1
290
     0
176
     1
 90
       50
176
     1
 62
   256
176
     0
 40
1.0
176
     0
 90
        2
176
     1
  1
strokes_ogs.tif
176
     1
290
     0
176
     1
 40
1.0
176
     1
 40
1.0
176
     1
  0
VISUALSTYLE
  5
41
102
{ACAD_REACTORS
330
2A
102
}
330
2A
100
AcDbVisualStyle
  2
Shaded with edges
 70
    26
177
     3
291
     0
 70
    58
 90
        2
176
     1
 90
        2
176
     1
 90
        1
176
     1
 90
        2
176
     1
 40
0.6
176
     1
 40
30.0
176
     1
 62
     7
420
 16777215
176
     1
 90
        1
176
     1
 90
       10
176
     1
 62
     7
176
     1
 62
   257
176
     1
 90
        2
176
     1
 90
        1
176
     1
 40
1.0
176
     1
 90
        8
176
     1
 62
   257
176
     1
 40
1.0
176
     1
 90
        1
176
     1
 90
        6
176
     1
 90
        2
176
     1
 62
     7
176
     1
 90
        3
176
     1
 90
        0
176
     1
 90
        0
176
     1
290
     0
176
     1
 90
        5
176
     1
 40
0.0
176
     1
 90
        0
176
     1
290
     0
176
     1
290
     1
176
     1
290
     1
176
     1
290
     0
176
     1
290
     0
176
     1
290
     0
176
     1
290
     0
176
     1
290
     0
176
     1
290
     0
176
     1
 90
       50
176
     1
 40
0.0
176
     1
 40
1.0
176
     1
 90
        0
176
     1
 62
    18
420
        0
176
     1
 90
       50
176
     1
 90
        3
176
     1
 62
     5
420
      255
176
     1
290
     0
176
     1
 90
       50
176
     1
 90
       50
176
     1
 90
       50
176
     1
290
     0
176
     1
 90
       50
176
     1
 62
   256
176
     0
 40
1.0
176
     0
 90
        2
176
     1
  1
strokes_ogs.tif
176
     1
290
     0
176
     1
 40
1.0
176
     1
 40
1.0
176
     1
  0
VISUALSTYLE
  5
3E
102
{ACAD_REACTORS
330
2A
102
}
330
2A
100
AcDbVisualStyle
  2
Shades of Gray
 70
    23
177
     3
291
     0
 70
    58
 90
        2
176
     1
 90
        2
176
     1
 90
        3
176
     1
 90
        0
176
     1
 40
0.6
176
     1
 40
30.0
176
     1
 62
     7
420
 16777215
176
     1
 90
        2
176
     1
 90
        2
176
     1
 62
     7
176
     1
 62
     7
176
     1
 90
        1
176
     1
 90
        1
176
     1
 40
40.0
176
     1
 90
        8
176
     1
 62
     7
176
     1
 40
1.0
176
     1
 90
        1
176
     1
 90
        6
176
     1
 90
        2
176
     1
 62
     7
176
     1
 90
        3
176
     1
 90
        0
176
     1
 90
        0
176
     1
290
     0
176
     1
 90
        1
176
     1
 40
0.0
176
     1
 90
        0
176
     1
290
     0
176
     1
290
     1
176
     1
290
     1
176
     1
290
     0
176
     1
290
     0
176
     1
290
     0
176
     1
290
     0
176
     1
290
     0
176
     1
290
     0
176
     1
 90
       50
176
     1
 40
0.0
176
     1
 40
1.0
176
     1
 90
        0
176
     1
 62
    18
420
        0
176
     1
 90
       50
176
     1
 90
        3
176
     1
 62
     5
420
      255
176
     1
290
     0
176
     1
 90
       50
176
     1
 90
       50
176
     1
 90
       50
176
     1
290
     0
176
     1
 90
       50
176
     1
 62
   256
176
     0
 40
1.0
176
     0
 90
        2
176
     1
  1
strokes_ogs.tif
176
     1
290
     0
176
     1
 40
1.0
176
     1
 40
1.0
176
     1
  0
VISUALSTYLE
  5
3F
102
{ACAD_REACTORS
330
2A
102
}
330
2A
100
AcDbVisualStyle
  2
Sketchy
 70
    24
177
     3
291
     0
 70
    58
 90
        1
176
     1
 90
        2
176
     1
 90
        2
176
     1
 90
        0
176
     1
 40
0.6
176
     1
 40
30.0
176
     1
 62
     7
420
 16777215
176
     1
 90
        2
176
     1
 90
        2
176
     1
 62
     7
176
     1
 62
     7
176
     1
 90
        1
176
     1
 90
        1
176
     1
 40
40.0
176
     1
 90
       11
176
     1
 62
     7
176
     1
 40
1.0
176
     1
 90
        1
176
     1
 90
        6
176
     1
 90
        2
176
     1
 62
     7
176
     1
 90
        6
176
     1
 90
        0
176
     1
 90
        0
176
     1
290
     0
176
     1
 90
        1
176
     1
 40
0.0
176
     1
 90
        0
176
     1
290
     0
176
     1
290
     1
176
     1
290
     1
176
     1
290
     0
176
     1
290
     0
176
     1
290
     0
176
     1
290
     0
176
     1
290
     0
176
     1
290
     0
176
     1
 90
       50
176
     1
 40
0.0
176
     1
 40
1.0
176
     1
 90
        0
176
     1
 62
    18
420
        0
176
     1
 90
       50
176
     1
 90
        3
176
     1
 62
     5
420
      255
176
     1
290
     0
176
     1
 90
       50
176
     1
 90
       50
176
     1
 90
       50
176
     1
290
     0
176
     1
 90
       50
176
     1
 62
   256
176
     0
 40
1.0
176
     0
 90
        2
176
     1
  1
strokes_ogs.tif
176
     1
290
     0
176
     1
 40
1.0
176
     1
 40
1.0
176
     1
  0
VISUALSTYLE
  5
37
102
{ACAD_REACTORS
330
2A
102
}
330
2A
100
AcDbVisualStyle
  2
Thicken
 70
    13
177
     3
291
     1
 70
    58
 90
        2
176
     1
 90
        2
176
     1
 90
        0
176
     1
 90
        0
176
     1
 40
0.6
176
     1
 40
30.0
176
     1
 62
     7
420
 16777215
176
     1
 90
        1
176
     1
 90
        4
176
     1
 62
     7
176
     1
 62
   257
176
     1
 90
        1
176
     1
 90
        1
176
     1
 40
1.0
176
     1
 90
       12
176
     1
 62
     7
176
     1
 40
1.0
176
     1
 90
        1
176
     1
 90
        6
176
     1
 90
        2
176
     1
 62
     7
176
     1
 90
        5
176
     1
 90
        0
176
     1
 90
        0
176
     1
290
     0
176
     1
 90
        1
176
     1
 40
0.0
176
     1
 90
        0
176
     1
290
     0
176
     1
290
     1
176
     1
290
     1
176
     1
290
     0
176
     1
290
     0
176
     1
290
     0
176
     1
290
     0
176
     1
290
     0
176
     1
290
     0
176
     1
 90
       50
176
     1
 40
0.0
176
     1
 40
1.0
176
     1
 90
        0
176
     1
 62
    18
420
        0
176
     1
 90
       50
176
     1
 90
        3
176
     1
 62
     5
420
      255
176
     1
290
     0
176
     1
 90
       50
176
     1
 90
       50
176
     1
 90
       50
176
     1
290
     0
176
     1
 90
       50
176
     1
 62
   256
176
     0
 40
1.0
176
     0
 90
        2
176
     1
  1
strokes_ogs.tif
176
     1
290
     0
176
     1
 40
1.0
176
     1
 40
1.0
176
     1
  0
VISUALSTYLE
  5
30
102
{ACAD_REACTORS
330
2A
102
}
330
2A
100
AcDbVisualStyle
  2
Wireframe
 70
     5
177
     3
291
     0
 70
    58
 90
        0
176
     1
 90
        2
176
     1
 90
        0
176
     1
 90
        0
176
     1
 40
0.6
176
     1
 40
30.0
176
     1
 62
     7
420
 16777215
176
     1
 90
        1
176
     1
 90
        4
176
     1
 62
     7
176
     1
 62
   257
176
     1
 90
        1
176
     1
 90
        1
176
     1
 40
1.0
176
     1
 90
        0
176
     1
 62
   257
176
     1
 40
1.0
176
     1
 90
        1
176
     1
 90
        6
176
     1
 90
        2
176
     1
 62
     7
176
     1
 90
        3
176
     1
 90
        0
176
     1
 90
        0
176
     1
290
     0
176
     1
 90
        1
176
     1
 40
0.0
176
     1
 90
        0
176
     1
290
     0
176
     1
290
     1
176
     1
290
     1
176
     1
290
     0
176
     1
290
     0
176
     1
290
     0
176
     1
290
     0
176
     1
290
     0
176
     1
290
     0
176
     1
 90
       50
176
     1
 40
0.0
176
     1
 40
1.0
176
     1
 90
        0
176
     1
 62
    18
420
        0
176
     1
 90
       50
176
     1
 90
        3
176
     1
 62
     5
420
      255
176
     1
290
     0
176
     1
 90
       50
176
     1
 90
       50
176
     1
 90
       50
176
     1
290
     0
176
     1
 90
       50
176
     1
 62
   256
176
     0
 40
1.0
176
     0
 90
        2
176
     1
  1
strokes_ogs.tif
176
     1
290
     0
176
     1
 40
1.0
176
     1
 40
1.0
176
     1
  0
VISUALSTYLE
  5
40
102
{ACAD_REACTORS
330
2A
102
}
330
2A
100
AcDbVisualStyle
  2
X-Ray
 70
    25
177
     3
291
     0
 70
    58
 90
        2
176
     1
 90
        2
176
     1
 90
        1
176
     1
 90
        1
176
     1
 40
0.5
176
     1
 40
30.0
176
     1
 62
     7
420
 16777215
176
     1
 90
        1
176
     1
 90
        0
176
     1
 62
     7
176
     1
 62
   257
176
     1
 90
        1
176
     1
 90
        1
176
     1
 40
1.0
176
     1
 90
        8
176
     1
 62
     7
176
     1
 40
1.0
176
     1
 90
        1
176
     1
 90
        6
176
     1
 90
        2
176
     1
 62
     7
176
     1
 90
        3
176
     1
 90
        0
176
     1
 90
        0
176
     1
290
     0
176
     1
 90
       13
176
     1
 40
0.0
176
     1
 90
        0
176
     1
290
     0
176
     1
290
     1
176
     1
290
     1
176
     1
290
     0
176
     1
290
     0
176
     1
290
     0
176
     1
290
     0
176
     1
290
     0
176
     1
290
     0
176
     1
 90
       50
176
     1
 40
0.0
176
     1
 40
1.0
176
     1
 90
        0
176
     1
 62
    18
420
        0
176
     1
 90
       50
176
     1
 90
        3
176
     1
 62
     5
420
      255
176
     1
290
     0
176
     1
 90
       50
176
     1
 90
       50
176
     1
 90
       50
176
     1
290
     0
176
     1
 90
       50
176
     1
 62
   256
176
     0
 40
1.0
176
     0
 90
        2
176
     1
  1
strokes_ogs.tif
176
     1
290
     0
176
     1
 40
1.0
176
     1
 40
1.0
176
     1
  0
DICTIONARYVAR
  5
1F5
102
{ACAD_REACTORS
330
1F4
102
}
330
1F4
100
DictionaryVariables
280
     0
  1
1:1
  0
DICTIONARYVAR
  5
1FA
102
{ACAD_REACTORS
330
1F4
102
}
330
1F4
100
DictionaryVariables
280
     0
  1
Standard
  0
DICTIONARYVAR
  5
1F9
102
{ACAD_REACTORS
330
1F4
102
}
330
1F4
100
DictionaryVariables
280
     0
  1
Standard
  0
DICTIONARY
  5
1F6
330
6A
100
AcDbDictionary
280
     1
281
     1
  3
ACAD_ROUNDTRIP_2008_TABLESTYLE_CELLSTYLEMAP
360
1F7
  0
CELLSTYLEMAP
  5
1F7
102
{ACAD_REACTORS
330
1F6
102
}
330
1F6
100
AcDbCellStyleMap
 90
        3
300
CELLSTYLE
  1
TABLEFORMAT_BEGIN
 90
        5
170
     1
 91
        0
 92
    32768
 62
   257
 93
        1
300
CONTENTFORMAT
  1
CONTENTFORMAT_BEGIN
 90
        0
 91
        0
 92
        4
 93
        0
300

 40
0.0
140
1.0
 94
        5
 62
     0
340
11
144
6.0
309
CONTENTFORMAT_END
171
     1
301
MARGIN
  1
CELLMARGIN_BEGIN
 40
1.5
 40
1.5
 40
1.5
 40
1.5
 40
1.5
 40
1.5
309
CELLMARGIN_END
 94
        6
 95
        1
302
GRIDFORMAT
  1
GRIDFORMAT_BEGIN
 90
        0
 91
        1
 62
     0
 92
       -2
340
14
 93
        0
 40
0.045
309
GRIDFORMAT_END
 95
        2
302
GRIDFORMAT
  1
GRIDFORMAT_BEGIN
 90
        0
 91
        1
 62
     0
 92
       -2
340
14
 93
        0
 40
0.045
309
GRIDFORMAT_END
 95
        4
302
GRIDFORMAT
  1
GRIDFORMAT_BEGIN
 90
        0
 91
        1
 62
     0
 92
       -2
340
14
 93
        0
 40
0.045
309
GRIDFORMAT_END
 95
        8
302
GRIDFORMAT
  1
GRIDFORMAT_BEGIN
 90
        0
 91
        1
 62
     0
 92
       -2
340
14
 93
        0
 40
0.045
309
GRIDFORMAT_END
 95
       16
302
GRIDFORMAT
  1
GRIDFORMAT_BEGIN
 90
        0
 91
        1
 62
     0
 92
       -2
340
14
 93
        0
 40
0.045
309
GRIDFORMAT_END
 95
       32
302
GRIDFORMAT
  1
GRIDFORMAT_BEGIN
 90
        0
 91
        1
 62
     0
 92
       -2
340
14
 93
        0
 40
0.045
309
GRIDFORMAT_END
309
TABLEFORMAT_END
  1
CELLSTYLE_BEGIN
 90
        1
 91
        1
300
_TITLE
309
CELLSTYLE_END
300
CELLSTYLE
  1
TABLEFORMAT_BEGIN
 90
        5
170
     1
 91
        0
 92
        0
 62
   257
 93
        1
300
CONTENTFORMAT
  1
CONTENTFORMAT_BEGIN
 90
        0
 91
        0
 92
        4
 93
        0
300

 40
0.0
140
1.0
 94
        5
 62
     0
340
11
144
4.5
309
CONTENTFORMAT_END
171
     1
301
MARGIN
  1
CELLMARGIN_BEGIN
 40
1.5
 40
1.5
 40
1.5
 40
1.5
 40
1.5
 40
1.5
309
CELLMARGIN_END
 94
        6
 95
        1
302
GRIDFORMAT
  1
GRIDFORMAT_BEGIN
 90
        0
 91
        1
 62
     0
 92
       -2
340
14
 93
        0
 40
0.045
309
GRIDFORMAT_END
 95
        2
302
GRIDFORMAT
  1
GRIDFORMAT_BEGIN
 90
        0
 91
        1
 62
     0
 92
       -2
340
14
 93
        0
 40
0.045
309
GRIDFORMAT_END
 95
        4
302
GRIDFORMAT
  1
GRIDFORMAT_BEGIN
 90
        0
 91
        1
 62
     0
 92
       -2
340
14
 93
        0
 40
0.045
309
GRIDFORMAT_END
 95
        8
302
GRIDFORMAT
  1
GRIDFORMAT_BEGIN
 90
        0
 91
        1
 62
     0
 92
       -2
340
14
 93
        0
 40
0.045
309
GRIDFORMAT_END
 95
       16
302
GRIDFORMAT
  1
GRIDFORMAT_BEGIN
 90
        0
 91
        1
 62
     0
 92
       -2
340
14
 93
        0
 40
0.045
309
GRIDFORMAT_END
 95
       32
302
GRIDFORMAT
  1
GRIDFORMAT_BEGIN
 90
        0
 91
        1
 62
     0
 92
       -2
340
14
 93
        0
 40
0.045
309
GRIDFORMAT_END
309
TABLEFORMAT_END
  1
CELLSTYLE_BEGIN
 90
        2
 91
        1
300
_HEADER
309
CELLSTYLE_END
300
CELLSTYLE
  1
TABLEFORMAT_BEGIN
 90
        5
170
     1
 91
        0
 92
        0
 62
   257
 93
        1
300
CONTENTFORMAT
  1
CONTENTFORMAT_BEGIN
 90
        0
 91
        0
 92
        4
 93
        0
300

 40
0.0
140
1.0
 94
        2
 62
     0
340
11
144
4.5
309
CONTENTFORMAT_END
171
     1
301
MARGIN
  1
CELLMARGIN_BEGIN
 40
1.5
 40
1.5
 40
1.5
 40
1.5
 40
1.5
 40
1.5
309
CELLMARGIN_END
 94
        6
 95
        1
302
GRIDFORMAT
  1
GRIDFORMAT_BEGIN
 90
        0
 91
        1
 62
     0
 92
       -2
340
14
 93
        0
 40
0.045
309
GRIDFORMAT_END
 95
        2
302
GRIDFORMAT
  1
GRIDFORMAT_BEGIN
 90
        0
 91
        1
 62
     0
 92
       -2
340
14
 93
        0
 40
0.045
309
GRIDFORMAT_END
 95
        4
302
GRIDFORMAT
  1
GRIDFORMAT_BEGIN
 90
        0
 91
        1
 62
     0
 92
       -2
340
14
 93
        0
 40
0.045
309
GRIDFORMAT_END
 95
        8
302
GRIDFORMAT
  1
GRIDFORMAT_BEGIN
 90
        0
 91
        1
 62
     0
 92
       -2
340
14
 93
        0
 40
0.045
309
GRIDFORMAT_END
 95
       16
302
GRIDFORMAT
  1
GRIDFORMAT_BEGIN
 90
        0
 91
        1
 62
     0
 92
       -2
340
14
 93
        0
 40
0.045
309
GRIDFORMAT_END
 95
       32
302
GRIDFORMAT
  1
GRIDFORMAT_BEGIN
 90
        0
 91
        1
 62
     0
 92
       -2
340
14
 93
        0
 40
0.045
309
GRIDFORMAT_END
309
TABLEFORMAT_END
  1
CELLSTYLE_BEGIN
 90
        3
 91
        2
300
_DATA
309
CELLSTYLE_END
  0
ENDSEC
  0
EOF