0
SECTION
  2
HEADER
  9
$ACADVER
  1
AC1027
  9
$ACADMAINTVER
 70
     8
  9
$DWGCODEPAGE
  3
ANSI_1252
  9
$REQUIREDVERSIONS
160
                 0
  9
$COMMENTS
  1
File was created by Cadenas
  9
$CUSTOMPROPERTYTAG
  1
NN
  9
$CUSTOMPROPERTY
  1
Grip Tight Two-Bolt Flange Metric Bore
  9
$CUSTOMPROPERTYTAG
  1
NT
  9
$CUSTOMPROPERTY
  1
GT Normal Duty 2 Bolt Flange Bearings
  9
$CUSTOMPROPERTYTAG
  1
NB
  9
$CUSTOMPROPERTY
  1
129325
  9
$CUSTOMPROPERTYTAG
  1
NBSYN
  9
$CUSTOMPROPERTY
  1
$PN.$LUBE.
  9
$CUSTOMPROPERTYTAG
  1
LINA
  9
$CUSTOMPROPERTY
  1
129325
  9
$CUSTOMPROPERTYTAG
  1
SERIES
  9
$CUSTOMPROPERTY
  1
207
  9
$CUSTOMPROPERTYTAG
  1
SS
  9
$CUSTOMPROPERTY
  1
35
  9
$CUSTOMPROPERTYTAG
  1
PN
  9
$CUSTOMPROPERTY
  1
129325
  9
$CUSTOMPROPERTYTAG
  1
DESCRIPTION
  9
$CUSTOMPROPERTY
  1
F2B-GT-35M
  9
$CUSTOMPROPERTYTAG
  1
A
  9
$CUSTOMPROPERTY
  1
41.3
  9
$CUSTOMPROPERTYTAG
  1
B
  9
$CUSTOMPROPERTY
  1
155.6
  9
$CUSTOMPROPERTYTAG
  1
C
  9
$CUSTOMPROPERTY
  1
45.2
  9
$CUSTOMPROPERTYTAG
  1
D
  9
$CUSTOMPROPERTY
  1
130.2
  9
$CUSTOMPROPERTYTAG
  1
F
  9
$CUSTOMPROPERTY
  1
M12
  9
$CUSTOMPROPERTYTAG
  1
H
  9
$CUSTOMPROPERTY
  1
14.3
  9
$CUSTOMPROPERTYTAG
  1
J
  9
$CUSTOMPROPERTY
  1
13.9
  9
$CUSTOMPROPERTYTAG
  1
L
  9
$CUSTOMPROPERTY
  1
58.3
  9
$CUSTOMPROPERTYTAG
  1
M
  9
$CUSTOMPROPERTY
  1
95.3
  9
$CUSTOMPROPERTYTAG
  1
N
  9
$CUSTOMPROPERTY
  1
46.8
  9
$CUSTOMPROPERTYTAG
  1
Z
  9
$CUSTOMPROPERTY
  1
44.8
  9
$CUSTOMPROPERTYTAG
  1
COMPANY
  9
$CUSTOMPROPERTY
  1
baldor
  9
$INSBASE
 10
0.0
 20
0.0
 30
0.0
  9
$EXTMIN
 10
1.000000000000000E+20
 20
1.000000000000000E+20
 30
1.000000000000000E+20
  9
$EXTMAX
 10
-1.000000000000000E+20
 20
-1.000000000000000E+20
 30
-1.000000000000000E+20
  9
$LIMMIN
 10
0.0
 20
0.0
  9
$LIMMAX
 10
420.0
 20
297.0
  9
$ORTHOMODE
 70
     0
  9
$REGENMODE
 70
     1
  9
$FILLMODE
 70
     1
  9
$QTEXTMODE
 70
     0
  9
$MIRRTEXT
 70
     1
  9
$LTSCALE
 40
1.0
  9
$ATTMODE
 70
     1
  9
$TEXTSIZE
 40
2.5
  9
$TRACEWID
 40
1.0
  9
$TEXTSTYLE
  7
Standard
  9
$CLAYER
  8
0
  9
$CELTYPE
  6
ByLayer
  9
$CECOLOR
 62
   256
  9
$CELTSCALE
 40
1.0
  9
$DISPSILH
 70
     0
  9
$DIMSCALE
 40
1.0
  9
$DIMASZ
 40
2.5
  9
$DIMEXO
 40
0.625
  9
$DIMDLI
 40
3.75
  9
$DIMRND
 40
0.0
  9
$DIMDLE
 40
0.0
  9
$DIMEXE
 40
1.25
  9
$DIMTP
 40
0.0
  9
$DIMTM
 40
0.0
  9
$DIMTXT
 40
2.5
  9
$DIMCEN
 40
2.5
  9
$DIMTSZ
 40
0.0
  9
$DIMTOL
 70
     0
  9
$DIMLIM
 70
     0
  9
$DIMTIH
 70
     0
  9
$DIMTOH
 70
     0
  9
$DIMSE1
 70
     0
  9
$DIMSE2
 70
     0
  9
$DIMTAD
 70
     1
  9
$DIMZIN
 70
     8
  9
$DIMBLK
  1

  9
$DIMASO
 70
     1
  9
$DIMSHO
 70
     1
  9
$DIMPOST
  1

  9
$DIMAPOST
  1

  9
$DIMALT
 70
     0
  9
$DIMALTD
 70
     3
  9
$DIMALTF
 40
0.03937007874016
  9
$DIMLFAC
 40
1.0
  9
$DIMTOFL
 70
     1
  9
$DIMTVP
 40
0.0
  9
$DIMTIX
 70
     0
  9
$DIMSOXD
 70
     0
  9
$DIMSAH
 70
     0
  9
$DIMBLK1
  1

  9
$DIMBLK2
  1

  9
$DIMSTYLE
  2
ISO-25
  9
$DIMCLRD
 70
     0
  9
$DIMCLRE
 70
     0
  9
$DIMCLRT
 70
     0
  9
$DIMTFAC
 40
1.0
  9
$DIMGAP
 40
0.625
  9
$DIMJUST
 70
     0
  9
$DIMSD1
 70
     0
  9
$DIMSD2
 70
     0
  9
$DIMTOLJ
 70
     0
  9
$DIMTZIN
 70
     8
  9
$DIMALTZ
 70
     0
  9
$DIMALTTZ
 70
     0
  9
$DIMUPT
 70
     0
  9
$DIMDEC
 70
     2
  9
$DIMTDEC
 70
     2
  9
$DIMALTU
 70
     2
  9
$DIMALTTD
 70
     3
  9
$DIMTXSTY
  7
Standard
  9
$DIMAUNIT
 70
     0
  9
$DIMADEC
 70
     0
  9
$DIMALTRND
 40
0.0
  9
$DIMAZIN
 70
     0
  9
$DIMDSEP
 70
    44
  9
$DIMATFIT
 70
     3
  9
$DIMFRAC
 70
     0
  9
$DIMLDRBLK
  1

  9
$DIMLUNIT
 70
     2
  9
$DIMLWD
 70
    -2
  9
$DIMLWE
 70
    -2
  9
$DIMTMOVE
 70
     0
  9
$DIMFXL
 40
1.0
  9
$DIMFXLON
 70
     0
  9
$DIMJOGANG
 40
0.7853981633974483
  9
$DIMTFILL
 70
     0
  9
$DIMTFILLCLR
 70
     0
  9
$DIMARCSYM
 70
     0
  9
$DIMLTYPE
  6

  9
$DIMLTEX1
  6

  9
$DIMLTEX2
  6

  9
$DIMTXTDIRECTION
 70
     0
  9
$LUNITS
 70
     2
  9
$LUPREC
 70
     4
  9
$SKETCHINC
 40
1.0
  9
$FILLETRAD
 40
10.0
  9
$AUNITS
 70
     0
  9
$AUPREC
 70
     0
  9
$MENU
  1
.
  9
$ELEVATION
 40
0.0
  9
$PELEVATION
 40
0.0
  9
$THICKNESS
 40
0.0
  9
$LIMCHECK
 70
     0
  9
$CHAMFERA
 40
0.0
  9
$CHAMFERB
 40
0.0
  9
$CHAMFERC
 40
0.0
  9
$CHAMFERD
 40
0.0
  9
$SKPOLY
 70
     0
  9
$TDCREATE
 40
2458168.995070949
  9
$TDUCREATE
 40
2458168.953404282
  9
$TDUPDATE
 40
2458168.995071134
  9
$TDUUPDATE
 40
2458168.953404468
  9
$TDINDWG
 40
0.0000000116
  9
$TDUSRTIMER
 40
0.0000000116
  9
$USRTIMER
 70
     1
  9
$ANGBASE
 50
0.0
  9
$ANGDIR
 70
     0
  9
$PDMODE
 70
     0
  9
$PDSIZE
 40
0.0
  9
$PLINEWID
 40
0.0
  9
$SPLFRAME
 70
     0
  9
$SPLINETYPE
 70
     6
  9
$SPLINESEGS
 70
     8
  9
$HANDSEED
  5
21C
  9
$SURFTAB1
 70
     6
  9
$SURFTAB2
 70
     6
  9
$SURFTYPE
 70
     6
  9
$SURFU
 70
     6
  9
$SURFV
 70
     6
  9
$UCSBASE
  2

  9
$UCSNAME
  2

  9
$UCSORG
 10
0.0
 20
0.0
 30
0.0
  9
$UCSXDIR
 10
1.0
 20
0.0
 30
0.0
  9
$UCSYDIR
 10
0.0
 20
1.0
 30
0.0
  9
$UCSORTHOREF
  2

  9
$UCSORTHOVIEW
 70
     0
  9
$UCSORGTOP
 10
0.0
 20
0.0
 30
0.0
  9
$UCSORGBOTTOM
 10
0.0
 20
0.0
 30
0.0
  9
$UCSORGLEFT
 10
0.0
 20
0.0
 30
0.0
  9
$UCSORGRIGHT
 10
0.0
 20
0.0
 30
0.0
  9
$UCSORGFRONT
 10
0.0
 20
0.0
 30
0.0
  9
$UCSORGBACK
 10
0.0
 20
0.0
 30
0.0
  9
$PUCSBASE
  2

  9
$PUCSNAME
  2

  9
$PUCSORG
 10
0.0
 20
0.0
 30
0.0
  9
$PUCSXDIR
 10
1.0
 20
0.0
 30
0.0
  9
$PUCSYDIR
 10
0.0
 20
1.0
 30
0.0
  9
$PUCSORTHOREF
  2

  9
$PUCSORTHOVIEW
 70
     0
  9
$PUCSORGTOP
 10
0.0
 20
0.0
 30
0.0
  9
$PUCSORGBOTTOM
 10
0.0
 20
0.0
 30
0.0
  9
$PUCSORGLEFT
 10
0.0
 20
0.0
 30
0.0
  9
$PUCSORGRIGHT
 10
0.0
 20
0.0
 30
0.0
  9
$PUCSORGFRONT
 10
0.0
 20
0.0
 30
0.0
  9
$PUCSORGBACK
 10
0.0
 20
0.0
 30
0.0
  9
$USERI1
 70
     0
  9
$USERI2
 70
     0
  9
$USERI3
 70
     0
  9
$USERI4
 70
     0
  9
$USERI5
 70
     0
  9
$USERR1
 40
0.0
  9
$USERR2
 40
0.0
  9
$USERR3
 40
0.0
  9
$USERR4
 40
0.0
  9
$USERR5
 40
0.0
  9
$WORLDVIEW
 70
     1
  9
$SHADEDGE
 70
     3
  9
$SHADEDIF
 70
    70
  9
$TILEMODE
 70
     1
  9
$MAXACTVP
 70
    64
  9
$PINSBASE
 10
0.0
 20
0.0
 30
0.0
  9
$PLIMCHECK
 70
     0
  9
$PEXTMIN
 10
1.000000000000000E+20
 20
1.000000000000000E+20
 30
1.000000000000000E+20
  9
$PEXTMAX
 10
-1.000000000000000E+20
 20
-1.000000000000000E+20
 30
-1.000000000000000E+20
  9
$PLIMMIN
 10
0.0
 20
0.0
  9
$PLIMMAX
 10
420.0
 20
297.0
  9
$UNITMODE
 70
     0
  9
$VISRETAIN
 70
     1
  9
$PLINEGEN
 70
     0
  9
$PSLTSCALE
 70
     1
  9
$TREEDEPTH
 70
  3020
  9
$CMLSTYLE
  2
Standard
  9
$CMLJUST
 70
     0
  9
$CMLSCALE
 40
20.0
  9
$PROXYGRAPHICS
 70
     1
  9
$MEASUREMENT
 70
     1
  9
$CELWEIGHT
370
    -1
  9
$ENDCAPS
280
     0
  9
$JOINSTYLE
280
     0
  9
$LWDISPLAY
290
     0
  9
$INSUNITS
 70
     4
  9
$HYPERLINKBASE
  1

  9
$STYLESHEET
  1

  9
$XEDIT
290
     1
  9
$CEPSNTYPE
380
     0
  9
$PSTYLEMODE
290
     1
  9
$FINGERPRINTGUID
  2
{028391A8-A678-4CB6-A28B-91392A322AEE}
  9
$VERSIONGUID
  2
{FAEB1C32-E019-11D5-929B-00C0DF256EC4}
  9
$EXTNAMES
290
     1
  9
$PSVPSCALE
 40
0.0
  9
$OLESTARTUP
290
     0
  9
$SORTENTS
280
   127
  9
$INDEXCTL
280
     0
  9
$HIDETEXT
280
     1
  9
$XCLIPFRAME
280
     2
  9
$HALOGAP
280
     0
  9
$OBSCOLOR
 70
   257
  9
$OBSLTYPE
280
     0
  9
$INTERSECTIONDISPLAY
280
     0
  9
$INTERSECTIONCOLOR
 70
   257
  9
$DIMASSOC
280
     2
  9
$PROJECTNAME
  1

  9
$CAMERADISPLAY
290
     0
  9
$LENSLENGTH
 40
50.0
  9
$CAMERAHEIGHT
 40
0.0
  9
$STEPSPERSEC
 40
2.0
  9
$STEPSIZE
 40
6.0
  9
$3DDWFPREC
 40
2.0
  9
$PSOLWIDTH
 40
5.0
  9
$PSOLHEIGHT
 40
80.0
  9
$LOFTANG1
 40
1.570796326794897
  9
$LOFTANG2
 40
1.570796326794897
  9
$LOFTMAG1
 40
0.0
  9
$LOFTMAG2
 40
0.0
  9
$LOFTPARAM
 70
     7
  9
$LOFTNORMALS
280
     1
  9
$LATITUDE
 40
37.795
  9
$LONGITUDE
 40
-122.394
  9
$NORTHDIRECTION
 40
0.0
  9
$TIMEZONE
 70
 -8000
  9
$LIGHTGLYPHDISPLAY
280
     1
  9
$TILEMODELIGHTSYNCH
280
     1
  9
$CMATERIAL
347
44
  9
$SOLIDHIST
280
     0
  9
$SHOWHIST
280
     1
  9
$DWFFRAME
280
     2
  9
$DGNFRAME
280
     2
  9
$REALWORLDSCALE
290
     1
  9
$INTERFERECOLOR
 62
   256
  9
$CSHADOW
280
     0
  9
$SHADOWPLANELOCATION
 40
0.0
  0
ENDSEC
  0
SECTION
  2
CLASSES
  0
CLASS
  1
ACDBDICTIONARYWDFLT
  2
AcDbDictionaryWithDefault
  3
ObjectDBX Classes
 90
        0
 91
        4
280
     0
281
     0
  0
CLASS
  1
VISUALSTYLE
  2
AcDbVisualStyle
  3
ObjectDBX Classes
 90
     4095
 91
        4
280
     0
281
     0
  0
CLASS
  1
MATERIAL
  2
AcDbMaterial
  3
ObjectDBX Classes
 90
     1153
 91
        4
280
     0
281
     0
  0
CLASS
  1
SCALE
  2
AcDbScale
  3
ObjectDBX Classes
 90
     1153
 91
        4
280
     0
281
     0
  0
CLASS
  1
TABLESTYLE
  2
AcDbTableStyle
  3
ObjectDBX Classes
 90
     4095
 91
        4
280
     0
281
     0
  0
CLASS
  1
MLEADERSTYLE
  2
AcDbMLeaderStyle
  3
ACDB_MLEADERSTYLE_CLASS
 90
     4095
 91
        4
280
     0
281
     0
  0
CLASS
  1
SUN
  2
AcDbSun
  3
SCENEOE
 90
     1153
 91
        4
280
     0
281
     0
  0
CLASS
  1
DICTIONARYVAR
  2
AcDbDictionaryVar
  3
ObjectDBX Classes
 90
        0
 91
        4
280
     0
281
     0
  0
CLASS
  1
CELLSTYLEMAP
  2
AcDbCellStyleMap
  3
ObjectDBX Classes
 90
     1152
 91
        4
280
     0
281
     0
  0
ENDSEC
  0
SECTION
  2
TABLES
  0
TABLE
  2
VPORT
  5
8
330
0
100
AcDbSymbolTable
 70
     1
  0
VPORT
  5
29
330
8
100
AcDbSymbolTableRecord
100
AcDbViewportTableRecord
  2
*Active
 70
     0
 10
0.0
 20
0.0
 11
1.0
 21
1.0
 12
-22.85999999999996
 22
0.0
 13
0.0
 23
0.0
 14
10.0
 24
10.0
 15
10.0
 25
10.0
 16
0.0
 26
0.0
 36
1.0
 17
0.0
 27
0.0
 37
0.0
 40
158.712
 41
0.3136889460154239
 42
50.0
 43
0.0
 44
0.0
 50
0.0
 51
0.0
 71
     0
 72
   100
 73
     1
 74
     3
 75
     0
 76
     0
 77
     0
 78
     0
281
     0
 65
     1
110
0.0
120
0.0
130
0.0
111
1.0
121
0.0
131
0.0
112
0.0
122
1.0
132
0.0
 79
     0
146
0.0
348
2F
 60
     3
 61
     5
292
     1
282
     1
141
0.0
142
0.0
 63
   250
361
6D
  0
ENDTAB
  0
TABLE
  2
LTYPE
  5
5
330
0
100
AcDbSymbolTable
 70
     3
  0
LTYPE
  5
14
330
5
100
AcDbSymbolTableRecord
100
AcDbLinetypeTableRecord
  2
ByBlock
 70
     0
  3

 72
    65
 73
     0
 40
0.0
  0
LTYPE
  5
15
330
5
100
AcDbSymbolTableRecord
100
AcDbLinetypeTableRecord
  2
ByLayer
 70
     0
  3

 72
    65
 73
     0
 40
0.0
  0
LTYPE
  5
16
330
5
100
AcDbSymbolTableRecord
100
AcDbLinetypeTableRecord
  2
Continuous
 70
     0
  3
Solid line
 72
    65
 73
     0
 40
0.0
  0
LTYPE
  5
9E
330
5
100
AcDbSymbolTableRecord
100
AcDbLinetypeTableRecord
  2
Dashed
 70
     0
  3

 72
    65
 73
     2
 40
2.0
 49
1.0
 74
     0
 49
-1.0
 74
     0
  0
LTYPE
  5
10F
330
5
100
AcDbSymbolTableRecord
100
AcDbLinetypeTableRecord
  2
Center
 70
     0
  3

 72
    65
 73
     4
 40
1.5
 49
0.45
 74
     0
 49
-0.5
 74
     0
 49
0.05
 74
     0
 49
-0.5
 74
     0
  0
ENDTAB
  0
TABLE
  2
LAYER
  5
2
330
0
100
AcDbSymbolTable
 70
     7
  0
LAYER
  5
10
330
2
100
AcDbSymbolTableRecord
100
AcDbLayerTableRecord
  2
0
 70
     0
 62
     7
  6
Continuous
370
    -3
390
F
347
46
348
0
  0
LAYER
  5
72
330
2
100
AcDbSymbolTableRecord
100
AcDbLayerTableRecord
  2
AM_6
 70
     0
 62
    -2
  6
Continuous
370
    35
390
F
347
46
348
0
  0
LAYER
  5
9F
330
2
100
AcDbSymbolTableRecord
100
AcDbLayerTableRecord
  2
AM_9
 70
     0
 62
     6
  6
Dashed
370
    25
390
F
347
46
348
0
  0
LAYER
  5
CF
330
2
100
AcDbSymbolTableRecord
100
AcDbLayerTableRecord
  2
AM_4
 70
     0
 62
     7
  6
Continuous
370
    50
390
F
347
46
348
0
  0
LAYER
  5
110
330
2
100
AcDbSymbolTableRecord
100
AcDbLayerTableRecord
  2
AM_7
 70
     0
 62
     7
  6
Center
370
    25
390
F
347
46
348
0
  0
LAYER
  5
123
330
2
100
AcDbSymbolTableRecord
100
AcDbLayerTableRecord
  2
AM_5
 70
     0
 62
     3
  6
Continuous
370
    25
390
F
347
46
348
0
  0
LAYER
  5
20F
330
2
100
AcDbSymbolTableRecord
100
AcDbLayerTableRecord
  2
ConnectionPoints
 70
     0
 62
     7
  6
Continuous
370
    50
390
F
347
46
348
0
  0
ENDTAB
  0
TABLE
  2
STYLE
  5
3
330
0
100
AcDbSymbolTable
 70
     1
  0
STYLE
  5
11
330
3
100
AcDbSymbolTableRecord
100
AcDbTextStyleTableRecord
  2
Standard
 70
     0
 40
0.0
 41
1.0
 50
0.0
 71
     0
 42
2.5
  3
txt
  4

  0
ENDTAB
  0
TABLE
  2
VIEW
  5
6
330
0
100
AcDbSymbolTable
 70
     0
  0
ENDTAB
  0
TABLE
  2
UCS
  5
7
330
0
100
AcDbSymbolTable
 70
     0
  0
ENDTAB
  0
TABLE
  2
APPID
  5
9
330
0
100
AcDbSymbolTable
 70
     1
  0
APPID
  5
12
330
9
100
AcDbSymbolTableRecord
100
AcDbRegAppTableRecord
  2
ACAD
 70
     0
  0
ENDTAB
  0
TABLE
  2
DIMSTYLE
  5
A
330
0
100
AcDbSymbolTable
 70
     1
100
AcDbDimStyleTable
  0
DIMSTYLE
105
27
330
A
100
AcDbSymbolTableRecord
100
AcDbDimStyleTableRecord
  2
ISO-25
 70
     0
 41
2.5
 42
0.625
 43
3.75
 44
1.25
 73
     0
 74
     0
 77
     1
 78
     8
140
2.5
141
2.5
143
0.03937007874016
147
0.625
171
     3
172
     1
178
     0
271
     2
272
     2
274
     3
278
    44
283
     0
284
     8
340
11
  0
ENDTAB
  0
TABLE
  2
BLOCK_RECORD
  5
1
330
0
100
AcDbSymbolTable
 70
     5
  0
BLOCK_RECORD
  5
1F
330
1
100
AcDbSymbolTableRecord
100
AcDbBlockTableRecord
  2
*Model_Space
340
22
 70
     0
280
     1
281
     0
  0
BLOCK_RECORD
  5
1B
330
1
100
AcDbSymbolTableRecord
100
AcDbBlockTableRecord
  2
*Paper_Space
340
1E
 70
     0
280
     1
281
     0
  0
BLOCK_RECORD
  5
23
330
1
100
AcDbSymbolTableRecord
100
AcDbBlockTableRecord
  2
*Paper_Space0
340
26
 70
     0
280
     1
281
     0
  0
BLOCK_RECORD
  5
6E
330
1
100
AcDbSymbolTableRecord
100
AcDbBlockTableRecord
  2
1_129325_2
340
0
102
{BLKREFS
331
6F
102
}
 70
     0
280
     1
281
     0
  0
BLOCK_RECORD
  5
88
330
1
100
AcDbSymbolTableRecord
100
AcDbBlockTableRecord
  2
2_129520_0_in_129325_2
340
0
102
{BLKREFS
331
89
102
}
 70
     0
280
     1
281
     0
  0
BLOCK_RECORD
  5
D2
330
1
100
AcDbSymbolTableRecord
100
AcDbBlockTableRecord
  2
3_129946_0_in_129325_2
340
0
102
{BLKREFS
331
D3
102
}
 70
     0
280
     1
281
     0
  0
BLOCK_RECORD
  5
125
330
1
100
AcDbSymbolTableRecord
100
AcDbBlockTableRecord
  2
4_129494_0_in_129325_2
340
0
102
{BLKREFS
331
126
102
}
 70
     0
280
     1
281
     0
  0
ENDTAB
  0
ENDSEC
  0
SECTION
  2
BLOCKS
  0
BLOCK
  5
20
330
1F
100
AcDbEntity
  8
0
100
AcDbBlockBegin
  2
*Model_Space
 70
     0
 10
0.0
 20
0.0
 30
0.0
  3
*Model_Space
  1

  0
ENDBLK
  5
21
330
1F
100
AcDbEntity
  8
0
100
AcDbBlockEnd
  0
BLOCK
  5
1C
330
1B
100
AcDbEntity
 67
     1
  8
0
100
AcDbBlockBegin
  2
*Paper_Space
 70
     0
 10
0.0
 20
0.0
 30
0.0
  3
*Paper_Space
  1

  0
ENDBLK
  5
1D
330
1B
100
AcDbEntity
 67
     1
  8
0
100
AcDbBlockEnd
  0
BLOCK
  5
24
330
23
100
AcDbEntity
  8
0
100
AcDbBlockBegin
  2
*Paper_Space0
 70
     0
 10
0.0
 20
0.0
 30
0.0
  3
*Paper_Space0
  1

  0
ENDBLK
  5
25
330
23
100
AcDbEntity
  8
0
100
AcDbBlockEnd
  0
BLOCK
  5
70
330
6E
100
AcDbEntity
  8
0
100
AcDbBlockBegin
  2
1_129325_2
 70
     2
 10
0.0
 20
0.0
 30
0.0
  3
1_129325_2
  1

  0
ATTDEF
  5
73
330
6E
100
AcDbEntity
  8
AM_6
100
AcDbText
 10
6.545
 20
77.79999999999998
 30
0.0
 40
0.5
  1
Grip Tight Two-Bolt Flange Metric Bore
100
AcDbAttributeDefinition
  3

  2
NN
 70
     8
280
     0
  0
ATTDEF
  5
74
330
6E
100
AcDbEntity
  8
AM_6
100
AcDbText
 10
6.545
 20
77.29999999999998
 30
0.0
 40
0.5
  1
GT Normal Duty 2 Bolt Flange Bearings
100
AcDbAttributeDefinition
  3

  2
NT
 70
     8
280
     0
  0
ATTDEF
  5
75
330
6E
100
AcDbEntity
  8
AM_6
100
AcDbText
 10
6.545
 20
76.79999999999998
 30
0.0
 40
0.5
  1
129325
100
AcDbAttributeDefinition
  3

  2
NB
 70
     8
280
     0
  0
ATTDEF
  5
76
330
6E
100
AcDbEntity
  8
AM_6
100
AcDbText
 10
6.545
 20
76.29999999999998
 30
0.0
 40
0.5
  1
$PN.$LUBE.
100
AcDbAttributeDefinition
  3

  2
NBSYN
 70
     8
280
     0
  0
ATTDEF
  5
77
330
6E
100
AcDbEntity
  8
AM_6
100
AcDbText
 10
6.545
 20
75.79999999999998
 30
0.0
 40
0.5
  1
129325
100
AcDbAttributeDefinition
  3

  2
LINA
 70
     8
280
     0
  0
ATTDEF
  5
78
330
6E
100
AcDbEntity
  8
AM_6
100
AcDbText
 10
6.545
 20
75.29999999999998
 30
0.0
 40
0.5
  1
207
100
AcDbAttributeDefinition
  3

  2
SERIES
 70
     8
280
     0
  0
ATTDEF
  5
79
330
6E
100
AcDbEntity
  8
AM_6
100
AcDbText
 10
6.545
 20
74.79999999999998
 30
0.0
 40
0.5
  1
35
100
AcDbAttributeDefinition
  3

  2
SS
 70
     8
280
     0
  0
ATTDEF
  5
7A
330
6E
100
AcDbEntity
  8
AM_6
100
AcDbText
 10
6.545
 20
74.29999999999998
 30
0.0
 40
0.5
  1
129325
100
AcDbAttributeDefinition
  3

  2
PN
 70
     8
280
     0
  0
ATTDEF
  5
7B
330
6E
100
AcDbEntity
  8
AM_6
100
AcDbText
 10
6.545
 20
73.79999999999998
 30
0.0
 40
0.5
  1
F2B-GT-35M
100
AcDbAttributeDefinition
  3

  2
DESCRIPTION
 70
     8
280
     0
  0
ATTDEF
  5
7C
330
6E
100
AcDbEntity
  8
AM_6
100
AcDbText
 10
6.545
 20
73.29999999999998
 30
0.0
 40
0.5
  1
41.3
100
AcDbAttributeDefinition
  3

  2
A
 70
     8
280
     0
  0
ATTDEF
  5
7D
330
6E
100
AcDbEntity
  8
AM_6
100
AcDbText
 10
6.545
 20
72.79999999999998
 30
0.0
 40
0.5
  1
155.6
100
AcDbAttributeDefinition
  3

  2
B
 70
     8
280
     0
  0
ATTDEF
  5
7E
330
6E
100
AcDbEntity
  8
AM_6
100
AcDbText
 10
6.545
 20
72.29999999999998
 30
0.0
 40
0.5
  1
45.2
100
AcDbAttributeDefinition
  3

  2
C
 70
     8
280
     0
  0
ATTDEF
  5
7F
330
6E
100
AcDbEntity
  8
AM_6
100
AcDbText
 10
6.545
 20
71.79999999999998
 30
0.0
 40
0.5
  1
130.2
100
AcDbAttributeDefinition
  3

  2
D
 70
     8
280
     0
  0
ATTDEF
  5
80
330
6E
100
AcDbEntity
  8
AM_6
100
AcDbText
 10
6.545
 20
71.29999999999998
 30
0.0
 40
0.5
  1
M12
100
AcDbAttributeDefinition
  3

  2
F
 70
     8
280
     0
  0
ATTDEF
  5
81
330
6E
100
AcDbEntity
  8
AM_6
100
AcDbText
 10
6.545
 20
70.79999999999998
 30
0.0
 40
0.5
  1
14.3
100
AcDbAttributeDefinition
  3

  2
H
 70
     8
280
     0
  0
ATTDEF
  5
82
330
6E
100
AcDbEntity
  8
AM_6
100
AcDbText
 10
6.545
 20
70.29999999999998
 30
0.0
 40
0.5
  1
13.9
100
AcDbAttributeDefinition
  3

  2
J
 70
     8
280
     0
  0
ATTDEF
  5
83
330
6E
100
AcDbEntity
  8
AM_6
100
AcDbText
 10
6.545
 20
69.79999999999998
 30
0.0
 40
0.5
  1
58.3
100
AcDbAttributeDefinition
  3

  2
L
 70
     8
280
     0
  0
ATTDEF
  5
84
330
6E
100
AcDbEntity
  8
AM_6
100
AcDbText
 10
6.545
 20
69.29999999999998
 30
0.0
 40
0.5
  1
95.3
100
AcDbAttributeDefinition
  3

  2
M
 70
     8
280
     0
  0
ATTDEF
  5
85
330
6E
100
AcDbEntity
  8
AM_6
100
AcDbText
 10
6.545
 20
68.79999999999998
 30
0.0
 40
0.5
  1
46.8
100
AcDbAttributeDefinition
  3

  2
N
 70
     8
280
     0
  0
ATTDEF
  5
86
330
6E
100
AcDbEntity
  8
AM_6
100
AcDbText
 10
6.545
 20
68.29999999999998
 30
0.0
 40
0.5
  1
44.8
100
AcDbAttributeDefinition
  3

  2
Z
 70
     8
280
     0
  0
ATTDEF
  5
87
330
6E
100
AcDbEntity
  8
AM_6
100
AcDbText
 10
6.545
 20
67.79999999999998
 30
0.0
 40
0.5
  1
baldor
100
AcDbAttributeDefinition
  3

  2
COMPANY
 70
     8
280
     0
  0
INSERT
  5
89
330
6E
100
AcDbEntity
  8
0
100
AcDbBlockReference
  2
2_129520_0_in_129325_2
 10
0.0
 20
0.0
 30
0.0
  0
INSERT
  5
D3
330
6E
100
AcDbEntity
  8
0
100
AcDbBlockReference
  2
3_129946_0_in_129325_2
 10
0.0
 20
0.0
 30
0.0
  0
INSERT
  5
126
330
6E
100
AcDbEntity
  8
0
100
AcDbBlockReference
  2
4_129494_0_in_129325_2
 10
0.0
 20
0.0
 30
0.0
  0
ENDBLK
  5
71
330
6E
100
AcDbEntity
  8
0
100
AcDbBlockEnd
  0
BLOCK
  5
8A
330
88
100
AcDbEntity
  8
0
100
AcDbBlockBegin
  2
2_129520_0_in_129325_2
 70
     2
 10
0.0
 20
0.0
 30
0.0
  3
2_129520_0_in_129325_2
  1

  0
ATTDEF
  5
8C
330
88
100
AcDbEntity
  8
AM_6
100
AcDbText
 10
-0.8700000000000072
 20
35.99948524199046
 30
0.0
 40
0.5
  1
INS-GT-M B
100
AcDbAttributeDefinition
  3

  2
NN
 70
     8
280
     0
  0
ATTDEF
  5
8D
330
88
100
AcDbEntity
  8
AM_6
100
AcDbText
 10
-0.8700000000000072
 20
35.49948524199046
 30
0.0
 40
0.5
  1
GT Normal Duty Bearing Inserts
100
AcDbAttributeDefinition
  3

  2
NT
 70
     8
280
     0
  0
ATTDEF
  5
8E
330
88
100
AcDbEntity
  8
AM_6
100
AcDbText
 10
-0.8700000000000072
 20
34.99948524199046
 30
0.0
 40
0.5
  1
129520
100
AcDbAttributeDefinition
  3

  2
NB
 70
     8
280
     0
  0
ATTDEF
  5
8F
330
88
100
AcDbEntity
  8
AM_6
100
AcDbText
 10
-0.8700000000000072
 20
34.49948524199046
 30
0.0
 40
0.5
  1
$PN.
100
AcDbAttributeDefinition
  3

  2
NBSYN
 70
     8
280
     0
  0
ATTDEF
  5
90
330
88
100
AcDbEntity
  8
AM_6
100
AcDbText
 10
-0.8700000000000072
 20
33.99948524199046
 30
0.0
 40
0.5
  1
129520
100
AcDbAttributeDefinition
  3

  2
LINA
 70
     8
280
     0
  0
ATTDEF
  5
91
330
88
100
AcDbEntity
  8
AM_6
100
AcDbText
 10
-0.8700000000000072
 20
33.49948524199046
 30
0.0
 40
0.5
  1
207
100
AcDbAttributeDefinition
  3

  2
SERIES
 70
     8
280
     0
  0
ATTDEF
  5
92
330
88
100
AcDbEntity
  8
AM_6
100
AcDbText
 10
-0.8700000000000072
 20
32.99948524199046
 30
0.0
 40
0.5
  1
129520
100
AcDbAttributeDefinition
  3

  2
PN
 70
     8
280
     0
  0
ATTDEF
  5
93
330
88
100
AcDbEntity
  8
AM_6
100
AcDbText
 10
-0.8700000000000072
 20
32.49948524199046
 30
0.0
 40
0.5
  1
INS-GT-07
100
AcDbAttributeDefinition
  3

  2
DESCRIPTION
 70
     8
280
     0
  0
ATTDEF
  5
94
330
88
100
AcDbEntity
  8
AM_6
100
AcDbText
 10
-0.8700000000000072
 20
31.99948524199046
 30
0.0
 40
0.5
  1
41.1
100
AcDbAttributeDefinition
  3

  2
A
 70
     8
280
     0
  0
ATTDEF
  5
95
330
88
100
AcDbEntity
  8
AM_6
100
AcDbText
 10
-0.8700000000000072
 20
31.49948524199046
 30
0.0
 40
0.5
  1
19.1
100
AcDbAttributeDefinition
  3

  2
C
 70
     8
280
     0
  0
ATTDEF
  5
96
330
88
100
AcDbEntity
  8
AM_6
100
AcDbText
 10
-0.8700000000000072
 20
30.99948524199046
 30
0.0
 40
0.5
  1
72.0
100
AcDbAttributeDefinition
  3

  2
D
 70
     8
280
     0
  0
ATTDEF
  5
97
330
88
100
AcDbEntity
  8
AM_6
100
AcDbText
 10
-0.8700000000000072
 20
30.49948524199046
 30
0.0
 40
0.5
  1
5.1
100
AcDbAttributeDefinition
  3

  2
J
 70
     8
280
     0
  0
ATTDEF
  5
98
330
88
100
AcDbEntity
  8
AM_6
100
AcDbText
 10
-0.8700000000000072
 20
29.99948524199046
 30
0.0
 40
0.5
  1
60.5
100
AcDbAttributeDefinition
  3

  2
L
 70
     8
280
     0
  0
ATTDEF
  5
99
330
88
100
AcDbEntity
  8
AM_6
100
AcDbText
 10
-0.8700000000000072
 20
29.49948524199046
 30
0.0
 40
0.5
  1
#10 - 32 x 1/4
100
AcDbAttributeDefinition
  3

  2
N
 70
     8
280
     0
  0
ATTDEF
  5
9A
330
88
100
AcDbEntity
  8
AM_6
100
AcDbText
 10
-0.8700000000000072
 20
28.99948524199046
 30
0.0
 40
0.5
  1
13.7
100
AcDbAttributeDefinition
  3

  2
W
 70
     8
280
     0
  0
ATTDEF
  5
9B
330
88
100
AcDbEntity
  8
AM_6
100
AcDbText
 10
-0.8700000000000072
 20
28.49948524199046
 30
0.0
 40
0.5
  1
29.0
100
AcDbAttributeDefinition
  3

  2
X
 70
     8
280
     0
  0
ATTDEF
  5
9C
330
88
100
AcDbEntity
  8
AM_6
100
AcDbText
 10
-0.8700000000000072
 20
27.99948524199046
 30
0.0
 40
0.5
  1
27.4
100
AcDbAttributeDefinition
  3

  2
Y
 70
     8
280
     0
  0
ATTDEF
  5
9D
330
88
100
AcDbEntity
  8
AM_6
100
AcDbText
 10
-0.8700000000000072
 20
27.49948524199046
 30
0.0
 40
0.5
  1
baldor
100
AcDbAttributeDefinition
  3

  2
COMPANY
 70
     8
280
     0
  0
LINE
  5
A0
330
88
100
AcDbEntity
  8
AM_9
100
AcDbLine
 10
-39.95
 20
-22.56746031746032
 30
0.0
 11
-29.07500000000001
 21
-22.56746031746032
 31
0.0
  0
LINE
  5
A1
330
88
100
AcDbEntity
  8
AM_9
100
AcDbLine
 10
-29.07500000000001
 20
22.56746031746032
 30
0.0
 11
-39.95
 21
22.56746031746032
 31
0.0
  0
LINE
  5
A2
330
88
100
AcDbEntity
  8
AM_9
100
AcDbLine
 10
-29.07500000000001
 20
22.56746031746032
 30
0.0
 11
-29.07500000000001
 21
-22.56746031746032
 31
0.0
  0
LINE
  5
A3
330
88
100
AcDbEntity
  8
AM_9
100
AcDbLine
 10
-29.07500000000001
 20
-22.56746031746032
 30
0.0
 11
-5.870000000000011
 21
-23.37779677351632
 31
0.0
  0
LINE
  5
A4
330
88
100
AcDbEntity
  8
AM_9
100
AcDbLine
 10
-5.870000000000011
 20
23.37779677351632
 30
0.0
 11
-29.07500000000001
 21
22.56746031746032
 31
0.0
  0
LINE
  5
A5
330
88
100
AcDbEntity
  8
AM_9
100
AcDbLine
 10
-36.32500000000001
 20
-24.7281746031746
 30
0.0
 11
-32.70000000000001
 21
-24.7281746031746
 31
0.0
  0
LINE
  5
A6
330
88
100
AcDbEntity
  8
AM_9
100
AcDbLine
 10
-32.70000000000001
 20
24.7281746031746
 30
0.0
 11
-36.32500000000001
 21
24.7281746031746
 31
0.0
  0
LINE
  5
A7
330
88
100
AcDbEntity
  8
AM_9
100
AcDbLine
 10
-8.650000000000007
 20
-26.88888888888888
 30
0.0
 11
-6.634000000000007
 21
-26.88888888888888
 31
0.0
  0
LINE
  5
A8
330
88
100
AcDbEntity
  8
AM_9
100
AcDbLine
 10
-6.634000000000007
 20
26.88888888888888
 30
0.0
 11
-8.650000000000007
 21
26.88888888888888
 31
0.0
  0
LINE
  5
A9
330
88
100
AcDbEntity
  8
AM_9
100
AcDbLine
 10
-39.95
 20
26.12488888888889
 30
0.0
 11
-39.95
 21
-26.12488888888889
 31
0.0
  0
LINE
  5
AA
330
88
100
AcDbEntity
  8
AM_9
100
AcDbLine
 10
-39.95
 20
-26.12488888888889
 30
0.0
 11
-39.18600000000001
 21
-26.88888888888889
 31
0.0
  0
LINE
  5
AB
330
88
100
AcDbEntity
  8
AM_9
100
AcDbLine
 10
-39.18600000000001
 20
26.88888888888889
 30
0.0
 11
-39.95
 21
26.12488888888889
 31
0.0
  0
LINE
  5
AC
330
88
100
AcDbEntity
  8
AM_9
100
AcDbLine
 10
-39.18600000000001
 20
26.88888888888889
 30
0.0
 11
-39.18600000000001
 21
-26.88888888888889
 31
0.0
  0
LINE
  5
AD
330
88
100
AcDbEntity
  8
AM_9
100
AcDbLine
 10
-36.32500000000001
 20
26.88888888888889
 30
0.0
 11
-36.32500000000001
 21
-26.88888888888889
 31
0.0
  0
LINE
  5
AE
330
88
100
AcDbEntity
  8
AM_9
100
AcDbLine
 10
-39.18600000000001
 20
-26.88888888888889
 30
0.0
 11
-36.32500000000001
 21
-26.88888888888889
 31
0.0
  0
LINE
  5
AF
330
88
100
AcDbEntity
  8
AM_9
100
AcDbLine
 10
-36.32500000000001
 20
26.88888888888889
 30
0.0
 11
-39.18600000000001
 21
26.88888888888889
 31
0.0
  0
LINE
  5
B0
330
88
100
AcDbEntity
  8
AM_9
100
AcDbLine
 10
-6.634000000000007
 20
26.88888888888889
 30
0.0
 11
-6.634000000000007
 21
-26.88888888888889
 31
0.0
  0
LINE
  5
B1
330
88
100
AcDbEntity
  8
AM_9
100
AcDbLine
 10
-5.870000000000007
 20
26.12488888888889
 30
0.0
 11
-5.870000000000007
 21
-26.12488888888889
 31
0.0
  0
LINE
  5
B2
330
88
100
AcDbEntity
  8
AM_9
100
AcDbLine
 10
-5.870000000000007
 20
26.12488888888889
 30
0.0
 11
-6.634000000000007
 21
26.88888888888889
 31
0.0
  0
LINE
  5
B3
330
88
100
AcDbEntity
  8
AM_9
100
AcDbLine
 10
-6.634000000000007
 20
-26.88888888888889
 30
0.0
 11
-5.870000000000007
 21
-26.12488888888889
 31
0.0
  0
LINE
  5
B4
330
88
100
AcDbEntity
  8
AM_9
100
AcDbLine
 10
-32.70000000000001
 20
26.88888888888889
 30
0.0
 11
-32.70000000000001
 21
-26.88888888888889
 31
0.0
  0
LINE
  5
B5
330
88
100
AcDbEntity
  8
AM_9
100
AcDbLine
 10
-30.9
 20
-26.88888888888889
 30
0.0
 11
-27.75000000000001
 21
-26.88888888888889
 31
0.0
  0
LINE
  5
B6
330
88
100
AcDbEntity
  8
AM_9
100
AcDbLine
 10
-32.70000000000001
 20
-26.88888888888889
 30
0.0
 11
-31.50000000000001
 21
-26.88888888888889
 31
0.0
  0
LINE
  5
B7
330
88
100
AcDbEntity
  8
AM_9
100
AcDbLine
 10
-31.50000000000001
 20
26.88888888888889
 30
0.0
 11
-32.70000000000001
 21
26.88888888888889
 31
0.0
  0
LINE
  5
B8
330
88
100
AcDbEntity
  8
AM_9
100
AcDbLine
 10
-27.75000000000001
 20
26.88888888888889
 30
0.0
 11
-30.9
 21
26.88888888888889
 31
0.0
  0
LINE
  5
B9
330
88
100
AcDbEntity
  8
AM_9
100
AcDbLine
 10
-24.32
 20
-34.09
 30
0.0
 11
-22.28000000000001
 21
-34.09
 31
0.0
  0
LINE
  5
BA
330
88
100
AcDbEntity
  8
AM_9
100
AcDbLine
 10
-22.28000000000001
 20
34.09
 30
0.0
 11
-24.32
 21
34.09
 31
0.0
  0
LINE
  5
BB
330
88
100
AcDbEntity
  8
AM_9
100
AcDbLine
 10
-27.75000000000001
 20
33.57487805166848
 30
0.0
 11
-27.75000000000001
 21
-33.57487805159944
 31
0.0
  0
ARC
  5
BC
330
88
100
AcDbEntity
  8
AM_9
100
AcDbCircle
 10
-26.98600000000004
 20
-33.57487804028401
 30
0.0
 40
0.7639999999999745
100
AcDbArc
 50
180.0
 51
248.5875329531176
  0
ARC
  5
BD
330
88
100
AcDbEntity
  8
AM_9
100
AcDbCircle
 10
-26.98600000000004
 20
33.57487804028401
 30
0.0
 40
0.7639999999999758
100
AcDbArc
 50
111.4124670468825
 51
180.0
  0
LINE
  5
BE
330
88
100
AcDbEntity
  8
AM_9
100
AcDbLine
 10
-8.650000000000007
 20
33.57487804028401
 30
0.0
 11
-8.650000000000007
 21
-33.57487804021497
 31
0.0
  0
ARC
  5
BF
330
88
100
AcDbEntity
  8
AM_9
100
AcDbCircle
 10
-9.41400000000004
 20
-33.57487804028399
 30
0.0
 40
0.7640000000000312
100
AcDbArc
 50
291.4124568047854
 51
0.0
  0
ARC
  5
C0
330
88
100
AcDbEntity
  8
AM_9
100
AcDbCircle
 10
-9.41400000000004
 20
33.57487804028399
 30
0.0
 40
0.7640000000000331
100
AcDbArc
 50
0.0
 51
68.5875431952146
  0
LINE
  5
C1
330
88
100
AcDbEntity
  8
AM_9
100
AcDbLine
 10
-27.26492063492064
 20
34.28614400981682
 30
0.0
 11
-27.26492063492064
 21
-34.28614400981682
 31
0.0
  0
ARC
  5
C2
330
88
100
AcDbEntity
  8
AM_9
100
AcDbCircle
 10
-18.20000000000111
 20
-11.17000000000338
 30
0.0
 40
24.82999999999645
100
AcDbArc
 50
248.5875329531155
 51
255.1589346450362
  0
ARC
  5
C3
330
88
100
AcDbEntity
  8
AM_9
100
AcDbCircle
 10
-18.20000000000111
 20
11.17000000000338
 30
0.0
 40
24.82999999999645
100
AcDbArc
 50
104.8410653549638
 51
111.4124670468846
  0
LINE
  5
C4
330
88
100
AcDbEntity
  8
AM_9
100
AcDbLine
 10
-24.55992241605244
 20
35.17167258467195
 30
0.0
 11
-24.55992241605244
 21
-35.17167258467195
 31
0.0
  0
LINE
  5
C5
330
88
100
AcDbEntity
  8
AM_9
100
AcDbLine
 10
-24.32
 20
34.98704431704321
 30
0.0
 11
-24.32
 21
-34.98704431697809
 31
0.0
  0
ARC
  5
C6
330
88
100
AcDbEntity
  8
AM_9
100
AcDbCircle
 10
-24.51100000000001
 20
-34.98704431704319
 30
0.0
 40
0.1910000000000119
100
AcDbArc
 50
255.1589545282362
 51
0.0000008537736463
  0
ARC
  5
C7
330
88
100
AcDbEntity
  8
AM_9
100
AcDbCircle
 10
-24.51100000000001
 20
34.98704431704319
 30
0.0
 40
0.1910000000000061
100
AcDbArc
 50
0.0000008537736463
 51
104.8410454717638
  0
LINE
  5
C8
330
88
100
AcDbEntity
  8
AM_9
100
AcDbLine
 10
-22.28000000000001
 20
35.50014590996116
 30
0.0
 11
-22.28000000000001
 21
-35.50014590988397
 31
0.0
  0
ARC
  5
C9
330
88
100
AcDbEntity
  8
AM_9
100
AcDbCircle
 10
-22.08900000000003
 20
-35.50014590996117
 30
0.0
 40
0.1909999999999812
100
AcDbArc
 50
180.0
 51
260.9185022622711
  0
ARC
  5
CA
330
88
100
AcDbEntity
  8
AM_9
100
AcDbCircle
 10
-22.08900000000003
 20
35.50014590996117
 30
0.0
 40
0.1909999999999852
100
AcDbArc
 50
99.08149773772895
 51
180.0
  0
LINE
  5
CB
330
88
100
AcDbEntity
  8
AM_9
100
AcDbLine
 10
-22.11914728682172
 20
35.68875169220892
 30
0.0
 11
-22.11914728682172
 21
-35.68875169220892
 31
0.0
  0
LINE
  5
CC
330
88
100
AcDbEntity
  8
AM_9
100
AcDbLine
 10
-9.135079492224126
 20
34.28614405967623
 30
0.0
 11
-9.135079492224126
 21
-34.28614405967623
 31
0.0
  0
ARC
  5
CD
330
88
100
AcDbEntity
  8
AM_9
100
AcDbCircle
 10
-18.19999999999996
 20
-11.17000000000021
 30
0.0
 40
24.82999999999979
100
AcDbArc
 50
260.9185022622672
 51
291.4124667317426
  0
ARC
  5
CE
330
88
100
AcDbEntity
  8
AM_9
100
AcDbCircle
 10
-18.19999999999996
 20
11.17000000000028
 30
0.0
 40
24.82999999999972
100
AcDbArc
 50
68.58753326825737
 51
99.0814977377328
  0
LINE
  5
D0
330
88
100
AcDbEntity
  8
AM_4
100
AcDbLine
 10
-31.50000000000001
 20
-26.88888888888889
 30
0.0
 11
-30.9
 21
-26.88888888888889
 31
0.0
  0
LINE
  5
D1
330
88
100
AcDbEntity
  8
AM_4
100
AcDbLine
 10
-30.9
 20
26.88888888888889
 30
0.0
 11
-31.50000000000001
 21
26.88888888888889
 31
0.0
  0
ENDBLK
  5
8B
330
88
100
AcDbEntity
  8
0
100
AcDbBlockEnd
  0
BLOCK
  5
D4
330
D2
100
AcDbEntity
  8
0
100
AcDbBlockBegin
  2
3_129946_0_in_129325_2
 70
     2
 10
0.0
 20
0.0
 30
0.0
  3
3_129946_0_in_129325_2
  1

  0
ATTDEF
  5
D6
330
D2
100
AcDbEntity
  8
AM_6
100
AcDbText
 10
1.099999999999993
 20
29.15000000000002
 30
0.0
 40
0.5
  1
Grip Tight Normal Duty Adapter and Nut Metric Bore
100
AcDbAttributeDefinition
  3

  2
NN
 70
     8
280
     0
  0
ATTDEF
  5
D7
330
D2
100
AcDbEntity
  8
AM_6
100
AcDbText
 10
1.099999999999993
 20
28.65000000000002
 30
0.0
 40
0.5
  1
GT and GTM Adapter & Lock Nut Assemblies
100
AcDbAttributeDefinition
  3

  2
NT
 70
     8
280
     0
  0
ATTDEF
  5
D8
330
D2
100
AcDbEntity
  8
AM_6
100
AcDbText
 10
1.099999999999993
 20
28.15000000000002
 30
0.0
 40
0.5
  1
129946
100
AcDbAttributeDefinition
  3

  2
NB
 70
     8
280
     0
  0
ATTDEF
  5
D9
330
D2
100
AcDbEntity
  8
AM_6
100
AcDbText
 10
1.099999999999993
 20
27.65000000000002
 30
0.0
 40
0.5
  1
$PN.
100
AcDbAttributeDefinition
  3

  2
NBSYN
 70
     8
280
     0
  0
ATTDEF
  5
DA
330
D2
100
AcDbEntity
  8
AM_6
100
AcDbText
 10
1.099999999999993
 20
27.15000000000002
 30
0.0
 40
0.5
  1
129946
100
AcDbAttributeDefinition
  3

  2
LINA
 70
     8
280
     0
  0
ATTDEF
  5
DB
330
D2
100
AcDbEntity
  8
AM_6
100
AcDbText
 10
1.099999999999993
 20
26.65000000000002
 30
0.0
 40
0.5
  1
207
100
AcDbAttributeDefinition
  3

  2
SERIES
 70
     8
280
     0
  0
ATTDEF
  5
DC
330
D2
100
AcDbEntity
  8
AM_6
100
AcDbText
 10
1.099999999999993
 20
26.15000000000002
 30
0.0
 40
0.5
  1
35
100
AcDbAttributeDefinition
  3

  2
SS
 70
     8
280
     0
  0
ATTDEF
  5
DD
330
D2
100
AcDbEntity
  8
AM_6
100
AcDbText
 10
1.099999999999993
 20
25.65000000000002
 30
0.0
 40
0.5
  1
129946
100
AcDbAttributeDefinition
  3

  2
PN
 70
     8
280
     0
  0
ATTDEF
  5
DE
330
D2
100
AcDbEntity
  8
AM_6
100
AcDbText
 10
1.099999999999993
 20
25.15000000000002
 30
0.0
 40
0.5
  1
AN-GT-07-35M
100
AcDbAttributeDefinition
  3

  2
DESCRIPTION
 70
     8
280
     0
  0
ATTDEF
  5
DF
330
D2
100
AcDbEntity
  8
AM_6
100
AcDbText
 10
1.099999999999993
 20
24.65000000000002
 30
0.0
 40
0.5
  1
41.3
100
AcDbAttributeDefinition
  3

  2
A
 70
     8
280
     0
  0
ATTDEF
  5
E0
330
D2
100
AcDbEntity
  8
AM_6
100
AcDbText
 10
1.099999999999993
 20
24.15000000000002
 30
0.0
 40
0.5
  1
19.0
100
AcDbAttributeDefinition
  3

  2
C
 70
     8
280
     0
  0
ATTDEF
  5
E1
330
D2
100
AcDbEntity
  8
AM_6
100
AcDbText
 10
1.099999999999993
 20
23.65000000000002
 30
0.0
 40
0.5
  1
72.0
100
AcDbAttributeDefinition
  3

  2
D
 70
     8
280
     0
  0
ATTDEF
  5
E2
330
D2
100
AcDbEntity
  8
AM_6
100
AcDbText
 10
1.099999999999993
 20
23.15000000000002
 30
0.0
 40
0.5
  1
5.1
100
AcDbAttributeDefinition
  3

  2
J
 70
     8
280
     0
  0
ATTDEF
  5
E3
330
D2
100
AcDbEntity
  8
AM_6
100
AcDbText
 10
1.099999999999993
 20
22.65000000000002
 30
0.0
 40
0.5
  1
58.3
100
AcDbAttributeDefinition
  3

  2
L
 70
     8
280
     0
  0
ATTDEF
  5
E4
330
D2
100
AcDbEntity
  8
AM_6
100
AcDbText
 10
1.099999999999993
 20
22.15000000000002
 30
0.0
 40
0.5
  1
10 - 32 x 1/4
100
AcDbAttributeDefinition
  3

  2
N
 70
     8
280
     0
  0
ATTDEF
  5
E5
330
D2
100
AcDbEntity
  8
AM_6
100
AcDbText
 10
1.099999999999993
 20
21.65000000000002
 30
0.0
 40
0.5
  1
14.3
100
AcDbAttributeDefinition
  3

  2
W
 70
     8
280
     0
  0
ATTDEF
  5
E6
330
D2
100
AcDbEntity
  8
AM_6
100
AcDbText
 10
1.099999999999993
 20
21.15000000000002
 30
0.0
 40
0.5
  1
26.6
100
AcDbAttributeDefinition
  3

  2
X
 70
     8
280
     0
  0
ATTDEF
  5
E7
330
D2
100
AcDbEntity
  8
AM_6
100
AcDbText
 10
1.099999999999993
 20
20.65000000000002
 30
0.0
 40
0.5
  1
27.0
100
AcDbAttributeDefinition
  3

  2
Y
 70
     8
280
     0
  0
ATTDEF
  5
E8
330
D2
100
AcDbEntity
  8
AM_6
100
AcDbText
 10
1.099999999999993
 20
20.15000000000002
 30
0.0
 40
0.5
  1
baldor
100
AcDbAttributeDefinition
  3

  2
COMPANY
 70
     8
280
     0
  0
LWPOLYLINE
  5
E9
330
D2
100
AcDbEntity
  8
AM_9
100
AcDbPolyline
 90
        6
 70
     0
 43
0.0
 10
-44.04000000000001
 20
1.2513735373905
 10
-44.17157471924346
 20
0.6978970583711956
 10
-44.22932974511532
 20
0.1050568059768659
 10
-44.20572645022317
 20
-0.4536078380895887
 10
-44.10528458036235
 20
-1.015668821680698
 10
-44.04000000000001
 20
-1.251373537390496
  0
LWPOLYLINE
  5
EA
330
D2
100
AcDbEntity
  8
AM_9
100
AcDbPolyline
 90
       15
 70
     0
 43
0.0
 10
-39.72875597963478
 20
0.7604697581556163
 10
-39.85494376382487
 20
1.046494632860368
 10
-40.05860101035404
 20
1.366214246466743
 10
-40.31113396410566
 20
1.648940788166949
 10
-40.61639802799794
 20
1.894828452960632
 10
-40.95730395058188
 20
2.088534233791511
 10
-41.33916758158551
 20
2.229144183638484
 10
-41.73890072786315
 20
2.305961199513286
 10
-42.15633612942328
 20
2.315888768802068
 10
-42.56964837658087
 20
2.256751841446756
 10
-42.89491188369023
 20
2.157878658858381
 10
-43.20352546670958
 20
2.01550946875273
 10
-43.4953094701427
 20
1.826904631158816
 10
-43.75697838971858
 20
1.598458173299566
 10
-44.04000000000001
 20
1.2513735373905
  0
LWPOLYLINE
  5
EB
330
D2
100
AcDbEntity
  8
AM_9
100
AcDbPolyline
 90
       16
 70
     0
 43
0.0
 10
-44.04000000000001
 20
-1.251373537390496
 10
-44.03925239729838
 20
-1.25249468323733
 10
-43.80134870201328
 20
-1.552044854605061
 10
-43.51835470554931
 20
-1.809492677935834
 10
-43.18524424485272
 20
-2.025211576458305
 10
-42.82162753039451
 20
-2.184546724286537
 10
-42.42324361063808
 20
-2.285666101200214
 10
-42.01362162709757
 20
-2.320486030097532
 10
-41.59565833291402
 20
-2.286022639517713
 10
-41.18932545850415
 20
-2.182569665685731
 10
-40.80626806286985
 20
-2.011434345150652
 10
-40.45804017454631
 20
-1.777711487642511
 10
-40.16164294420443
 20
-1.492608837225735
 10
-39.91913413155689
 20
-1.160524762393428
 10
-39.74533993058681
 20
-0.8041463872166741
 10
-39.68788038453753
 20
-0.6360955697401505
  0
CIRCLE
  5
EC
330
D2
100
AcDbEntity
  8
AM_9
100
AcDbCircle
 10
-42.00833333333334
 20
0.0
 30
0.0
 40
1.981200000000003
  0
LINE
  5
ED
330
D2
100
AcDbEntity
  8
AM_9
100
AcDbLine
 10
-44.04000000000001
 20
1.2513735373905
 30
0.0
 11
-44.04000000000001
 21
2.55
 31
0.0
  0
LINE
  5
EE
330
D2
100
AcDbEntity
  8
AM_9
100
AcDbLine
 10
-44.04000000000001
 20
-2.55
 30
0.0
 11
-44.04000000000001
 21
-1.251373537390496
 31
0.0
  0
LINE
  5
EF
330
D2
100
AcDbEntity
  8
AM_9
100
AcDbLine
 10
-32.26000000000001
 20
-2.55
 30
0.0
 11
-32.26000000000001
 21
2.549999999999999
 31
0.0
  0
LINE
  5
F0
330
D2
100
AcDbEntity
  8
AM_9
100
AcDbLine
 10
-31.50000000000001
 20
22.28665887568981
 30
0.0
 11
-44.8
 21
22.28665887568981
 31
0.0
  0
LINE
  5
F1
330
D2
100
AcDbEntity
  8
AM_9
100
AcDbLine
 10
-31.50000000000001
 20
23.21208230884195
 30
0.0
 11
-32.26000000000001
 21
23.87286273224824
 31
0.0
  0
LINE
  5
F2
330
D2
100
AcDbEntity
  8
AM_9
100
AcDbLine
 10
-32.26000000000001
 20
23.87286273224824
 30
0.0
 11
-44.04000000000001
 21
23.87286273224823
 31
0.0
  0
LINE
  5
F3
330
D2
100
AcDbEntity
  8
AM_9
100
AcDbLine
 10
-44.04000000000001
 20
23.87286273224823
 30
0.0
 11
-44.80000000000001
 21
23.21208230884193
 31
0.0
  0
LINE
  5
F4
330
D2
100
AcDbEntity
  8
AM_9
100
AcDbLine
 10
-31.50000000000001
 20
-22.28665887568982
 30
0.0
 11
-44.8
 21
-22.28665887568982
 31
0.0
  0
LINE
  5
F5
330
D2
100
AcDbEntity
  8
AM_9
100
AcDbLine
 10
-44.80000000000001
 20
-23.21208230884195
 30
0.0
 11
-44.04000000000001
 21
-23.87286273224825
 31
0.0
  0
LINE
  5
F6
330
D2
100
AcDbEntity
  8
AM_9
100
AcDbLine
 10
-44.04000000000001
 20
-23.87286273224825
 30
0.0
 11
-32.26000000000001
 21
-23.87286273224826
 31
0.0
  0
LINE
  5
F7
330
D2
100
AcDbEntity
  8
AM_9
100
AcDbLine
 10
-32.26000000000001
 20
-23.87286273224826
 30
0.0
 11
-31.50000000000001
 21
-23.21208230884196
 31
0.0
  0
LINE
  5
F8
330
D2
100
AcDbEntity
  8
AM_9
100
AcDbLine
 10
-31.50000000000001
 20
24.83665887568981
 30
0.0
 11
-44.8
 21
24.83665887568981
 31
0.0
  0
LINE
  5
F9
330
D2
100
AcDbEntity
  8
AM_9
100
AcDbLine
 10
-31.50000000000001
 20
-24.83665887568982
 30
0.0
 11
-44.8
 21
-24.83665887568982
 31
0.0
  0
LINE
  5
FA
330
D2
100
AcDbEntity
  8
AM_9
100
AcDbLine
 10
-38.15000000000001
 20
21.7468253968254
 30
0.0
 11
-44.80000000000001
 21
21.7468253968254
 31
0.0
  0
LINE
  5
FB
330
D2
100
AcDbEntity
  8
AM_9
100
AcDbLine
 10
-3.900000000000007
 20
17.45530005471118
 30
0.0
 11
-45.2
 21
17.45530005471118
 31
0.0
  0
LINE
  5
FC
330
D2
100
AcDbEntity
  8
AM_9
100
AcDbLine
 10
-45.2
 20
-17.5
 30
0.0
 11
-3.900000000000015
 21
-17.5
 31
0.0
  0
LINE
  5
FD
330
D2
100
AcDbEntity
  8
AM_9
100
AcDbLine
 10
-38.15000000000001
 20
21.71087089086963
 30
0.0
 11
-28.17499999999988
 21
21.71087089086963
 31
0.0
  0
LINE
  5
FE
330
D2
100
AcDbEntity
  8
AM_9
100
AcDbLine
 10
-38.15000000000001
 20
-21.7468253968254
 30
0.0
 11
-28.17499999999988
 21
-21.7468253968254
 31
0.0
  0
LINE
  5
FF
330
D2
100
AcDbEntity
  8
AM_9
100
AcDbLine
 10
-3.900000000000007
 20
22.55992362129873
 30
0.0
 11
-3.900000000000007
 21
-22.59452707623757
 31
0.0
  0
LINE
  5
100
330
D2
100
AcDbEntity
  8
AM_9
100
AcDbLine
 10
-28.17499999999988
 20
21.71087089086963
 30
0.0
 11
-3.900000000000007
 21
22.55992362129873
 31
0.0
  0
LINE
  5
101
330
D2
100
AcDbEntity
  8
AM_9
100
AcDbLine
 10
-28.17499999999988
 20
21.71087089086963
 30
0.0
 11
-28.17499999999988
 21
-21.7468253968254
 31
0.0
  0
LINE
  5
102
330
D2
100
AcDbEntity
  8
AM_9
100
AcDbLine
 10
-28.17499999999988
 20
-21.7468253968254
 30
0.0
 11
-3.900000000000007
 21
-22.59452707623757
 31
0.0
  0
LINE
  5
103
330
D2
100
AcDbEntity
  8
AM_9
100
AcDbLine
 10
-34.82500000000001
 20
-23.82896825396826
 30
0.0
 11
-31.50000000000001
 21
-23.82896825396826
 31
0.0
  0
LINE
  5
104
330
D2
100
AcDbEntity
  8
AM_9
100
AcDbLine
 10
-31.50000000000001
 20
23.82896825396826
 30
0.0
 11
-34.82500000000001
 21
23.82896825396826
 31
0.0
  0
LINE
  5
105
330
D2
100
AcDbEntity
  8
AM_9
100
AcDbLine
 10
-38.15000000000001
 20
26.20261111111112
 30
0.0
 11
-38.15000000000001
 21
-26.20261111111112
 31
0.0
  0
LINE
  5
106
330
D2
100
AcDbEntity
  8
AM_9
100
AcDbLine
 10
-34.82500000000001
 20
26.20261111111112
 30
0.0
 11
-34.82500000000001
 21
-26.20261111111112
 31
0.0
  0
LINE
  5
107
330
D2
100
AcDbEntity
  8
AM_9
100
AcDbLine
 10
-38.15000000000001
 20
-26.20261111111112
 30
0.0
 11
-34.82500000000001
 21
-26.20261111111112
 31
0.0
  0
LINE
  5
108
330
D2
100
AcDbEntity
  8
AM_9
100
AcDbLine
 10
-34.82500000000001
 20
26.20261111111112
 30
0.0
 11
-38.15000000000001
 21
26.20261111111112
 31
0.0
  0
LINE
  5
109
330
D2
100
AcDbEntity
  8
AM_9
100
AcDbLine
 10
-44.04000000000001
 20
-26.42286273224824
 30
0.0
 11
-44.80000000000001
 21
-25.76208230884194
 31
0.0
  0
LINE
  5
10A
330
D2
100
AcDbEntity
  8
AM_9
100
AcDbLine
 10
-44.80000000000001
 20
25.76208230884193
 30
0.0
 11
-44.04000000000001
 21
26.42286273224824
 31
0.0
  0
LINE
  5
10B
330
D2
100
AcDbEntity
  8
AM_9
100
AcDbLine
 10
-32.26000000000001
 20
-26.42286273224826
 30
0.0
 11
-44.04000000000001
 21
-26.42286273224824
 31
0.0
  0
LINE
  5
10C
330
D2
100
AcDbEntity
  8
AM_9
100
AcDbLine
 10
-32.26000000000001
 20
26.42286273224825
 30
0.0
 11
-31.50000000000001
 21
25.76208230884195
 31
0.0
  0
LINE
  5
10D
330
D2
100
AcDbEntity
  8
AM_9
100
AcDbLine
 10
-31.50000000000001
 20
-25.76208230884196
 30
0.0
 11
-32.26000000000001
 21
-26.42286273224826
 31
0.0
  0
LINE
  5
10E
330
D2
100
AcDbEntity
  8
AM_9
100
AcDbLine
 10
-44.04000000000001
 20
26.42286273224824
 30
0.0
 11
-32.26000000000001
 21
26.42286273224825
 31
0.0
  0
LINE
  5
111
330
D2
100
AcDbEntity
  8
AM_7
100
AcDbLine
 10
-42.00833333333334
 20
-2.533650000000002
 30
0.0
 11
-42.00833333333334
 21
2.533650000000002
 31
0.0
  0
LINE
  5
112
330
D2
100
AcDbEntity
  8
AM_4
100
AcDbLine
 10
-45.2
 20
21.71087089086963
 30
0.0
 11
-45.2
 21
-21.7468253968254
 31
0.0
  0
LINE
  5
113
330
D2
100
AcDbEntity
  8
AM_4
100
AcDbLine
 10
-45.2
 20
21.71087089086963
 30
0.0
 11
-44.80000000000001
 21
21.71087089086963
 31
0.0
  0
LINE
  5
114
330
D2
100
AcDbEntity
  8
AM_4
100
AcDbLine
 10
-45.2
 20
-21.7468253968254
 30
0.0
 11
-44.80000000000001
 21
-21.7468253968254
 31
0.0
  0
LINE
  5
115
330
D2
100
AcDbEntity
  8
AM_4
100
AcDbLine
 10
-44.80000000000001
 20
28.39
 30
0.0
 11
-44.80000000000001
 21
-28.39
 31
0.0
  0
LINE
  5
116
330
D2
100
AcDbEntity
  8
AM_4
100
AcDbLine
 10
-44.80000000000001
 20
-28.39
 30
0.0
 11
-44.04000000000001
 21
-29.15
 31
0.0
  0
LINE
  5
117
330
D2
100
AcDbEntity
  8
AM_4
100
AcDbLine
 10
-44.04000000000001
 20
29.15
 30
0.0
 11
-44.80000000000001
 21
28.39
 31
0.0
  0
LINE
  5
118
330
D2
100
AcDbEntity
  8
AM_4
100
AcDbLine
 10
-44.04000000000001
 20
-2.55
 30
0.0
 11
-44.04000000000001
 21
-29.15000000000001
 31
0.0
  0
LINE
  5
119
330
D2
100
AcDbEntity
  8
AM_4
100
AcDbLine
 10
-44.04000000000001
 20
-29.15000000000001
 30
0.0
 11
-32.26000000000001
 21
-29.15000000000001
 31
0.0
  0
LINE
  5
11A
330
D2
100
AcDbEntity
  8
AM_4
100
AcDbLine
 10
-31.5
 20
2.55
 30
0.0
 11
-44.80000000000001
 21
2.55
 31
0.0
  0
LINE
  5
11B
330
D2
100
AcDbEntity
  8
AM_4
100
AcDbLine
 10
-31.50000000000001
 20
28.39000000000002
 30
0.0
 11
-32.26000000000001
 21
29.15000000000002
 31
0.0
  0
LINE
  5
11C
330
D2
100
AcDbEntity
  8
AM_4
100
AcDbLine
 10
-31.50000000000001
 20
28.39000000000002
 30
0.0
 11
-31.50000000000001
 21
-28.39000000000002
 31
0.0
  0
LINE
  5
11D
330
D2
100
AcDbEntity
  8
AM_4
100
AcDbLine
 10
-44.80000000000001
 20
-2.55
 30
0.0
 11
-31.5
 21
-2.55
 31
0.0
  0
LINE
  5
11E
330
D2
100
AcDbEntity
  8
AM_4
100
AcDbLine
 10
-32.26000000000001
 20
-2.55
 30
0.0
 11
-32.26000000000001
 21
-29.15000000000002
 31
0.0
  0
LINE
  5
11F
330
D2
100
AcDbEntity
  8
AM_4
100
AcDbLine
 10
-32.26000000000001
 20
-29.15000000000002
 30
0.0
 11
-31.50000000000001
 21
-28.39000000000002
 31
0.0
  0
LINE
  5
120
330
D2
100
AcDbEntity
  8
AM_4
100
AcDbLine
 10
-32.26000000000001
 20
29.15000000000001
 30
0.0
 11
-44.04000000000001
 21
29.15000000000001
 31
0.0
  0
LINE
  5
121
330
D2
100
AcDbEntity
  8
AM_4
100
AcDbLine
 10
-32.26000000000001
 20
29.15000000000001
 30
0.0
 11
-32.26000000000001
 21
2.549999999999999
 31
0.0
  0
LINE
  5
122
330
D2
100
AcDbEntity
  8
AM_4
100
AcDbLine
 10
-44.04000000000001
 20
29.15000000000001
 30
0.0
 11
-44.04000000000001
 21
2.55
 31
0.0
  0
ARC
  5
124
330
D2
100
AcDbEntity
  8
AM_5
100
AcDbCircle
 10
-42.00833861112871
 20
0.0000000000000001
 30
0.0
 40
2.413
100
AcDbArc
 50
74.99999999999996
 51
15.0
  0
ENDBLK
  5
D5
330
D2
100
AcDbEntity
  8
0
100
AcDbBlockEnd
  0
BLOCK
  5
127
330
125
100
AcDbEntity
  8
0
100
AcDbBlockBegin
  2
4_129494_0_in_129325_2
 70
     2
 10
0.0
 20
0.0
 30
0.0
  3
4_129494_0_in_129325_2
  1

  0
ATTDEF
  5
129
330
125
100
AcDbEntity
  8
AM_6
100
AcDbText
 10
6.545
 20
77.79999999999998
 30
0.0
 40
0.5
  1
F2B-GT-M-B
100
AcDbAttributeDefinition
  3

  2
NN
 70
     8
280
     0
  0
ATTDEF
  5
12A
330
125
100
AcDbEntity
  8
AM_6
100
AcDbText
 10
6.545
 20
77.29999999999998
 30
0.0
 40
0.5
  1
GT Normal Duty 2 Bolt Flange Bearings
100
AcDbAttributeDefinition
  3

  2
NT
 70
     8
280
     0
  0
ATTDEF
  5
12B
330
125
100
AcDbEntity
  8
AM_6
100
AcDbText
 10
6.545
 20
76.79999999999998
 30
0.0
 40
0.5
  1
129494
100
AcDbAttributeDefinition
  3

  2
NB
 70
     8
280
     0
  0
ATTDEF
  5
12C
330
125
100
AcDbEntity
  8
AM_6
100
AcDbText
 10
6.545
 20
76.29999999999998
 30
0.0
 40
0.5
  1
$PN.$LUBE.
100
AcDbAttributeDefinition
  3

  2
NBSYN
 70
     8
280
     0
  0
ATTDEF
  5
12D
330
125
100
AcDbEntity
  8
AM_6
100
AcDbText
 10
6.545
 20
75.79999999999998
 30
0.0
 40
0.5
  1
129494
100
AcDbAttributeDefinition
  3

  2
LINA
 70
     8
280
     0
  0
ATTDEF
  5
12E
330
125
100
AcDbEntity
  8
AM_6
100
AcDbText
 10
6.545
 20
75.29999999999998
 30
0.0
 40
0.5
  1
207
100
AcDbAttributeDefinition
  3

  2
SERIES
 70
     8
280
     0
  0
ATTDEF
  5
12F
330
125
100
AcDbEntity
  8
AM_6
100
AcDbText
 10
6.545
 20
74.79999999999998
 30
0.0
 40
0.5
  1
72
100
AcDbAttributeDefinition
  3

  2
BOD
 70
     8
280
     0
  0
ATTDEF
  5
130
330
125
100
AcDbEntity
  8
AM_6
100
AcDbText
 10
6.545
 20
74.29999999999998
 30
0.0
 40
0.5
  1
35
100
AcDbAttributeDefinition
  3

  2
SS
 70
     8
280
     0
  0
ATTDEF
  5
131
330
125
100
AcDbEntity
  8
AM_6
100
AcDbText
 10
6.545
 20
73.79999999999998
 30
0.0
 40
0.5
  1
129494
100
AcDbAttributeDefinition
  3

  2
PN
 70
     8
280
     0
  0
ATTDEF
  5
132
330
125
100
AcDbEntity
  8
AM_6
100
AcDbText
 10
6.545
 20
73.29999999999998
 30
0.0
 40
0.5
  1
F2B-GT-07
100
AcDbAttributeDefinition
  3

  2
DESCRIPTION
 70
     8
280
     0
  0
ATTDEF
  5
133
330
125
100
AcDbEntity
  8
AM_6
100
AcDbText
 10
6.545
 20
72.79999999999998
 30
0.0
 40
0.5
  1
With Lube
100
AcDbAttributeDefinition
  3

  2
LUBE
 70
     8
280
     0
  0
ATTDEF
  5
134
330
125
100
AcDbEntity
  8
AM_6
100
AcDbText
 10
6.545
 20
72.29999999999998
 30
0.0
 40
0.5
  1
1.9
100
AcDbAttributeDefinition
  3

  2
WEIGHT
 70
     8
280
     0
  0
ATTDEF
  5
135
330
125
100
AcDbEntity
  8
AM_6
100
AcDbText
 10
6.545
 20
71.79999999999998
 30
0.0
 40
0.5
  1
41.3
100
AcDbAttributeDefinition
  3

  2
A
 70
     8
280
     0
  0
ATTDEF
  5
136
330
125
100
AcDbEntity
  8
AM_6
100
AcDbText
 10
6.545
 20
71.29999999999998
 30
0.0
 40
0.5
  1
155.6
100
AcDbAttributeDefinition
  3

  2
B
 70
     8
280
     0
  0
ATTDEF
  5
137
330
125
100
AcDbEntity
  8
AM_6
100
AcDbText
 10
6.545
 20
70.79999999999998
 30
0.0
 40
0.5
  1
45.2
100
AcDbAttributeDefinition
  3

  2
C
 70
     8
280
     0
  0
ATTDEF
  5
138
330
125
100
AcDbEntity
  8
AM_6
100
AcDbText
 10
6.545
 20
70.29999999999998
 30
0.0
 40
0.5
  1
130.2
100
AcDbAttributeDefinition
  3

  2
D
 70
     8
280
     0
  0
ATTDEF
  5
139
330
125
100
AcDbEntity
  8
AM_6
100
AcDbText
 10
6.545
 20
69.79999999999998
 30
0.0
 40
0.5
  1
M12
100
AcDbAttributeDefinition
  3

  2
F
 70
     8
280
     0
  0
ATTDEF
  5
13A
330
125
100
AcDbEntity
  8
AM_6
100
AcDbText
 10
6.545
 20
69.29999999999998
 30
0.0
 40
0.5
  1
14.3
100
AcDbAttributeDefinition
  3

  2
H
 70
     8
280
     0
  0
ATTDEF
  5
13B
330
125
100
AcDbEntity
  8
AM_6
100
AcDbText
 10
6.545
 20
68.79999999999998
 30
0.0
 40
0.5
  1
13.9
100
AcDbAttributeDefinition
  3

  2
J
 70
     8
280
     0
  0
ATTDEF
  5
13C
330
125
100
AcDbEntity
  8
AM_6
100
AcDbText
 10
6.545
 20
68.29999999999998
 30
0.0
 40
0.5
  1
58.3
100
AcDbAttributeDefinition
  3

  2
L
 70
     8
280
     0
  0
ATTDEF
  5
13D
330
125
100
AcDbEntity
  8
AM_6
100
AcDbText
 10
6.545
 20
67.79999999999998
 30
0.0
 40
0.5
  1
95.3
100
AcDbAttributeDefinition
  3

  2
M
 70
     8
280
     0
  0
ATTDEF
  5
13E
330
125
100
AcDbEntity
  8
AM_6
100
AcDbText
 10
6.545
 20
67.29999999999998
 30
0.0
 40
0.5
  1
46.8
100
AcDbAttributeDefinition
  3

  2
N
 70
     8
280
     0
  0
ATTDEF
  5
13F
330
125
100
AcDbEntity
  8
AM_6
100
AcDbText
 10
6.545
 20
66.79999999999998
 30
0.0
 40
0.5
  1
44.8
100
AcDbAttributeDefinition
  3

  2
Z
 70
     8
280
     0
  0
ATTDEF
  5
140
330
125
100
AcDbEntity
  8
AM_6
100
AcDbText
 10
6.545
 20
66.29999999999998
 30
0.0
 40
0.5
  1
12.8
100
AcDbAttributeDefinition
  3

  2
F1
 70
     8
280
     0
  0
ATTDEF
  5
141
330
125
100
AcDbEntity
  8
AM_6
100
AcDbText
 10
6.545
 20
65.79999999999998
 30
0.0
 40
0.5
  1
baldor
100
AcDbAttributeDefinition
  3

  2
COMPANY
 70
     8
280
     0
  0
LINE
  5
142
330
125
100
AcDbEntity
  8
AM_9
100
AcDbLine
 10
-14.3
 20
-71.5
 30
0.0
 11
0.0
 21
-71.5
 31
0.0
  0
LINE
  5
143
330
125
100
AcDbEntity
  8
AM_9
100
AcDbLine
 10
0.0
 20
-58.69999999999999
 30
0.0
 11
-14.3
 21
-58.69999999999999
 31
0.0
  0
LINE
  5
144
330
125
100
AcDbEntity
  8
AM_9
100
AcDbLine
 10
-14.3
 20
58.69999999999999
 30
0.0
 11
0.0
 21
58.69999999999999
 31
0.0
  0
LINE
  5
145
330
125
100
AcDbEntity
  8
AM_9
100
AcDbLine
 10
0.0
 20
71.5
 30
0.0
 11
-14.3
 21
71.5
 31
0.0
  0
LINE
  5
146
330
125
100
AcDbEntity
  8
AM_9
100
AcDbLine
 10
-3.575
 20
-41.14285714285715
 30
0.0
 11
0.0
 21
-41.14285714285715
 31
0.0
  0
LINE
  5
147
330
125
100
AcDbEntity
  8
AM_9
100
AcDbLine
 10
0.0
 20
41.14285714285715
 30
0.0
 11
-3.575
 21
41.14285714285715
 31
0.0
  0
LINE
  5
148
330
125
100
AcDbEntity
  8
AM_9
100
AcDbLine
 10
-14.29999999999418
 20
47.03866129049894
 30
0.0
 11
-14.29999999999399
 21
46.24496372254423
 31
0.0
  0
LWPOLYLINE
  5
149
330
125
100
AcDbEntity
  8
AM_9
100
AcDbPolyline
 90
        8
 70
     0
 43
0.0
 10
-14.29999999999399
 20
46.24496372254423
 10
-14.33142998270871
 20
45.96669572471773
 10
-14.39591857900376
 20
45.76661608615656
 10
-14.49865362571962
 20
45.57504529725667
 10
-14.62383487061854
 20
45.41953489549305
 10
-14.78272877618327
 20
45.28577928834535
 10
-15.06515776901582
 20
45.15513875253757
 10
-15.12635182233307
 20
45.14077259906814
  0
LINE
  5
14A
330
125
100
AcDbEntity
  8
AM_9
100
AcDbLine
 10
-3.575
 20
-40.13800836890357
 30
0.0
 11
0.0000000000000006
 21
-40.13800836890357
 31
0.0
  0
LINE
  5
14B
330
125
100
AcDbEntity
  8
AM_9
100
AcDbLine
 10
-3.575
 20
40.1380082948399
 30
0.0
 11
0.0000000000000006
 21
40.1380082948399
 31
0.0
  0
LINE
  5
14C
330
125
100
AcDbEntity
  8
AM_9
100
AcDbLine
 10
-15.44999999999999
 20
40.2950229447606
 30
0.0
 11
-12.25714285714286
 21
40.29502294476063
 31
0.0
  0
LINE
  5
14D
330
125
100
AcDbEntity
  8
AM_9
100
AcDbLine
 10
-12.25714285714286
 20
45.07657869875217
 30
0.0
 11
-15.44999999999999
 21
45.07657869875217
 31
0.0
  0
LINE
  5
14E
330
125
100
AcDbEntity
  8
AM_9
100
AcDbLine
 10
-12.25714285714286
 20
43.59811617014557
 30
0.0
 11
-3.574999999999997
 21
43.59811617014557
 31
0.0
  0
LINE
  5
14F
330
125
100
AcDbEntity
  8
AM_9
100
AcDbLine
 10
-12.25714285714286
 20
47.03866129049894
 30
0.0
 11
-12.25714285714286
 21
28.89015842264113
 31
0.0
  0
LINE
  5
150
330
125
100
AcDbEntity
  8
AM_9
100
AcDbLine
 10
-17.90563076503539
 20
47.03866129049894
 30
0.0
 11
-23.29271407904981
 21
47.03866129049894
 31
0.0
  0
LINE
  5
151
330
125
100
AcDbEntity
  8
AM_9
100
AcDbLine
 10
-30.9
 20
-36.00000000000001
 30
0.0
 11
-3.574999999999998
 21
-36.00000000000001
 31
0.0
  0
LINE
  5
152
330
125
100
AcDbEntity
  8
AM_9
100
AcDbLine
 10
-3.574999999999998
 20
36.00000000000001
 30
0.0
 11
-30.9
 21
36.00000000000001
 31
0.0
  0
LWPOLYLINE
  5
153
330
125
100
AcDbEntity
  8
AM_9
100
AcDbPolyline
 90
        3
 70
     0
 43
0.0
 10
-22.9094010767585
 20
45.14947668103704
 10
-23.48415542367319
 20
44.35952530141817
 10
-24.06410161513776
 20
43.61801948466054
  0
LWPOLYLINE
  5
154
330
125
100
AcDbEntity
  8
AM_9
100
AcDbPolyline
 90
        3
 70
     0
 43
0.0
 10
-20.59999999999999
 20
45.03223304703364
 10
-21.75470053837925
 20
45.06317934706673
 10
-22.9094010767585
 20
45.14947668103704
  0
LWPOLYLINE
  5
155
330
125
100
AcDbEntity
  8
AM_9
100
AcDbPolyline
 90
        3
 70
     0
 43
0.0
 10
-17.13589838486223
 20
43.61801948466054
 10
-17.71324865405186
 20
44.35607256588018
 10
-18.29059892324149
 20
45.14947668103704
  0
LWPOLYLINE
  5
156
330
125
100
AcDbEntity
  8
AM_9
100
AcDbPolyline
 90
        3
 70
     0
 43
0.0
 10
-18.29059892324149
 20
45.14947668103704
 10
-19.44010761707086
 20
45.06345274011196
 10
-20.59999999999999
 20
45.03223304703364
  0
LINE
  5
157
330
125
100
AcDbEntity
  8
AM_9
100
AcDbLine
 10
-28.9
 20
-2.118585
 30
0.0
 11
-30.9
 21
-2.118585
 31
0.0
  0
LINE
  5
158
330
125
100
AcDbEntity
  8
AM_9
100
AcDbLine
 10
-28.9
 20
-4.25661
 30
0.0
 11
-30.9
 21
-4.25661
 31
0.0
  0
LINE
  5
159
330
125
100
AcDbEntity
  8
AM_9
100
AcDbLine
 10
-22.9094010767585
 20
45.14947668103704
 30
0.0
 11
-22.9094010767585
 21
47.03630975658987
 31
0.0
  0
LINE
  5
15A
330
125
100
AcDbEntity
  8
AM_9
100
AcDbLine
 10
-18.29059892324149
 20
45.14947668103704
 30
0.0
 11
-18.29059892324149
 21
47.03630975658987
 31
0.0
  0
LINE
  5
15B
330
125
100
AcDbEntity
  8
AM_9
100
AcDbLine
 10
-28.9
 20
2.54619
 30
0.0
 11
-30.9
 21
2.54619
 31
0.0
  0
LINE
  5
15C
330
125
100
AcDbEntity
  8
AM_9
100
AcDbLine
 10
-28.9
 20
0.9912650000000001
 30
0.0
 11
-30.9
 21
0.9912650000000001
 31
0.0
  0
LINE
  5
15D
330
125
100
AcDbEntity
  8
AM_9
100
AcDbLine
 10
-28.9
 20
-1.18563
 30
0.0
 11
-30.9
 21
-1.18563
 31
0.0
  0
LINE
  5
15E
330
125
100
AcDbEntity
  8
AM_9
100
AcDbLine
 10
-28.9
 20
2.857175
 30
0.0
 11
-30.9
 21
2.857175
 31
0.0
  0
LINE
  5
15F
330
125
100
AcDbEntity
  8
AM_9
100
AcDbLine
 10
-28.9
 20
3.090415
 30
0.0
 11
-30.9
 21
3.090415
 31
0.0
  0
LINE
  5
160
330
125
100
AcDbEntity
  8
AM_9
100
AcDbLine
 10
-28.9
 20
1.224505
 30
0.0
 11
-30.9
 21
1.224505
 31
0.0
  0
LINE
  5
161
330
125
100
AcDbEntity
  8
AM_9
100
AcDbLine
 10
-28.9
 20
-1.41887
 30
0.0
 11
-30.9
 21
-1.41887
 31
0.0
  0
LINE
  5
162
330
125
100
AcDbEntity
  8
AM_9
100
AcDbLine
 10
-28.9
 20
2.31295
 30
0.0
 11
-30.9
 21
2.31295
 31
0.0
  0
LINE
  5
163
330
125
100
AcDbEntity
  8
AM_9
100
AcDbLine
 10
-28.9
 20
-2.701685
 30
0.0
 11
-30.9
 21
-2.701685
 31
0.0
  0
LINE
  5
164
330
125
100
AcDbEntity
  8
AM_9
100
AcDbLine
 10
-28.9
 20
2.89605
 30
0.0
 11
-30.9
 21
2.89605
 31
0.0
  0
LINE
  5
165
330
125
100
AcDbEntity
  8
AM_9
100
AcDbLine
 10
-28.9
 20
2.50732
 30
0.0
 11
-30.9
 21
2.50732
 31
0.0
  0
LINE
  5
166
330
125
100
AcDbEntity
  8
AM_9
100
AcDbLine
 10
-28.9
 20
1.03014
 30
0.0
 11
-30.9
 21
1.03014
 31
0.0
  0
LINE
  5
167
330
125
100
AcDbEntity
  8
AM_9
100
AcDbLine
 10
-28.9
 20
-1.224505
 30
0.0
 11
-30.9
 21
-1.224505
 31
0.0
  0
LINE
  5
168
330
125
100
AcDbEntity
  8
AM_9
100
AcDbLine
 10
-28.9
 20
-0.8746450000000001
 30
0.0
 11
-30.9
 21
-0.8746450000000001
 31
0.0
  0
LINE
  5
169
330
125
100
AcDbEntity
  8
AM_9
100
AcDbLine
 10
-28.9
 20
-2.468445
 30
0.0
 11
-30.9
 21
-2.468445
 31
0.0
  0
LINE
  5
16A
330
125
100
AcDbEntity
  8
AM_9
100
AcDbLine
 10
-28.9
 20
3.207035
 30
0.0
 11
-30.9
 21
3.207035
 31
0.0
  0
LINE
  5
16B
330
125
100
AcDbEntity
  8
AM_9
100
AcDbLine
 10
-28.9
 20
2.973795
 30
0.0
 11
-30.9
 21
2.973795
 31
0.0
  0
LINE
  5
16C
330
125
100
AcDbEntity
  8
AM_9
100
AcDbLine
 10
-28.9
 20
2.42957
 30
0.0
 11
-30.9
 21
2.42957
 31
0.0
  0
LINE
  5
16D
330
125
100
AcDbEntity
  8
AM_9
100
AcDbLine
 10
-28.9
 20
1.341125
 30
0.0
 11
-30.9
 21
1.341125
 31
0.0
  0
LINE
  5
16E
330
125
100
AcDbEntity
  8
AM_9
100
AcDbLine
 10
-28.9
 20
-1.53549
 30
0.0
 11
-30.9
 21
-1.53549
 31
0.0
  0
LINE
  5
16F
330
125
100
AcDbEntity
  8
AM_9
100
AcDbLine
 10
-28.9
 20
-2.42957
 30
0.0
 11
-30.9
 21
-2.42957
 31
0.0
  0
LINE
  5
170
330
125
100
AcDbEntity
  8
AM_9
100
AcDbLine
 10
-28.9
 20
1.107885
 30
0.0
 11
-30.9
 21
1.107885
 31
0.0
  0
LINE
  5
171
330
125
100
AcDbEntity
  8
AM_9
100
AcDbLine
 10
-28.9
 20
-2.66281
 30
0.0
 11
-30.9
 21
-2.66281
 31
0.0
  0
LINE
  5
172
330
125
100
AcDbEntity
  8
AM_9
100
AcDbLine
 10
-28.9
 20
2.19633
 30
0.0
 11
-30.9
 21
2.19633
 31
0.0
  0
LINE
  5
173
330
125
100
AcDbEntity
  8
AM_9
100
AcDbLine
 10
-28.9
 20
-1.30225
 30
0.0
 11
-30.9
 21
-1.30225
 31
0.0
  0
LINE
  5
174
330
125
100
AcDbEntity
  8
AM_9
100
AcDbLine
 10
-28.9
 20
-0.641405
 30
0.0
 11
-30.9
 21
-0.641405
 31
0.0
  0
LINE
  5
175
330
125
100
AcDbEntity
  8
AM_9
100
AcDbLine
 10
-28.9
 20
-1.65211
 30
0.0
 11
-30.9
 21
-1.65211
 31
0.0
  0
LINE
  5
176
330
125
100
AcDbEntity
  8
AM_9
100
AcDbLine
 10
-28.9
 20
1.457745
 30
0.0
 11
-30.9
 21
1.457745
 31
0.0
  0
LINE
  5
177
330
125
100
AcDbEntity
  8
AM_9
100
AcDbLine
 10
-28.9
 20
4.178865
 30
0.0
 11
-30.9
 21
4.178865
 31
0.0
  0
LINE
  5
178
330
125
100
AcDbEntity
  8
AM_9
100
AcDbLine
 10
-28.9
 20
2.079715
 30
0.0
 11
-30.9
 21
2.079715
 31
0.0
  0
LINE
  5
179
330
125
100
AcDbEntity
  8
AM_9
100
AcDbLine
 10
-28.9
 20
3.323655
 30
0.0
 11
-30.9
 21
3.323655
 31
0.0
  0
LINE
  5
17A
330
125
100
AcDbEntity
  8
AM_9
100
AcDbLine
 10
-28.9
 20
-2.31295
 30
0.0
 11
-30.9
 21
-2.31295
 31
0.0
  0
LINE
  5
17B
330
125
100
AcDbEntity
  8
AM_9
100
AcDbLine
 10
-28.9
 20
-3.245905
 30
0.0
 11
-30.9
 21
-3.245905
 31
0.0
  0
LINE
  5
17C
330
125
100
AcDbEntity
  8
AM_9
100
AcDbLine
 10
-28.9
 20
-0.835775
 30
0.0
 11
-30.9
 21
-0.835775
 31
0.0
  0
LINE
  5
17D
330
125
100
AcDbEntity
  8
AM_9
100
AcDbLine
 10
-28.9
 20
2.27408
 30
0.0
 11
-30.9
 21
2.27408
 31
0.0
  0
LINE
  5
17E
330
125
100
AcDbEntity
  8
AM_9
100
AcDbLine
 10
-28.9
 20
-1.457745
 30
0.0
 11
-30.9
 21
-1.457745
 31
0.0
  0
LINE
  5
17F
330
125
100
AcDbEntity
  8
AM_9
100
AcDbLine
 10
-28.9
 20
-2.50732
 30
0.0
 11
-30.9
 21
-2.50732
 31
0.0
  0
LINE
  5
180
330
125
100
AcDbEntity
  8
AM_9
100
AcDbLine
 10
-28.9
 20
3.12929
 30
0.0
 11
-30.9
 21
3.12929
 31
0.0
  0
LINE
  5
181
330
125
100
AcDbEntity
  8
AM_9
100
AcDbLine
 10
-28.9
 20
1.263375
 30
0.0
 11
-30.9
 21
1.263375
 31
0.0
  0
LINE
  5
182
330
125
100
AcDbEntity
  8
AM_9
100
AcDbLine
 10
-28.9
 20
-0.524785
 30
0.0
 11
-30.9
 21
-0.524785
 31
0.0
  0
LINE
  5
183
330
125
100
AcDbEntity
  8
AM_9
100
AcDbLine
 10
-28.9
 20
-0.758025
 30
0.0
 11
-30.9
 21
-0.758025
 31
0.0
  0
LINE
  5
184
330
125
100
AcDbEntity
  8
AM_9
100
AcDbLine
 10
-28.9
 20
-2.351825
 30
0.0
 11
-30.9
 21
-2.351825
 31
0.0
  0
LINE
  5
185
330
125
100
AcDbEntity
  8
AM_9
100
AcDbLine
 10
-28.9
 20
2.118585
 30
0.0
 11
-30.9
 21
2.118585
 31
0.0
  0
LINE
  5
186
330
125
100
AcDbEntity
  8
AM_9
100
AcDbLine
 10
-28.9
 20
-1.613235
 30
0.0
 11
-30.9
 21
-1.613235
 31
0.0
  0
LINE
  5
187
330
125
100
AcDbEntity
  8
AM_9
100
AcDbLine
 10
-28.9
 20
1.41887
 30
0.0
 11
-30.9
 21
1.41887
 31
0.0
  0
LINE
  5
188
330
125
100
AcDbEntity
  8
AM_9
100
AcDbLine
 10
-28.9
 20
3.28478
 30
0.0
 11
-30.9
 21
3.28478
 31
0.0
  0
LINE
  5
189
330
125
100
AcDbEntity
  8
AM_9
100
AcDbLine
 10
-28.9
 20
0.4470410000000002
 30
0.0
 11
-30.9
 21
0.4470410000000002
 31
0.0
  0
LINE
  5
18A
330
125
100
AcDbEntity
  8
AM_9
100
AcDbLine
 10
-28.9
 20
-0.4081679999999999
 30
0.0
 11
-30.9
 21
-0.4081679999999999
 31
0.0
  0
LINE
  5
18B
330
125
100
AcDbEntity
  8
AM_9
100
AcDbLine
 10
-28.9
 20
3.479145
 30
0.0
 11
-30.9
 21
3.479145000000003
 31
0.0
  0
LINE
  5
18C
330
125
100
AcDbEntity
  8
AM_9
100
AcDbLine
 10
-28.9
 20
4.4121
 30
0.0
 11
-30.9
 21
4.4121
 31
0.0
  0
LINE
  5
18D
330
125
100
AcDbEntity
  8
AM_9
100
AcDbLine
 10
-28.9
 20
2.857175
 30
0.0
 11
-28.9
 21
4.4121
 31
0.0
  0
LINE
  5
18E
330
125
100
AcDbEntity
  8
AM_9
100
AcDbLine
 10
-28.9
 20
-4.4121
 30
0.0
 11
-28.9
 21
-3.01267
 31
0.0
  0
LINE
  5
18F
330
125
100
AcDbEntity
  8
AM_9
100
AcDbLine
 10
-28.9
 20
-3.01267
 30
0.0
 11
-30.9
 21
-3.01267
 31
0.0
  0
LINE
  5
190
330
125
100
AcDbEntity
  8
AM_9
100
AcDbLine
 10
-28.9
 20
-4.4121
 30
0.0
 11
-30.9
 21
-4.412099999999995
 31
0.0
  0
LINE
  5
191
330
125
100
AcDbEntity
  8
AM_9
100
AcDbLine
 10
-28.9
 20
1.92422
 30
0.0
 11
-30.9
 21
1.92422
 31
0.0
  0
LINE
  5
192
330
125
100
AcDbEntity
  8
AM_9
100
AcDbLine
 10
-28.9
 20
-2.15746
 30
0.0
 11
-30.9
 21
-2.15746
 31
0.0
  0
LINE
  5
193
330
125
100
AcDbEntity
  8
AM_9
100
AcDbLine
 10
-28.9
 20
-1.8076
 30
0.0
 11
-30.9
 21
-1.8076
 31
0.0
  0
LINE
  5
194
330
125
100
AcDbEntity
  8
AM_9
100
AcDbLine
 10
-28.9
 20
1.613235
 30
0.0
 11
-30.9
 21
1.613235
 31
0.0
  0
LINE
  5
195
330
125
100
AcDbEntity
  8
AM_9
100
AcDbLine
 10
-28.9
 20
-2.701685
 30
0.0
 11
-28.9
 21
-1.18563
 31
0.0
  0
LINE
  5
196
330
125
100
AcDbEntity
  8
AM_9
100
AcDbLine
 10
-28.9
 20
0.9912650000000001
 30
0.0
 11
-28.9
 21
2.54619
 31
0.0
  0
LINE
  5
197
330
125
100
AcDbEntity
  8
AM_9
100
AcDbLine
 10
-28.9
 20
-0.602535
 30
0.0
 11
-30.9
 21
-0.602535
 31
0.0
  0
LINE
  5
198
330
125
100
AcDbEntity
  8
AM_9
100
AcDbLine
 10
-28.9
 20
-0.447041
 30
0.0
 11
-30.9
 21
-0.447041
 31
0.0
  0
LINE
  5
199
330
125
100
AcDbEntity
  8
AM_9
100
AcDbLine
 10
-28.9
 20
-0.2526754999999999
 30
0.0
 11
-30.9
 21
-0.2526754999999999
 31
0.0
  0
LINE
  5
19A
330
125
100
AcDbEntity
  8
AM_9
100
AcDbLine
 10
-28.9
 20
-0.8746450000000001
 30
0.0
 11
-28.9
 21
0.6802800000000001
 31
0.0
  0
LINE
  5
19B
330
125
100
AcDbEntity
  8
AM_9
100
AcDbLine
 10
-28.9
 20
0.6802800000000001
 30
0.0
 11
-30.9
 21
0.6802799999999984
 31
0.0
  0
LINE
  5
19C
330
125
100
AcDbEntity
  8
AM_9
100
AcDbLine
 10
-23.27488013380096
 20
46.64906152883015
 30
0.0
 11
-22.9094010767585
 21
47.03630975658987
 31
0.0
  0
LWPOLYLINE
  5
19D
330
125
100
AcDbEntity
  8
AM_9
100
AcDbPolyline
 90
        3
 70
     0
 43
0.0
 10
-22.9094010767585
 20
47.03630975658987
 10
-21.75989238292912
 20
47.12233369751496
 10
-20.59999999999999
 20
47.15355339059331
  0
LINE
  5
19E
330
125
100
AcDbEntity
  8
AM_9
100
AcDbLine
 10
-18.29059892324149
 20
47.03630975658987
 30
0.0
 11
-17.92619932821482
 21
46.65023335815635
 31
0.0
  0
LWPOLYLINE
  5
19F
330
125
100
AcDbEntity
  8
AM_9
100
AcDbPolyline
 90
        3
 70
     0
 43
0.0
 10
-20.59999999999999
 20
47.15355339059331
 10
-19.44529946162074
 20
47.12260709056018
 10
-18.29059892324149
 20
47.03630975658987
  0
LWPOLYLINE
  5
1A0
330
125
100
AcDbEntity
  8
AM_9
100
AcDbPolyline
 90
        3
 70
     0
 43
0.0
 10
-15.98119784648299
 20
42.32104955629086
 10
-16.55595219339767
 20
42.93895305405955
 10
-17.13589838486223
 20
43.61801948466054
  0
LWPOLYLINE
  5
1A1
330
125
100
AcDbEntity
  8
AM_9
100
AcDbPolyline
 90
        3
 70
     0
 43
0.0
 10
-24.06410161513776
 20
43.61801948466054
 10
-24.64145188432738
 20
42.94185900350709
 10
-25.218802153517
 20
42.32104955629086
  0
LINE
  5
1A2
330
125
100
AcDbEntity
  8
AM_9
100
AcDbLine
 10
-23.39999999999999
 20
42.20380592228744
 30
0.0
 11
-23.39999999999999
 21
41.85025253169417
 31
0.0
  0
LINE
  5
1A3
330
125
100
AcDbEntity
  8
AM_9
100
AcDbLine
 10
-17.8
 20
41.85025253169417
 30
0.0
 11
-17.8
 21
42.20380592228744
 31
0.0
  0
LINE
  5
1A4
330
125
100
AcDbEntity
  8
AM_9
100
AcDbLine
 10
-23.45199317200859
 20
46.45287485287205
 30
0.0
 11
-17.74790617548318
 21
46.45287485287205
 31
0.0
  0
ELLIPSE
  5
1A5
330
125
100
AcDbEntity
  8
AM_9
100
AcDbEllipse
 10
-20.59999999999999
 20
44.3251262658471
 30
0.0
 11
-2.799999999999994
 21
3.429011037612581E-16
 31
0.0
210
0.0
220
0.0
230
1.0
 40
0.7071067811865477
 41
3.141592653589793
 42
6.283185307179586
  0
ELLIPSE
  5
1A6
330
125
100
AcDbEntity
  8
AM_9
100
AcDbEllipse
 10
-20.59999999999999
 20
44.67867965644034
 30
0.0
 11
-2.800000000000015
 21
3.429011037612607E-16
 31
0.0
210
0.0
220
0.0
230
1.0
 40
0.7071067811865475
 41
3.754656541516301
 42
5.67363066080489
  0
ELLIPSE
  5
1A7
330
125
100
AcDbEntity
  8
AM_9
100
AcDbEllipse
 10
-20.60000000000005
 20
44.32512626584695
 30
0.0
 11
-4.000000000000139
 21
4.898587196589582E-16
 31
0.0
210
0.0
220
0.0
230
1.0
 40
0.7071067811865642
 41
3.993149499112336
 42
5.432460129657342
  0
LWPOLYLINE
  5
1A8
330
125
100
AcDbEntity
  8
AM_9
100
AcDbPolyline
 90
        6
 70
     0
 43
0.0
 10
-30.9
 20
37.70638252183844
 10
-30.86058895519481
 20
37.90873497091564
 10
-30.7076513079647
 20
38.13554085182007
 10
-30.45922649015245
 20
38.30964907394611
 10
-30.15039790492429
 20
38.41082710700362
 10
-30.07364817766693
 20
38.42294498776688
  0
ARC
  5
1A9
330
125
100
AcDbEntity
  8
AM_9
100
AcDbCircle
 10
-29.9
 20
44.08664851687692
 30
0.0
 40
1.000000000000005
100
AcDbArc
 50
100.0000000000001
 51
180.0
  0
LINE
  5
1AA
330
125
100
AcDbEntity
  8
AM_9
100
AcDbLine
 10
-20.17232920633701
 20
44.87996761367019
 30
0.0
 11
-20.20261432485521
 21
44.87641452413671
 31
0.0
  0
LWPOLYLINE
  5
1AB
330
125
100
AcDbEntity
  8
AM_9
100
AcDbPolyline
 90
       49
 70
     0
 43
0.0
 10
-22.05713820525726
 20
45.19248814331618
 10
-22.19897221044586
 20
45.27720308867746
 10
-22.32472716212134
 20
45.36828826818884
 10
-22.42395473766046
 20
45.45608701664948
 10
-22.49762219099003
 20
45.53652493994568
 10
-22.5479926053626
 20
45.60595253998735
 10
-22.57856121623362
 20
45.66153585625477
 10
-22.59392334254854
 20
45.70189410357212
 10
-22.59941792307027
 20
45.72858803765985
 10
-22.59919914894003
 20
45.7520050817238
 10
-22.5900883196458
 20
45.78879073666128
 10
-22.569748365455
 20
45.83508754077137
 10
-22.53305913545289
 20
45.8952290591087
 10
-22.47689102507065
 20
45.96666125008879
 10
-22.39108954316769
 20
46.05371105806065
 10
-22.27987981886756
 20
46.14498944141368
 10
-22.14310841594232
 20
46.23677578137546
 10
-21.9814260757123
 20
46.32546597969738
 10
-21.79654429713031
 20
46.40753279986325
 10
-21.59096720509858
 20
46.47980002412617
 10
-21.36770954610702
 20
46.539575803807
 10
-21.13038831295841
 20
46.58462927445647
 10
-20.88309763697166
 20
46.61326668959335
 10
-20.63027637238905
 20
46.62438686170832
 10
-20.37657415022873
 20
46.6175192955546
 10
-20.12678577377726
 20
46.59285799574131
 10
-19.88567026087991
 20
46.55129114514607
 10
-19.65763824360506
 20
46.49436613367613
 10
-19.44671964552405
 20
46.4242663632054
 10
-19.25640884838734
 20
46.34376917498178
 10
-19.08950325194254
 20
46.25617606610875
 10
-18.94794306335175
 20
46.16520717060731
 10
-18.83274223521346
 20
46.0749206944076
 10
-18.74384780033293
 20
45.98957226738182
 10
-18.67976751642838
 20
45.9131022929167
 10
-18.63773943845737
 20
45.84889222071093
 10
-18.61380977703713
 20
45.79929985764009
 10
-18.60301838494352
 20
45.76481190546109
 10
-18.60002796286636
 20
45.74166892319211
 10
-18.60422588571187
 20
45.70873556541925
 10
-18.61720049083659
 20
45.67109877529587
 10
-18.64440670707468
 20
45.61830626239759
 10
-18.68945909072492
 20
45.55278325060794
 10
-18.76300695881347
 20
45.46912352777629
 10
-18.8615316031408
 20
45.379441811477
 10
-18.98559583476132
 20
45.28745497863103
 10
-19.13501007020453
 20
45.19677740343366
 10
-19.30866444222157
 20
45.11096208031641
 10
-19.34334602310702
 20
45.09587219959573
  0
LWPOLYLINE
  5
1AC
330
125
100
AcDbEntity
  8
AM_9
100
AcDbPolyline
 90
        5
 70
     0
 43
0.0
 10
-21.21348903639999
 20
44.90779191922613
 10
-21.21992890281107
 20
44.90894648452002
 10
-21.45366229775508
 20
44.9600005715964
 10
-21.67182696434959
 20
45.02517024236604
 10
-21.70586768304445
 20
45.03704276588737
  0
LWPOLYLINE
  5
1AD
330
125
100
AcDbEntity
  8
AM_9
100
AcDbPolyline
 90
        4
 70
     0
 43
0.0
 10
-20.59999999999999
 20
44.85416464232888
 10
-20.72301930284319
 20
44.85628187356585
 10
-20.97482608386973
 20
44.87394266170323
 10
-21.21348903639999
 20
44.90779191922613
  0
LINE
  5
1AE
330
125
100
AcDbEntity
  8
AM_9
100
AcDbLine
 10
-20.57581566981172
 20
44.8542464097217
 30
0.0
 11
-20.59999999999999
 21
44.85416464232888
 31
0.0
  0
LWPOLYLINE
  5
1AF
330
125
100
AcDbEntity
  8
AM_9
100
AcDbPolyline
 90
        3
 70
     0
 43
0.0
 10
-20.35565900902288
 20
44.86253546478341
 10
-20.44345376573084
 20
44.8575947438981
 10
-20.57581566981172
 20
44.8542464097217
  0
LINE
  5
1B0
330
125
100
AcDbEntity
  8
AM_9
100
AcDbLine
 10
-20.20261432485521
 20
44.87641452413671
 30
0.0
 11
-20.35565900902288
 21
44.86253546478341
 31
0.0
  0
ELLIPSE
  5
1B1
330
125
100
AcDbEntity
  8
AM_9
100
AcDbEllipse
 10
-20.59999999999979
 20
46.65565313070875
 30
0.0
 11
-2.547965880308823
 21
3.120358259656868E-16
 31
0.0
210
0.0
220
0.0
230
1.0
 40
0.7071067811867613
 41
1.570796326794897
 42
1.88821017484781
  0
ELLIPSE
  5
1B2
330
125
100
AcDbEntity
  8
AM_9
100
AcDbEllipse
 10
-20.59999999999999
 20
46.6556531307088
 30
0.0
 11
-2.547965880309703
 21
3.796765061095467E-8
 31
0.0
210
0.0
220
0.0
230
1.0
 40
0.7071067811865475
 41
1.904285225855444
 42
7.481709775311339
  0
ELLIPSE
  5
1B3
330
125
100
AcDbEntity
  8
AM_9
100
AcDbEllipse
 10
-20.6
 20
47.0406102923438
 30
0.0
 11
-2.663890264528334
 21
3.262324685734420E-16
 31
0.0
210
0.0
220
0.0
230
1.0
 40
0.707106781186547
 41
3.553109499657275
 42
5.8716684611121
  0
LINE
  5
1B4
330
125
100
AcDbEntity
  8
AM_9
100
AcDbLine
 10
-30.07364817766693
 20
26.93361006179486
 30
0.0
 11
-30.07364817766693
 21
45.07145626988913
 31
0.0
  0
LINE
  5
1B5
330
125
100
AcDbEntity
  8
AM_9
100
AcDbLine
 10
-15.44999999999999
 20
40.2950229447606
 30
0.0
 11
-30.07364817766693
 21
38.42294498776688
 31
0.0
  0
LINE
  5
1B6
330
125
100
AcDbEntity
  8
AM_9
100
AcDbLine
 10
-15.44999999999999
 20
45.07657869875217
 30
0.0
 11
-15.45000000000039
 21
28.77517146104496
 31
0.0
  0
LINE
  5
1B7
330
125
100
AcDbEntity
  8
AM_9
100
AcDbLine
 10
-15.12635182233307
 20
45.14077259906814
 30
0.0
 11
-15.44999999999999
 21
45.07657869875217
 31
0.0
  0
LINE
  5
1B8
330
125
100
AcDbEntity
  8
AM_9
100
AcDbLine
 10
-15.12635182233307
 20
45.14077259906814
 30
0.0
 11
-15.12635182233307
 21
47.03866129049894
 31
0.0
  0
LINE
  5
1B9
330
125
100
AcDbEntity
  8
AM_9
100
AcDbLine
 10
-17.93216135792512
 20
47.21232798212584
 30
0.0
 11
-30.07364817766693
 21
45.07145626988913
 31
0.0
  0
ELLIPSE
  5
1BA
330
125
100
AcDbEntity
  8
AM_9
100
AcDbEllipse
 10
-20.60000000000001
 20
42.20380592228743
 30
0.0
 11
-3.999999999999975
 21
4.898587196589382E-16
 31
0.0
210
0.0
220
0.0
230
1.0
 40
0.7071067811865469
 41
0.0
 42
6.283185307179586
  0
ELLIPSE
  5
1BB
330
125
100
AcDbEntity
  8
AM_9
100
AcDbEllipse
 10
-20.6
 20
42.20380592228744
 30
0.0
 11
-2.799999999999994
 21
3.429011037612581E-16
 31
0.0
210
0.0
220
0.0
230
1.0
 40
0.7071067811865477
 41
0.0
 42
6.283185307179586
  0
ELLIPSE
  5
1BC
330
125
100
AcDbEntity
  8
AM_9
100
AcDbEllipse
 10
-20.59999999999999
 20
41.85025253169417
 30
0.0
 11
2.799999999999994
 21
0.0
 31
0.0
210
0.0
220
0.0
230
1.0
 40
0.7071067811865477
 41
0.0
 42
6.283185307179586
  0
LINE
  5
1BD
330
125
100
AcDbEntity
  8
AM_7
100
AcDbLine
 10
1.545
 20
0.0
 30
0.0
 11
-47.265
 21
0.0
 31
0.0
  0
LINE
  5
1BE
330
125
100
AcDbEntity
  8
AM_7
100
AcDbLine
 10
1.545
 20
65.1
 30
0.0
 11
-32.445
 21
65.1
 31
0.0
  0
LINE
  5
1BF
330
125
100
AcDbEntity
  8
AM_7
100
AcDbLine
 10
1.545
 20
-65.1
 30
0.0
 11
-32.445
 21
-65.1
 31
0.0
  0
LINE
  5
1C0
330
125
100
AcDbEntity
  8
AM_4
100
AcDbLine
 10
-14.29999999999396
 20
-46.24496372254298
 30
0.0
 11
-14.3
 21
-77.79999999999998
 31
0.0
  0
LINE
  5
1C1
330
125
100
AcDbEntity
  8
AM_4
100
AcDbLine
 10
-14.3
 20
-77.79999999999998
 30
0.0
 11
0.0
 21
-77.79999999999998
 31
0.0
  0
LINE
  5
1C2
330
125
100
AcDbEntity
  8
AM_4
100
AcDbLine
 10
0.0
 20
77.79999999999998
 30
0.0
 11
-14.3
 21
77.79999999999998
 31
0.0
  0
LINE
  5
1C3
330
125
100
AcDbEntity
  8
AM_4
100
AcDbLine
 10
-14.3
 20
77.79999999999998
 30
0.0
 11
-14.29999999999418
 21
47.03866129049894
 31
0.0
  0
LINE
  5
1C4
330
125
100
AcDbEntity
  8
AM_4
100
AcDbLine
 10
-12.25714285714286
 20
-71.91820276497695
 30
0.0
 11
-14.3
 21
-71.91820276497698
 31
0.0
  0
LINE
  5
1C5
330
125
100
AcDbEntity
  8
AM_4
100
AcDbLine
 10
-12.25714285714286
 20
71.91820276497694
 30
0.0
 11
-14.3
 21
71.91820276497694
 31
0.0
  0
LWPOLYLINE
  5
1C6
330
125
100
AcDbEntity
  8
AM_4
100
AcDbPolyline
 90
        6
 70
     0
 43
0.0
 10
-15.12635182233307
 20
-45.14077259906815
 10
-14.82938097122998
 20
-45.25598073755466
 10
-14.58705315379013
 20
-45.45942947523971
 10
-14.40502581958106
 20
-45.74559209436566
 10
-14.30702198635733
 20
-46.11267353687082
 10
-14.29999999999396
 20
-46.24496372254298
  0
ARC
  5
1C7
330
125
100
AcDbEntity
  8
AM_4
100
AcDbCircle
 10
-15.29999999999999
 20
-48.69187565899201
 30
0.0
 40
0.9999999999999911
100
AcDbArc
 50
0.0
 51
80.00000000000031
  0
ARC
  5
1C8
330
125
100
AcDbEntity
  8
AM_4
100
AcDbCircle
 10
-15.29999999999999
 20
48.69187565899201
 30
0.0
 40
0.9999999999999891
100
AcDbArc
 50
279.9999999999997
 51
0.0
  0
LINE
  5
1C9
330
125
100
AcDbEntity
  8
AM_4
100
AcDbLine
 10
0.0
 20
-77.79999999999998
 30
0.0
 11
0.0000000000000007
 21
-39.87301430176036
 31
0.0
  0
LINE
  5
1CA
330
125
100
AcDbEntity
  8
AM_4
100
AcDbLine
 10
0.0000000000000007
 20
-39.87301430176036
 30
0.0
 11
-3.574999999999999
 21
-39.87301430176036
 31
0.0
  0
LINE
  5
1CB
330
125
100
AcDbEntity
  8
AM_4
100
AcDbLine
 10
-3.574999999999999
 20
39.87301430176035
 30
0.0
 11
0.0000000000000007
 21
39.87301430176035
 31
0.0
  0
LINE
  5
1CC
330
125
100
AcDbEntity
  8
AM_4
100
AcDbLine
 10
0.0000000000000007
 20
39.87301430176035
 30
0.0
 11
0.0
 21
77.79999999999998
 31
0.0
  0
LINE
  5
1CD
330
125
100
AcDbEntity
  8
AM_4
100
AcDbLine
 10
0.0000000000000013
 20
55.49816908665306
 30
0.0
 11
-3.574999999999999
 21
55.49816908665309
 31
0.0
  0
LINE
  5
1CE
330
125
100
AcDbEntity
  8
AM_4
100
AcDbLine
 10
0.0000000000000007
 20
71.91820276497695
 30
0.0
 11
-12.25714285714286
 21
71.91820276497694
 31
0.0
  0
LINE
  5
1CF
330
125
100
AcDbEntity
  8
AM_4
100
AcDbLine
 10
-12.25714285714286
 20
71.91820276497694
 30
0.0
 11
-12.25714285714286
 21
47.03866129049894
 31
0.0
  0
LINE
  5
1D0
330
125
100
AcDbEntity
  8
AM_4
100
AcDbLine
 10
-30.9
 20
-44.08664851687692
 30
0.0
 11
-30.9
 21
47.03866129049894
 31
0.0
  0
LINE
  5
1D1
330
125
100
AcDbEntity
  8
AM_4
100
AcDbLine
 10
-23.29271407904981
 20
47.03866129049894
 30
0.0
 11
-30.9
 21
47.03866129049894
 31
0.0
  0
LINE
  5
1D2
330
125
100
AcDbEntity
  8
AM_4
100
AcDbLine
 10
-3.574999999999996
 20
47.03866129049894
 30
0.0
 11
-17.90563076503539
 21
47.03866129049894
 31
0.0
  0
LWPOLYLINE
  5
1D3
330
125
100
AcDbEntity
  8
AM_4
100
AcDbPolyline
 90
        3
 70
     0
 43
0.0
 10
-24.06410161513771
 20
45.73933982822022
 10
-23.4867513459481
 20
46.41550030937366
 10
-23.27488013380096
 20
46.64906152883015
  0
LWPOLYLINE
  5
1D4
330
125
100
AcDbEntity
  8
AM_4
100
AcDbPolyline
 90
        3
 70
     0
 43
0.0
 10
-17.92619932821482
 20
46.65023335815635
 10
-17.71584457632682
 20
46.41840625882119
 10
-17.13589838486227
 20
45.73933982822025
  0
LINE
  5
1D5
330
125
100
AcDbEntity
  8
AM_4
100
AcDbLine
 10
-12.25714285714286
 20
28.89015842264113
 30
0.0
 11
-12.25714285714285
 21
25.58168202764979
 31
0.0
  0
LINE
  5
1D6
330
125
100
AcDbEntity
  8
AM_4
100
AcDbLine
 10
-12.25714285714286
 20
-25.58168202764975
 30
0.0
 11
-12.25714285714286
 21
-71.91820276497695
 31
0.0
  0
LINE
  5
1D7
330
125
100
AcDbEntity
  8
AM_4
100
AcDbLine
 10
-3.574999999999999
 20
-55.49816908665305
 30
0.0
 11
0.0000000000000013
 21
-55.49816908665305
 31
0.0
  0
LINE
  5
1D8
330
125
100
AcDbEntity
  8
AM_4
100
AcDbLine
 10
0.0000000000000007
 20
-71.91820276497695
 30
0.0
 11
-12.25714285714286
 21
-71.91820276497695
 31
0.0
  0
LWPOLYLINE
  5
1D9
330
125
100
AcDbEntity
  8
AM_4
100
AcDbPolyline
 90
        3
 70
     0
 43
0.0
 10
-25.218802153517
 20
44.20788263184368
 10
-24.64404780660229
 20
44.99783401146257
 10
-24.06410161513771
 20
45.73933982822022
  0
LWPOLYLINE
  5
1DA
330
125
100
AcDbEntity
  8
AM_4
100
AcDbPolyline
 90
        3
 70
     0
 43
0.0
 10
-17.13589838486227
 20
45.73933982822025
 10
-16.55854811567263
 20
45.00128674700056
 10
-15.98119784648299
 20
44.20788263184368
  0
LINE
  5
1DB
330
125
100
AcDbEntity
  8
AM_4
100
AcDbLine
 10
-3.574999999999996
 20
28.89015842264113
 30
0.0
 11
-12.25714285714286
 21
28.89015842264113
 31
0.0
  0
LINE
  5
1DC
330
125
100
AcDbEntity
  8
AM_4
100
AcDbLine
 10
-3.574999999999999
 20
-55.49816908665305
 30
0.0
 11
-3.574999999999999
 21
55.49816908665309
 31
0.0
  0
LINE
  5
1DD
330
125
100
AcDbEntity
  8
AM_4
100
AcDbLine
 10
-17.74790617548318
 20
46.45287485287205
 30
0.0
 11
-3.574999999999996
 21
46.45287485287205
 31
0.0
  0
LINE
  5
1DE
330
125
100
AcDbEntity
  8
AM_4
100
AcDbLine
 10
-30.9
 20
46.45287485287205
 30
0.0
 11
-23.45199317200859
 21
46.45287485287205
 31
0.0
  0
LINE
  5
1DF
330
125
100
AcDbEntity
  8
AM_4
100
AcDbLine
 10
-23.4
 20
44.67867965644035
 30
0.0
 11
-23.4
 21
44.32512626584709
 31
0.0
  0
LINE
  5
1E0
330
125
100
AcDbEntity
  8
AM_4
100
AcDbLine
 10
-17.79999999999999
 20
44.32512626584709
 30
0.0
 11
-17.79999999999999
 21
44.67867965644035
 31
0.0
  0
ELLIPSE
  5
1E1
330
125
100
AcDbEntity
  8
AM_4
100
AcDbEllipse
 10
-20.6
 20
44.32512626584708
 30
0.0
 11
-2.799999999999994
 21
3.429011037612581E-16
 31
0.0
210
0.0
220
0.0
230
1.0
 40
0.7071067811865477
 41
0.0
 42
3.141592653589793
  0
ELLIPSE
  5
1E2
330
125
100
AcDbEntity
  8
AM_4
100
AcDbEllipse
 10
-20.59999999999991
 20
44.67867965644032
 30
0.0
 11
-2.800000000000093
 21
3.429011037612703E-16
 31
0.0
210
0.0
220
0.0
230
1.0
 40
0.707106781186548
 41
5.673630660804903
 42
10.03784184869591
  0
LWPOLYLINE
  5
1E3
330
125
100
AcDbEntity
  8
AM_4
100
AcDbPolyline
 90
        3
 70
     0
 43
0.0
 10
-15.98119784648299
 20
44.20788263184368
 10
-16.55595219339766
 20
43.589979134075
 10
-17.13589838486221
 20
42.91091270347404
  0
LWPOLYLINE
  5
1E4
330
125
100
AcDbEntity
  8
AM_4
100
AcDbPolyline
 90
        3
 70
     0
 43
0.0
 10
-18.29059892324149
 20
39.49262243154467
 10
-17.7158445763268
 20
40.11052592931335
 10
-17.13589838486224
 20
40.78959235991434
  0
LWPOLYLINE
  5
1E5
330
125
100
AcDbEntity
  8
AM_4
100
AcDbPolyline
 90
        3
 70
     0
 43
0.0
 10
-17.13589838486224
 20
40.78959235991434
 10
-16.55854811567261
 20
41.52764544113399
 10
-15.98119784648299
 20
42.32104955629086
  0
LINE
  5
1E6
330
125
100
AcDbEntity
  8
AM_4
100
AcDbLine
 10
-15.98119784648299
 20
42.32104955629086
 30
0.0
 11
-15.98119784648299
 21
44.20788263184368
 31
0.0
  0
LWPOLYLINE
  5
1E7
330
125
100
AcDbEntity
  8
AM_4
100
AcDbPolyline
 90
        3
 70
     0
 43
0.0
 10
-24.06410161513778
 20
42.91091270347404
 10
-24.64145188432739
 20
43.58707318462746
 10
-25.218802153517
 20
44.20788263184368
  0
LINE
  5
1E8
330
125
100
AcDbEntity
  8
AM_4
100
AcDbLine
 10
-25.218802153517
 20
42.32104955629086
 30
0.0
 11
-25.218802153517
 21
44.20788263184368
 31
0.0
  0
LWPOLYLINE
  5
1E9
330
125
100
AcDbEntity
  8
AM_4
100
AcDbPolyline
 90
        3
 70
     0
 43
0.0
 10
-25.218802153517
 20
42.32104955629086
 10
-24.64404780660231
 20
41.53109817667197
 10
-24.06410161513774
 20
40.78959235991434
  0
LWPOLYLINE
  5
1EA
330
125
100
AcDbEntity
  8
AM_4
100
AcDbPolyline
 90
        3
 70
     0
 43
0.0
 10
-24.06410161513774
 20
40.78959235991434
 10
-23.48675134594812
 20
40.11343187876089
 10
-22.9094010767585
 20
39.49262243154467
  0
LINE
  5
1EB
330
125
100
AcDbEntity
  8
AM_4
100
AcDbLine
 10
-30.9
 20
34.41920308577009
 30
0.0
 11
-3.574999999999996
 21
34.41920308577009
 31
0.0
  0
LINE
  5
1EC
330
125
100
AcDbEntity
  8
AM_4
100
AcDbLine
 10
-30.9
 20
37.24763021051628
 30
0.0
 11
-3.574999999999996
 21
37.24763021051628
 31
0.0
  0
LINE
  5
1ED
330
125
100
AcDbEntity
  8
AM_4
100
AcDbLine
 10
-22.9094010767585
 20
39.49262243154467
 30
0.0
 11
-22.9094010767585
 21
41.37945550709749
 31
0.0
  0
LWPOLYLINE
  5
1EE
330
125
100
AcDbEntity
  8
AM_4
100
AcDbPolyline
 90
        3
 70
     0
 43
0.0
 10
-22.9094010767585
 20
39.49262243154467
 10
-21.75989238292912
 20
39.40659849061957
 10
-20.59999999999999
 20
39.37537879754126
  0
LWPOLYLINE
  5
1EF
330
125
100
AcDbEntity
  8
AM_4
100
AcDbPolyline
 90
        3
 70
     0
 43
0.0
 10
-20.59999999999999
 20
39.37537879754126
 10
-19.44529946162074
 20
39.40632509757435
 10
-18.29059892324149
 20
39.49262243154467
  0
LINE
  5
1F0
330
125
100
AcDbEntity
  8
AM_4
100
AcDbLine
 10
-18.29059892324149
 20
39.49262243154467
 30
0.0
 11
-18.29059892324149
 21
41.37945550709749
 31
0.0
  0
LWPOLYLINE
  5
1F1
330
125
100
AcDbEntity
  8
AM_4
100
AcDbPolyline
 90
        3
 70
     0
 43
0.0
 10
-20.59999999999999
 20
41.4966991411009
 10
-21.75470053837925
 20
41.4657528410678
 10
-22.9094010767585
 20
41.37945550709749
  0
ELLIPSE
  5
1F2
330
125
100
AcDbEntity
  8
AM_4
100
AcDbEllipse
 10
-20.6
 20
44.32512626584709
 30
0.0
 11
-4.000000000000014
 21
4.898587196589431E-16
 31
0.0
210
0.0
220
0.0
230
1.0
 40
0.7071067811865454
 41
5.432460129657368
 42
10.27633480629191
  0
LWPOLYLINE
  5
1F3
330
125
100
AcDbEntity
  8
AM_4
100
AcDbPolyline
 90
        3
 70
     0
 43
0.0
 10
-22.9094010767585
 20
41.37945550709749
 10
-23.4841554236732
 20
42.16940688671639
 10
-24.06410161513778
 20
42.91091270347404
  0
LWPOLYLINE
  5
1F4
330
125
100
AcDbEntity
  8
AM_4
100
AcDbPolyline
 90
        3
 70
     0
 43
0.0
 10
-17.13589838486221
 20
42.91091270347404
 10
-17.71324865405185
 20
42.17285962225437
 10
-18.29059892324149
 20
41.37945550709749
  0
LWPOLYLINE
  5
1F5
330
125
100
AcDbEntity
  8
AM_4
100
AcDbPolyline
 90
        3
 70
     0
 43
0.0
 10
-18.29059892324149
 20
41.37945550709749
 10
-19.44010761707087
 20
41.46547944802258
 10
-20.59999999999999
 20
41.4966991411009
  0
LWPOLYLINE
  5
1F6
330
125
100
AcDbEntity
  8
AM_4
100
AcDbPolyline
 90
        6
 70
     0
 43
0.0
 10
-30.07364817766693
 20
26.93361006179486
 10
-30.38795832524764
 20
26.85361525195546
 10
-30.64735502339684
 20
26.70464767264351
 10
-30.82435611600419
 20
26.50244727818859
 10
-30.89856661138889
 20
26.26796632094726
 10
-30.9
 20
26.22970092073689
  0
ARC
  5
1F7
330
125
100
AcDbEntity
  8
AM_4
100
AcDbCircle
 10
-29.9
 20
-44.08664851687692
 30
0.0
 40
1.000000000000004
100
AcDbArc
 50
180.0
 51
259.9999999999999
  0
ELLIPSE
  5
1F8
330
125
100
AcDbEntity
  8
AM_4
100
AcDbEllipse
 10
-20.59999999999916
 20
46.65565313071065
 30
0.0
 11
-2.547965880312447
 21
3.120358259661306E-16
 31
0.0
210
0.0
220
0.0
230
1.0
 40
0.7071067811865476
 41
1.198524456201094
 42
1.570796326794897
  0
LWPOLYLINE
  5
1F9
330
125
100
AcDbEntity
  8
AM_4
100
AcDbPolyline
 90
        3
 70
     0
 43
0.0
 10
-18.04332302518023
 20
47.5757492496619
 10
-18.10302066226155
 20
47.69784084993929
 10
-18.17956550543514
 20
47.82740871371497
  0
LWPOLYLINE
  5
1FA
330
125
100
AcDbEntity
  8
AM_4
100
AcDbPolyline
 90
       18
 70
     0
 43
0.0
 10
-20.3544290804776
 20
44.86228382698016
 10
-20.13983527728929
 20
44.88346215357124
 10
-19.84792363775712
 20
44.93388490667724
 10
-19.564459744886
 20
45.00855410341698
 10
-19.2927627501523
 20
45.10698179373602
 10
-19.03615337723864
 20
45.22848605494568
 10
-18.79802470595877
 20
45.37210134096718
 10
-18.58186826845638
 20
45.53641780929291
 10
-18.39106527798552
 20
45.71950966423516
 10
-18.22874936438932
 20
45.91880419495951
 10
-18.09751162235226
 20
46.13110826449479
 10
-17.99912091219482
 20
46.35282595329428
 10
-17.93441529136268
 20
46.58030099537179
 10
-17.90342402584748
 20
46.81012853565862
 10
-17.90563714885739
 20
47.03932240733461
 10
-17.9402821922692
 20
47.26529655924326
 10
-18.00638251769362
 20
47.48544070712175
 10
-18.0371728254475
 20
47.56167545828476
  0
LINE
  5
1FB
330
125
100
AcDbEntity
  8
AM_4
100
AcDbLine
 10
-20.41460293750771
 20
44.85868057421248
 30
0.0
 11
-20.3544290804776
 21
44.86228382698016
 31
0.0
  0
LWPOLYLINE
  5
1FC
330
125
100
AcDbEntity
  8
AM_4
100
AcDbPolyline
 90
        3
 70
     0
 43
0.0
 10
-20.59999999999999
 20
44.85391507124857
 10
-20.43674591362121
 20
44.85760919223133
 10
-20.41460293750771
 20
44.85868057421248
  0
LWPOLYLINE
  5
1FD
330
125
100
AcDbEntity
  8
AM_4
100
AcDbPolyline
 90
       16
 70
     0
 43
0.0
 10
-23.15407188597197
 20
47.58161087227352
 10
-23.17963569032293
 20
47.52136079402021
 10
-23.2527127859045
 20
47.29498037958336
 10
-23.29202089868361
 20
47.06543972312789
 10
-23.29796438839285
 20
46.8358352124952
 10
-23.27126864514067
 20
46.60882313822253
 10
-23.21287055269897
 20
46.38704981253616
 10
-23.123716724808
 20
46.17255909209295
 10
-23.00466854445357
 20
45.96721039492068
 10
-22.85664352789786
 20
45.77295274791514
 10
-22.68085029550132
 20
45.59192162597343
 10
-22.47901862505032
 20
45.42639928012687
 10
-22.25350793305254
 20
45.27865164840451
 10
-22.00724294294447
 20
45.15072553693722
 10
-21.74353101756266
 20
45.04430436912879
 10
-21.53277155654239
 20
44.97838083435077
  0
LWPOLYLINE
  5
1FE
330
125
100
AcDbEntity
  8
AM_4
100
AcDbPolyline
 90
        3
 70
     0
 43
0.0
 10
-23.01648536940424
 20
47.83349187821562
 10
-23.07299743820802
 20
47.74109176118576
 10
-23.1453507318792
 20
47.60082669480159
  0
ELLIPSE
  5
1FF
330
125
100
AcDbEntity
  8
AM_4
100
AcDbEllipse
 10
-20.59999999999999
 20
47.0406102923438
 30
0.0
 11
-2.663890264528341
 21
3.262324685734428E-16
 31
0.0
210
0.0
220
0.0
230
1.0
 40
0.7071067811865478
 41
5.871668461112107
 42
9.836294806836863
  0
LINE
  5
200
330
125
100
AcDbEntity
  8
AM_4
100
AcDbLine
 10
-22.43303027798234
 20
48.77989898732233
 30
0.0
 11
-23.0414957560514
 21
47.79407224049771
 31
0.0
  0
LINE
  5
201
330
125
100
AcDbEntity
  8
AM_4
100
AcDbLine
 10
-18.15850424394858
 20
47.79407224049771
 30
0.0
 11
-18.76696972201765
 21
48.77989898732233
 31
0.0
  0
LINE
  5
202
330
125
100
AcDbEntity
  8
AM_4
100
AcDbLine
 10
-30.07364817766693
 20
26.93361006179486
 30
0.0
 11
-15.44999999999999
 21
28.77517146104496
 31
0.0
  0
LINE
  5
203
330
125
100
AcDbEntity
  8
AM_4
100
AcDbLine
 10
-15.12635182233307
 20
47.03866129049894
 30
0.0
 11
-15.12635182233307
 21
47.70706790597981
 31
0.0
  0
LINE
  5
204
330
125
100
AcDbEntity
  8
AM_4
100
AcDbLine
 10
-15.44999999999999
 20
-45.07657869875219
 30
0.0
 11
-15.12635182233307
 21
-45.14077259906815
 31
0.0
  0
LINE
  5
205
330
125
100
AcDbEntity
  8
AM_4
100
AcDbLine
 10
-30.07364817766693
 20
-45.07145626988913
 30
0.0
 11
-15.12635182233307
 21
-47.70706790597981
 31
0.0
  0
LINE
  5
206
330
125
100
AcDbEntity
  8
AM_4
100
AcDbLine
 10
-15.12635182233307
 20
47.70706790597981
 30
0.0
 11
-17.93216135792512
 21
47.21232798212584
 31
0.0
  0
LINE
  5
207
330
125
100
AcDbEntity
  8
AM_4
100
AcDbLine
 10
-30.07364817766693
 20
-45.07145626988913
 30
0.0
 11
-30.07364817766693
 21
26.93361006179486
 31
0.0
  0
LINE
  5
208
330
125
100
AcDbEntity
  8
AM_4
100
AcDbLine
 10
-15.12635182233307
 20
-47.70706790597981
 30
0.0
 11
-15.12635182233307
 21
-45.14077259906815
 31
0.0
  0
LINE
  5
209
330
125
100
AcDbEntity
  8
AM_4
100
AcDbLine
 10
-3.574999999999998
 20
25.58168202764979
 30
0.0
 11
-12.25714285714285
 21
25.58168202764979
 31
0.0
  0
LINE
  5
20A
330
125
100
AcDbEntity
  8
AM_4
100
AcDbLine
 10
-12.25714285714286
 20
28.77517146104499
 30
0.0
 11
-15.44999999999999
 21
28.77517146104496
 31
0.0
  0
LINE
  5
20B
330
125
100
AcDbEntity
  8
AM_4
100
AcDbLine
 10
-15.44999999999999
 20
28.77517146104496
 30
0.0
 11
-15.44999999999999
 21
-45.07657869875219
 31
0.0
  0
LINE
  5
20C
330
125
100
AcDbEntity
  8
AM_4
100
AcDbLine
 10
-12.25714285714286
 20
-45.07657869875219
 30
0.0
 11
-15.44999999999999
 21
-45.07657869875219
 31
0.0
  0
LINE
  5
20D
330
125
100
AcDbEntity
  8
AM_4
100
AcDbLine
 10
-3.574999999999998
 20
-25.58168202764977
 30
0.0
 11
-12.25714285714286
 21
-25.58168202764975
 31
0.0
  0
ELLIPSE
  5
20E
330
125
100
AcDbEntity
  8
AM_4
100
AcDbEllipse
 10
-20.59999999999999
 20
48.21421356237311
 30
0.0
 11
-2.000000000000011
 21
2.449293598294719E-16
 31
0.0
210
0.0
220
0.0
230
1.0
 40
0.7071067811865495
 41
0.0
 42
6.283185307179586
  0
ENDBLK
  5
128
330
125
100
AcDbEntity
  8
0
100
AcDbBlockEnd
  0
ENDSEC
  0
SECTION
  2
ENTITIES
  0
INSERT
  5
6F
330
1F
100
AcDbEntity
  8
0
100
AcDbBlockReference
  2
1_129325_2
 10
0.0
 20
0.0
 30
0.0
  0
POINT
  5
210
330
1F
100
AcDbEntity
  8
ConnectionPoints
100
AcDbPoint
 10
-18.20000000000001
 20
0.0
 30
0.0000000000000029
  0
POINT
  5
211
330
1F
100
AcDbEntity
  8
ConnectionPoints
100
AcDbPoint
 10
-3.900000000000006
 20
0.0
 30
0.000000000000002
  0
POINT
  5
212
330
1F
100
AcDbEntity
  8
ConnectionPoints
100
AcDbPoint
 10
-3.900000000000006
 20
0.0
 30
0.0000000000000002
  0
ENDSEC
  0
SECTION
  2
OBJECTS
  0
DICTIONARY
  5
C
330
0
100
AcDbDictionary
281
     1
  3
ACAD_DETAILVIEWSTYLE
350
21A
  3
ACAD_GROUP
350
D
  3
ACAD_LAYOUT
350
1A
  3
ACAD_MATERIAL
350
43
  3
ACAD_MLEADERSTYLE
350
6B
  3
ACAD_MLINESTYLE
350
17
  3
ACAD_PLOTSETTINGS
350
19
  3
ACAD_PLOTSTYLENAME
350
E
  3
ACAD_SCALELIST
350
47
  3
ACAD_SECTIONVIEWSTYLE
350
21B
  3
ACAD_TABLESTYLE
350
69
  3
ACAD_VISUALSTYLE
350
2A
  3
ACDB_RECOMPOSE_DATA
350
217
  3
AcDbVariableDictionary
350
213
  0
SUN
  5
6D
330
29
100
AcDbSun
 90
        1
290
     0
 63
     7
421
 16777215
 40
1.0
291
     1
 91
  2455826
 92
 54000000
292
     0
 70
     2
 71
   256
280
     1
  0
DICTIONARY
  5
21A
102
{ACAD_REACTORS
330
C
102
}
330
C
100
AcDbDictionary
281
     1
  0
DICTIONARY
  5
D
102
{ACAD_REACTORS
330
C
102
}
330
C
100
AcDbDictionary
281
     1
  0
DICTIONARY
  5
1A
102
{ACAD_REACTORS
330
C
102
}
330
C
100
AcDbDictionary
281
     1
  3
Layout1
350
1E
  3
Layout2
350
26
  3
Model
350
22
  0
DICTIONARY
  5
43
102
{ACAD_REACTORS
330
C
102
}
330
C
100
AcDbDictionary
281
     1
  3
ByBlock
350
45
  3
ByLayer
350
44
  3
Global
350
46
  0
DICTIONARY
  5
6B
102
{ACAD_REACTORS
330
C
102
}
330
C
100
AcDbDictionary
281
     1
  3
Standard
350
6C
  0
DICTIONARY
  5
17
102
{ACAD_REACTORS
330
C
102
}
330
C
100
AcDbDictionary
281
     1
  3
Standard
350
18
  0
DICTIONARY
  5
19
102
{ACAD_REACTORS
330
C
102
}
330
C
100
AcDbDictionary
281
     1
  0
ACDBDICTIONARYWDFLT
  5
E
102
{ACAD_REACTORS
330
C
102
}
330
C
100
AcDbDictionary
281
     1
  3
Normal
350
F
100
AcDbDictionaryWithDefault
340
F
  0
DICTIONARY
  5
47
102
{ACAD_REACTORS
330
C
102
}
330
C
100
AcDbDictionary
281
     1
  3
A0
350
48
  3
A1
350
49
  3
A2
350
4A
  3
A3
350
4B
  3
A4
350
4C
  3
A5
350
4D
  3
A6
350
4E
  3
A7
350
4F
  3
A8
350
50
  3
A9
350
51
  3
B0
350
52
  3
B1
350
53
  3
B2
350
54
  3
B3
350
55
  3
B4
350
56
  3
B5
350
57
  3
B6
350
58
  3
B7
350
59
  3
B8
350
5A
  3
B9
350
5B
  3
C0
350
5C
  3
C1
350
5D
  3
C2
350
5E
  3
C3
350
5F
  3
C4
350
60
  3
C5
350
61
  3
C6
350
62
  3
C7
350
63
  3
C8
350
64
  3
C9
350
65
  3
D0
350
66
  3
D1
350
67
  3
D2
350
68
  0
DICTIONARY
  5
21B
102
{ACAD_REACTORS
330
C
102
}
330
C
100
AcDbDictionary
281
     1
  0
DICTIONARY
  5
69
102
{ACAD_REACTORS
330
C
102
}
330
C
100
AcDbDictionary
281
     1
  3
Standard
350
6A
  0
DICTIONARY
  5
2A
102
{ACAD_REACTORS
330
C
102
}
330
C
100
AcDbDictionary
281
     1
  3
2dWireframe
350
2F
  3
Basic
350
32
  3
Brighten
350
36
  3
ColorChange
350
3A
  3
Conceptual
350
34
  3
Dim
350
35
  3
EdgeColorOff
350
3D
  3
Facepattern
350
39
  3
Flat
350
2B
  3
FlatWithEdges
350
2C
  3
Gouraud
350
2D
  3
GouraudWithEdges
350
2E
  3
Hidden
350
31
  3
JitterOff
350
3B
  3
Linepattern
350
38
  3
OverhangOff
350
3C
  3
Realistic
350
33
  3
Shaded
350
42
  3
Shaded with edges
350
41
  3
Shades of Gray
350
3E
  3
Sketchy
350
3F
  3
Thicken
350
37
  3
Wireframe
350
30
  3
X-Ray
350
40
  0
XRECORD
  5
217
102
{ACAD_REACTORS
330
C
102
}
330
C
100
AcDbXrecord
280
     1
 90
        1
330
6A
  0
DICTIONARY
  5
213
102
{ACAD_REACTORS
330
C
102
}
330
C
100
AcDbDictionary
281
     1
  3
CANNOSCALE
350
214
  3
CMLEADERSTYLE
350
219
  3
CTABLESTYLE
350
218
  0
LAYOUT
  5
1E
102
{ACAD_REACTORS
330
1A
102
}
330
1A
100
AcDbPlotSettings
  1

  2
none_device
  4

  6

 40
0.0
 41
0.0
 42
0.0
 43
0.0
 44
0.0
 45
0.0
 46
0.0
 47
0.0
 48
0.0
 49
0.0
140
0.0
141
0.0
142
1.0
143
1.0
 70
   688
 72
     1
 73
     0
 74
     5
  7

 75
    16
 76
     0
 77
     2
 78
   300
147
1.0
148
0.0
149
0.0
100
AcDbLayout
  1
Layout1
 70
     1
 71
     1
 10
0.0
 20
0.0
 11
420.0
 21
297.0
 12
0.0
 22
0.0
 32
0.0
 14
1.000000000000000E+20
 24
1.000000000000000E+20
 34
1.000000000000000E+20
 15
-1.000000000000000E+20
 25
-1.000000000000000E+20
 35
-1.000000000000000E+20
146
0.0
 13
0.0
 23
0.0
 33
0.0
 16
1.0
 26
0.0
 36
0.0
 17
0.0
 27
1.0
 37
0.0
 76
     0
330
1B
  0
LAYOUT
  5
26
102
{ACAD_REACTORS
330
1A
102
}
330
1A
100
AcDbPlotSettings
  1

  2
none_device
  4

  6

 40
0.0
 41
0.0
 42
0.0
 43
0.0
 44
0.0
 45
0.0
 46
0.0
 47
0.0
 48
0.0
 49
0.0
140
0.0
141
0.0
142
1.0
143
1.0
 70
   688
 72
     1
 73
     0
 74
     5
  7

 75
    16
 76
     0
 77
     2
 78
   300
147
1.0
148
0.0
149
0.0
100
AcDbLayout
  1
Layout2
 70
     1
 71
     2
 10
0.0
 20
0.0
 11
0.0
 21
0.0
 12
0.0
 22
0.0
 32
0.0
 14
0.0
 24
0.0
 34
0.0
 15
0.0
 25
0.0
 35
0.0
146
0.0
 13
0.0
 23
0.0
 33
0.0
 16
1.0
 26
0.0
 36
0.0
 17
0.0
 27
1.0
 37
0.0
 76
     0
330
23
  0
LAYOUT
  5
22
102
{ACAD_REACTORS
330
1A
102
}
330
1A
100
AcDbPlotSettings
  1

  2
none_device
  4
Letter_(8.50_x_11.00_Inches)
  6

 40
6.35
 41
6.35
 42
6.35000508
 43
6.35000508
 44
215.9
 45
279.4
 46
0.0
 47
0.0
 48
0.0
 49
0.0
140
0.0
141
0.0
142
1.0
143
1.0
 70
  1712
 72
     1
 73
     0
 74
     0
  7

 75
     0
 76
     0
 77
     2
 78
   300
147
1.0
148
0.0
149
0.0
100
AcDbLayout
  1
Model
 70
     1
 71
     0
 10
0.0
 20
0.0
 11
420.0
 21
297.0
 12
0.0
 22
0.0
 32
0.0
 14
1.000000000000000E+20
 24
1.000000000000000E+20
 34
1.000000000000000E+20
 15
-1.000000000000000E+20
 25
-1.000000000000000E+20
 35
-1.000000000000000E+20
146
0.0
 13
0.0
 23
0.0
 33
0.0
 16
1.0
 26
0.0
 36
0.0
 17
0.0
 27
1.0
 37
0.0
 76
     0
330
1F
331
29
  0
MATERIAL
  5
45
102
{ACAD_REACTORS
330
43
102
}
330
43
100
AcDbMaterial
  1
ByBlock
 72
     1
 94
      127
  0
MATERIAL
  5
44
102
{ACAD_REACTORS
330
43
102
}
330
43
100
AcDbMaterial
  1
ByLayer
 72
     1
 94
      127
  0
MATERIAL
  5
46
102
{ACAD_REACTORS
330
43
102
}
330
43
100
AcDbMaterial
  1
Global
 72
     1
 94
      127
  0
MLEADERSTYLE
  5
6C
102
{ACAD_REACTORS
330
6B
102
}
330
6B
100
AcDbMLeaderStyle
179
     2
170
     2
171
     1
172
     0
 90
        2
 40
0.0
 41
0.0
173
     1
 91
-1056964608
340
14
 92
       -2
290
     1
 42
2.0
291
     1
 43
8.0
  3
Standard
341
0
 44
4.0
300

342
11
174
     1
178
     6
175
     1
176
     0
 93
-1056964608
 45
4.0
292
     0
297
     0
 46
4.0
343
0
 94
-1056964608
 47
1.0
 49
1.0
140
1.0
293
     1
141
0.0
294
     1
177
     0
142
1.0
295
     0
296
     0
143
3.75
271
     0
272
     9
273
     9
298
     0
  0
MLINESTYLE
  5
18
102
{ACAD_REACTORS
330
17
102
}
330
17
100
AcDbMlineStyle
  2
Standard
 70
     0
  3

 62
   256
 51
90.0
 52
90.0
 71
     2
 49
0.5
 62
   256
  6
BYLAYER
 49
-0.5
 62
   256
  6
BYLAYER
  0
ACDBPLACEHOLDER
  5
F
102
{ACAD_REACTORS
330
E
102
}
330
E
  0
SCALE
  5
48
102
{ACAD_REACTORS
330
47
102
}
330
47
100
AcDbScale
 70
     0
300
1:1
140
1.0
141
1.0
290
     1
  0
SCALE
  5
49
102
{ACAD_REACTORS
330
47
102
}
330
47
100
AcDbScale
 70
     0
300
1:2
140
1.0
141
2.0
290
     0
  0
SCALE
  5
4A
102
{ACAD_REACTORS
330
47
102
}
330
47
100
AcDbScale
 70
     0
300
1:4
140
1.0
141
4.0
290
     0
  0
SCALE
  5
4B
102
{ACAD_REACTORS
330
47
102
}
330
47
100
AcDbScale
 70
     0
300
1:5
140
1.0
141
5.0
290
     0
  0
SCALE
  5
4C
102
{ACAD_REACTORS
330
47
102
}
330
47
100
AcDbScale
 70
     0
300
1:8
140
1.0
141
8.0
290
     0
  0
SCALE
  5
4D
102
{ACAD_REACTORS
330
47
102
}
330
47
100
AcDbScale
 70
     0
300
1:10
140
1.0
141
10.0
290
     0
  0
SCALE
  5
4E
102
{ACAD_REACTORS
330
47
102
}
330
47
100
AcDbScale
 70
     0
300
1:16
140
1.0
141
16.0
290
     0
  0
SCALE
  5
4F
102
{ACAD_REACTORS
330
47
102
}
330
47
100
AcDbScale
 70
     0
300
1:20
140
1.0
141
20.0
290
     0
  0
SCALE
  5
50
102
{ACAD_REACTORS
330
47
102
}
330
47
100
AcDbScale
 70
     0
300
1:30
140
1.0
141
30.0
290
     0
  0
SCALE
  5
51
102
{ACAD_REACTORS
330
47
102
}
330
47
100
AcDbScale
 70
     0
300
1:40
140
1.0
141
40.0
290
     0
  0
SCALE
  5
52
102
{ACAD_REACTORS
330
47
102
}
330
47
100
AcDbScale
 70
     0
300
1:50
140
1.0
141
50.0
290
     0
  0
SCALE
  5
53
102
{ACAD_REACTORS
330
47
102
}
330
47
100
AcDbScale
 70
     0
300
1:100
140
1.0
141
100.0
290
     0
  0
SCALE
  5
54
102
{ACAD_REACTORS
330
47
102
}
330
47
100
AcDbScale
 70
     0
300
2:1
140
2.0
141
1.0
290
     0
  0
SCALE
  5
55
102
{ACAD_REACTORS
330
47
102
}
330
47
100
AcDbScale
 70
     0
300
4:1
140
4.0
141
1.0
290
     0
  0
SCALE
  5
56
102
{ACAD_REACTORS
330
47
102
}
330
47
100
AcDbScale
 70
     0
300
8:1
140
8.0
141
1.0
290
     0
  0
SCALE
  5
57
102
{ACAD_REACTORS
330
47
102
}
330
47
100
AcDbScale
 70
     0
300
10:1
140
10.0
141
1.0
290
     0
  0
SCALE
  5
58
102
{ACAD_REACTORS
330
47
102
}
330
47
100
AcDbScale
 70
     0
300
100:1
140
100.0
141
1.0
290
     0
  0
SCALE
  5
59
102
{ACAD_REACTORS
330
47
102
}
330
47
100
AcDbScale
 70
     0
300
1/128" = 1'-0"
140
0.0078125
141
12.0
290
     0
  0
SCALE
  5
5A
102
{ACAD_REACTORS
330
47
102
}
330
47
100
AcDbScale
 70
     0
300
1/64" = 1'-0"
140
0.015625
141
12.0
290
     0
  0
SCALE
  5
5B
102
{ACAD_REACTORS
330
47
102
}
330
47
100
AcDbScale
 70
     0
300
1/32" = 1'-0"
140
0.03125
141
12.0
290
     0
  0
SCALE
  5
5C
102
{ACAD_REACTORS
330
47
102
}
330
47
100
AcDbScale
 70
     0
300
1/16" = 1'-0"
140
0.0625
141
12.0
290
     0
  0
SCALE
  5
5D
102
{ACAD_REACTORS
330
47
102
}
330
47
100
AcDbScale
 70
     0
300
3/32" = 1'-0"
140
0.09375
141
12.0
290
     0
  0
SCALE
  5
5E
102
{ACAD_REACTORS
330
47
102
}
330
47
100
AcDbScale
 70
     0
300
1/8" = 1'-0"
140
0.125
141
12.0
290
     0
  0
SCALE
  5
5F
102
{ACAD_REACTORS
330
47
102
}
330
47
100
AcDbScale
 70
     0
300
3/16" = 1'-0"
140
0.1875
141
12.0
290
     0
  0
SCALE
  5
60
102
{ACAD_REACTORS
330
47
102
}
330
47
100
AcDbScale
 70
     0
300
1/4" = 1'-0"
140
0.25
141
12.0
290
     0
  0
SCALE
  5
61
102
{ACAD_REACTORS
330
47
102
}
330
47
100
AcDbScale
 70
     0
300
3/8" = 1'-0"
140
0.375
141
12.0
290
     0
  0
SCALE
  5
62
102
{ACAD_REACTORS
330
47
102
}
330
47
100
AcDbScale
 70
     0
300
1/2" = 1'-0"
140
0.5
141
12.0
290
     0
  0
SCALE
  5
63
102
{ACAD_REACTORS
330
47
102
}
330
47
100
AcDbScale
 70
     0
300
3/4" = 1'-0"
140
0.75
141
12.0
290
     0
  0
SCALE
  5
64
102
{ACAD_REACTORS
330
47
102
}
330
47
100
AcDbScale
 70
     0
300
1" = 1'-0"
140
1.0
141
12.0
290
     0
  0
SCALE
  5
65
102
{ACAD_REACTORS
330
47
102
}
330
47
100
AcDbScale
 70
     0
300
1-1/2" = 1'-0"
140
1.5
141
12.0
290
     0
  0
SCALE
  5
66
102
{ACAD_REACTORS
330
47
102
}
330
47
100
AcDbScale
 70
     0
300
3" = 1'-0"
140
3.0
141
12.0
290
     0
  0
SCALE
  5
67
102
{ACAD_REACTORS
330
47
102
}
330
47
100
AcDbScale
 70
     0
300
6" = 1'-0"
140
6.0
141
12.0
290
     0
  0
SCALE
  5
68
102
{ACAD_REACTORS
330
47
102
}
330
47
100
AcDbScale
 70
     0
300
1'-0" = 1'-0"
140
12.0
141
12.0
290
     0
  0
TABLESTYLE
  5
6A
102
{ACAD_REACTORS
330
69
102
}
102
{ACAD_XDICTIONARY
360
215
102
}
330
69
100
AcDbTableStyle
  3
Standard
 70
     0
 71
     0
 40
0.06
 41
0.06
280
     0
281
     0
  7
Standard
140
4.5
170
     2
 62
     0
 63
   257
283
     0
 90
        4
 91
        0
  1

274
    -2
284
     1
 64
     0
275
    -2
285
     1
 65
     0
276
    -2
286
     1
 66
     0
277
    -2
287
     1
 67
     0
278
    -2
288
     1
 68
     0
279
    -2
289
     1
 69
     0
  7
Standard
140
6.0
170
     5
 62
     0
 63
   257
283
     0
 90
        4
 91
        0
  1

274
    -2
284
     1
 64
     0
275
    -2
285
     1
 65
     0
276
    -2
286
     1
 66
     0
277
    -2
287
     1
 67
     0
278
    -2
288
     1
 68
     0
279
    -2
289
     1
 69
     0
  7
Standard
140
4.5
170
     5
 62
     0
 63
   257
283
     0
 90
        4
 91
        0
  1

274
    -2
284
     1
 64
     0
275
    -2
285
     1
 65
     0
276
    -2
286
     1
 66
     0
277
    -2
287
     1
 67
     0
278
    -2
288
     1
 68
     0
279
    -2
289
     1
 69
     0
  0
VISUALSTYLE
  5
2F
102
{ACAD_REACTORS
330
2A
102
}
330
2A
100
AcDbVisualStyle
  2
2dWireframe
 70
     4
177
     3
291
     0
 70
    58
 90
        0
176
     1
 90
        2
176
     1
 90
        0
176
     1
 90
        0
176
     1
 40
0.6
176
     1
 40
30.0
176
     1
 62
     7
420
 16777215
176
     1
 90
        1
176
     1
 90
        4
176
     1
 62
     7
176
     1
 62
   257
176
     1
 90
        1
176
     1
 90
        1
176
     1
 40
1.0
176
     1
 90
        0
176
     1
 62
   257
176
     1
 40
1.0
176
     1
 90
        1
176
     1
 90
        6
176
     1
 90
        2
176
     1
 62
     7
176
     1
 90
        5
176
     1
 90
        0
176
     1
 90
        0
176
     1
290
     0
176
     1
 90
        1
176
     1
 40
0.0
176
     1
 90
        0
176
     1
290
     1
176
     1
290
     1
176
     1
290
     0
176
     1
290
     0
176
     1
290
     0
176
     1
290
     0
176
     1
290
     0
176
     1
290
     0
176
     1
290
     0
176
     1
 90
       50
176
     1
 40
0.0
176
     1
 40
1.0
176
     1
 90
        0
176
     1
 62
    18
420
        0
176
     1
 90
       50
176
     1
 90
        3
176
     1
 62
     5
420
      255
176
     1
290
     0
176
     1
 90
       50
176
     1
 90
       50
176
     1
 90
       50
176
     1
290
     0
176
     1
 90
       50
176
     1
 62
   256
176
     0
 40
1.0
176
     0
 90
        2
176
     1
  1
strokes_ogs.tif
176
     1
290
     0
176
     1
 40
1.0
176
     1
 40
1.0
176
     1
  0
VISUALSTYLE
  5
32
102
{ACAD_REACTORS
330
2A
102
}
330
2A
100
AcDbVisualStyle
  2
Basic
 70
     7
177
     3
291
     1
 70
    58
 90
        1
176
     1
 90
        0
176
     1
 90
        1
176
     1
 90
        0
176
     1
 40
0.6
176
     1
 40
30.0
176
     1
 62
     7
420
 16777215
176
     1
 90
        0
176
     1
 90
        4
176
     1
 62
     7
176
     1
 62
   257
176
     1
 90
        1
176
     1
 90
        1
176
     1
 40
1.0
176
     1
 90
        8
176
     1
 62
     7
176
     1
 40
1.0
176
     1
 90
        1
176
     1
 90
        6
176
     1
 90
        2
176
     1
 62
     7
176
     1
 90
        5
176
     1
 90
        0
176
     1
 90
        0
176
     1
290
     0
176
     1
 90
        1
176
     1
 40
0.0
176
     1
 90
        0
176
     1
290
     0
176
     1
290
     1
176
     1
290
     1
176
     1
290
     0
176
     1
290
     0
176
     1
290
     0
176
     1
290
     0
176
     1
290
     0
176
     1
290
     0
176
     1
 90
       50
176
     1
 40
0.0
176
     1
 40
1.0
176
     1
 90
        0
176
     1
 62
    18
420
        0
176
     1
 90
       50
176
     1
 90
        3
176
     1
 62
     5
420
      255
176
     1
290
     0
176
     1
 90
       50
176
     1
 90
       50
176
     1
 90
       50
176
     1
290
     0
176
     1
 90
       50
176
     1
 62
   256
176
     0
 40
1.0
176
     0
 90
        2
176
     1
  1
strokes_ogs.tif
176
     1
290
     0
176
     1
 40
1.0
176
     1
 40
1.0
176
     1
  0
VISUALSTYLE
  5
36
102
{ACAD_REACTORS
330
2A
102
}
330
2A
100
AcDbVisualStyle
  2
Brighten
 70
    12
177
     3
291
     1
 70
    58
 90
        2
176
     1
 90
        2
176
     1
 90
        0
176
     1
 90
        0
176
     1
 40
0.6
176
     1
 40
30.0
176
     1
 62
     7
420
 16777215
176
     1
 90
        1
176
     1
 90
        4
176
     1
 62
     7
176
     1
 62
   257
176
     1
 90
        1
176
     1
 90
        1
176
     1
 40
1.0
176
     1
 90
        8
176
     1
 62
     7
176
     1
 40
1.0
176
     1
 90
        1
176
     1
 90
        6
176
     1
 90
        2
176
     1
 62
     7
176
     1
 90
        5
176
     1
 90
        0
176
     1
 90
        0
176
     1
290
     0
176
     1
 90
        1
176
     1
 40
50.0
176
     1
 90
        0
176
     1
290
     0
176
     1
290
     1
176
     1
290
     1
176
     1
290
     0
176
     1
290
     0
176
     1
290
     0
176
     1
290
     0
176
     1
290
     0
176
     1
290
     0
176
     1
 90
       50
176
     1
 40
0.0
176
     1
 40
1.0
176
     1
 90
        0
176
     1
 62
    18
420
        0
176
     1
 90
       50
176
     1
 90
        3
176
     1
 62
     5
420
      255
176
     1
290
     0
176
     1
 90
       50
176
     1
 90
       50
176
     1
 90
       50
176
     1
290
     0
176
     1
 90
       50
176
     1
 62
   256
176
     0
 40
1.0
176
     0
 90
        2
176
     1
  1
strokes_ogs.tif
176
     1
290
     0
176
     1
 40
1.0
176
     1
 40
1.0
176
     1
  0
VISUALSTYLE
  5
3A
102
{ACAD_REACTORS
330
2A
102
}
330
2A
100
AcDbVisualStyle
  2
ColorChange
 70
    16
177
     3
291
     1
 70
    58
 90
        2
176
     1
 90
        2
176
     1
 90
        3
176
     1
 90
        0
176
     1
 40
0.6
176
     1
 40
30.0
176
     1
 62
     8
420
  8421504
176
     1
 90
        1
176
     1
 90
        4
176
     1
 62
     7
176
     1
 62
   257
176
     1
 90
        1
176
     1
 90
        1
176
     1
 40
1.0
176
     1
 90
        8
176
     1
 62
     8
420
  8421504
176
     1
 40
1.0
176
     1
 90
        1
176
     1
 90
        6
176
     1
 90
        2
176
     1
 62
     7
176
     1
 90
        5
176
     1
 90
        0
176
     1
 90
        0
176
     1
290
     0
176
     1
 90
        1
176
     1
 40
0.0
176
     1
 90
        0
176
     1
290
     0
176
     1
290
     1
176
     1
290
     1
176
     1
290
     0
176
     1
290
     0
176
     1
290
     0
176
     1
290
     0
176
     1
290
     0
176
     1
290
     0
176
     1
 90
       50
176
     1
 40
0.0
176
     1
 40
1.0
176
     1
 90
        0
176
     1
 62
    18
420
        0
176
     1
 90
       50
176
     1
 90
        3
176
     1
 62
     5
420
      255
176
     1
290
     0
176
     1
 90
       50
176
     1
 90
       50
176
     1
 90
       50
176
     1
290
     0
176
     1
 90
       50
176
     1
 62
   256
176
     0
 40
1.0
176
     0
 90
        2
176
     1
  1
strokes_ogs.tif
176
     1
290
     0
176
     1
 40
1.0
176
     1
 40
1.0
176
     1
  0
VISUALSTYLE
  5
34
102
{ACAD_REACTORS
330
2A
102
}
330
2A
100
AcDbVisualStyle
  2
Conceptual
 70
     9
177
     3
291
     0
 70
    58
 90
        3
176
     1
 90
        2
176
     1
 90
        0
176
     1
 90
        0
176
     1
 40
0.6
176
     1
 40
30.0
176
     1
 62
     7
420
 16777215
176
     1
 90
        2
176
     1
 90
        2
176
     1
 62
     7
176
     1
 62
   257
176
     1
 90
        1
176
     1
 90
        1
176
     1
 40
179.0
176
     1
 90
        8
176
     1
 62
     7
176
     1
 40
1.0
176
     1
 90
        1
176
     1
 90
        6
176
     1
 90
        2
176
     1
 62
     7
176
     1
 90
        3
176
     1
 90
        0
176
     1
 90
        0
176
     1
290
     0
176
     1
 90
        1
176
     1
 40
0.0
176
     1
 90
        0
176
     1
290
     0
176
     1
290
     1
176
     1
290
     1
176
     1
290
     0
176
     1
290
     0
176
     1
290
     0
176
     1
290
     0
176
     1
290
     0
176
     1
290
     0
176
     1
 90
       50
176
     1
 40
0.0
176
     1
 40
1.0
176
     1
 90
        0
176
     1
 62
    18
420
        0
176
     1
 90
       50
176
     1
 90
        3
176
     1
 62
     5
420
      255
176
     1
290
     0
176
     1
 90
       50
176
     1
 90
       50
176
     1
 90
       50
176
     1
290
     0
176
     1
 90
       50
176
     1
 62
   256
176
     0
 40
1.0
176
     0
 90
        2
176
     1
  1
strokes_ogs.tif
176
     1
290
     0
176
     1
 40
1.0
176
     1
 40
1.0
176
     1
  0
VISUALSTYLE
  5
35
102
{ACAD_REACTORS
330
2A
102
}
330
2A
100
AcDbVisualStyle
  2
Dim
 70
    11
177
     3
291
     1
 70
    58
 90
        2
176
     1
 90
        2
176
     1
 90
        0
176
     1
 90
        0
176
     1
 40
0.6
176
     1
 40
30.0
176
     1
 62
     7
420
 16777215
176
     1
 90
        1
176
     1
 90
        4
176
     1
 62
     7
176
     1
 62
   257
176
     1
 90
        1
176
     1
 90
        1
176
     1
 40
1.0
176
     1
 90
        8
176
     1
 62
     7
176
     1
 40
1.0
176
     1
 90
        1
176
     1
 90
        6
176
     1
 90
        2
176
     1
 62
     7
176
     1
 90
        5
176
     1
 90
        0
176
     1
 90
        0
176
     1
290
     0
176
     1
 90
        1
176
     1
 40
-50.0
176
     1
 90
        0
176
     1
290
     0
176
     1
290
     1
176
     1
290
     1
176
     1
290
     0
176
     1
290
     0
176
     1
290
     0
176
     1
290
     0
176
     1
290
     0
176
     1
290
     0
176
     1
 90
       50
176
     1
 40
0.0
176
     1
 40
1.0
176
     1
 90
        0
176
     1
 62
    18
420
        0
176
     1
 90
       50
176
     1
 90
        3
176
     1
 62
     5
420
      255
176
     1
290
     0
176
     1
 90
       50
176
     1
 90
       50
176
     1
 90
       50
176
     1
290
     0
176
     1
 90
       50
176
     1
 62
   256
176
     0
 40
1.0
176
     0
 90
        2
176
     1
  1
strokes_ogs.tif
176
     1
290
     0
176
     1
 40
1.0
176
     1
 40
1.0
176
     1
  0
VISUALSTYLE
  5
3D
102
{ACAD_REACTORS
330
2A
102
}
330
2A
100
AcDbVisualStyle
  2
EdgeColorOff
 70
    22
177
     3
291
     1
 70
    58
 90
        2
176
     0
 90
        2
176
     0
 90
        0
176
     0
 90
        0
176
     0
 40
0.6
176
     0
 40
30.0
176
     0
 62
     7
420
 16777215
176
     0
 90
        1
176
     0
 90
        4
176
     0
 62
     7
176
     0
 62
   257
176
     0
 90
        1
176
     0
 90
        1
176
     0
 40
1.0
176
     0
 90
        8
176
     2
 62
     7
176
     0
 40
1.0
176
     0
 90
        1
176
     0
 90
        6
176
     0
 90
        2
176
     0
 62
     7
176
     0
 90
        5
176
     0
 90
        0
176
     0
 90
        0
176
     0
290
     0
176
     0
 90
        1
176
     0
 40
0.0
176
     0
 90
        0
176
     0
290
     0
176
     0
290
     1
176
     0
290
     1
176
     0
290
     0
176
     0
290
     0
176
     0
290
     0
176
     0
290
     0
176
     0
290
     0
176
     0
290
     0
176
     0
 90
       50
176
     0
 40
0.0
176
     0
 40
1.0
176
     0
 90
        0
176
     0
 62
    18
420
        0
176
     0
 90
       50
176
     0
 90
        3
176
     0
 62
     5
420
      255
176
     0
290
     0
176
     0
 90
       50
176
     0
 90
       50
176
     0
 90
       50
176
     0
290
     0
176
     0
 90
       50
176
     0
 62
   256
176
     0
 40
1.0
176
     0
 90
        2
176
     0
  1
strokes_ogs.tif
176
     0
290
     0
176
     0
 40
1.0
176
     0
 40
1.0
176
     0
  0
VISUALSTYLE
  5
39
102
{ACAD_REACTORS
330
2A
102
}
330
2A
100
AcDbVisualStyle
  2
Facepattern
 70
    15
177
     3
291
     1
 70
    58
 90
        2
176
     1
 90
        2
176
     1
 90
        0
176
     1
 90
        0
176
     1
 40
0.6
176
     1
 40
30.0
176
     1
 62
     7
420
 16777215
176
     1
 90
        1
176
     1
 90
        4
176
     1
 62
     7
176
     1
 62
   257
176
     1
 90
        1
176
     1
 90
        1
176
     1
 40
1.0
176
     1
 90
        8
176
     1
 62
     7
176
     1
 40
1.0
176
     1
 90
        1
176
     1
 90
        6
176
     1
 90
        2
176
     1
 62
     7
176
     1
 90
        5
176
     1
 90
        0
176
     1
 90
        0
176
     1
290
     0
176
     1
 90
        1
176
     1
 40
0.0
176
     1
 90
        0
176
     1
290
     0
176
     1
290
     1
176
     1
290
     1
176
     1
290
     0
176
     1
290
     0
176
     1
290
     0
176
     1
290
     0
176
     1
290
     0
176
     1
290
     0
176
     1
 90
       50
176
     1
 40
0.0
176
     1
 40
1.0
176
     1
 90
        0
176
     1
 62
    18
420
        0
176
     1
 90
       50
176
     1
 90
        3
176
     1
 62
     5
420
      255
176
     1
290
     0
176
     1
 90
       50
176
     1
 90
       50
176
     1
 90
       50
176
     1
290
     0
176
     1
 90
       50
176
     1
 62
   256
176
     0
 40
1.0
176
     0
 90
        2
176
     1
  1
strokes_ogs.tif
176
     1
290
     0
176
     1
 40
1.0
176
     1
 40
1.0
176
     1
  0
VISUALSTYLE
  5
2B
102
{ACAD_REACTORS
330
2A
102
}
330
2A
100
AcDbVisualStyle
  2
Flat
 70
     0
177
     3
291
     1
 70
    58
 90
        2
176
     1
 90
        1
176
     1
 90
        1
176
     1
 90
        2
176
     1
 40
0.6
176
     1
 40
30.0
176
     1
 62
     7
420
 16777215
176
     1
 90
        0
176
     1
 90
        0
176
     1
 62
     7
176
     1
 62
   257
176
     1
 90
        1
176
     1
 90
        1
176
     1
 40
1.0
176
     1
 90
        8
176
     1
 62
     7
176
     1
 40
1.0
176
     1
 90
        1
176
     1
 90
        6
176
     1
 90
        2
176
     1
 62
     7
176
     1
 90
        5
176
     1
 90
        0
176
     1
 90
        0
176
     1
290
     0
176
     1
 90
       13
176
     1
 40
0.0
176
     1
 90
        0
176
     1
290
     0
176
     1
290
     1
176
     1
290
     1
176
     1
290
     0
176
     1
290
     0
176
     1
290
     0
176
     1
290
     0
176
     1
290
     0
176
     1
290
     0
176
     1
 90
       50
176
     1
 40
0.0
176
     1
 40
1.0
176
     1
 90
        0
176
     1
 62
    18
420
        0
176
     1
 90
       50
176
     1
 90
        3
176
     1
 62
     5
420
      255
176
     1
290
     0
176
     1
 90
       50
176
     1
 90
       50
176
     1
 90
       50
176
     1
290
     0
176
     1
 90
       50
176
     1
 62
   256
176
     0
 40
1.0
176
     0
 90
        2
176
     1
  1
strokes_ogs.tif
176
     1
290
     0
176
     1
 40
1.0
176
     1
 40
1.0
176
     1
  0
VISUALSTYLE
  5
2C
102
{ACAD_REACTORS
330
2A
102
}
330
2A
100
AcDbVisualStyle
  2
FlatWithEdges
 70
     1
177
     3
291
     1
 70
    58
 90
        2
176
     1
 90
        1
176
     1
 90
        1
176
     1
 90
        2
176
     1
 40
0.6
176
     1
 40
30.0
176
     1
 62
     7
420
 16777215
176
     1
 90
        1
176
     1
 90
        0
176
     1
 62
     7
176
     1
 62
   257
176
     1
 90
        1
176
     1
 90
        1
176
     1
 40
1.0
176
     1
 90
        0
176
     1
 62
   257
176
     1
 40
1.0
176
     1
 90
        1
176
     1
 90
        6
176
     1
 90
        2
176
     1
 62
     7
176
     1
 90
        5
176
     1
 90
        0
176
     1
 90
        0
176
     1
290
     0
176
     1
 90
       13
176
     1
 40
0.0
176
     1
 90
        0
176
     1
290
     0
176
     1
290
     1
176
     1
290
     1
176
     1
290
     0
176
     1
290
     0
176
     1
290
     0
176
     1
290
     0
176
     1
290
     0
176
     1
290
     0
176
     1
 90
       50
176
     1
 40
0.0
176
     1
 40
1.0
176
     1
 90
        0
176
     1
 62
    18
420
        0
176
     1
 90
       50
176
     1
 90
        3
176
     1
 62
     5
420
      255
176
     1
290
     0
176
     1
 90
       50
176
     1
 90
       50
176
     1
 90
       50
176
     1
290
     0
176
     1
 90
       50
176
     1
 62
   256
176
     0
 40
1.0
176
     0
 90
        2
176
     1
  1
strokes_ogs.tif
176
     1
290
     0
176
     1
 40
1.0
176
     1
 40
1.0
176
     1
  0
VISUALSTYLE
  5
2D
102
{ACAD_REACTORS
330
2A
102
}
330
2A
100
AcDbVisualStyle
  2
Gouraud
 70
     2
177
     3
291
     1
 70
    58
 90
        2
176
     1
 90
        2
176
     1
 90
        1
176
     1
 90
        2
176
     1
 40
0.6
176
     1
 40
30.0
176
     1
 62
     7
420
 16777215
176
     1
 90
        0
176
     1
 90
        0
176
     1
 62
     7
176
     1
 62
   257
176
     1
 90
        1
176
     1
 90
        1
176
     1
 40
1.0
176
     1
 90
        0
176
     1
 62
     7
176
     1
 40
1.0
176
     1
 90
        1
176
     1
 90
        6
176
     1
 90
        2
176
     1
 62
     7
176
     1
 90
        5
176
     1
 90
        0
176
     1
 90
        0
176
     1
290
     0
176
     1
 90
       13
176
     1
 40
0.0
176
     1
 90
        0
176
     1
290
     0
176
     1
290
     1
176
     1
290
     1
176
     1
290
     0
176
     1
290
     0
176
     1
290
     0
176
     1
290
     0
176
     1
290
     0
176
     1
290
     0
176
     1
 90
       50
176
     1
 40
0.0
176
     1
 40
1.0
176
     1
 90
        0
176
     1
 62
    18
420
        0
176
     1
 90
       50
176
     1
 90
        3
176
     1
 62
     5
420
      255
176
     1
290
     0
176
     1
 90
       50
176
     1
 90
       50
176
     1
 90
       50
176
     1
290
     0
176
     1
 90
       50
176
     1
 62
   256
176
     0
 40
1.0
176
     0
 90
        2
176
     1
  1
strokes_ogs.tif
176
     1
290
     0
176
     1
 40
1.0
176
     1
 40
1.0
176
     1
  0
VISUALSTYLE
  5
2E
102
{ACAD_REACTORS
330
2A
102
}
330
2A
100
AcDbVisualStyle
  2
GouraudWithEdges
 70
     3
177
     3
291
     1
 70
    58
 90
        2
176
     1
 90
        2
176
     1
 90
        1
176
     1
 90
        2
176
     1
 40
0.6
176
     1
 40
30.0
176
     1
 62
     7
420
 16777215
176
     1
 90
        1
176
     1
 90
        0
176
     1
 62
     7
176
     1
 62
   257
176
     1
 90
        1
176
     1
 90
        1
176
     1
 40
1.0
176
     1
 90
        0
176
     1
 62
   257
176
     1
 40
1.0
176
     1
 90
        1
176
     1
 90
        6
176
     1
 90
        2
176
     1
 62
     7
176
     1
 90
        5
176
     1
 90
        0
176
     1
 90
        0
176
     1
290
     0
176
     1
 90
       13
176
     1
 40
0.0
176
     1
 90
        0
176
     1
290
     0
176
     1
290
     1
176
     1
290
     1
176
     1
290
     0
176
     1
290
     0
176
     1
290
     0
176
     1
290
     0
176
     1
290
     0
176
     1
290
     0
176
     1
 90
       50
176
     1
 40
0.0
176
     1
 40
1.0
176
     1
 90
        0
176
     1
 62
    18
420
        0
176
     1
 90
       50
176
     1
 90
        3
176
     1
 62
     5
420
      255
176
     1
290
     0
176
     1
 90
       50
176
     1
 90
       50
176
     1
 90
       50
176
     1
290
     0
176
     1
 90
       50
176
     1
 62
   256
176
     0
 40
1.0
176
     0
 90
        2
176
     1
  1
strokes_ogs.tif
176
     1
290
     0
176
     1
 40
1.0
176
     1
 40
1.0
176
     1
  0
VISUALSTYLE
  5
31
102
{ACAD_REACTORS
330
2A
102
}
330
2A
100
AcDbVisualStyle
  2
Hidden
 70
     6
177
     3
291
     0
 70
    58
 90
        1
176
     1
 90
        2
176
     1
 90
        2
176
     1
 90
        0
176
     1
 40
0.6
176
     1
 40
30.0
176
     1
 62
     7
420
 16777215
176
     1
 90
        2
176
     1
 90
        2
176
     1
 62
     7
176
     1
 62
   257
176
     1
 90
        2
176
     1
 90
        1
176
     1
 40
40.0
176
     1
 90
        0
176
     1
 62
   257
176
     1
 40
1.0
176
     1
 90
        1
176
     1
 90
        6
176
     1
 90
        2
176
     1
 62
     7
176
     1
 90
        3
176
     1
 90
        0
176
     1
 90
        0
176
     1
290
     0
176
     1
 90
        1
176
     1
 40
0.0
176
     1
 90
        0
176
     1
290
     0
176
     1
290
     1
176
     1
290
     1
176
     1
290
     0
176
     1
290
     0
176
     1
290
     0
176
     1
290
     0
176
     1
290
     0
176
     1
290
     0
176
     1
 90
       50
176
     1
 40
0.0
176
     1
 40
1.0
176
     1
 90
        0
176
     1
 62
    18
420
        0
176
     1
 90
       50
176
     1
 90
        3
176
     1
 62
     5
420
      255
176
     1
290
     0
176
     1
 90
       50
176
     1
 90
       50
176
     1
 90
       50
176
     1
290
     0
176
     1
 90
       50
176
     1
 62
   256
176
     0
 40
1.0
176
     0
 90
        2
176
     1
  1
strokes_ogs.tif
176
     1
290
     0
176
     1
 40
1.0
176
     1
 40
1.0
176
     1
  0
VISUALSTYLE
  5
3B
102
{ACAD_REACTORS
330
2A
102
}
330
2A
100
AcDbVisualStyle
  2
JitterOff
 70
    20
177
     3
291
     1
 70
    58
 90
        2
176
     0
 90
        2
176
     0
 90
        0
176
     0
 90
        0
176
     0
 40
0.6
176
     0
 40
30.0
176
     0
 62
     7
420
 16777215
176
     0
 90
        1
176
     0
 90
        4
176
     0
 62
     7
176
     0
 62
   257
176
     0
 90
        1
176
     0
 90
        1
176
     0
 40
1.0
176
     0
 90
       10
176
     2
 62
     7
176
     0
 40
1.0
176
     0
 90
        1
176
     0
 90
        6
176
     0
 90
        2
176
     0
 62
     7
176
     0
 90
        5
176
     0
 90
        0
176
     0
 90
        0
176
     0
290
     0
176
     0
 90
        1
176
     0
 40
0.0
176
     0
 90
        0
176
     0
290
     0
176
     0
290
     1
176
     0
290
     1
176
     0
290
     0
176
     0
290
     0
176
     0
290
     0
176
     0
290
     0
176
     0
290
     0
176
     0
290
     0
176
     0
 90
       50
176
     0
 40
0.0
176
     0
 40
1.0
176
     0
 90
        0
176
     0
 62
    18
420
        0
176
     0
 90
       50
176
     0
 90
        3
176
     0
 62
     5
420
      255
176
     0
290
     0
176
     0
 90
       50
176
     0
 90
       50
176
     0
 90
       50
176
     0
290
     0
176
     0
 90
       50
176
     0
 62
   256
176
     0
 40
1.0
176
     0
 90
        2
176
     0
  1
strokes_ogs.tif
176
     0
290
     0
176
     0
 40
1.0
176
     0
 40
1.0
176
     0
  0
VISUALSTYLE
  5
38
102
{ACAD_REACTORS
330
2A
102
}
330
2A
100
AcDbVisualStyle
  2
Linepattern
 70
    14
177
     3
291
     1
 70
    58
 90
        2
176
     1
 90
        2
176
     1
 90
        0
176
     1
 90
        0
176
     1
 40
0.6
176
     1
 40
30.0
176
     1
 62
     7
420
 16777215
176
     1
 90
        1
176
     1
 90
        4
176
     1
 62
     7
176
     1
 62
   257
176
     1
 90
        7
176
     1
 90
        7
176
     1
 40
1.0
176
     1
 90
        8
176
     1
 62
     7
176
     1
 40
1.0
176
     1
 90
        1
176
     1
 90
        6
176
     1
 90
        2
176
     1
 62
     7
176
     1
 90
        5
176
     1
 90
        0
176
     1
 90
        0
176
     1
290
     0
176
     1
 90
        1
176
     1
 40
0.0
176
     1
 90
        0
176
     1
290
     0
176
     1
290
     1
176
     1
290
     1
176
     1
290
     0
176
     1
290
     0
176
     1
290
     0
176
     1
290
     0
176
     1
290
     0
176
     1
290
     0
176
     1
 90
       50
176
     1
 40
0.0
176
     1
 40
1.0
176
     1
 90
        0
176
     1
 62
    18
420
        0
176
     1
 90
       50
176
     1
 90
        3
176
     1
 62
     5
420
      255
176
     1
290
     0
176
     1
 90
       50
176
     1
 90
       50
176
     1
 90
       50
176
     1
290
     0
176
     1
 90
       50
176
     1
 62
   256
176
     0
 40
1.0
176
     0
 90
        2
176
     1
  1
strokes_ogs.tif
176
     1
290
     0
176
     1
 40
1.0
176
     1
 40
1.0
176
     1
  0
VISUALSTYLE
  5
3C
102
{ACAD_REACTORS
330
2A
102
}
330
2A
100
AcDbVisualStyle
  2
OverhangOff
 70
    21
177
     3
291
     1
 70
    58
 90
        2
176
     0
 90
        2
176
     0
 90
        0
176
     0
 90
        0
176
     0
 40
0.6
176
     0
 40
30.0
176
     0
 62
     7
420
 16777215
176
     0
 90
        1
176
     0
 90
        4
176
     0
 62
     7
176
     0
 62
   257
176
     0
 90
        1
176
     0
 90
        1
176
     0
 40
1.0
176
     0
 90
        9
176
     2
 62
     7
176
     0
 40
1.0
176
     0
 90
        1
176
     0
 90
        6
176
     0
 90
        2
176
     0
 62
     7
176
     0
 90
        5
176
     0
 90
        0
176
     0
 90
        0
176
     0
290
     0
176
     0
 90
        1
176
     0
 40
0.0
176
     0
 90
        0
176
     0
290
     0
176
     0
290
     1
176
     0
290
     1
176
     0
290
     0
176
     0
290
     0
176
     0
290
     0
176
     0
290
     0
176
     0
290
     0
176
     0
290
     0
176
     0
 90
       50
176
     0
 40
0.0
176
     0
 40
1.0
176
     0
 90
        0
176
     0
 62
    18
420
        0
176
     0
 90
       50
176
     0
 90
        3
176
     0
 62
     5
420
      255
176
     0
290
     0
176
     0
 90
       50
176
     0
 90
       50
176
     0
 90
       50
176
     0
290
     0
176
     0
 90
       50
176
     0
 62
   256
176
     0
 40
1.0
176
     0
 90
        2
176
     0
  1
strokes_ogs.tif
176
     0
290
     0
176
     0
 40
1.0
176
     0
 40
1.0
176
     0
  0
VISUALSTYLE
  5
33
102
{ACAD_REACTORS
330
2A
102
}
330
2A
100
AcDbVisualStyle
  2
Realistic
 70
     8
177
     3
291
     0
 70
    58
 90
        2
176
     1
 90
        3
176
     1
 90
        0
176
     1
 90
        2
176
     1
 40
0.6
176
     1
 40
30.0
176
     1
 62
     7
420
 16777215
176
     1
 90
        0
176
     1
 90
        0
176
     1
 62
     7
176
     1
 62
   257
176
     1
 90
        1
176
     1
 90
        1
176
     1
 40
1.0
176
     1
 90
        8
176
     1
 62
   257
176
     1
 40
1.0
176
     1
 90
        1
176
     1
 90
        6
176
     1
 90
        2
176
     1
 62
     7
176
     1
 90
        3
176
     1
 90
        0
176
     1
 90
        0
176
     1
290
     0
176
     1
 90
       13
176
     1
 40
0.0
176
     1
 90
        0
176
     1
290
     0
176
     1
290
     1
176
     1
290
     1
176
     1
290
     0
176
     1
290
     0
176
     1
290
     0
176
     1
290
     0
176
     1
290
     0
176
     1
290
     0
176
     1
 90
       50
176
     1
 40
0.0
176
     1
 40
1.0
176
     1
 90
        0
176
     1
 62
    18
420
        0
176
     1
 90
       50
176
     1
 90
        3
176
     1
 62
     5
420
      255
176
     1
290
     0
176
     1
 90
       50
176
     1
 90
       50
176
     1
 90
       50
176
     1
290
     0
176
     1
 90
       50
176
     1
 62
   256
176
     0
 40
1.0
176
     0
 90
        2
176
     1
  1
strokes_ogs.tif
176
     1
290
     0
176
     1
 40
1.0
176
     1
 40
1.0
176
     1
  0
VISUALSTYLE
  5
42
102
{ACAD_REACTORS
330
2A
102
}
330
2A
100
AcDbVisualStyle
  2
Shaded
 70
    27
177
     3
291
     0
 70
    58
 90
        2
176
     1
 90
        2
176
     1
 90
        1
176
     1
 90
        2
176
     1
 40
0.6
176
     1
 40
30.0
176
     1
 62
     7
420
 16777215
176
     1
 90
        0
176
     1
 90
        4
176
     1
 62
     7
176
     1
 62
   257
176
     1
 90
        1
176
     1
 90
        1
176
     1
 40
1.0
176
     1
 90
        8
176
     1
 62
   257
176
     1
 40
1.0
176
     1
 90
        1
176
     1
 90
        6
176
     1
 90
        2
176
     1
 62
     8
420
  7895160
176
     1
 90
        3
176
     1
 90
        0
176
     1
 90
        0
176
     1
290
     0
176
     1
 90
        5
176
     1
 40
0.0
176
     1
 90
        0
176
     1
290
     0
176
     1
290
     1
176
     1
290
     1
176
     1
290
     0
176
     1
290
     0
176
     1
290
     0
176
     1
290
     0
176
     1
290
     0
176
     1
290
     0
176
     1
 90
       50
176
     1
 40
0.0
176
     1
 40
1.0
176
     1
 90
        0
176
     1
 62
    18
420
        0
176
     1
 90
       50
176
     1
 90
        3
176
     1
 62
     5
420
      255
176
     1
290
     0
176
     1
 90
       50
176
     1
 90
       50
176
     1
 90
       50
176
     1
290
     0
176
     1
 90
       50
176
     1
 62
   256
176
     0
 40
1.0
176
     0
 90
        2
176
     1
  1
strokes_ogs.tif
176
     1
290
     0
176
     1
 40
1.0
176
     1
 40
1.0
176
     1
  0
VISUALSTYLE
  5
41
102
{ACAD_REACTORS
330
2A
102
}
330
2A
100
AcDbVisualStyle
  2
Shaded with edges
 70
    26
177
     3
291
     0
 70
    58
 90
        2
176
     1
 90
        2
176
     1
 90
        1
176
     1
 90
        2
176
     1
 40
0.6
176
     1
 40
30.0
176
     1
 62
     7
420
 16777215
176
     1
 90
        1
176
     1
 90
       10
176
     1
 62
     7
176
     1
 62
   257
176
     1
 90
        2
176
     1
 90
        1
176
     1
 40
1.0
176
     1
 90
        8
176
     1
 62
   257
176
     1
 40
1.0
176
     1
 90
        1
176
     1
 90
        6
176
     1
 90
        2
176
     1
 62
     7
176
     1
 90
        3
176
     1
 90
        0
176
     1
 90
        0
176
     1
290
     0
176
     1
 90
        5
176
     1
 40
0.0
176
     1
 90
        0
176
     1
290
     0
176
     1
290
     1
176
     1
290
     1
176
     1
290
     0
176
     1
290
     0
176
     1
290
     0
176
     1
290
     0
176
     1
290
     0
176
     1
290
     0
176
     1
 90
       50
176
     1
 40
0.0
176
     1
 40
1.0
176
     1
 90
        0
176
     1
 62
    18
420
        0
176
     1
 90
       50
176
     1
 90
        3
176
     1
 62
     5
420
      255
176
     1
290
     0
176
     1
 90
       50
176
     1
 90
       50
176
     1
 90
       50
176
     1
290
     0
176
     1
 90
       50
176
     1
 62
   256
176
     0
 40
1.0
176
     0
 90
        2
176
     1
  1
strokes_ogs.tif
176
     1
290
     0
176
     1
 40
1.0
176
     1
 40
1.0
176
     1
  0
VISUALSTYLE
  5
3E
102
{ACAD_REACTORS
330
2A
102
}
330
2A
100
AcDbVisualStyle
  2
Shades of Gray
 70
    23
177
     3
291
     0
 70
    58
 90
        2
176
     1
 90
        2
176
     1
 90
        3
176
     1
 90
        0
176
     1
 40
0.6
176
     1
 40
30.0
176
     1
 62
     7
420
 16777215
176
     1
 90
        2
176
     1
 90
        2
176
     1
 62
     7
176
     1
 62
     7
176
     1
 90
        1
176
     1
 90
        1
176
     1
 40
40.0
176
     1
 90
        8
176
     1
 62
     7
176
     1
 40
1.0
176
     1
 90
        1
176
     1
 90
        6
176
     1
 90
        2
176
     1
 62
     7
176
     1
 90
        3
176
     1
 90
        0
176
     1
 90
        0
176
     1
290
     0
176
     1
 90
        1
176
     1
 40
0.0
176
     1
 90
        0
176
     1
290
     0
176
     1
290
     1
176
     1
290
     1
176
     1
290
     0
176
     1
290
     0
176
     1
290
     0
176
     1
290
     0
176
     1
290
     0
176
     1
290
     0
176
     1
 90
       50
176
     1
 40
0.0
176
     1
 40
1.0
176
     1
 90
        0
176
     1
 62
    18
420
        0
176
     1
 90
       50
176
     1
 90
        3
176
     1
 62
     5
420
      255
176
     1
290
     0
176
     1
 90
       50
176
     1
 90
       50
176
     1
 90
       50
176
     1
290
     0
176
     1
 90
       50
176
     1
 62
   256
176
     0
 40
1.0
176
     0
 90
        2
176
     1
  1
strokes_ogs.tif
176
     1
290
     0
176
     1
 40
1.0
176
     1
 40
1.0
176
     1
  0
VISUALSTYLE
  5
3F
102
{ACAD_REACTORS
330
2A
102
}
330
2A
100
AcDbVisualStyle
  2
Sketchy
 70
    24
177
     3
291
     0
 70
    58
 90
        1
176
     1
 90
        2
176
     1
 90
        2
176
     1
 90
        0
176
     1
 40
0.6
176
     1
 40
30.0
176
     1
 62
     7
420
 16777215
176
     1
 90
        2
176
     1
 90
        2
176
     1
 62
     7
176
     1
 62
     7
176
     1
 90
        1
176
     1
 90
        1
176
     1
 40
40.0
176
     1
 90
       11
176
     1
 62
     7
176
     1
 40
1.0
176
     1
 90
        1
176
     1
 90
        6
176
     1
 90
        2
176
     1
 62
     7
176
     1
 90
        6
176
     1
 90
        0
176
     1
 90
        0
176
     1
290
     0
176
     1
 90
        1
176
     1
 40
0.0
176
     1
 90
        0
176
     1
290
     0
176
     1
290
     1
176
     1
290
     1
176
     1
290
     0
176
     1
290
     0
176
     1
290
     0
176
     1
290
     0
176
     1
290
     0
176
     1
290
     0
176
     1
 90
       50
176
     1
 40
0.0
176
     1
 40
1.0
176
     1
 90
        0
176
     1
 62
    18
420
        0
176
     1
 90
       50
176
     1
 90
        3
176
     1
 62
     5
420
      255
176
     1
290
     0
176
     1
 90
       50
176
     1
 90
       50
176
     1
 90
       50
176
     1
290
     0
176
     1
 90
       50
176
     1
 62
   256
176
     0
 40
1.0
176
     0
 90
        2
176
     1
  1
strokes_ogs.tif
176
     1
290
     0
176
     1
 40
1.0
176
     1
 40
1.0
176
     1
  0
VISUALSTYLE
  5
37
102
{ACAD_REACTORS
330
2A
102
}
330
2A
100
AcDbVisualStyle
  2
Thicken
 70
    13
177
     3
291
     1
 70
    58
 90
        2
176
     1
 90
        2
176
     1
 90
        0
176
     1
 90
        0
176
     1
 40
0.6
176
     1
 40
30.0
176
     1
 62
     7
420
 16777215
176
     1
 90
        1
176
     1
 90
        4
176
     1
 62
     7
176
     1
 62
   257
176
     1
 90
        1
176
     1
 90
        1
176
     1
 40
1.0
176
     1
 90
       12
176
     1
 62
     7
176
     1
 40
1.0
176
     1
 90
        1
176
     1
 90
        6
176
     1
 90
        2
176
     1
 62
     7
176
     1
 90
        5
176
     1
 90
        0
176
     1
 90
        0
176
     1
290
     0
176
     1
 90
        1
176
     1
 40
0.0
176
     1
 90
        0
176
     1
290
     0
176
     1
290
     1
176
     1
290
     1
176
     1
290
     0
176
     1
290
     0
176
     1
290
     0
176
     1
290
     0
176
     1
290
     0
176
     1
290
     0
176
     1
 90
       50
176
     1
 40
0.0
176
     1
 40
1.0
176
     1
 90
        0
176
     1
 62
    18
420
        0
176
     1
 90
       50
176
     1
 90
        3
176
     1
 62
     5
420
      255
176
     1
290
     0
176
     1
 90
       50
176
     1
 90
       50
176
     1
 90
       50
176
     1
290
     0
176
     1
 90
       50
176
     1
 62
   256
176
     0
 40
1.0
176
     0
 90
        2
176
     1
  1
strokes_ogs.tif
176
     1
290
     0
176
     1
 40
1.0
176
     1
 40
1.0
176
     1
  0
VISUALSTYLE
  5
30
102
{ACAD_REACTORS
330
2A
102
}
330
2A
100
AcDbVisualStyle
  2
Wireframe
 70
     5
177
     3
291
     0
 70
    58
 90
        0
176
     1
 90
        2
176
     1
 90
        0
176
     1
 90
        0
176
     1
 40
0.6
176
     1
 40
30.0
176
     1
 62
     7
420
 16777215
176
     1
 90
        1
176
     1
 90
        4
176
     1
 62
     7
176
     1
 62
   257
176
     1
 90
        1
176
     1
 90
        1
176
     1
 40
1.0
176
     1
 90
        0
176
     1
 62
   257
176
     1
 40
1.0
176
     1
 90
        1
176
     1
 90
        6
176
     1
 90
        2
176
     1
 62
     7
176
     1
 90
        3
176
     1
 90
        0
176
     1
 90
        0
176
     1
290
     0
176
     1
 90
        1
176
     1
 40
0.0
176
     1
 90
        0
176
     1
290
     0
176
     1
290
     1
176
     1
290
     1
176
     1
290
     0
176
     1
290
     0
176
     1
290
     0
176
     1
290
     0
176
     1
290
     0
176
     1
290
     0
176
     1
 90
       50
176
     1
 40
0.0
176
     1
 40
1.0
176
     1
 90
        0
176
     1
 62
    18
420
        0
176
     1
 90
       50
176
     1
 90
        3
176
     1
 62
     5
420
      255
176
     1
290
     0
176
     1
 90
       50
176
     1
 90
       50
176
     1
 90
       50
176
     1
290
     0
176
     1
 90
       50
176
     1
 62
   256
176
     0
 40
1.0
176
     0
 90
        2
176
     1
  1
strokes_ogs.tif
176
     1
290
     0
176
     1
 40
1.0
176
     1
 40
1.0
176
     1
  0
VISUALSTYLE
  5
40
102
{ACAD_REACTORS
330
2A
102
}
330
2A
100
AcDbVisualStyle
  2
X-Ray
 70
    25
177
     3
291
     0
 70
    58
 90
        2
176
     1
 90
        2
176
     1
 90
        1
176
     1
 90
        1
176
     1
 40
0.5
176
     1
 40
30.0
176
     1
 62
     7
420
 16777215
176
     1
 90
        1
176
     1
 90
        0
176
     1
 62
     7
176
     1
 62
   257
176
     1
 90
        1
176
     1
 90
        1
176
     1
 40
1.0
176
     1
 90
        8
176
     1
 62
     7
176
     1
 40
1.0
176
     1
 90
        1
176
     1
 90
        6
176
     1
 90
        2
176
     1
 62
     7
176
     1
 90
        3
176
     1
 90
        0
176
     1
 90
        0
176
     1
290
     0
176
     1
 90
       13
176
     1
 40
0.0
176
     1
 90
        0
176
     1
290
     0
176
     1
290
     1
176
     1
290
     1
176
     1
290
     0
176
     1
290
     0
176
     1
290
     0
176
     1
290
     0
176
     1
290
     0
176
     1
290
     0
176
     1
 90
       50
176
     1
 40
0.0
176
     1
 40
1.0
176
     1
 90
        0
176
     1
 62
    18
420
        0
176
     1
 90
       50
176
     1
 90
        3
176
     1
 62
     5
420
      255
176
     1
290
     0
176
     1
 90
       50
176
     1
 90
       50
176
     1
 90
       50
176
     1
290
     0
176
     1
 90
       50
176
     1
 62
   256
176
     0
 40
1.0
176
     0
 90
        2
176
     1
  1
strokes_ogs.tif
176
     1
290
     0
176
     1
 40
1.0
176
     1
 40
1.0
176
     1
  0
DICTIONARYVAR
  5
214
102
{ACAD_REACTORS
330
213
102
}
330
213
100
DictionaryVariables
280
     0
  1
1:1
  0
DICTIONARYVAR
  5
219
102
{ACAD_REACTORS
330
213
102
}
330
213
100
DictionaryVariables
280
     0
  1
Standard
  0
DICTIONARYVAR
  5
218
102
{ACAD_REACTORS
330
213
102
}
330
213
100
DictionaryVariables
280
     0
  1
Standard
  0
DICTIONARY
  5
215
330
6A
100
AcDbDictionary
280
     1
281
     1
  3
ACAD_ROUNDTRIP_2008_TABLESTYLE_CELLSTYLEMAP
360
216
  0
CELLSTYLEMAP
  5
216
102
{ACAD_REACTORS
330
215
102
}
330
215
100
AcDbCellStyleMap
 90
        3
300
CELLSTYLE
  1
TABLEFORMAT_BEGIN
 90
        5
170
     1
 91
        0
 92
    32768
 62
   257
 93
        1
300
CONTENTFORMAT
  1
CONTENTFORMAT_BEGIN
 90
        0
 91
        0
 92
        4
 93
        0
300

 40
0.0
140
1.0
 94
        5
 62
     0
340
11
144
6.0
309
CONTENTFORMAT_END
171
     1
301
MARGIN
  1
CELLMARGIN_BEGIN
 40
1.5
 40
1.5
 40
1.5
 40
1.5
 40
1.5
 40
1.5
309
CELLMARGIN_END
 94
        6
 95
        1
302
GRIDFORMAT
  1
GRIDFORMAT_BEGIN
 90
        0
 91
        1
 62
     0
 92
       -2
340
14
 93
        0
 40
0.045
309
GRIDFORMAT_END
 95
        2
302
GRIDFORMAT
  1
GRIDFORMAT_BEGIN
 90
        0
 91
        1
 62
     0
 92
       -2
340
14
 93
        0
 40
0.045
309
GRIDFORMAT_END
 95
        4
302
GRIDFORMAT
  1
GRIDFORMAT_BEGIN
 90
        0
 91
        1
 62
     0
 92
       -2
340
14
 93
        0
 40
0.045
309
GRIDFORMAT_END
 95
        8
302
GRIDFORMAT
  1
GRIDFORMAT_BEGIN
 90
        0
 91
        1
 62
     0
 92
       -2
340
14
 93
        0
 40
0.045
309
GRIDFORMAT_END
 95
       16
302
GRIDFORMAT
  1
GRIDFORMAT_BEGIN
 90
        0
 91
        1
 62
     0
 92
       -2
340
14
 93
        0
 40
0.045
309
GRIDFORMAT_END
 95
       32
302
GRIDFORMAT
  1
GRIDFORMAT_BEGIN
 90
        0
 91
        1
 62
     0
 92
       -2
340
14
 93
        0
 40
0.045
309
GRIDFORMAT_END
309
TABLEFORMAT_END
  1
CELLSTYLE_BEGIN
 90
        1
 91
        1
300
_TITLE
309
CELLSTYLE_END
300
CELLSTYLE
  1
TABLEFORMAT_BEGIN
 90
        5
170
     1
 91
        0
 92
        0
 62
   257
 93
        1
300
CONTENTFORMAT
  1
CONTENTFORMAT_BEGIN
 90
        0
 91
        0
 92
        4
 93
        0
300

 40
0.0
140
1.0
 94
        5
 62
     0
340
11
144
4.5
309
CONTENTFORMAT_END
171
     1
301
MARGIN
  1
CELLMARGIN_BEGIN
 40
1.5
 40
1.5
 40
1.5
 40
1.5
 40
1.5
 40
1.5
309
CELLMARGIN_END
 94
        6
 95
        1
302
GRIDFORMAT
  1
GRIDFORMAT_BEGIN
 90
        0
 91
        1
 62
     0
 92
       -2
340
14
 93
        0
 40
0.045
309
GRIDFORMAT_END
 95
        2
302
GRIDFORMAT
  1
GRIDFORMAT_BEGIN
 90
        0
 91
        1
 62
     0
 92
       -2
340
14
 93
        0
 40
0.045
309
GRIDFORMAT_END
 95
        4
302
GRIDFORMAT
  1
GRIDFORMAT_BEGIN
 90
        0
 91
        1
 62
     0
 92
       -2
340
14
 93
        0
 40
0.045
309
GRIDFORMAT_END
 95
        8
302
GRIDFORMAT
  1
GRIDFORMAT_BEGIN
 90
        0
 91
        1
 62
     0
 92
       -2
340
14
 93
        0
 40
0.045
309
GRIDFORMAT_END
 95
       16
302
GRIDFORMAT
  1
GRIDFORMAT_BEGIN
 90
        0
 91
        1
 62
     0
 92
       -2
340
14
 93
        0
 40
0.045
309
GRIDFORMAT_END
 95
       32
302
GRIDFORMAT
  1
GRIDFORMAT_BEGIN
 90
        0
 91
        1
 62
     0
 92
       -2
340
14
 93
        0
 40
0.045
309
GRIDFORMAT_END
309
TABLEFORMAT_END
  1
CELLSTYLE_BEGIN
 90
        2
 91
        1
300
_HEADER
309
CELLSTYLE_END
300
CELLSTYLE
  1
TABLEFORMAT_BEGIN
 90
        5
170
     1
 91
        0
 92
        0
 62
   257
 93
        1
300
CONTENTFORMAT
  1
CONTENTFORMAT_BEGIN
 90
        0
 91
        0
 92
        4
 93
        0
300

 40
0.0
140
1.0
 94
        2
 62
     0
340
11
144
4.5
309
CONTENTFORMAT_END
171
     1
301
MARGIN
  1
CELLMARGIN_BEGIN
 40
1.5
 40
1.5
 40
1.5
 40
1.5
 40
1.5
 40
1.5
309
CELLMARGIN_END
 94
        6
 95
        1
302
GRIDFORMAT
  1
GRIDFORMAT_BEGIN
 90
        0
 91
        1
 62
     0
 92
       -2
340
14
 93
        0
 40
0.045
309
GRIDFORMAT_END
 95
        2
302
GRIDFORMAT
  1
GRIDFORMAT_BEGIN
 90
        0
 91
        1
 62
     0
 92
       -2
340
14
 93
        0
 40
0.045
309
GRIDFORMAT_END
 95
        4
302
GRIDFORMAT
  1
GRIDFORMAT_BEGIN
 90
        0
 91
        1
 62
     0
 92
       -2
340
14
 93
        0
 40
0.045
309
GRIDFORMAT_END
 95
        8
302
GRIDFORMAT
  1
GRIDFORMAT_BEGIN
 90
        0
 91
        1
 62
     0
 92
       -2
340
14
 93
        0
 40
0.045
309
GRIDFORMAT_END
 95
       16
302
GRIDFORMAT
  1
GRIDFORMAT_BEGIN
 90
        0
 91
        1
 62
     0
 92
       -2
340
14
 93
        0
 40
0.045
309
GRIDFORMAT_END
 95
       32
302
GRIDFORMAT
  1
GRIDFORMAT_BEGIN
 90
        0
 91
        1
 62
     0
 92
       -2
340
14
 93
        0
 40
0.045
309
GRIDFORMAT_END
309
TABLEFORMAT_END
  1
CELLSTYLE_BEGIN
 90
        3
 91
        2
300
_DATA
309
CELLSTYLE_END
  0
ENDSEC
  0
EOF