0
SECTION
  2
HEADER
  9
$ACADVER
  1
AC1027
  9
$ACADMAINTVER
 70
     8
  9
$DWGCODEPAGE
  3
ANSI_1252
  9
$REQUIREDVERSIONS
160
                 0
  9
$COMMENTS
  1
File was created by Cadenas
  9
$CUSTOMPROPERTYTAG
  1
NN
  9
$CUSTOMPROPERTY
  1
Grip Tight Two-Bolt Flange Metric Bore
  9
$CUSTOMPROPERTYTAG
  1
NT
  9
$CUSTOMPROPERTY
  1
GT Normal Duty 2 Bolt Flange Bearings
  9
$CUSTOMPROPERTYTAG
  1
NB
  9
$CUSTOMPROPERTY
  1
129325
  9
$CUSTOMPROPERTYTAG
  1
NBSYN
  9
$CUSTOMPROPERTY
  1
$PN.$LUBE.
  9
$CUSTOMPROPERTYTAG
  1
LINA
  9
$CUSTOMPROPERTY
  1
129325
  9
$CUSTOMPROPERTYTAG
  1
SERIES
  9
$CUSTOMPROPERTY
  1
207
  9
$CUSTOMPROPERTYTAG
  1
SS
  9
$CUSTOMPROPERTY
  1
35
  9
$CUSTOMPROPERTYTAG
  1
PN
  9
$CUSTOMPROPERTY
  1
129325
  9
$CUSTOMPROPERTYTAG
  1
DESCRIPTION
  9
$CUSTOMPROPERTY
  1
F2B-GT-35M
  9
$CUSTOMPROPERTYTAG
  1
A
  9
$CUSTOMPROPERTY
  1
41.3
  9
$CUSTOMPROPERTYTAG
  1
B
  9
$CUSTOMPROPERTY
  1
155.6
  9
$CUSTOMPROPERTYTAG
  1
C
  9
$CUSTOMPROPERTY
  1
45.2
  9
$CUSTOMPROPERTYTAG
  1
D
  9
$CUSTOMPROPERTY
  1
130.2
  9
$CUSTOMPROPERTYTAG
  1
F
  9
$CUSTOMPROPERTY
  1
M12
  9
$CUSTOMPROPERTYTAG
  1
H
  9
$CUSTOMPROPERTY
  1
14.3
  9
$CUSTOMPROPERTYTAG
  1
J
  9
$CUSTOMPROPERTY
  1
13.9
  9
$CUSTOMPROPERTYTAG
  1
L
  9
$CUSTOMPROPERTY
  1
58.3
  9
$CUSTOMPROPERTYTAG
  1
M
  9
$CUSTOMPROPERTY
  1
95.3
  9
$CUSTOMPROPERTYTAG
  1
N
  9
$CUSTOMPROPERTY
  1
46.8
  9
$CUSTOMPROPERTYTAG
  1
Z
  9
$CUSTOMPROPERTY
  1
44.8
  9
$CUSTOMPROPERTYTAG
  1
COMPANY
  9
$CUSTOMPROPERTY
  1
baldor
  9
$INSBASE
 10
0.0
 20
0.0
 30
0.0
  9
$EXTMIN
 10
1.000000000000000E+20
 20
1.000000000000000E+20
 30
1.000000000000000E+20
  9
$EXTMAX
 10
-1.000000000000000E+20
 20
-1.000000000000000E+20
 30
-1.000000000000000E+20
  9
$LIMMIN
 10
0.0
 20
0.0
  9
$LIMMAX
 10
420.0
 20
297.0
  9
$ORTHOMODE
 70
     0
  9
$REGENMODE
 70
     1
  9
$FILLMODE
 70
     1
  9
$QTEXTMODE
 70
     0
  9
$MIRRTEXT
 70
     1
  9
$LTSCALE
 40
1.0
  9
$ATTMODE
 70
     1
  9
$TEXTSIZE
 40
2.5
  9
$TRACEWID
 40
1.0
  9
$TEXTSTYLE
  7
Standard
  9
$CLAYER
  8
0
  9
$CELTYPE
  6
ByLayer
  9
$CECOLOR
 62
   256
  9
$CELTSCALE
 40
1.0
  9
$DISPSILH
 70
     0
  9
$DIMSCALE
 40
1.0
  9
$DIMASZ
 40
2.5
  9
$DIMEXO
 40
0.625
  9
$DIMDLI
 40
3.75
  9
$DIMRND
 40
0.0
  9
$DIMDLE
 40
0.0
  9
$DIMEXE
 40
1.25
  9
$DIMTP
 40
0.0
  9
$DIMTM
 40
0.0
  9
$DIMTXT
 40
2.5
  9
$DIMCEN
 40
2.5
  9
$DIMTSZ
 40
0.0
  9
$DIMTOL
 70
     0
  9
$DIMLIM
 70
     0
  9
$DIMTIH
 70
     0
  9
$DIMTOH
 70
     0
  9
$DIMSE1
 70
     0
  9
$DIMSE2
 70
     0
  9
$DIMTAD
 70
     1
  9
$DIMZIN
 70
     8
  9
$DIMBLK
  1

  9
$DIMASO
 70
     1
  9
$DIMSHO
 70
     1
  9
$DIMPOST
  1

  9
$DIMAPOST
  1

  9
$DIMALT
 70
     0
  9
$DIMALTD
 70
     3
  9
$DIMALTF
 40
0.03937007874016
  9
$DIMLFAC
 40
1.0
  9
$DIMTOFL
 70
     1
  9
$DIMTVP
 40
0.0
  9
$DIMTIX
 70
     0
  9
$DIMSOXD
 70
     0
  9
$DIMSAH
 70
     0
  9
$DIMBLK1
  1

  9
$DIMBLK2
  1

  9
$DIMSTYLE
  2
ISO-25
  9
$DIMCLRD
 70
     0
  9
$DIMCLRE
 70
     0
  9
$DIMCLRT
 70
     0
  9
$DIMTFAC
 40
1.0
  9
$DIMGAP
 40
0.625
  9
$DIMJUST
 70
     0
  9
$DIMSD1
 70
     0
  9
$DIMSD2
 70
     0
  9
$DIMTOLJ
 70
     0
  9
$DIMTZIN
 70
     8
  9
$DIMALTZ
 70
     0
  9
$DIMALTTZ
 70
     0
  9
$DIMUPT
 70
     0
  9
$DIMDEC
 70
     2
  9
$DIMTDEC
 70
     2
  9
$DIMALTU
 70
     2
  9
$DIMALTTD
 70
     3
  9
$DIMTXSTY
  7
Standard
  9
$DIMAUNIT
 70
     0
  9
$DIMADEC
 70
     0
  9
$DIMALTRND
 40
0.0
  9
$DIMAZIN
 70
     0
  9
$DIMDSEP
 70
    44
  9
$DIMATFIT
 70
     3
  9
$DIMFRAC
 70
     0
  9
$DIMLDRBLK
  1

  9
$DIMLUNIT
 70
     2
  9
$DIMLWD
 70
    -2
  9
$DIMLWE
 70
    -2
  9
$DIMTMOVE
 70
     0
  9
$DIMFXL
 40
1.0
  9
$DIMFXLON
 70
     0
  9
$DIMJOGANG
 40
0.7853981633974483
  9
$DIMTFILL
 70
     0
  9
$DIMTFILLCLR
 70
     0
  9
$DIMARCSYM
 70
     0
  9
$DIMLTYPE
  6

  9
$DIMLTEX1
  6

  9
$DIMLTEX2
  6

  9
$DIMTXTDIRECTION
 70
     0
  9
$LUNITS
 70
     2
  9
$LUPREC
 70
     4
  9
$SKETCHINC
 40
1.0
  9
$FILLETRAD
 40
10.0
  9
$AUNITS
 70
     0
  9
$AUPREC
 70
     0
  9
$MENU
  1
.
  9
$ELEVATION
 40
0.0
  9
$PELEVATION
 40
0.0
  9
$THICKNESS
 40
0.0
  9
$LIMCHECK
 70
     0
  9
$CHAMFERA
 40
0.0
  9
$CHAMFERB
 40
0.0
  9
$CHAMFERC
 40
0.0
  9
$CHAMFERD
 40
0.0
  9
$SKPOLY
 70
     0
  9
$TDCREATE
 40
2458168.99506588
  9
$TDUCREATE
 40
2458168.953399213
  9
$TDUPDATE
 40
2458168.995066065
  9
$TDUUPDATE
 40
2458168.953399398
  9
$TDINDWG
 40
0.0000000116
  9
$TDUSRTIMER
 40
0.0000000116
  9
$USRTIMER
 70
     1
  9
$ANGBASE
 50
0.0
  9
$ANGDIR
 70
     0
  9
$PDMODE
 70
     0
  9
$PDSIZE
 40
0.0
  9
$PLINEWID
 40
0.0
  9
$SPLFRAME
 70
     0
  9
$SPLINETYPE
 70
     6
  9
$SPLINESEGS
 70
     8
  9
$HANDSEED
  5
1F8
  9
$SURFTAB1
 70
     6
  9
$SURFTAB2
 70
     6
  9
$SURFTYPE
 70
     6
  9
$SURFU
 70
     6
  9
$SURFV
 70
     6
  9
$UCSBASE
  2

  9
$UCSNAME
  2

  9
$UCSORG
 10
0.0
 20
0.0
 30
0.0
  9
$UCSXDIR
 10
1.0
 20
0.0
 30
0.0
  9
$UCSYDIR
 10
0.0
 20
1.0
 30
0.0
  9
$UCSORTHOREF
  2

  9
$UCSORTHOVIEW
 70
     0
  9
$UCSORGTOP
 10
0.0
 20
0.0
 30
0.0
  9
$UCSORGBOTTOM
 10
0.0
 20
0.0
 30
0.0
  9
$UCSORGLEFT
 10
0.0
 20
0.0
 30
0.0
  9
$UCSORGRIGHT
 10
0.0
 20
0.0
 30
0.0
  9
$UCSORGFRONT
 10
0.0
 20
0.0
 30
0.0
  9
$UCSORGBACK
 10
0.0
 20
0.0
 30
0.0
  9
$PUCSBASE
  2

  9
$PUCSNAME
  2

  9
$PUCSORG
 10
0.0
 20
0.0
 30
0.0
  9
$PUCSXDIR
 10
1.0
 20
0.0
 30
0.0
  9
$PUCSYDIR
 10
0.0
 20
1.0
 30
0.0
  9
$PUCSORTHOREF
  2

  9
$PUCSORTHOVIEW
 70
     0
  9
$PUCSORGTOP
 10
0.0
 20
0.0
 30
0.0
  9
$PUCSORGBOTTOM
 10
0.0
 20
0.0
 30
0.0
  9
$PUCSORGLEFT
 10
0.0
 20
0.0
 30
0.0
  9
$PUCSORGRIGHT
 10
0.0
 20
0.0
 30
0.0
  9
$PUCSORGFRONT
 10
0.0
 20
0.0
 30
0.0
  9
$PUCSORGBACK
 10
0.0
 20
0.0
 30
0.0
  9
$USERI1
 70
     0
  9
$USERI2
 70
     0
  9
$USERI3
 70
     0
  9
$USERI4
 70
     0
  9
$USERI5
 70
     0
  9
$USERR1
 40
0.0
  9
$USERR2
 40
0.0
  9
$USERR3
 40
0.0
  9
$USERR4
 40
0.0
  9
$USERR5
 40
0.0
  9
$WORLDVIEW
 70
     1
  9
$SHADEDGE
 70
     3
  9
$SHADEDIF
 70
    70
  9
$TILEMODE
 70
     1
  9
$MAXACTVP
 70
    64
  9
$PINSBASE
 10
0.0
 20
0.0
 30
0.0
  9
$PLIMCHECK
 70
     0
  9
$PEXTMIN
 10
1.000000000000000E+20
 20
1.000000000000000E+20
 30
1.000000000000000E+20
  9
$PEXTMAX
 10
-1.000000000000000E+20
 20
-1.000000000000000E+20
 30
-1.000000000000000E+20
  9
$PLIMMIN
 10
0.0
 20
0.0
  9
$PLIMMAX
 10
420.0
 20
297.0
  9
$UNITMODE
 70
     0
  9
$VISRETAIN
 70
     1
  9
$PLINEGEN
 70
     0
  9
$PSLTSCALE
 70
     1
  9
$TREEDEPTH
 70
  3020
  9
$CMLSTYLE
  2
Standard
  9
$CMLJUST
 70
     0
  9
$CMLSCALE
 40
20.0
  9
$PROXYGRAPHICS
 70
     1
  9
$MEASUREMENT
 70
     1
  9
$CELWEIGHT
370
    -1
  9
$ENDCAPS
280
     0
  9
$JOINSTYLE
280
     0
  9
$LWDISPLAY
290
     0
  9
$INSUNITS
 70
     4
  9
$HYPERLINKBASE
  1

  9
$STYLESHEET
  1

  9
$XEDIT
290
     1
  9
$CEPSNTYPE
380
     0
  9
$PSTYLEMODE
290
     1
  9
$FINGERPRINTGUID
  2
{891265B4-35A8-49C4-AFCB-0800A59DB3EA}
  9
$VERSIONGUID
  2
{FAEB1C32-E019-11D5-929B-00C0DF256EC4}
  9
$EXTNAMES
290
     1
  9
$PSVPSCALE
 40
0.0
  9
$OLESTARTUP
290
     0
  9
$SORTENTS
280
   127
  9
$INDEXCTL
280
     0
  9
$HIDETEXT
280
     1
  9
$XCLIPFRAME
280
     2
  9
$HALOGAP
280
     0
  9
$OBSCOLOR
 70
   257
  9
$OBSLTYPE
280
     0
  9
$INTERSECTIONDISPLAY
280
     0
  9
$INTERSECTIONCOLOR
 70
   257
  9
$DIMASSOC
280
     2
  9
$PROJECTNAME
  1

  9
$CAMERADISPLAY
290
     0
  9
$LENSLENGTH
 40
50.0
  9
$CAMERAHEIGHT
 40
0.0
  9
$STEPSPERSEC
 40
2.0
  9
$STEPSIZE
 40
6.0
  9
$3DDWFPREC
 40
2.0
  9
$PSOLWIDTH
 40
5.0
  9
$PSOLHEIGHT
 40
80.0
  9
$LOFTANG1
 40
1.570796326794897
  9
$LOFTANG2
 40
1.570796326794897
  9
$LOFTMAG1
 40
0.0
  9
$LOFTMAG2
 40
0.0
  9
$LOFTPARAM
 70
     7
  9
$LOFTNORMALS
280
     1
  9
$LATITUDE
 40
37.795
  9
$LONGITUDE
 40
-122.394
  9
$NORTHDIRECTION
 40
0.0
  9
$TIMEZONE
 70
 -8000
  9
$LIGHTGLYPHDISPLAY
280
     1
  9
$TILEMODELIGHTSYNCH
280
     1
  9
$CMATERIAL
347
44
  9
$SOLIDHIST
280
     0
  9
$SHOWHIST
280
     1
  9
$DWFFRAME
280
     2
  9
$DGNFRAME
280
     2
  9
$REALWORLDSCALE
290
     1
  9
$INTERFERECOLOR
 62
   256
  9
$CSHADOW
280
     0
  9
$SHADOWPLANELOCATION
 40
0.0
  0
ENDSEC
  0
SECTION
  2
CLASSES
  0
CLASS
  1
ACDBDICTIONARYWDFLT
  2
AcDbDictionaryWithDefault
  3
ObjectDBX Classes
 90
        0
 91
        4
280
     0
281
     0
  0
CLASS
  1
VISUALSTYLE
  2
AcDbVisualStyle
  3
ObjectDBX Classes
 90
     4095
 91
        4
280
     0
281
     0
  0
CLASS
  1
MATERIAL
  2
AcDbMaterial
  3
ObjectDBX Classes
 90
     1153
 91
        4
280
     0
281
     0
  0
CLASS
  1
SCALE
  2
AcDbScale
  3
ObjectDBX Classes
 90
     1153
 91
        4
280
     0
281
     0
  0
CLASS
  1
TABLESTYLE
  2
AcDbTableStyle
  3
ObjectDBX Classes
 90
     4095
 91
        4
280
     0
281
     0
  0
CLASS
  1
MLEADERSTYLE
  2
AcDbMLeaderStyle
  3
ACDB_MLEADERSTYLE_CLASS
 90
     4095
 91
        4
280
     0
281
     0
  0
CLASS
  1
SUN
  2
AcDbSun
  3
SCENEOE
 90
     1153
 91
        4
280
     0
281
     0
  0
CLASS
  1
DICTIONARYVAR
  2
AcDbDictionaryVar
  3
ObjectDBX Classes
 90
        0
 91
        4
280
     0
281
     0
  0
CLASS
  1
CELLSTYLEMAP
  2
AcDbCellStyleMap
  3
ObjectDBX Classes
 90
     1152
 91
        4
280
     0
281
     0
  0
ENDSEC
  0
SECTION
  2
TABLES
  0
TABLE
  2
VPORT
  5
8
330
0
100
AcDbSymbolTable
 70
     1
  0
VPORT
  5
29
330
8
100
AcDbSymbolTableRecord
100
AcDbViewportTableRecord
  2
*Active
 70
     0
 10
0.0
 20
0.0
 11
1.0
 21
1.0
 12
0.0
 22
0.0
 13
0.0
 23
0.0
 14
10.0
 24
10.0
 15
10.0
 25
10.0
 16
0.0
 26
0.0
 36
1.0
 17
0.0
 27
0.0
 37
0.0
 40
158.712
 41
0.6124678663239066
 42
50.0
 43
0.0
 44
0.0
 50
0.0
 51
0.0
 71
     0
 72
   100
 73
     1
 74
     3
 75
     0
 76
     0
 77
     0
 78
     0
281
     0
 65
     1
110
0.0
120
0.0
130
0.0
111
1.0
121
0.0
131
0.0
112
0.0
122
1.0
132
0.0
 79
     0
146
0.0
348
2F
 60
     3
 61
     5
292
     1
282
     1
141
0.0
142
0.0
 63
   250
361
6D
  0
ENDTAB
  0
TABLE
  2
LTYPE
  5
5
330
0
100
AcDbSymbolTable
 70
     3
  0
LTYPE
  5
14
330
5
100
AcDbSymbolTableRecord
100
AcDbLinetypeTableRecord
  2
ByBlock
 70
     0
  3

 72
    65
 73
     0
 40
0.0
  0
LTYPE
  5
15
330
5
100
AcDbSymbolTableRecord
100
AcDbLinetypeTableRecord
  2
ByLayer
 70
     0
  3

 72
    65
 73
     0
 40
0.0
  0
LTYPE
  5
16
330
5
100
AcDbSymbolTableRecord
100
AcDbLinetypeTableRecord
  2
Continuous
 70
     0
  3
Solid line
 72
    65
 73
     0
 40
0.0
  0
LTYPE
  5
9E
330
5
100
AcDbSymbolTableRecord
100
AcDbLinetypeTableRecord
  2
Dashed
 70
     0
  3

 72
    65
 73
     2
 40
2.0
 49
1.0
 74
     0
 49
-1.0
 74
     0
  0
LTYPE
  5
113
330
5
100
AcDbSymbolTableRecord
100
AcDbLinetypeTableRecord
  2
Center
 70
     0
  3

 72
    65
 73
     4
 40
1.5
 49
0.45
 74
     0
 49
-0.5
 74
     0
 49
0.05
 74
     0
 49
-0.5
 74
     0
  0
ENDTAB
  0
TABLE
  2
LAYER
  5
2
330
0
100
AcDbSymbolTable
 70
     7
  0
LAYER
  5
10
330
2
100
AcDbSymbolTableRecord
100
AcDbLayerTableRecord
  2
0
 70
     0
 62
     7
  6
Continuous
370
    -3
390
F
347
46
348
0
  0
LAYER
  5
72
330
2
100
AcDbSymbolTableRecord
100
AcDbLayerTableRecord
  2
AM_6
 70
     0
 62
    -2
  6
Continuous
370
    35
390
F
347
46
348
0
  0
LAYER
  5
9F
330
2
100
AcDbSymbolTableRecord
100
AcDbLayerTableRecord
  2
AM_9
 70
     0
 62
     6
  6
Dashed
370
    25
390
F
347
46
348
0
  0
LAYER
  5
A7
330
2
100
AcDbSymbolTableRecord
100
AcDbLayerTableRecord
  2
AM_4
 70
     0
 62
     3
  6
Continuous
370
    25
390
F
347
46
348
0
  0
LAYER
  5
D6
330
2
100
AcDbSymbolTableRecord
100
AcDbLayerTableRecord
  2
AM_5
 70
     0
 62
     3
  6
Continuous
370
    25
390
F
347
46
348
0
  0
LAYER
  5
114
330
2
100
AcDbSymbolTableRecord
100
AcDbLayerTableRecord
  2
AM_7
 70
     0
 62
     7
  6
Center
370
    25
390
F
347
46
348
0
  0
LAYER
  5
1EB
330
2
100
AcDbSymbolTableRecord
100
AcDbLayerTableRecord
  2
ConnectionPoints
 70
     0
 62
     7
  6
Continuous
370
    50
390
F
347
46
348
0
  0
ENDTAB
  0
TABLE
  2
STYLE
  5
3
330
0
100
AcDbSymbolTable
 70
     1
  0
STYLE
  5
11
330
3
100
AcDbSymbolTableRecord
100
AcDbTextStyleTableRecord
  2
Standard
 70
     0
 40
0.0
 41
1.0
 50
0.0
 71
     0
 42
2.5
  3
txt
  4

  0
ENDTAB
  0
TABLE
  2
VIEW
  5
6
330
0
100
AcDbSymbolTable
 70
     0
  0
ENDTAB
  0
TABLE
  2
UCS
  5
7
330
0
100
AcDbSymbolTable
 70
     0
  0
ENDTAB
  0
TABLE
  2
APPID
  5
9
330
0
100
AcDbSymbolTable
 70
     1
  0
APPID
  5
12
330
9
100
AcDbSymbolTableRecord
100
AcDbRegAppTableRecord
  2
ACAD
 70
     0
  0
ENDTAB
  0
TABLE
  2
DIMSTYLE
  5
A
330
0
100
AcDbSymbolTable
 70
     1
100
AcDbDimStyleTable
  0
DIMSTYLE
105
27
330
A
100
AcDbSymbolTableRecord
100
AcDbDimStyleTableRecord
  2
ISO-25
 70
     0
 41
2.5
 42
0.625
 43
3.75
 44
1.25
 73
     0
 74
     0
 77
     1
 78
     8
140
2.5
141
2.5
143
0.03937007874016
147
0.625
171
     3
172
     1
178
     0
271
     2
272
     2
274
     3
278
    44
283
     0
284
     8
340
11
  0
ENDTAB
  0
TABLE
  2
BLOCK_RECORD
  5
1
330
0
100
AcDbSymbolTable
 70
     5
  0
BLOCK_RECORD
  5
1F
330
1
100
AcDbSymbolTableRecord
100
AcDbBlockTableRecord
  2
*Model_Space
340
22
 70
     0
280
     1
281
     0
  0
BLOCK_RECORD
  5
1B
330
1
100
AcDbSymbolTableRecord
100
AcDbBlockTableRecord
  2
*Paper_Space
340
1E
 70
     0
280
     1
281
     0
  0
BLOCK_RECORD
  5
23
330
1
100
AcDbSymbolTableRecord
100
AcDbBlockTableRecord
  2
*Paper_Space0
340
26
 70
     0
280
     1
281
     0
  0
BLOCK_RECORD
  5
6E
330
1
100
AcDbSymbolTableRecord
100
AcDbBlockTableRecord
  2
1_129325_0
340
0
102
{BLKREFS
331
6F
102
}
 70
     0
280
     1
281
     0
  0
BLOCK_RECORD
  5
88
330
1
100
AcDbSymbolTableRecord
100
AcDbBlockTableRecord
  2
2_129520_0_in_129325_0
340
0
102
{BLKREFS
331
89
102
}
 70
     0
280
     1
281
     0
  0
BLOCK_RECORD
  5
AE
330
1
100
AcDbSymbolTableRecord
100
AcDbBlockTableRecord
  2
3_129946_0_in_129325_0
340
0
102
{BLKREFS
331
AF
102
}
 70
     0
280
     1
281
     0
  0
BLOCK_RECORD
  5
F0
330
1
100
AcDbSymbolTableRecord
100
AcDbBlockTableRecord
  2
4_129494_0_in_129325_0
340
0
102
{BLKREFS
331
F1
102
}
 70
     0
280
     1
281
     0
  0
ENDTAB
  0
ENDSEC
  0
SECTION
  2
BLOCKS
  0
BLOCK
  5
20
330
1F
100
AcDbEntity
  8
0
100
AcDbBlockBegin
  2
*Model_Space
 70
     0
 10
0.0
 20
0.0
 30
0.0
  3
*Model_Space
  1

  0
ENDBLK
  5
21
330
1F
100
AcDbEntity
  8
0
100
AcDbBlockEnd
  0
BLOCK
  5
1C
330
1B
100
AcDbEntity
 67
     1
  8
0
100
AcDbBlockBegin
  2
*Paper_Space
 70
     0
 10
0.0
 20
0.0
 30
0.0
  3
*Paper_Space
  1

  0
ENDBLK
  5
1D
330
1B
100
AcDbEntity
 67
     1
  8
0
100
AcDbBlockEnd
  0
BLOCK
  5
24
330
23
100
AcDbEntity
  8
0
100
AcDbBlockBegin
  2
*Paper_Space0
 70
     0
 10
0.0
 20
0.0
 30
0.0
  3
*Paper_Space0
  1

  0
ENDBLK
  5
25
330
23
100
AcDbEntity
  8
0
100
AcDbBlockEnd
  0
BLOCK
  5
70
330
6E
100
AcDbEntity
  8
0
100
AcDbBlockBegin
  2
1_129325_0
 70
     2
 10
0.0
 20
0.0
 30
0.0
  3
1_129325_0
  1

  0
ATTDEF
  5
73
330
6E
100
AcDbEntity
  8
AM_6
100
AcDbText
 10
52.61460528808146
 20
77.79999999999998
 30
0.0
 40
0.5
  1
Grip Tight Two-Bolt Flange Metric Bore
100
AcDbAttributeDefinition
  3

  2
NN
 70
     8
280
     0
  0
ATTDEF
  5
74
330
6E
100
AcDbEntity
  8
AM_6
100
AcDbText
 10
52.61460528808146
 20
77.29999999999998
 30
0.0
 40
0.5
  1
GT Normal Duty 2 Bolt Flange Bearings
100
AcDbAttributeDefinition
  3

  2
NT
 70
     8
280
     0
  0
ATTDEF
  5
75
330
6E
100
AcDbEntity
  8
AM_6
100
AcDbText
 10
52.61460528808146
 20
76.79999999999998
 30
0.0
 40
0.5
  1
129325
100
AcDbAttributeDefinition
  3

  2
NB
 70
     8
280
     0
  0
ATTDEF
  5
76
330
6E
100
AcDbEntity
  8
AM_6
100
AcDbText
 10
52.61460528808146
 20
76.29999999999998
 30
0.0
 40
0.5
  1
$PN.$LUBE.
100
AcDbAttributeDefinition
  3

  2
NBSYN
 70
     8
280
     0
  0
ATTDEF
  5
77
330
6E
100
AcDbEntity
  8
AM_6
100
AcDbText
 10
52.61460528808146
 20
75.79999999999998
 30
0.0
 40
0.5
  1
129325
100
AcDbAttributeDefinition
  3

  2
LINA
 70
     8
280
     0
  0
ATTDEF
  5
78
330
6E
100
AcDbEntity
  8
AM_6
100
AcDbText
 10
52.61460528808146
 20
75.29999999999998
 30
0.0
 40
0.5
  1
207
100
AcDbAttributeDefinition
  3

  2
SERIES
 70
     8
280
     0
  0
ATTDEF
  5
79
330
6E
100
AcDbEntity
  8
AM_6
100
AcDbText
 10
52.61460528808146
 20
74.79999999999998
 30
0.0
 40
0.5
  1
35
100
AcDbAttributeDefinition
  3

  2
SS
 70
     8
280
     0
  0
ATTDEF
  5
7A
330
6E
100
AcDbEntity
  8
AM_6
100
AcDbText
 10
52.61460528808146
 20
74.29999999999998
 30
0.0
 40
0.5
  1
129325
100
AcDbAttributeDefinition
  3

  2
PN
 70
     8
280
     0
  0
ATTDEF
  5
7B
330
6E
100
AcDbEntity
  8
AM_6
100
AcDbText
 10
52.61460528808146
 20
73.79999999999998
 30
0.0
 40
0.5
  1
F2B-GT-35M
100
AcDbAttributeDefinition
  3

  2
DESCRIPTION
 70
     8
280
     0
  0
ATTDEF
  5
7C
330
6E
100
AcDbEntity
  8
AM_6
100
AcDbText
 10
52.61460528808146
 20
73.29999999999998
 30
0.0
 40
0.5
  1
41.3
100
AcDbAttributeDefinition
  3

  2
A
 70
     8
280
     0
  0
ATTDEF
  5
7D
330
6E
100
AcDbEntity
  8
AM_6
100
AcDbText
 10
52.61460528808146
 20
72.79999999999998
 30
0.0
 40
0.5
  1
155.6
100
AcDbAttributeDefinition
  3

  2
B
 70
     8
280
     0
  0
ATTDEF
  5
7E
330
6E
100
AcDbEntity
  8
AM_6
100
AcDbText
 10
52.61460528808146
 20
72.29999999999998
 30
0.0
 40
0.5
  1
45.2
100
AcDbAttributeDefinition
  3

  2
C
 70
     8
280
     0
  0
ATTDEF
  5
7F
330
6E
100
AcDbEntity
  8
AM_6
100
AcDbText
 10
52.61460528808146
 20
71.79999999999998
 30
0.0
 40
0.5
  1
130.2
100
AcDbAttributeDefinition
  3

  2
D
 70
     8
280
     0
  0
ATTDEF
  5
80
330
6E
100
AcDbEntity
  8
AM_6
100
AcDbText
 10
52.61460528808146
 20
71.29999999999998
 30
0.0
 40
0.5
  1
M12
100
AcDbAttributeDefinition
  3

  2
F
 70
     8
280
     0
  0
ATTDEF
  5
81
330
6E
100
AcDbEntity
  8
AM_6
100
AcDbText
 10
52.61460528808146
 20
70.79999999999998
 30
0.0
 40
0.5
  1
14.3
100
AcDbAttributeDefinition
  3

  2
H
 70
     8
280
     0
  0
ATTDEF
  5
82
330
6E
100
AcDbEntity
  8
AM_6
100
AcDbText
 10
52.61460528808146
 20
70.29999999999998
 30
0.0
 40
0.5
  1
13.9
100
AcDbAttributeDefinition
  3

  2
J
 70
     8
280
     0
  0
ATTDEF
  5
83
330
6E
100
AcDbEntity
  8
AM_6
100
AcDbText
 10
52.61460528808146
 20
69.79999999999998
 30
0.0
 40
0.5
  1
58.3
100
AcDbAttributeDefinition
  3

  2
L
 70
     8
280
     0
  0
ATTDEF
  5
84
330
6E
100
AcDbEntity
  8
AM_6
100
AcDbText
 10
52.61460528808146
 20
69.29999999999998
 30
0.0
 40
0.5
  1
95.3
100
AcDbAttributeDefinition
  3

  2
M
 70
     8
280
     0
  0
ATTDEF
  5
85
330
6E
100
AcDbEntity
  8
AM_6
100
AcDbText
 10
52.61460528808146
 20
68.79999999999998
 30
0.0
 40
0.5
  1
46.8
100
AcDbAttributeDefinition
  3

  2
N
 70
     8
280
     0
  0
ATTDEF
  5
86
330
6E
100
AcDbEntity
  8
AM_6
100
AcDbText
 10
52.61460528808146
 20
68.29999999999998
 30
0.0
 40
0.5
  1
44.8
100
AcDbAttributeDefinition
  3

  2
Z
 70
     8
280
     0
  0
ATTDEF
  5
87
330
6E
100
AcDbEntity
  8
AM_6
100
AcDbText
 10
52.61460528808146
 20
67.79999999999998
 30
0.0
 40
0.5
  1
baldor
100
AcDbAttributeDefinition
  3

  2
COMPANY
 70
     8
280
     0
  0
INSERT
  5
89
330
6E
100
AcDbEntity
  8
0
100
AcDbBlockReference
  2
2_129520_0_in_129325_0
 10
0.0
 20
0.0
 30
0.0
  0
INSERT
  5
AF
330
6E
100
AcDbEntity
  8
0
100
AcDbBlockReference
  2
3_129946_0_in_129325_0
 10
0.0
 20
0.0
 30
0.0
  0
INSERT
  5
F1
330
6E
100
AcDbEntity
  8
0
100
AcDbBlockReference
  2
4_129494_0_in_129325_0
 10
0.0
 20
0.0
 30
0.0
  0
ENDBLK
  5
71
330
6E
100
AcDbEntity
  8
0
100
AcDbBlockEnd
  0
BLOCK
  5
8A
330
88
100
AcDbEntity
  8
0
100
AcDbBlockBegin
  2
2_129520_0_in_129325_0
 70
     2
 10
0.0
 20
0.0
 30
0.0
  3
2_129520_0_in_129325_0
  1

  0
ATTDEF
  5
8C
330
88
100
AcDbEntity
  8
AM_6
100
AcDbText
 10
40.68875169220892
 20
35.68875169220892
 30
0.0
 40
0.5
  1
INS-GT-M B
100
AcDbAttributeDefinition
  3

  2
NN
 70
     8
280
     0
  0
ATTDEF
  5
8D
330
88
100
AcDbEntity
  8
AM_6
100
AcDbText
 10
40.68875169220892
 20
35.18875169220892
 30
0.0
 40
0.5
  1
GT Normal Duty Bearing Inserts
100
AcDbAttributeDefinition
  3

  2
NT
 70
     8
280
     0
  0
ATTDEF
  5
8E
330
88
100
AcDbEntity
  8
AM_6
100
AcDbText
 10
40.68875169220892
 20
34.68875169220892
 30
0.0
 40
0.5
  1
129520
100
AcDbAttributeDefinition
  3

  2
NB
 70
     8
280
     0
  0
ATTDEF
  5
8F
330
88
100
AcDbEntity
  8
AM_6
100
AcDbText
 10
40.68875169220892
 20
34.18875169220892
 30
0.0
 40
0.5
  1
$PN.
100
AcDbAttributeDefinition
  3

  2
NBSYN
 70
     8
280
     0
  0
ATTDEF
  5
90
330
88
100
AcDbEntity
  8
AM_6
100
AcDbText
 10
40.68875169220892
 20
33.68875169220892
 30
0.0
 40
0.5
  1
129520
100
AcDbAttributeDefinition
  3

  2
LINA
 70
     8
280
     0
  0
ATTDEF
  5
91
330
88
100
AcDbEntity
  8
AM_6
100
AcDbText
 10
40.68875169220892
 20
33.18875169220892
 30
0.0
 40
0.5
  1
207
100
AcDbAttributeDefinition
  3

  2
SERIES
 70
     8
280
     0
  0
ATTDEF
  5
92
330
88
100
AcDbEntity
  8
AM_6
100
AcDbText
 10
40.68875169220892
 20
32.68875169220892
 30
0.0
 40
0.5
  1
129520
100
AcDbAttributeDefinition
  3

  2
PN
 70
     8
280
     0
  0
ATTDEF
  5
93
330
88
100
AcDbEntity
  8
AM_6
100
AcDbText
 10
40.68875169220892
 20
32.18875169220892
 30
0.0
 40
0.5
  1
INS-GT-07
100
AcDbAttributeDefinition
  3

  2
DESCRIPTION
 70
     8
280
     0
  0
ATTDEF
  5
94
330
88
100
AcDbEntity
  8
AM_6
100
AcDbText
 10
40.68875169220892
 20
31.68875169220892
 30
0.0
 40
0.5
  1
41.1
100
AcDbAttributeDefinition
  3

  2
A
 70
     8
280
     0
  0
ATTDEF
  5
95
330
88
100
AcDbEntity
  8
AM_6
100
AcDbText
 10
40.68875169220892
 20
31.18875169220892
 30
0.0
 40
0.5
  1
19.1
100
AcDbAttributeDefinition
  3

  2
C
 70
     8
280
     0
  0
ATTDEF
  5
96
330
88
100
AcDbEntity
  8
AM_6
100
AcDbText
 10
40.68875169220892
 20
30.68875169220892
 30
0.0
 40
0.5
  1
72.0
100
AcDbAttributeDefinition
  3

  2
D
 70
     8
280
     0
  0
ATTDEF
  5
97
330
88
100
AcDbEntity
  8
AM_6
100
AcDbText
 10
40.68875169220892
 20
30.18875169220892
 30
0.0
 40
0.5
  1
5.1
100
AcDbAttributeDefinition
  3

  2
J
 70
     8
280
     0
  0
ATTDEF
  5
98
330
88
100
AcDbEntity
  8
AM_6
100
AcDbText
 10
40.68875169220892
 20
29.68875169220892
 30
0.0
 40
0.5
  1
60.5
100
AcDbAttributeDefinition
  3

  2
L
 70
     8
280
     0
  0
ATTDEF
  5
99
330
88
100
AcDbEntity
  8
AM_6
100
AcDbText
 10
40.68875169220892
 20
29.18875169220892
 30
0.0
 40
0.5
  1
#10 - 32 x 1/4
100
AcDbAttributeDefinition
  3

  2
N
 70
     8
280
     0
  0
ATTDEF
  5
9A
330
88
100
AcDbEntity
  8
AM_6
100
AcDbText
 10
40.68875169220892
 20
28.68875169220892
 30
0.0
 40
0.5
  1
13.7
100
AcDbAttributeDefinition
  3

  2
W
 70
     8
280
     0
  0
ATTDEF
  5
9B
330
88
100
AcDbEntity
  8
AM_6
100
AcDbText
 10
40.68875169220892
 20
28.18875169220892
 30
0.0
 40
0.5
  1
29.0
100
AcDbAttributeDefinition
  3

  2
X
 70
     8
280
     0
  0
ATTDEF
  5
9C
330
88
100
AcDbEntity
  8
AM_6
100
AcDbText
 10
40.68875169220892
 20
27.68875169220892
 30
0.0
 40
0.5
  1
27.4
100
AcDbAttributeDefinition
  3

  2
Y
 70
     8
280
     0
  0
ATTDEF
  5
9D
330
88
100
AcDbEntity
  8
AM_6
100
AcDbText
 10
40.68875169220892
 20
27.18875169220892
 30
0.0
 40
0.5
  1
baldor
100
AcDbAttributeDefinition
  3

  2
COMPANY
 70
     8
280
     0
  0
CIRCLE
  5
A0
330
88
100
AcDbEntity
  8
AM_9
100
AcDbCircle
 10
0.0000000000000018
 20
0.0
 30
0.0
 40
23.37779677351632
  0
CIRCLE
  5
A1
330
88
100
AcDbEntity
  8
AM_9
100
AcDbCircle
 10
0.0000000000000018
 20
0.0
 30
0.0
 40
34.09
  0
CIRCLE
  5
A2
330
88
100
AcDbEntity
  8
AM_9
100
AcDbCircle
 10
0.0000000000000018
 20
0.0
 30
0.0
 40
34.98704431704321
  0
CIRCLE
  5
A3
330
88
100
AcDbEntity
  8
AM_9
100
AcDbCircle
 10
0.0000000000000018
 20
0.0
 30
0.0
 40
24.7281746031746
  0
CIRCLE
  5
A4
330
88
100
AcDbEntity
  8
AM_9
100
AcDbCircle
 10
0.0000000000000018
 20
0.0
 30
0.0
 40
26.88888888888889
  0
CIRCLE
  5
A5
330
88
100
AcDbEntity
  8
AM_9
100
AcDbCircle
 10
0.0000000000000018
 20
0.0
 30
0.0
 40
22.56746031746032
  0
CIRCLE
  5
A6
330
88
100
AcDbEntity
  8
AM_9
100
AcDbCircle
 10
0.0000000000000018
 20
0.0
 30
0.0
 40
26.12488888888889
  0
CIRCLE
  5
A8
330
88
100
AcDbEntity
  8
AM_4
100
AcDbCircle
 10
0.0000000000000018
 20
0.0
 30
0.0
 40
35.68875169220892
  0
CIRCLE
  5
A9
330
88
100
AcDbEntity
  8
AM_4
100
AcDbCircle
 10
0.0000000000000018
 20
0.0
 30
0.0
 40
35.50014590996116
  0
CIRCLE
  5
AA
330
88
100
AcDbEntity
  8
AM_4
100
AcDbCircle
 10
0.0000000000000018
 20
0.0
 30
0.0
 40
35.1780443170432
  0
CIRCLE
  5
AB
330
88
100
AcDbEntity
  8
AM_4
100
AcDbCircle
 10
0.0000000000000018
 20
0.0
 30
0.0
 40
35.17167258467195
  0
CIRCLE
  5
AC
330
88
100
AcDbEntity
  8
AM_4
100
AcDbCircle
 10
0.0000000000000018
 20
0.0
 30
0.0
 40
33.57487805166848
  0
CIRCLE
  5
AD
330
88
100
AcDbEntity
  8
AM_4
100
AcDbCircle
 10
0.0000000000000018
 20
0.0
 30
0.0
 40
34.28614400981682
  0
ENDBLK
  5
8B
330
88
100
AcDbEntity
  8
0
100
AcDbBlockEnd
  0
BLOCK
  5
B0
330
AE
100
AcDbEntity
  8
0
100
AcDbBlockBegin
  2
3_129946_0_in_129325_0
 70
     2
 10
0.0
 20
0.0
 30
0.0
  3
3_129946_0_in_129325_0
  1

  0
ATTDEF
  5
B2
330
AE
100
AcDbEntity
  8
AM_6
100
AcDbText
 10
34.03825063601457
 20
29.14999954463376
 30
0.0
 40
0.5
  1
Grip Tight Normal Duty Adapter and Nut Metric Bore
100
AcDbAttributeDefinition
  3

  2
NN
 70
     8
280
     0
  0
ATTDEF
  5
B3
330
AE
100
AcDbEntity
  8
AM_6
100
AcDbText
 10
34.03825063601457
 20
28.64999954463376
 30
0.0
 40
0.5
  1
GT and GTM Adapter & Lock Nut Assemblies
100
AcDbAttributeDefinition
  3

  2
NT
 70
     8
280
     0
  0
ATTDEF
  5
B4
330
AE
100
AcDbEntity
  8
AM_6
100
AcDbText
 10
34.03825063601457
 20
28.14999954463376
 30
0.0
 40
0.5
  1
129946
100
AcDbAttributeDefinition
  3

  2
NB
 70
     8
280
     0
  0
ATTDEF
  5
B5
330
AE
100
AcDbEntity
  8
AM_6
100
AcDbText
 10
34.03825063601457
 20
27.64999954463376
 30
0.0
 40
0.5
  1
$PN.
100
AcDbAttributeDefinition
  3

  2
NBSYN
 70
     8
280
     0
  0
ATTDEF
  5
B6
330
AE
100
AcDbEntity
  8
AM_6
100
AcDbText
 10
34.03825063601457
 20
27.14999954463376
 30
0.0
 40
0.5
  1
129946
100
AcDbAttributeDefinition
  3

  2
LINA
 70
     8
280
     0
  0
ATTDEF
  5
B7
330
AE
100
AcDbEntity
  8
AM_6
100
AcDbText
 10
34.03825063601457
 20
26.64999954463376
 30
0.0
 40
0.5
  1
207
100
AcDbAttributeDefinition
  3

  2
SERIES
 70
     8
280
     0
  0
ATTDEF
  5
B8
330
AE
100
AcDbEntity
  8
AM_6
100
AcDbText
 10
34.03825063601457
 20
26.14999954463376
 30
0.0
 40
0.5
  1
35
100
AcDbAttributeDefinition
  3

  2
SS
 70
     8
280
     0
  0
ATTDEF
  5
B9
330
AE
100
AcDbEntity
  8
AM_6
100
AcDbText
 10
34.03825063601457
 20
25.64999954463376
 30
0.0
 40
0.5
  1
129946
100
AcDbAttributeDefinition
  3

  2
PN
 70
     8
280
     0
  0
ATTDEF
  5
BA
330
AE
100
AcDbEntity
  8
AM_6
100
AcDbText
 10
34.03825063601457
 20
25.14999954463376
 30
0.0
 40
0.5
  1
AN-GT-07-35M
100
AcDbAttributeDefinition
  3

  2
DESCRIPTION
 70
     8
280
     0
  0
ATTDEF
  5
BB
330
AE
100
AcDbEntity
  8
AM_6
100
AcDbText
 10
34.03825063601457
 20
24.64999954463376
 30
0.0
 40
0.5
  1
41.3
100
AcDbAttributeDefinition
  3

  2
A
 70
     8
280
     0
  0
ATTDEF
  5
BC
330
AE
100
AcDbEntity
  8
AM_6
100
AcDbText
 10
34.03825063601457
 20
24.14999954463376
 30
0.0
 40
0.5
  1
19.0
100
AcDbAttributeDefinition
  3

  2
C
 70
     8
280
     0
  0
ATTDEF
  5
BD
330
AE
100
AcDbEntity
  8
AM_6
100
AcDbText
 10
34.03825063601457
 20
23.64999954463376
 30
0.0
 40
0.5
  1
72.0
100
AcDbAttributeDefinition
  3

  2
D
 70
     8
280
     0
  0
ATTDEF
  5
BE
330
AE
100
AcDbEntity
  8
AM_6
100
AcDbText
 10
34.03825063601457
 20
23.14999954463376
 30
0.0
 40
0.5
  1
5.1
100
AcDbAttributeDefinition
  3

  2
J
 70
     8
280
     0
  0
ATTDEF
  5
BF
330
AE
100
AcDbEntity
  8
AM_6
100
AcDbText
 10
34.03825063601457
 20
22.64999954463376
 30
0.0
 40
0.5
  1
58.3
100
AcDbAttributeDefinition
  3

  2
L
 70
     8
280
     0
  0
ATTDEF
  5
C0
330
AE
100
AcDbEntity
  8
AM_6
100
AcDbText
 10
34.03825063601457
 20
22.14999954463376
 30
0.0
 40
0.5
  1
10 - 32 x 1/4
100
AcDbAttributeDefinition
  3

  2
N
 70
     8
280
     0
  0
ATTDEF
  5
C1
330
AE
100
AcDbEntity
  8
AM_6
100
AcDbText
 10
34.03825063601457
 20
21.64999954463376
 30
0.0
 40
0.5
  1
14.3
100
AcDbAttributeDefinition
  3

  2
W
 70
     8
280
     0
  0
ATTDEF
  5
C2
330
AE
100
AcDbEntity
  8
AM_6
100
AcDbText
 10
34.03825063601457
 20
21.14999954463376
 30
0.0
 40
0.5
  1
26.6
100
AcDbAttributeDefinition
  3

  2
X
 70
     8
280
     0
  0
ATTDEF
  5
C3
330
AE
100
AcDbEntity
  8
AM_6
100
AcDbText
 10
34.03825063601457
 20
20.64999954463376
 30
0.0
 40
0.5
  1
27.0
100
AcDbAttributeDefinition
  3

  2
Y
 70
     8
280
     0
  0
ATTDEF
  5
C4
330
AE
100
AcDbEntity
  8
AM_6
100
AcDbText
 10
34.03825063601457
 20
20.14999954463376
 30
0.0
 40
0.5
  1
baldor
100
AcDbAttributeDefinition
  3

  2
COMPANY
 70
     8
280
     0
  0
LINE
  5
C5
330
AE
100
AcDbEntity
  8
AM_9
100
AcDbLine
 10
1.250000000000002
 20
21.74702349792272
 30
0.0
 11
1.250000000000002
 21
22.55992362129873
 31
0.0
  0
LINE
  5
C6
330
AE
100
AcDbEntity
  8
AM_9
100
AcDbLine
 10
-1.249999999999998
 20
21.74702349792272
 30
0.0
 11
-1.249999999999998
 21
22.55992362129873
 31
0.0
  0
ARC
  5
C7
330
AE
100
AcDbEntity
  8
AM_9
100
AcDbCircle
 10
0.0000000000000018
 20
-0.0000000000000026
 30
0.0
 40
22.59452707623757
100
AcDbArc
 50
93.1714011257879
 51
86.82859887421209
  0
CIRCLE
  5
C8
330
AE
100
AcDbEntity
  8
AM_9
100
AcDbCircle
 10
0.0000000000000018
 20
0.0
 30
0.0
 40
23.82896825396826
  0
CIRCLE
  5
C9
330
AE
100
AcDbEntity
  8
AM_9
100
AcDbCircle
 10
0.0000000000000018
 20
0.0
 30
0.0
 40
26.20261111111112
  0
LINE
  5
CA
330
AE
100
AcDbEntity
  8
AM_9
100
AcDbLine
 10
-28.7182
 20
-1.981200000000003
 30
0.0
 11
-22.29429999999999
 21
-1.981200000000003
 31
0.0
  0
LINE
  5
CB
330
AE
100
AcDbEntity
  8
AM_9
100
AcDbLine
 10
-22.29429999999999
 20
1.981200000000003
 30
0.0
 11
-28.7182
 21
1.981200000000003
 31
0.0
  0
LINE
  5
CC
330
AE
100
AcDbEntity
  8
AM_9
100
AcDbLine
 10
-22.29429999999999
 20
-1.981200000000003
 30
0.0
 11
-21.86249999999999
 21
-2.413000000000002
 31
0.0
  0
LINE
  5
CD
330
AE
100
AcDbEntity
  8
AM_9
100
AcDbLine
 10
-21.86249999999999
 20
2.413000000000002
 30
0.0
 11
-22.29429999999999
 21
1.981200000000003
 31
0.0
  0
LINE
  5
CE
330
AE
100
AcDbEntity
  8
AM_9
100
AcDbLine
 10
-21.86249999999999
 20
2.413000000000002
 30
0.0
 11
-21.86249999999999
 21
-2.413000000000002
 31
0.0
  0
LINE
  5
CF
330
AE
100
AcDbEntity
  8
AM_9
100
AcDbLine
 10
-22.29429999999999
 20
1.981200000000003
 30
0.0
 11
-22.29429999999999
 21
-1.981200000000003
 31
0.0
  0
LINE
  5
D0
330
AE
100
AcDbEntity
  8
AM_9
100
AcDbLine
 10
-28.7182
 20
1.981200000000003
 30
0.0
 11
-29.04347991784208
 21
2.306479917842087
 31
0.0
  0
LINE
  5
D1
330
AE
100
AcDbEntity
  8
AM_9
100
AcDbLine
 10
-29.05708748063478
 20
-2.32008748063479
 30
0.0
 11
-28.7182
 21
-1.981200000000003
 31
0.0
  0
LINE
  5
D2
330
AE
100
AcDbEntity
  8
AM_9
100
AcDbLine
 10
-28.7182
 20
1.981200000000003
 30
0.0
 11
-28.7182
 21
-1.981200000000003
 31
0.0
  0
LWPOLYLINE
  5
D3
330
AE
100
AcDbEntity
  8
AM_9
100
AcDbPolyline
 90
        5
 70
     0
 43
0.0
 10
-29.12111345597649
 20
1.297401666464548
 10
-29.10332445403995
 20
1.648940788166949
 10
-29.07508426048463
 20
2.088534233791511
 10
-29.0586483330925
 20
2.305961199513286
 10
-29.05749162832486
 20
2.320491385424851
  0
LINE
  5
D4
330
AE
100
AcDbEntity
  8
AM_9
100
AcDbLine
 10
-29.12270858646702
 20
1.261088651808588
 30
0.0
 11
-29.12111345597649
 21
1.297401666464548
 31
0.0
  0
LWPOLYLINE
  5
D5
330
AE
100
AcDbEntity
  8
AM_9
100
AcDbPolyline
 90
        4
 70
     0
 43
0.0
 10
-29.05749161047718
 20
-2.320491608915862
 10
-29.0681765794559
 20
-2.182569665685731
 10
-29.0957426759776
 20
-1.777711487642511
 10
-29.1228264568454
 20
-1.258363685293938
  0
LINE
  5
D7
330
AE
100
AcDbEntity
  8
AM_5
100
AcDbLine
 10
-29.04995578309888
 20
-2.413000000000002
 30
0.0
 11
-21.86249999999999
 21
-2.413000000000002
 31
0.0
  0
LINE
  5
D8
330
AE
100
AcDbEntity
  8
AM_5
100
AcDbLine
 10
-29.04995578309888
 20
2.413000000000002
 30
0.0
 11
-21.86249999999999
 21
2.413000000000002
 31
0.0
  0
LWPOLYLINE
  5
D9
330
AE
100
AcDbEntity
  8
AM_4
100
AcDbPolyline
 90
        6
 70
     0
 43
0.0
 10
-29.1228264568454
 20
-1.258363685293938
 10
-29.12688933401354
 20
-1.160524762393428
 10
-29.146930212415
 20
-0.4230356871589381
 10
-29.14804820852866
 20
0.3373212612477762
 10
-29.13120919191984
 20
1.046494632860368
 10
-29.12270858646702
 20
1.261088651808588
  0
LINE
  5
DA
330
AE
100
AcDbEntity
  8
AM_4
100
AcDbLine
 10
-11.39496531478334
 20
24.83665887568981
 30
0.0
 11
-12.31076053835697
 21
26.42286273224824
 31
0.0
  0
LINE
  5
DB
330
AE
100
AcDbEntity
  8
AM_4
100
AcDbLine
 10
29.03825063601456
 20
2.55
 30
0.0
 11
27.2066601888673
 21
2.55
 31
0.0
  0
ARC
  5
DC
330
AE
100
AcDbEntity
  8
AM_4
100
AcDbCircle
 10
-0.0000000000000036
 20
-0.0000000000000071
 30
0.0
 40
29.15000000000001
100
AcDbArc
 50
5.018566934248583
 51
114.9814330657513
  0
LINE
  5
DD
330
AE
100
AcDbEntity
  8
AM_4
100
AcDbLine
 10
-16.72749009765761
 20
23.87286273224823
 30
0.0
 11
-15.81169487408397
 21
22.28665887568981
 31
0.0
  0
LINE
  5
DE
330
AE
100
AcDbEntity
  8
AM_4
100
AcDbLine
 10
-15.81169487408396
 20
-22.28665887568982
 30
0.0
 11
-16.72749009765759
 21
-23.87286273224825
 31
0.0
  0
ARC
  5
DF
330
AE
100
AcDbEntity
  8
AM_4
100
AcDbCircle
 10
0.0000000000000213
 20
-0.0000000000000071
 30
0.0
 40
29.15000000000002
100
AcDbArc
 50
125.0185669342487
 51
177.5396067756863
  0
LWPOLYLINE
  5
E0
330
AE
100
AcDbEntity
  8
AM_4
100
AcDbPolyline
 90
        6
 70
     0
 43
0.0
 10
-29.12312765260487
 20
1.2513735373905
 10
-29.01003180747597
 20
0.6978970583711956
 10
-28.96047970389442
 20
0.1050568059768659
 10
-28.98072382011045
 20
-0.4536078380895887
 10
-29.06697589853431
 20
-1.015668821680698
 10
-29.12312765260488
 20
-1.251373537390496
  0
ARC
  5
E1
330
AE
100
AcDbEntity
  8
AM_4
100
AcDbCircle
 10
0.0000000000000071
 20
0.0000000000000027
 30
0.0
 40
29.15000000000001
100
AcDbArc
 50
182.4603932243133
 51
234.9814330657514
  0
LINE
  5
E2
330
AE
100
AcDbEntity
  8
AM_4
100
AcDbLine
 10
-12.31076053835696
 20
-26.42286273224824
 30
0.0
 11
-11.39496531478332
 21
-24.83665887568982
 31
0.0
  0
LINE
  5
E3
330
AE
100
AcDbEntity
  8
AM_4
100
AcDbLine
 10
27.2066601888673
 20
-2.55
 30
0.0
 11
29.03825063601456
 21
-2.55
 31
0.0
  0
ARC
  5
E4
330
AE
100
AcDbEntity
  8
AM_4
100
AcDbCircle
 10
0.0000000000000051
 20
-0.0000000000000107
 30
0.0
 40
29.15
100
AcDbArc
 50
245.0185669342487
 51
354.9814330657513
  0
LINE
  5
E5
330
AE
100
AcDbEntity
  8
AM_4
100
AcDbLine
 10
1.250000000000002
 20
17.45530005471118
 30
0.0
 11
1.250000000000002
 21
21.7468253968254
 31
0.0
  0
LINE
  5
E6
330
AE
100
AcDbEntity
  8
AM_4
100
AcDbLine
 10
-1.249999999999998
 20
17.45530005471118
 30
0.0
 11
-1.249999999999999
 21
21.7468253968254
 31
0.0
  0
LINE
  5
E7
330
AE
100
AcDbEntity
  8
AM_4
100
AcDbLine
 10
-1.249999999999999
 20
21.7468253968254
 30
0.0
 11
1.250000000000002
 21
21.7468253968254
 31
0.0
  0
LINE
  5
E8
330
AE
100
AcDbEntity
  8
AM_4
100
AcDbLine
 10
27.2066601888673
 20
2.55
 30
0.0
 11
27.2066601888673
 21
-2.55
 31
0.0
  0
ARC
  5
E9
330
AE
100
AcDbEntity
  8
AM_4
100
AcDbCircle
 10
-0.0000000000000036
 20
-0.0000000000000089
 30
0.0
 40
28.39
100
AcDbArc
 50
5.15327257979972
 51
114.8467274202003
  0
LINE
  5
EA
330
AE
100
AcDbEntity
  8
AM_4
100
AcDbLine
 10
-15.81169487408397
 20
22.28665887568981
 30
0.0
 11
-11.39496531478334
 21
24.83665887568981
 31
0.0
  0
ARC
  5
EB
330
AE
100
AcDbEntity
  8
AM_4
100
AcDbCircle
 10
0.0000000000000107
 20
0.0000000000000018
 30
0.0
 40
28.39
100
AcDbArc
 50
125.1532725797998
 51
234.8467274202002
  0
LINE
  5
EC
330
AE
100
AcDbEntity
  8
AM_4
100
AcDbLine
 10
-11.39496531478332
 20
-24.83665887568982
 30
0.0
 11
-15.81169487408396
 21
-22.28665887568982
 31
0.0
  0
ARC
  5
ED
330
AE
100
AcDbEntity
  8
AM_4
100
AcDbCircle
 10
0.0000000000000013
 20
0.0
 30
0.0
 40
28.39
100
AcDbArc
 50
245.1532725797997
 51
354.8467274202002
  0
ARC
  5
EE
330
AE
100
AcDbEntity
  8
AM_4
100
AcDbCircle
 10
0.0000000000000018
 20
0.0000000000000021
 30
0.0
 40
17.5
100
AcDbArc
 50
94.09604375815232
 51
85.90395624184767
  0
ARC
  5
EF
330
AE
100
AcDbEntity
  8
AM_4
100
AcDbCircle
 10
0.0000000000000018
 20
-0.0000000000000006
 30
0.0
 40
21.7468253968254
100
AcDbArc
 50
93.29515776953829
 51
86.70484223046172
  0
ENDBLK
  5
B1
330
AE
100
AcDbEntity
  8
0
100
AcDbBlockEnd
  0
BLOCK
  5
F2
330
F0
100
AcDbEntity
  8
0
100
AcDbBlockBegin
  2
4_129494_0_in_129325_0
 70
     2
 10
0.0
 20
0.0
 30
0.0
  3
4_129494_0_in_129325_0
  1

  0
ATTDEF
  5
F4
330
F0
100
AcDbEntity
  8
AM_6
100
AcDbText
 10
52.61460528808146
 20
77.79999999999998
 30
0.0
 40
0.5
  1
F2B-GT-M-B
100
AcDbAttributeDefinition
  3

  2
NN
 70
     8
280
     0
  0
ATTDEF
  5
F5
330
F0
100
AcDbEntity
  8
AM_6
100
AcDbText
 10
52.61460528808146
 20
77.29999999999998
 30
0.0
 40
0.5
  1
GT Normal Duty 2 Bolt Flange Bearings
100
AcDbAttributeDefinition
  3

  2
NT
 70
     8
280
     0
  0
ATTDEF
  5
F6
330
F0
100
AcDbEntity
  8
AM_6
100
AcDbText
 10
52.61460528808146
 20
76.79999999999998
 30
0.0
 40
0.5
  1
129494
100
AcDbAttributeDefinition
  3

  2
NB
 70
     8
280
     0
  0
ATTDEF
  5
F7
330
F0
100
AcDbEntity
  8
AM_6
100
AcDbText
 10
52.61460528808146
 20
76.29999999999998
 30
0.0
 40
0.5
  1
$PN.$LUBE.
100
AcDbAttributeDefinition
  3

  2
NBSYN
 70
     8
280
     0
  0
ATTDEF
  5
F8
330
F0
100
AcDbEntity
  8
AM_6
100
AcDbText
 10
52.61460528808146
 20
75.79999999999998
 30
0.0
 40
0.5
  1
129494
100
AcDbAttributeDefinition
  3

  2
LINA
 70
     8
280
     0
  0
ATTDEF
  5
F9
330
F0
100
AcDbEntity
  8
AM_6
100
AcDbText
 10
52.61460528808146
 20
75.29999999999998
 30
0.0
 40
0.5
  1
207
100
AcDbAttributeDefinition
  3

  2
SERIES
 70
     8
280
     0
  0
ATTDEF
  5
FA
330
F0
100
AcDbEntity
  8
AM_6
100
AcDbText
 10
52.61460528808146
 20
74.79999999999998
 30
0.0
 40
0.5
  1
72
100
AcDbAttributeDefinition
  3

  2
BOD
 70
     8
280
     0
  0
ATTDEF
  5
FB
330
F0
100
AcDbEntity
  8
AM_6
100
AcDbText
 10
52.61460528808146
 20
74.29999999999998
 30
0.0
 40
0.5
  1
35
100
AcDbAttributeDefinition
  3

  2
SS
 70
     8
280
     0
  0
ATTDEF
  5
FC
330
F0
100
AcDbEntity
  8
AM_6
100
AcDbText
 10
52.61460528808146
 20
73.79999999999998
 30
0.0
 40
0.5
  1
129494
100
AcDbAttributeDefinition
  3

  2
PN
 70
     8
280
     0
  0
ATTDEF
  5
FD
330
F0
100
AcDbEntity
  8
AM_6
100
AcDbText
 10
52.61460528808146
 20
73.29999999999998
 30
0.0
 40
0.5
  1
F2B-GT-07
100
AcDbAttributeDefinition
  3

  2
DESCRIPTION
 70
     8
280
     0
  0
ATTDEF
  5
FE
330
F0
100
AcDbEntity
  8
AM_6
100
AcDbText
 10
52.61460528808146
 20
72.79999999999998
 30
0.0
 40
0.5
  1
With Lube
100
AcDbAttributeDefinition
  3

  2
LUBE
 70
     8
280
     0
  0
ATTDEF
  5
FF
330
F0
100
AcDbEntity
  8
AM_6
100
AcDbText
 10
52.61460528808146
 20
72.29999999999998
 30
0.0
 40
0.5
  1
1.9
100
AcDbAttributeDefinition
  3

  2
WEIGHT
 70
     8
280
     0
  0
ATTDEF
  5
100
330
F0
100
AcDbEntity
  8
AM_6
100
AcDbText
 10
52.61460528808146
 20
71.79999999999998
 30
0.0
 40
0.5
  1
41.3
100
AcDbAttributeDefinition
  3

  2
A
 70
     8
280
     0
  0
ATTDEF
  5
101
330
F0
100
AcDbEntity
  8
AM_6
100
AcDbText
 10
52.61460528808146
 20
71.29999999999998
 30
0.0
 40
0.5
  1
155.6
100
AcDbAttributeDefinition
  3

  2
B
 70
     8
280
     0
  0
ATTDEF
  5
102
330
F0
100
AcDbEntity
  8
AM_6
100
AcDbText
 10
52.61460528808146
 20
70.79999999999998
 30
0.0
 40
0.5
  1
45.2
100
AcDbAttributeDefinition
  3

  2
C
 70
     8
280
     0
  0
ATTDEF
  5
103
330
F0
100
AcDbEntity
  8
AM_6
100
AcDbText
 10
52.61460528808146
 20
70.29999999999998
 30
0.0
 40
0.5
  1
130.2
100
AcDbAttributeDefinition
  3

  2
D
 70
     8
280
     0
  0
ATTDEF
  5
104
330
F0
100
AcDbEntity
  8
AM_6
100
AcDbText
 10
52.61460528808146
 20
69.79999999999998
 30
0.0
 40
0.5
  1
M12
100
AcDbAttributeDefinition
  3

  2
F
 70
     8
280
     0
  0
ATTDEF
  5
105
330
F0
100
AcDbEntity
  8
AM_6
100
AcDbText
 10
52.61460528808146
 20
69.29999999999998
 30
0.0
 40
0.5
  1
14.3
100
AcDbAttributeDefinition
  3

  2
H
 70
     8
280
     0
  0
ATTDEF
  5
106
330
F0
100
AcDbEntity
  8
AM_6
100
AcDbText
 10
52.61460528808146
 20
68.79999999999998
 30
0.0
 40
0.5
  1
13.9
100
AcDbAttributeDefinition
  3

  2
J
 70
     8
280
     0
  0
ATTDEF
  5
107
330
F0
100
AcDbEntity
  8
AM_6
100
AcDbText
 10
52.61460528808146
 20
68.29999999999998
 30
0.0
 40
0.5
  1
58.3
100
AcDbAttributeDefinition
  3

  2
L
 70
     8
280
     0
  0
ATTDEF
  5
108
330
F0
100
AcDbEntity
  8
AM_6
100
AcDbText
 10
52.61460528808146
 20
67.79999999999998
 30
0.0
 40
0.5
  1
95.3
100
AcDbAttributeDefinition
  3

  2
M
 70
     8
280
     0
  0
ATTDEF
  5
109
330
F0
100
AcDbEntity
  8
AM_6
100
AcDbText
 10
52.61460528808146
 20
67.29999999999998
 30
0.0
 40
0.5
  1
46.8
100
AcDbAttributeDefinition
  3

  2
N
 70
     8
280
     0
  0
ATTDEF
  5
10A
330
F0
100
AcDbEntity
  8
AM_6
100
AcDbText
 10
52.61460528808146
 20
66.79999999999998
 30
0.0
 40
0.5
  1
44.8
100
AcDbAttributeDefinition
  3

  2
Z
 70
     8
280
     0
  0
ATTDEF
  5
10B
330
F0
100
AcDbEntity
  8
AM_6
100
AcDbText
 10
52.61460528808146
 20
66.29999999999998
 30
0.0
 40
0.5
  1
12.8
100
AcDbAttributeDefinition
  3

  2
F1
 70
     8
280
     0
  0
ATTDEF
  5
10C
330
F0
100
AcDbEntity
  8
AM_6
100
AcDbText
 10
52.61460528808146
 20
65.79999999999998
 30
0.0
 40
0.5
  1
baldor
100
AcDbAttributeDefinition
  3

  2
COMPANY
 70
     8
280
     0
  0
ARC
  5
10D
330
F0
100
AcDbEntity
  8
AM_9
100
AcDbCircle
 10
0.0000000000000275
 20
0.0000000000000924
 30
0.0
 40
41.14285714285724
100
AcDbArc
 50
257.3109627237558
 51
282.6890368066925
  0
ARC
  5
10E
330
F0
100
AcDbEntity
  8
AM_9
100
AcDbCircle
 10
-11.42072738580893
 20
-50.72301430176034
 30
0.0
 40
10.85
100
AcDbArc
 50
77.3109627237558
 51
206.1106720999646
  0
ARC
  5
10F
330
F0
100
AcDbEntity
  8
AM_9
100
AcDbCircle
 10
-0.0000000000000249
 20
-0.0000000000000639
 30
0.0
 40
41.14285714285721
100
AcDbArc
 50
77.31096272375586
 51
102.6890368066925
  0
ARC
  5
110
330
F0
100
AcDbEntity
  8
AM_9
100
AcDbCircle
 10
11.42072738580891
 20
50.72301430176037
 30
0.0
 40
10.85000000000001
100
AcDbArc
 50
257.3109627237559
 51
26.11067209996489
  0
ARC
  5
111
330
F0
100
AcDbEntity
  8
AM_9
100
AcDbCircle
 10
11.42072738580891
 20
-50.72301430176036
 30
0.0
 40
10.85
100
AcDbArc
 50
333.8893279000353
 51
102.6890390567687
  0
ARC
  5
112
330
F0
100
AcDbEntity
  8
AM_9
100
AcDbCircle
 10
-11.42072738580891
 20
50.72301430176036
 30
0.0
 40
10.85
100
AcDbArc
 50
153.8893279000354
 51
282.6890390567688
  0
LINE
  5
115
330
F0
100
AcDbEntity
  8
AM_7
100
AcDbLine
 10
-6.720000000000001
 20
-65.1
 30
0.0
 11
6.720000000000001
 21
-65.1
 31
0.0
  0
LINE
  5
116
330
F0
100
AcDbEntity
  8
AM_7
100
AcDbLine
 10
0.0
 20
-71.82
 30
0.0
 11
0.0
 21
-58.38
 31
0.0
  0
LINE
  5
117
330
F0
100
AcDbEntity
  8
AM_7
100
AcDbLine
 10
-6.720000000000001
 20
65.1
 30
0.0
 11
6.720000000000001
 21
65.1
 31
0.0
  0
LINE
  5
118
330
F0
100
AcDbEntity
  8
AM_7
100
AcDbLine
 10
0.0
 20
58.38
 30
0.0
 11
0.0
 21
71.82
 31
0.0
  0
LINE
  5
119
330
F0
100
AcDbEntity
  8
AM_7
100
AcDbLine
 10
-37.80000000000001
 20
0.0
 30
0.0
 11
37.80000000000001
 21
0.0
 31
0.0
  0
LINE
  5
11A
330
F0
100
AcDbEntity
  8
AM_7
100
AcDbLine
 10
0.0
 20
-37.80000000000001
 30
0.0
 11
0.0
 21
37.80000000000001
 31
0.0
  0
LINE
  5
11B
330
F0
100
AcDbEntity
  8
AM_7
100
AcDbLine
 10
36.82544331120913
 20
39.65387043595532
 30
0.0
 11
46.5342003572708
 21
49.36262748201699
 31
0.0
  0
LINE
  5
11C
330
F0
100
AcDbEntity
  8
AM_4
100
AcDbLine
 10
40.20074681689659
 20
-25.58168202764975
 30
0.0
 11
10.71457470250969
 21
-71.91820276497695
 31
0.0
  0
LINE
  5
11D
330
F0
100
AcDbEntity
  8
AM_4
100
AcDbLine
 10
38.09540306499691
 20
28.89015842264113
 30
0.0
 11
40.20074681689657
 21
25.58168202764979
 31
0.0
  0
LINE
  5
11E
330
F0
100
AcDbEntity
  8
AM_4
100
AcDbLine
 10
10.7145747025097
 20
71.91820276497694
 30
0.0
 11
28.73601727829743
 21
43.59811617014557
 31
0.0
  0
LINE
  5
11F
330
F0
100
AcDbEntity
  8
AM_4
100
AcDbLine
 10
-10.71457470250969
 20
-71.91820276497695
 30
0.0
 11
-40.20074681689659
 21
-25.58168202764975
 31
0.0
  0
LINE
  5
120
330
F0
100
AcDbEntity
  8
AM_4
100
AcDbLine
 10
-40.2007468168966
 20
25.58168202764977
 30
0.0
 11
-10.71457470250969
 21
71.91820276497695
 31
0.0
  0
CIRCLE
  5
121
330
F0
100
AcDbEntity
  8
AM_4
100
AcDbCircle
 10
0.0
 20
-65.1
 30
0.0
 40
6.4
  0
ARC
  5
122
330
F0
100
AcDbEntity
  8
AM_4
100
AcDbCircle
 10
-0.0000000000000044
 20
-65.09999999999997
 30
0.0
 40
12.70000000000002
100
AcDbArc
 50
212.4705720586639
 51
327.5294279413361
  0
CIRCLE
  5
123
330
F0
100
AcDbEntity
  8
AM_4
100
AcDbCircle
 10
0.0
 20
65.1
 30
0.0
 40
6.4
  0
ARC
  5
124
330
F0
100
AcDbEntity
  8
AM_4
100
AcDbCircle
 10
-0.0000000000000071
 20
65.09999999999997
 30
0.0
 40
12.70000000000002
100
AcDbArc
 50
32.47057205866376
 51
147.5294279413362
  0
ARC
  5
125
330
F0
100
AcDbEntity
  8
AM_4
100
AcDbCircle
 10
0.0000000000017941
 20
-0.0000000000000782
 30
0.0
 40
48.6918756589921
100
AcDbArc
 50
71.7587642684904
 51
108.2412357315143
  0
ARC
  5
126
330
F0
100
AcDbEntity
  8
AM_4
100
AcDbCircle
 10
-0.0000000000017923
 20
0.0000000000000782
 30
0.0
 40
48.6918756589921
100
AcDbArc
 50
251.7587642684904
 51
288.2412357315143
  0
LINE
  5
127
330
F0
100
AcDbEntity
  8
AM_4
100
AcDbLine
 10
46.8
 20
46.8
 30
0.0
 11
43.97157287525381
 21
49.6284271247462
 31
0.0
  0
LINE
  5
128
330
F0
100
AcDbEntity
  8
AM_4
100
AcDbLine
 10
43.97157287525381
 20
49.6284271247462
 30
0.0
 11
42.32852829721279
 21
48.92426516272861
 31
0.0
  0
LINE
  5
129
330
F0
100
AcDbEntity
  8
AM_4
100
AcDbLine
 10
46.09583803798242
 20
45.15695542195899
 30
0.0
 11
46.8
 21
46.8
 31
0.0
  0
LINE
  5
12A
330
F0
100
AcDbEntity
  8
AM_4
100
AcDbLine
 10
46.09583803798242
 20
45.15695542195899
 30
0.0
 11
42.3285282972128
 21
48.92426516272861
 31
0.0
  0
ARC
  5
12B
330
F0
100
AcDbEntity
  8
AM_4
100
AcDbCircle
 10
42.52548794650235
 20
48.46469264771958
 30
0.0
 40
0.4999999999999879
100
AcDbArc
 50
113.198590513645
 51
180.8429160447781
  0
ARC
  5
12C
330
F0
100
AcDbEntity
  8
AM_4
100
AcDbCircle
 10
45.63626552297338
 20
45.35391507124856
 30
0.0
 40
0.4999999999999979
100
AcDbArc
 50
269.1570839552215
 51
336.8014094863547
  0
LINE
  5
12D
330
F0
100
AcDbEntity
  8
AM_4
100
AcDbLine
 10
45.62890995816155
 20
44.85396917850986
 30
0.0
 11
42.02554205376367
 21
48.45733708290774
 31
0.0
  0
ARC
  5
12E
330
F0
100
AcDbEntity
  8
AM_4
100
AcDbCircle
 10
40.21948751758269
 20
48.43076501411147
 30
0.0
 40
1.806249999999997
100
AcDbArc
 50
258.8550261282944
 51
0.8429189289445986
  0
ARC
  5
12F
330
F0
100
AcDbEntity
  8
AM_4
100
AcDbCircle
 10
45.60233788936527
 20
43.04791464232889
 30
0.0
 40
1.806249999999989
100
AcDbArc
 50
89.15708107105573
 51
191.1449738717061
  0
LINE
  5
130
330
F0
100
AcDbEntity
  8
AM_4
100
AcDbLine
 10
37.39547981021892
 20
44.18370490960977
 30
0.0
 11
37.04192641962565
 21
43.8301515190165
 31
0.0
  0
LINE
  5
131
330
F0
100
AcDbEntity
  8
AM_4
100
AcDbLine
 10
41.0017243942703
 20
39.87035354437184
 30
0.0
 11
41.35527778486358
 21
40.22390693496511
 31
0.0
  0
LINE
  5
132
330
F0
100
AcDbEntity
  8
AM_4
100
AcDbLine
 10
43.8301515190165
 20
42.69878066911802
 30
0.0
 11
39.87035354437183
 21
46.65857864376269
 31
0.0
  0
LINE
  5
133
330
F0
100
AcDbEntity
  8
AM_4
100
AcDbLine
 10
39.87035354437183
 20
46.65857864376269
 30
0.0
 11
39.51680015377856
 21
46.30502525316942
 31
0.0
  0
LINE
  5
134
330
F0
100
AcDbEntity
  8
AM_4
100
AcDbLine
 10
43.47659812842323
 20
42.34522727852475
 30
0.0
 11
43.8301515190165
 21
42.69878066911802
 31
0.0
  0
LINE
  5
135
330
F0
100
AcDbEntity
  8
AM_4
100
AcDbLine
 10
42.20380592228743
 20
39.37537879754126
 30
0.0
 11
36.54695167279505
 21
45.03223304703364
 31
0.0
  0
LINE
  5
136
330
F0
100
AcDbEntity
  8
AM_4
100
AcDbLine
 10
36.54695167279505
 20
45.03223304703364
 30
0.0
 11
38.66827201635473
 21
47.15355339059331
 31
0.0
  0
LINE
  5
137
330
F0
100
AcDbEntity
  8
AM_4
100
AcDbLine
 10
44.32512626584709
 20
41.4966991411009
 30
0.0
 11
38.66827201635473
 21
47.15355339059331
 31
0.0
  0
LINE
  5
138
330
F0
100
AcDbEntity
  8
AM_4
100
AcDbLine
 10
44.32512626584709
 20
41.4966991411009
 30
0.0
 11
42.20380592228743
 21
39.37537879754126
 31
0.0
  0
LWPOLYLINE
  5
139
330
F0
100
AcDbEntity
  8
AM_4
100
AcDbPolyline
 90
        3
 70
     0
 43
0.0
 10
44.20788263184368
 20
41.37945550709749
 10
43.58997913407496
 20
42.16940688671639
 10
42.91091270347395
 20
42.91091270347404
  0
LWPOLYLINE
  5
13A
330
F0
100
AcDbEntity
  8
AM_4
100
AcDbPolyline
 90
        3
 70
     0
 43
0.0
 10
42.91091270347395
 20
42.91091270347404
 10
42.17285962225432
 20
43.58707318462746
 10
41.37945550709748
 20
44.20788263184368
  0
LWPOLYLINE
  5
13B
330
F0
100
AcDbEntity
  8
AM_4
100
AcDbPolyline
 90
        3
 70
     0
 43
0.0
 10
40.78959235991434
 20
40.78959235991434
 10
41.52764544113397
 20
40.11343187876089
 10
42.32104955629083
 20
39.49262243154467
  0
LWPOLYLINE
  5
13C
330
F0
100
AcDbEntity
  8
AM_4
100
AcDbPolyline
 90
        3
 70
     0
 43
0.0
 10
41.37945550709748
 20
44.20788263184368
 10
40.76155200932877
 20
44.99783401146257
 10
40.08248557872776
 20
45.73933982822022
  0
LWPOLYLINE
  5
13D
330
F0
100
AcDbEntity
  8
AM_4
100
AcDbPolyline
 90
        3
 70
     0
 43
0.0
 10
40.08248557872776
 20
45.73933982822022
 10
39.34443249750813
 20
46.41550030937366
 10
38.55102838235129
 20
47.03630975658987
  0
LWPOLYLINE
  5
13E
330
F0
100
AcDbEntity
  8
AM_4
100
AcDbPolyline
 90
        3
 70
     0
 43
0.0
 10
36.66419530679846
 20
45.14947668103704
 10
37.28209880456716
 20
44.35952530141817
 10
37.96116523516815
 20
43.61801948466054
  0
LINE
  5
13F
330
F0
100
AcDbEntity
  8
AM_4
100
AcDbLine
 10
39.49262243154464
 20
42.32104955629086
 30
0.0
 11
41.37945550709748
 21
44.20788263184368
 31
0.0
  0
LWPOLYLINE
  5
140
330
F0
100
AcDbEntity
  8
AM_4
100
AcDbPolyline
 90
        3
 70
     0
 43
0.0
 10
39.49262243154464
 20
42.32104955629086
 10
40.11052592931334
 20
41.53109817667197
 10
40.78959235991434
 20
40.78959235991434
  0
LWPOLYLINE
  5
141
330
F0
100
AcDbEntity
  8
AM_4
100
AcDbPolyline
 90
        3
 70
     0
 43
0.0
 10
37.96116523516815
 20
43.61801948466054
 10
38.69921831638779
 20
42.94185900350709
 10
39.49262243154464
 20
42.32104955629086
  0
ARC
  5
142
330
F0
100
AcDbEntity
  8
AM_4
100
AcDbCircle
 10
-0.0000000000046825
 20
-0.0000000000093294
 30
0.0
 40
47.65000000001035
100
AcDbArc
 50
57.74119545269468
 51
71.08371543762132
  0
LINE
  5
143
330
F0
100
AcDbEntity
  8
AM_4
100
AcDbLine
 10
10.7145747025097
 20
71.91820276497694
 30
0.0
 11
15.44747723141882
 21
45.07657869875217
 31
0.0
  0
ARC
  5
144
330
F0
100
AcDbEntity
  8
AM_4
100
AcDbCircle
 10
-0.0000000000000053
 20
0.0000000000000071
 30
0.0
 40
47.70706790597981
100
AcDbArc
 50
71.12156899801748
 51
108.8784310019825
  0
LINE
  5
145
330
F0
100
AcDbEntity
  8
AM_4
100
AcDbLine
 10
-15.44747723141877
 20
45.07657869875218
 30
0.0
 11
-10.71457470250969
 21
71.91820276497695
 31
0.0
  0
ARC
  5
146
330
F0
100
AcDbEntity
  8
AM_4
100
AcDbCircle
 10
0.0000000000000959
 20
0.0
 30
0.0
 40
47.65000000000003
100
AcDbArc
 50
108.916284562377
 51
251.0837154376229
  0
LINE
  5
147
330
F0
100
AcDbEntity
  8
AM_4
100
AcDbLine
 10
-10.71457470250969
 20
-71.91820276497695
 30
0.0
 11
-15.44747723141882
 21
-45.07657869875217
 31
0.0
  0
ARC
  5
148
330
F0
100
AcDbEntity
  8
AM_4
100
AcDbCircle
 10
0.0000000000000044
 20
-0.0000000000000497
 30
0.0
 40
47.70706790597976
100
AcDbArc
 50
251.1215689980175
 51
288.8784310019825
  0
LINE
  5
149
330
F0
100
AcDbEntity
  8
AM_4
100
AcDbLine
 10
15.44747723141877
 20
-45.07657869875219
 30
0.0
 11
10.71457470250967
 21
-71.91820276497698
 31
0.0
  0
ARC
  5
14A
330
F0
100
AcDbEntity
  8
AM_4
100
AcDbCircle
 10
-0.000000000000167
 20
0.0000000000000391
 30
0.0
 40
47.6500000000001
100
AcDbArc
 50
288.9162845623771
 51
37.14872719261318
  0
LINE
  5
14B
330
F0
100
AcDbEntity
  8
AM_4
100
AcDbLine
 10
37.742685
 20
-2.50732
 30
0.0
 11
37.890685
 21
-2.66281
 31
0.0
  0
LINE
  5
14C
330
F0
100
AcDbEntity
  8
AM_4
100
AcDbLine
 10
37.66868
 20
-2.351825
 30
0.0
 11
37.742685
 21
-2.50732
 31
0.0
  0
LINE
  5
14D
330
F0
100
AcDbEntity
  8
AM_4
100
AcDbLine
 10
38.371697
 20
-2.468445
 30
0.0
 11
38.07569050000001
 21
-2.468445
 31
0.0
  0
LINE
  5
14E
330
F0
100
AcDbEntity
  8
AM_4
100
AcDbLine
 10
37.63168
 20
-2.15746
 30
0.0
 11
37.66868
 21
-2.351825
 31
0.0
  0
LINE
  5
14F
330
F0
100
AcDbEntity
  8
AM_4
100
AcDbLine
 10
37.96469
 20
-2.42957
 30
0.0
 11
37.890685
 21
-2.31295
 31
0.0
  0
LINE
  5
150
330
F0
100
AcDbEntity
  8
AM_4
100
AcDbLine
 10
37.890685
 20
-2.31295
 30
0.0
 11
37.85368500000001
 21
-2.15746
 31
0.0
  0
LINE
  5
151
330
F0
100
AcDbEntity
  8
AM_4
100
AcDbLine
 10
37.890685
 20
-2.66281
 30
0.0
 11
38.03869
 21
-2.701685
 31
0.0
  0
LINE
  5
152
330
F0
100
AcDbEntity
  8
AM_4
100
AcDbLine
 10
39.33372000000001
 20
3.28478
 30
0.0
 11
39.37072000000001
 21
3.479145000000003
 31
0.0
  0
LINE
  5
153
330
F0
100
AcDbEntity
  8
AM_4
100
AcDbLine
 10
38.03869
 20
-2.701685
 30
0.0
 11
38.59370200000001
 21
-2.701685
 31
0.0
  0
LINE
  5
154
330
F0
100
AcDbEntity
  8
AM_4
100
AcDbLine
 10
39.148715
 20
-2.15746
 30
0.0
 11
39.111715
 21
-2.31295
 31
0.0
  0
LINE
  5
155
330
F0
100
AcDbEntity
  8
AM_4
100
AcDbLine
 10
39.111715
 20
-2.31295
 30
0.0
 11
39.03771
 21
-2.42957
 31
0.0
  0
LINE
  5
156
330
F0
100
AcDbEntity
  8
AM_4
100
AcDbLine
 10
38.371697
 20
-2.118585
 30
0.0
 11
38.371697
 21
-2.468445
 31
0.0
  0
LINE
  5
157
330
F0
100
AcDbEntity
  8
AM_4
100
AcDbLine
 10
39.37072000000001
 20
3.479145000000003
 30
0.0
 11
39.37072000000001
 21
4.4121
 31
0.0
  0
LINE
  5
158
330
F0
100
AcDbEntity
  8
AM_4
100
AcDbLine
 10
38.59370200000001
 20
-2.701685
 30
0.0
 11
38.59370200000001
 21
-2.118585
 31
0.0
  0
LINE
  5
159
330
F0
100
AcDbEntity
  8
AM_4
100
AcDbLine
 10
37.63168
 20
1.613235
 30
0.0
 11
37.66868
 21
1.41887
 31
0.0
  0
LINE
  5
15A
330
F0
100
AcDbEntity
  8
AM_4
100
AcDbLine
 10
37.66868
 20
1.41887
 30
0.0
 11
37.742685
 21
1.263375
 31
0.0
  0
LINE
  5
15B
330
F0
100
AcDbEntity
  8
AM_4
100
AcDbLine
 10
37.742685
 20
1.263375
 30
0.0
 11
37.890685
 21
1.107885
 31
0.0
  0
LINE
  5
15C
330
F0
100
AcDbEntity
  8
AM_4
100
AcDbLine
 10
37.890685
 20
1.107885
 30
0.0
 11
38.03869
 21
1.03014
 31
0.0
  0
LINE
  5
15D
330
F0
100
AcDbEntity
  8
AM_4
100
AcDbLine
 10
38.03869
 20
1.03014
 30
0.0
 11
38.223694
 21
0.9912650000000001
 31
0.0
  0
LINE
  5
15E
330
F0
100
AcDbEntity
  8
AM_4
100
AcDbLine
 10
38.223694
 20
0.9912650000000001
 30
0.0
 11
38.77870600000001
 21
0.9912650000000001
 31
0.0
  0
LINE
  5
15F
330
F0
100
AcDbEntity
  8
AM_4
100
AcDbLine
 10
38.59370200000001
 20
-2.118585
 30
0.0
 11
38.371697
 21
-2.118585
 31
0.0
  0
LINE
  5
160
330
F0
100
AcDbEntity
  8
AM_4
100
AcDbLine
 10
39.111715
 20
1.107885
 30
0.0
 11
39.25971500000001
 21
1.263375
 31
0.0
  0
LINE
  5
161
330
F0
100
AcDbEntity
  8
AM_4
100
AcDbLine
 10
39.25971500000001
 20
1.263375
 30
0.0
 11
39.33372000000001
 21
1.41887
 31
0.0
  0
LINE
  5
162
330
F0
100
AcDbEntity
  8
AM_4
100
AcDbLine
 10
39.33372000000001
 20
1.41887
 30
0.0
 11
39.37072000000001
 21
1.613235
 31
0.0
  0
LINE
  5
163
330
F0
100
AcDbEntity
  8
AM_4
100
AcDbLine
 10
39.37072000000001
 20
1.613235
 30
0.0
 11
39.37072000000001
 21
1.92422
 31
0.0
  0
LINE
  5
164
330
F0
100
AcDbEntity
  8
AM_4
100
AcDbLine
 10
39.37072000000001
 20
1.92422
 30
0.0
 11
39.33372000000001
 21
2.118585
 31
0.0
  0
LINE
  5
165
330
F0
100
AcDbEntity
  8
AM_4
100
AcDbLine
 10
37.85368500000001
 20
-2.15746
 30
0.0
 11
37.85368500000001
 21
-1.8076
 31
0.0
  0
LINE
  5
166
330
F0
100
AcDbEntity
  8
AM_4
100
AcDbLine
 10
37.85368500000001
 20
-1.8076
 30
0.0
 11
37.890685
 21
-1.65211
 31
0.0
  0
LINE
  5
167
330
F0
100
AcDbEntity
  8
AM_4
100
AcDbLine
 10
38.77870600000001
 20
0.9912650000000001
 30
0.0
 11
38.96371000000001
 21
1.03014
 31
0.0
  0
LINE
  5
168
330
F0
100
AcDbEntity
  8
AM_4
100
AcDbLine
 10
37.96469
 20
-1.53549
 30
0.0
 11
38.07569050000001
 21
-1.457745
 31
0.0
  0
LINE
  5
169
330
F0
100
AcDbEntity
  8
AM_4
100
AcDbLine
 10
39.25971500000001
 20
3.12929
 30
0.0
 11
39.33372000000001
 21
3.28478
 31
0.0
  0
LINE
  5
16A
330
F0
100
AcDbEntity
  8
AM_4
100
AcDbLine
 10
38.223694
 20
-1.41887
 30
0.0
 11
38.77870600000001
 21
-1.41887
 31
0.0
  0
LINE
  5
16B
330
F0
100
AcDbEntity
  8
AM_4
100
AcDbLine
 10
38.77870600000001
 20
-1.41887
 30
0.0
 11
38.9267095
 21
-1.457745
 31
0.0
  0
LINE
  5
16C
330
F0
100
AcDbEntity
  8
AM_4
100
AcDbLine
 10
38.9267095
 20
-1.457745
 30
0.0
 11
39.03771
 21
-1.53549
 31
0.0
  0
LINE
  5
16D
330
F0
100
AcDbEntity
  8
AM_4
100
AcDbLine
 10
39.03771
 20
-1.53549
 30
0.0
 11
39.111715
 21
-1.65211
 31
0.0
  0
CIRCLE
  5
16E
330
F0
100
AcDbEntity
  8
AM_4
100
AcDbCircle
 10
0.0
 20
0.0
 30
0.0
 40
36.00000000000001
  0
LINE
  5
16F
330
F0
100
AcDbEntity
  8
AM_4
100
AcDbLine
 10
37.63168
 20
-3.01267
 30
0.0
 11
37.63168
 21
-4.4121
 31
0.0
  0
LINE
  5
170
330
F0
100
AcDbEntity
  8
AM_4
100
AcDbLine
 10
39.37072000000001
 20
-3.01267
 30
0.0
 11
37.63168
 21
-3.01267
 31
0.0
  0
LINE
  5
171
330
F0
100
AcDbEntity
  8
AM_4
100
AcDbLine
 10
39.37072000000001
 20
-4.412099999999995
 30
0.0
 11
39.37072000000001
 21
-3.01267
 31
0.0
  0
LINE
  5
172
330
F0
100
AcDbEntity
  8
AM_4
100
AcDbLine
 10
39.148715
 20
-4.4121
 30
0.0
 11
39.37072000000001
 21
-4.412099999999995
 31
0.0
  0
LINE
  5
173
330
F0
100
AcDbEntity
  8
AM_4
100
AcDbLine
 10
39.148715
 20
-3.245905
 30
0.0
 11
39.148715
 21
-4.4121
 31
0.0
  0
LINE
  5
174
330
F0
100
AcDbEntity
  8
AM_4
100
AcDbLine
 10
38.6677035
 20
-3.245905
 30
0.0
 11
39.148715
 21
-3.245905
 31
0.0
  0
LINE
  5
175
330
F0
100
AcDbEntity
  8
AM_4
100
AcDbLine
 10
38.6677035
 20
-4.25661
 30
0.0
 11
38.6677035
 21
-3.245905
 31
0.0
  0
LINE
  5
176
330
F0
100
AcDbEntity
  8
AM_4
100
AcDbLine
 10
38.445699
 20
-4.25661
 30
0.0
 11
38.6677035
 21
-4.25661
 31
0.0
  0
LINE
  5
177
330
F0
100
AcDbEntity
  8
AM_4
100
AcDbLine
 10
38.445699
 20
-3.245905
 30
0.0
 11
38.445699
 21
-4.25661
 31
0.0
  0
LINE
  5
178
330
F0
100
AcDbEntity
  8
AM_4
100
AcDbLine
 10
37.85368500000001
 20
-3.245905
 30
0.0
 11
38.445699
 21
-3.245905
 31
0.0
  0
LINE
  5
179
330
F0
100
AcDbEntity
  8
AM_4
100
AcDbLine
 10
37.85368500000001
 20
-4.4121
 30
0.0
 11
37.85368500000001
 21
-3.245905
 31
0.0
  0
LINE
  5
17A
330
F0
100
AcDbEntity
  8
AM_4
100
AcDbLine
 10
37.63168
 20
-4.4121
 30
0.0
 11
37.85368500000001
 21
-4.4121
 31
0.0
  0
LINE
  5
17B
330
F0
100
AcDbEntity
  8
AM_4
100
AcDbLine
 10
37.63168
 20
-1.8076
 30
0.0
 11
37.63168
 21
-2.15746
 31
0.0
  0
LINE
  5
17C
330
F0
100
AcDbEntity
  8
AM_4
100
AcDbLine
 10
37.66867999999999
 20
-1.613235000000004
 30
0.0
 11
37.63168
 21
-1.8076
 31
0.0
  0
LINE
  5
17D
330
F0
100
AcDbEntity
  8
AM_4
100
AcDbLine
 10
37.742685
 20
-1.457745
 30
0.0
 11
37.66867999999999
 21
-1.613235000000004
 31
0.0
  0
LINE
  5
17E
330
F0
100
AcDbEntity
  8
AM_4
100
AcDbLine
 10
37.890685
 20
-1.30225
 30
0.0
 11
37.742685
 21
-1.457745
 31
0.0
  0
LINE
  5
17F
330
F0
100
AcDbEntity
  8
AM_4
100
AcDbLine
 10
38.03869
 20
-1.224505
 30
0.0
 11
37.890685
 21
-1.30225
 31
0.0
  0
LINE
  5
180
330
F0
100
AcDbEntity
  8
AM_4
100
AcDbLine
 10
38.223694
 20
-1.18563
 30
0.0
 11
38.03869
 21
-1.224505
 31
0.0
  0
LINE
  5
181
330
F0
100
AcDbEntity
  8
AM_4
100
AcDbLine
 10
38.77870600000001
 20
-1.18563
 30
0.0
 11
38.223694
 21
-1.18563
 31
0.0
  0
LINE
  5
182
330
F0
100
AcDbEntity
  8
AM_4
100
AcDbLine
 10
38.96371000000001
 20
-1.224505
 30
0.0
 11
38.77870600000001
 21
-1.18563
 31
0.0
  0
LINE
  5
183
330
F0
100
AcDbEntity
  8
AM_4
100
AcDbLine
 10
39.111715
 20
-1.30225
 30
0.0
 11
38.96371000000001
 21
-1.224505
 31
0.0
  0
LINE
  5
184
330
F0
100
AcDbEntity
  8
AM_4
100
AcDbLine
 10
39.25971500000001
 20
-1.457745
 30
0.0
 11
39.111715
 21
-1.30225
 31
0.0
  0
LINE
  5
185
330
F0
100
AcDbEntity
  8
AM_4
100
AcDbLine
 10
39.33372000000001
 20
-1.613235
 30
0.0
 11
39.25971500000001
 21
-1.457745
 31
0.0
  0
LINE
  5
186
330
F0
100
AcDbEntity
  8
AM_4
100
AcDbLine
 10
39.37072000000001
 20
-1.8076
 30
0.0
 11
39.33372000000001
 21
-1.613235
 31
0.0
  0
LINE
  5
187
330
F0
100
AcDbEntity
  8
AM_4
100
AcDbLine
 10
39.37072000000001
 20
-2.15746
 30
0.0
 11
39.37072000000001
 21
-1.8076
 31
0.0
  0
LINE
  5
188
330
F0
100
AcDbEntity
  8
AM_4
100
AcDbLine
 10
39.33372000000001
 20
-2.351825
 30
0.0
 11
39.37072000000001
 21
-2.15746
 31
0.0
  0
LINE
  5
189
330
F0
100
AcDbEntity
  8
AM_4
100
AcDbLine
 10
39.25971500000001
 20
-2.50732
 30
0.0
 11
39.33372000000001
 21
-2.351825
 31
0.0
  0
LINE
  5
18A
330
F0
100
AcDbEntity
  8
AM_4
100
AcDbLine
 10
39.111715
 20
-2.66281
 30
0.0
 11
39.25971500000001
 21
-2.50732
 31
0.0
  0
LINE
  5
18B
330
F0
100
AcDbEntity
  8
AM_4
100
AcDbLine
 10
38.9267095
 20
-2.701685
 30
0.0
 11
39.111715
 21
-2.66281
 31
0.0
  0
LINE
  5
18C
330
F0
100
AcDbEntity
  8
AM_4
100
AcDbLine
 10
38.9267095
 20
-2.468445
 30
0.0
 11
38.9267095
 21
-2.701685
 31
0.0
  0
LINE
  5
18D
330
F0
100
AcDbEntity
  8
AM_4
100
AcDbLine
 10
39.03771
 20
-2.42957
 30
0.0
 11
38.9267095
 21
-2.468445
 31
0.0
  0
LINE
  5
18E
330
F0
100
AcDbEntity
  8
AM_4
100
AcDbLine
 10
39.148715
 20
-1.8076
 30
0.0
 11
39.148715
 21
-2.15746
 31
0.0
  0
LINE
  5
18F
330
F0
100
AcDbEntity
  8
AM_4
100
AcDbLine
 10
39.111715
 20
-1.65211
 30
0.0
 11
39.148715
 21
-1.8076
 31
0.0
  0
LINE
  5
190
330
F0
100
AcDbEntity
  8
AM_4
100
AcDbLine
 10
38.07569050000001
 20
-1.457745
 30
0.0
 11
38.223694
 21
-1.41887
 31
0.0
  0
LINE
  5
191
330
F0
100
AcDbEntity
  8
AM_4
100
AcDbLine
 10
37.890685
 20
-1.65211
 30
0.0
 11
37.96469
 21
-1.53549
 31
0.0
  0
LINE
  5
192
330
F0
100
AcDbEntity
  8
AM_4
100
AcDbLine
 10
38.07569050000001
 20
-2.468445
 30
0.0
 11
37.96469
 21
-2.42957
 31
0.0
  0
LINE
  5
193
330
F0
100
AcDbEntity
  8
AM_4
100
AcDbLine
 10
37.82228
 20
-0.2526755000000001
 30
0.0
 11
37.85928000000001
 21
-0.4470410000000001
 31
0.0
  0
LINE
  5
194
330
F0
100
AcDbEntity
  8
AM_4
100
AcDbLine
 10
37.82228
 20
0.68028
 30
0.0
 11
37.82228
 21
-0.2526755000000001
 31
0.0
  0
LINE
  5
195
330
F0
100
AcDbEntity
  8
AM_4
100
AcDbLine
 10
39.56132
 20
0.6802799999999984
 30
0.0
 11
37.82228
 21
0.68028
 31
0.0
  0
LINE
  5
196
330
F0
100
AcDbEntity
  8
AM_4
100
AcDbLine
 10
39.56132
 20
-0.2526754999999999
 30
0.0
 11
39.56132
 21
0.6802799999999984
 31
0.0
  0
LINE
  5
197
330
F0
100
AcDbEntity
  8
AM_4
100
AcDbLine
 10
39.52432
 20
-0.447041
 30
0.0
 11
39.56132
 21
-0.2526754999999999
 31
0.0
  0
LINE
  5
198
330
F0
100
AcDbEntity
  8
AM_4
100
AcDbLine
 10
39.450315
 20
-0.602535
 30
0.0
 11
39.52432
 21
-0.447041
 31
0.0
  0
LINE
  5
199
330
F0
100
AcDbEntity
  8
AM_4
100
AcDbLine
 10
39.30231500000001
 20
-0.758025
 30
0.0
 11
39.450315
 21
-0.602535
 31
0.0
  0
LINE
  5
19A
330
F0
100
AcDbEntity
  8
AM_4
100
AcDbLine
 10
39.15431
 20
-0.835775
 30
0.0
 11
39.30231500000001
 21
-0.758025
 31
0.0
  0
LINE
  5
19B
330
F0
100
AcDbEntity
  8
AM_4
100
AcDbLine
 10
38.969306
 20
-0.8746450000000001
 30
0.0
 11
39.15431
 21
-0.835775
 31
0.0
  0
LINE
  5
19C
330
F0
100
AcDbEntity
  8
AM_4
100
AcDbLine
 10
38.414294
 20
-0.8746450000000001
 30
0.0
 11
38.969306
 21
-0.8746450000000001
 31
0.0
  0
LINE
  5
19D
330
F0
100
AcDbEntity
  8
AM_4
100
AcDbLine
 10
38.22929
 20
-0.835775
 30
0.0
 11
38.414294
 21
-0.8746450000000001
 31
0.0
  0
LINE
  5
19E
330
F0
100
AcDbEntity
  8
AM_4
100
AcDbLine
 10
38.081285
 20
-0.758025
 30
0.0
 11
38.22929
 21
-0.835775
 31
0.0
  0
LINE
  5
19F
330
F0
100
AcDbEntity
  8
AM_4
100
AcDbLine
 10
37.933285
 20
-0.602535
 30
0.0
 11
38.081285
 21
-0.758025
 31
0.0
  0
LINE
  5
1A0
330
F0
100
AcDbEntity
  8
AM_4
100
AcDbLine
 10
37.85928000000001
 20
-0.4470410000000001
 30
0.0
 11
37.933285
 21
-0.602535
 31
0.0
  0
LINE
  5
1A1
330
F0
100
AcDbEntity
  8
AM_4
100
AcDbLine
 10
37.63168
 20
1.92422
 30
0.0
 11
37.63168
 21
1.613235
 31
0.0
  0
LINE
  5
1A2
330
F0
100
AcDbEntity
  8
AM_4
100
AcDbLine
 10
37.66868
 20
2.118585
 30
0.0
 11
37.63168
 21
1.92422
 31
0.0
  0
LINE
  5
1A3
330
F0
100
AcDbEntity
  8
AM_4
100
AcDbLine
 10
37.74268500000001
 20
2.274079999999998
 30
0.0
 11
37.66868
 21
2.118585
 31
0.0
  0
LINE
  5
1A4
330
F0
100
AcDbEntity
  8
AM_4
100
AcDbLine
 10
37.890685
 20
2.42957
 30
0.0
 11
37.74268500000001
 21
2.274079999999998
 31
0.0
  0
LINE
  5
1A5
330
F0
100
AcDbEntity
  8
AM_4
100
AcDbLine
 10
38.03869
 20
2.50732
 30
0.0
 11
37.890685
 21
2.42957
 31
0.0
  0
LINE
  5
1A6
330
F0
100
AcDbEntity
  8
AM_4
100
AcDbLine
 10
38.223694
 20
2.54619
 30
0.0
 11
38.03869
 21
2.50732
 31
0.0
  0
LINE
  5
1A7
330
F0
100
AcDbEntity
  8
AM_4
100
AcDbLine
 10
38.77870600000001
 20
2.54619
 30
0.0
 11
38.223694
 21
2.54619
 31
0.0
  0
LINE
  5
1A8
330
F0
100
AcDbEntity
  8
AM_4
100
AcDbLine
 10
38.96371000000001
 20
2.50732
 30
0.0
 11
38.77870600000001
 21
2.54619
 31
0.0
  0
LINE
  5
1A9
330
F0
100
AcDbEntity
  8
AM_4
100
AcDbLine
 10
39.111715
 20
2.42957
 30
0.0
 11
38.96371000000001
 21
2.50732
 31
0.0
  0
LINE
  5
1AA
330
F0
100
AcDbEntity
  8
AM_4
100
AcDbLine
 10
39.25971500000001
 20
2.27408
 30
0.0
 11
39.111715
 21
2.42957
 31
0.0
  0
LINE
  5
1AB
330
F0
100
AcDbEntity
  8
AM_4
100
AcDbLine
 10
39.33372000000001
 20
2.118585
 30
0.0
 11
39.25971500000001
 21
2.27408
 31
0.0
  0
LINE
  5
1AC
330
F0
100
AcDbEntity
  8
AM_4
100
AcDbLine
 10
38.96371000000001
 20
1.03014
 30
0.0
 11
39.111715
 21
1.107885
 31
0.0
  0
LINE
  5
1AD
330
F0
100
AcDbEntity
  8
AM_4
100
AcDbLine
 10
37.63168
 20
4.4121
 30
0.0
 11
37.63168
 21
3.479145
 31
0.0
  0
LINE
  5
1AE
330
F0
100
AcDbEntity
  8
AM_4
100
AcDbLine
 10
39.37072000000001
 20
4.4121
 30
0.0
 11
37.63168
 21
4.4121
 31
0.0
  0
LINE
  5
1AF
330
F0
100
AcDbEntity
  8
AM_4
100
AcDbLine
 10
39.111715
 20
2.973795
 30
0.0
 11
39.25971500000001
 21
3.12929
 31
0.0
  0
LINE
  5
1B0
330
F0
100
AcDbEntity
  8
AM_4
100
AcDbLine
 10
38.96371000000001
 20
2.89605
 30
0.0
 11
39.111715
 21
2.973795
 31
0.0
  0
LINE
  5
1B1
330
F0
100
AcDbEntity
  8
AM_4
100
AcDbLine
 10
38.77870600000001
 20
2.857175
 30
0.0
 11
38.96371000000001
 21
2.89605
 31
0.0
  0
LINE
  5
1B2
330
F0
100
AcDbEntity
  8
AM_4
100
AcDbLine
 10
38.223694
 20
2.857175
 30
0.0
 11
38.77870600000001
 21
2.857175
 31
0.0
  0
LINE
  5
1B3
330
F0
100
AcDbEntity
  8
AM_4
100
AcDbLine
 10
38.03869
 20
2.89605
 30
0.0
 11
38.223694
 21
2.857175
 31
0.0
  0
LINE
  5
1B4
330
F0
100
AcDbEntity
  8
AM_4
100
AcDbLine
 10
37.890685
 20
2.973795
 30
0.0
 11
38.03869
 21
2.89605
 31
0.0
  0
LINE
  5
1B5
330
F0
100
AcDbEntity
  8
AM_4
100
AcDbLine
 10
37.742685
 20
3.12929
 30
0.0
 11
37.890685
 21
2.973795
 31
0.0
  0
LINE
  5
1B6
330
F0
100
AcDbEntity
  8
AM_4
100
AcDbLine
 10
37.66868
 20
3.28478
 30
0.0
 11
37.742685
 21
3.12929
 31
0.0
  0
LINE
  5
1B7
330
F0
100
AcDbEntity
  8
AM_4
100
AcDbLine
 10
37.63168
 20
3.479145
 30
0.0
 11
37.66868
 21
3.28478
 31
0.0
  0
LINE
  5
1B8
330
F0
100
AcDbEntity
  8
AM_4
100
AcDbLine
 10
35.43494556309268
 20
26.22970092073689
 30
0.0
 11
43.62444772812587
 21
34.41920308577009
 31
0.0
  0
ARC
  5
1B9
330
F0
100
AcDbEntity
  8
AM_4
100
AcDbCircle
 10
42.21023416575278
 20
35.83341664814318
 30
0.0
 40
1.999999999999991
100
AcDbArc
 50
314.9999999999998
 51
45.00000000000029
  0
LINE
  5
1BA
330
F0
100
AcDbEntity
  8
AM_4
100
AcDbLine
 10
43.62444772812587
 20
37.24763021051628
 30
0.0
 11
34.41920308577009
 21
46.45287485287205
 31
0.0
  0
ARC
  5
1BB
330
F0
100
AcDbEntity
  8
AM_4
100
AcDbCircle
 10
33.00498952339701
 20
45.03866129049893
 30
0.0
 40
2.000000000000011
100
AcDbArc
 50
45.00000000000072
 51
134.9999999999994
  0
LINE
  5
1BC
330
F0
100
AcDbEntity
  8
AM_4
100
AcDbLine
 10
31.59077596102392
 20
46.45287485287205
 30
0.0
 11
22.8442836299903
 21
37.70638252183844
 31
0.0
  0
LINE
  5
1BD
330
F0
100
AcDbEntity
  8
AM_4
100
AcDbLine
 10
37.890685
 20
2.079715
 30
0.0
 11
37.85368500000001
 21
1.92422
 31
0.0
  0
LINE
  5
1BE
330
F0
100
AcDbEntity
  8
AM_4
100
AcDbLine
 10
37.85368500000001
 20
1.92422
 30
0.0
 11
37.85368500000001
 21
1.613235000000004
 31
0.0
  0
LINE
  5
1BF
330
F0
100
AcDbEntity
  8
AM_4
100
AcDbLine
 10
37.85368500000001
 20
1.613235000000004
 30
0.0
 11
37.890685
 21
1.457745
 31
0.0
  0
LINE
  5
1C0
330
F0
100
AcDbEntity
  8
AM_4
100
AcDbLine
 10
37.890685
 20
1.457745
 30
0.0
 11
37.96469
 21
1.341125
 31
0.0
  0
LINE
  5
1C1
330
F0
100
AcDbEntity
  8
AM_4
100
AcDbLine
 10
37.96469
 20
1.341125
 30
0.0
 11
38.07569050000001
 21
1.263375
 31
0.0
  0
LINE
  5
1C2
330
F0
100
AcDbEntity
  8
AM_4
100
AcDbLine
 10
38.07569050000001
 20
1.263375
 30
0.0
 11
38.223694
 21
1.224505
 31
0.0
  0
LINE
  5
1C3
330
F0
100
AcDbEntity
  8
AM_4
100
AcDbLine
 10
38.223694
 20
1.224505
 30
0.0
 11
38.77870600000001
 21
1.224505
 31
0.0
  0
LINE
  5
1C4
330
F0
100
AcDbEntity
  8
AM_4
100
AcDbLine
 10
38.77870600000001
 20
1.224505
 30
0.0
 11
38.9267095
 21
1.263375
 31
0.0
  0
LINE
  5
1C5
330
F0
100
AcDbEntity
  8
AM_4
100
AcDbLine
 10
38.9267095
 20
1.263375
 30
0.0
 11
39.03771
 21
1.341125
 31
0.0
  0
LINE
  5
1C6
330
F0
100
AcDbEntity
  8
AM_4
100
AcDbLine
 10
39.03771
 20
1.341125
 30
0.0
 11
39.111715
 21
1.457745
 31
0.0
  0
LINE
  5
1C7
330
F0
100
AcDbEntity
  8
AM_4
100
AcDbLine
 10
39.111715
 20
1.457745
 30
0.0
 11
39.148715
 21
1.613235
 31
0.0
  0
LINE
  5
1C8
330
F0
100
AcDbEntity
  8
AM_4
100
AcDbLine
 10
39.148715
 20
1.613235
 30
0.0
 11
39.148715
 21
1.92422
 31
0.0
  0
LINE
  5
1C9
330
F0
100
AcDbEntity
  8
AM_4
100
AcDbLine
 10
39.148715
 20
1.92422
 30
0.0
 11
39.111715
 21
2.079715
 31
0.0
  0
LINE
  5
1CA
330
F0
100
AcDbEntity
  8
AM_4
100
AcDbLine
 10
39.111715
 20
2.079715
 30
0.0
 11
39.03771
 21
2.19633
 31
0.0
  0
LINE
  5
1CB
330
F0
100
AcDbEntity
  8
AM_4
100
AcDbLine
 10
39.03771
 20
2.19633
 30
0.0
 11
38.9267095
 21
2.27408
 31
0.0
  0
LINE
  5
1CC
330
F0
100
AcDbEntity
  8
AM_4
100
AcDbLine
 10
38.9267095
 20
2.27408
 30
0.0
 11
38.77870600000001
 21
2.31295
 31
0.0
  0
LINE
  5
1CD
330
F0
100
AcDbEntity
  8
AM_4
100
AcDbLine
 10
38.77870600000001
 20
2.31295
 30
0.0
 11
38.223694
 21
2.31295
 31
0.0
  0
LINE
  5
1CE
330
F0
100
AcDbEntity
  8
AM_4
100
AcDbLine
 10
38.223694
 20
2.31295
 30
0.0
 11
38.07569050000001
 21
2.27408
 31
0.0
  0
LINE
  5
1CF
330
F0
100
AcDbEntity
  8
AM_4
100
AcDbLine
 10
38.07569050000001
 20
2.27408
 30
0.0
 11
37.96469
 21
2.19633
 31
0.0
  0
LINE
  5
1D0
330
F0
100
AcDbEntity
  8
AM_4
100
AcDbLine
 10
37.96469
 20
2.19633
 30
0.0
 11
37.890685
 21
2.079715
 31
0.0
  0
LINE
  5
1D1
330
F0
100
AcDbEntity
  8
AM_4
100
AcDbLine
 10
39.339315
 20
0.4470410000000002
 30
0.0
 11
38.044285
 21
0.447041
 31
0.0
  0
LINE
  5
1D2
330
F0
100
AcDbEntity
  8
AM_4
100
AcDbLine
 10
38.044285
 20
0.447041
 30
0.0
 11
38.044285
 21
-0.2526755000000006
 31
0.0
  0
LINE
  5
1D3
330
F0
100
AcDbEntity
  8
AM_4
100
AcDbLine
 10
38.044285
 20
-0.2526755000000006
 30
0.0
 11
38.081285
 21
-0.408168
 31
0.0
  0
LINE
  5
1D4
330
F0
100
AcDbEntity
  8
AM_4
100
AcDbLine
 10
38.081285
 20
-0.408168
 30
0.0
 11
38.15529
 21
-0.524785
 31
0.0
  0
LINE
  5
1D5
330
F0
100
AcDbEntity
  8
AM_4
100
AcDbLine
 10
38.15529
 20
-0.524785
 30
0.0
 11
38.2662905
 21
-0.602535
 31
0.0
  0
LINE
  5
1D6
330
F0
100
AcDbEntity
  8
AM_4
100
AcDbLine
 10
38.2662905
 20
-0.602535
 30
0.0
 11
38.414294
 21
-0.641405
 31
0.0
  0
LINE
  5
1D7
330
F0
100
AcDbEntity
  8
AM_4
100
AcDbLine
 10
38.414294
 20
-0.641405
 30
0.0
 11
38.969306
 21
-0.641405
 31
0.0
  0
LINE
  5
1D8
330
F0
100
AcDbEntity
  8
AM_4
100
AcDbLine
 10
38.969306
 20
-0.641405
 30
0.0
 11
39.1173095
 21
-0.602535
 31
0.0
  0
LINE
  5
1D9
330
F0
100
AcDbEntity
  8
AM_4
100
AcDbLine
 10
39.1173095
 20
-0.602535
 30
0.0
 11
39.22831
 21
-0.524785
 31
0.0
  0
LINE
  5
1DA
330
F0
100
AcDbEntity
  8
AM_4
100
AcDbLine
 10
39.22831
 20
-0.524785
 30
0.0
 11
39.30231500000001
 21
-0.4081679999999999
 31
0.0
  0
LINE
  5
1DB
330
F0
100
AcDbEntity
  8
AM_4
100
AcDbLine
 10
39.30231500000001
 20
-0.4081679999999999
 30
0.0
 11
39.339315
 21
-0.2526754999999999
 31
0.0
  0
LINE
  5
1DC
330
F0
100
AcDbEntity
  8
AM_4
100
AcDbLine
 10
39.339315
 20
-0.2526754999999999
 30
0.0
 11
39.339315
 21
0.4470410000000002
 31
0.0
  0
LINE
  5
1DD
330
F0
100
AcDbEntity
  8
AM_4
100
AcDbLine
 10
39.148715
 20
4.178865
 30
0.0
 11
37.85368500000001
 21
4.178865
 31
0.0
  0
LINE
  5
1DE
330
F0
100
AcDbEntity
  8
AM_4
100
AcDbLine
 10
37.85368500000001
 20
4.178865
 30
0.0
 11
37.85368500000001
 21
3.479145000000003
 31
0.0
  0
LINE
  5
1DF
330
F0
100
AcDbEntity
  8
AM_4
100
AcDbLine
 10
37.85368500000001
 20
3.479145000000003
 30
0.0
 11
37.890685
 21
3.323655
 31
0.0
  0
LINE
  5
1E0
330
F0
100
AcDbEntity
  8
AM_4
100
AcDbLine
 10
37.890685
 20
3.323655
 30
0.0
 11
37.96469
 21
3.207035
 31
0.0
  0
LINE
  5
1E1
330
F0
100
AcDbEntity
  8
AM_4
100
AcDbLine
 10
37.96469
 20
3.207035
 30
0.0
 11
38.07569050000001
 21
3.12929
 31
0.0
  0
LINE
  5
1E2
330
F0
100
AcDbEntity
  8
AM_4
100
AcDbLine
 10
38.07569050000001
 20
3.12929
 30
0.0
 11
38.223694
 21
3.090415
 31
0.0
  0
LINE
  5
1E3
330
F0
100
AcDbEntity
  8
AM_4
100
AcDbLine
 10
38.223694
 20
3.090415
 30
0.0
 11
38.77870600000001
 21
3.090415
 31
0.0
  0
LINE
  5
1E4
330
F0
100
AcDbEntity
  8
AM_4
100
AcDbLine
 10
38.77870600000001
 20
3.090415
 30
0.0
 11
38.9267095
 21
3.12929
 31
0.0
  0
LINE
  5
1E5
330
F0
100
AcDbEntity
  8
AM_4
100
AcDbLine
 10
38.9267095
 20
3.12929
 30
0.0
 11
39.03771
 21
3.207035
 31
0.0
  0
LINE
  5
1E6
330
F0
100
AcDbEntity
  8
AM_4
100
AcDbLine
 10
39.03771
 20
3.207035
 30
0.0
 11
39.111715
 21
3.323655
 31
0.0
  0
LINE
  5
1E7
330
F0
100
AcDbEntity
  8
AM_4
100
AcDbLine
 10
39.111715
 20
3.323655
 30
0.0
 11
39.148715
 21
3.479145
 31
0.0
  0
LINE
  5
1E8
330
F0
100
AcDbEntity
  8
AM_4
100
AcDbLine
 10
39.148715
 20
3.479145
 30
0.0
 11
39.148715
 21
4.178865
 31
0.0
  0
ARC
  5
1E9
330
F0
100
AcDbEntity
  8
AM_4
100
AcDbCircle
 10
0.0000000000000071
 20
0.0000000000000004
 30
0.0
 40
45.07145626988913
100
AcDbArc
 50
58.48348673883552
 51
36.6964713512509
  0
ARC
  5
1EA
330
F0
100
AcDbEntity
  8
AM_4
100
AcDbCircle
 10
0.0000000000000111
 20
-0.0000000000000084
 30
0.0
 40
44.08664851687693
100
AcDbArc
 50
58.79056582447251
 51
36.50963272440401
  0
ENDBLK
  5
F3
330
F0
100
AcDbEntity
  8
0
100
AcDbBlockEnd
  0
ENDSEC
  0
SECTION
  2
ENTITIES
  0
INSERT
  5
6F
330
1F
100
AcDbEntity
  8
0
100
AcDbBlockReference
  2
1_129325_0
 10
0.0
 20
0.0
 30
0.0
  0
POINT
  5
1EC
330
1F
100
AcDbEntity
  8
ConnectionPoints
100
AcDbPoint
 10
0.0000000000000018
 20
0.0
 30
18.20000000000001
  0
POINT
  5
1ED
330
1F
100
AcDbEntity
  8
ConnectionPoints
100
AcDbPoint
 10
0.0000000000000018
 20
0.0
 30
3.900000000000006
  0
POINT
  5
1EE
330
1F
100
AcDbEntity
  8
ConnectionPoints
100
AcDbPoint
 10
0.0
 20
0.0
 30
3.900000000000006
  0
ENDSEC
  0
SECTION
  2
OBJECTS
  0
DICTIONARY
  5
C
330
0
100
AcDbDictionary
281
     1
  3
ACAD_DETAILVIEWSTYLE
350
1F6
  3
ACAD_GROUP
350
D
  3
ACAD_LAYOUT
350
1A
  3
ACAD_MATERIAL
350
43
  3
ACAD_MLEADERSTYLE
350
6B
  3
ACAD_MLINESTYLE
350
17
  3
ACAD_PLOTSETTINGS
350
19
  3
ACAD_PLOTSTYLENAME
350
E
  3
ACAD_SCALELIST
350
47
  3
ACAD_SECTIONVIEWSTYLE
350
1F7
  3
ACAD_TABLESTYLE
350
69
  3
ACAD_VISUALSTYLE
350
2A
  3
ACDB_RECOMPOSE_DATA
350
1F3
  3
AcDbVariableDictionary
350
1EF
  0
SUN
  5
6D
330
29
100
AcDbSun
 90
        1
290
     0
 63
     7
421
 16777215
 40
1.0
291
     1
 91
  2455826
 92
 54000000
292
     0
 70
     2
 71
   256
280
     1
  0
DICTIONARY
  5
1F6
102
{ACAD_REACTORS
330
C
102
}
330
C
100
AcDbDictionary
281
     1
  0
DICTIONARY
  5
D
102
{ACAD_REACTORS
330
C
102
}
330
C
100
AcDbDictionary
281
     1
  0
DICTIONARY
  5
1A
102
{ACAD_REACTORS
330
C
102
}
330
C
100
AcDbDictionary
281
     1
  3
Layout1
350
1E
  3
Layout2
350
26
  3
Model
350
22
  0
DICTIONARY
  5
43
102
{ACAD_REACTORS
330
C
102
}
330
C
100
AcDbDictionary
281
     1
  3
ByBlock
350
45
  3
ByLayer
350
44
  3
Global
350
46
  0
DICTIONARY
  5
6B
102
{ACAD_REACTORS
330
C
102
}
330
C
100
AcDbDictionary
281
     1
  3
Standard
350
6C
  0
DICTIONARY
  5
17
102
{ACAD_REACTORS
330
C
102
}
330
C
100
AcDbDictionary
281
     1
  3
Standard
350
18
  0
DICTIONARY
  5
19
102
{ACAD_REACTORS
330
C
102
}
330
C
100
AcDbDictionary
281
     1
  0
ACDBDICTIONARYWDFLT
  5
E
102
{ACAD_REACTORS
330
C
102
}
330
C
100
AcDbDictionary
281
     1
  3
Normal
350
F
100
AcDbDictionaryWithDefault
340
F
  0
DICTIONARY
  5
47
102
{ACAD_REACTORS
330
C
102
}
330
C
100
AcDbDictionary
281
     1
  3
A0
350
48
  3
A1
350
49
  3
A2
350
4A
  3
A3
350
4B
  3
A4
350
4C
  3
A5
350
4D
  3
A6
350
4E
  3
A7
350
4F
  3
A8
350
50
  3
A9
350
51
  3
B0
350
52
  3
B1
350
53
  3
B2
350
54
  3
B3
350
55
  3
B4
350
56
  3
B5
350
57
  3
B6
350
58
  3
B7
350
59
  3
B8
350
5A
  3
B9
350
5B
  3
C0
350
5C
  3
C1
350
5D
  3
C2
350
5E
  3
C3
350
5F
  3
C4
350
60
  3
C5
350
61
  3
C6
350
62
  3
C7
350
63
  3
C8
350
64
  3
C9
350
65
  3
D0
350
66
  3
D1
350
67
  3
D2
350
68
  0
DICTIONARY
  5
1F7
102
{ACAD_REACTORS
330
C
102
}
330
C
100
AcDbDictionary
281
     1
  0
DICTIONARY
  5
69
102
{ACAD_REACTORS
330
C
102
}
330
C
100
AcDbDictionary
281
     1
  3
Standard
350
6A
  0
DICTIONARY
  5
2A
102
{ACAD_REACTORS
330
C
102
}
330
C
100
AcDbDictionary
281
     1
  3
2dWireframe
350
2F
  3
Basic
350
32
  3
Brighten
350
36
  3
ColorChange
350
3A
  3
Conceptual
350
34
  3
Dim
350
35
  3
EdgeColorOff
350
3D
  3
Facepattern
350
39
  3
Flat
350
2B
  3
FlatWithEdges
350
2C
  3
Gouraud
350
2D
  3
GouraudWithEdges
350
2E
  3
Hidden
350
31
  3
JitterOff
350
3B
  3
Linepattern
350
38
  3
OverhangOff
350
3C
  3
Realistic
350
33
  3
Shaded
350
42
  3
Shaded with edges
350
41
  3
Shades of Gray
350
3E
  3
Sketchy
350
3F
  3
Thicken
350
37
  3
Wireframe
350
30
  3
X-Ray
350
40
  0
XRECORD
  5
1F3
102
{ACAD_REACTORS
330
C
102
}
330
C
100
AcDbXrecord
280
     1
 90
        1
330
6A
  0
DICTIONARY
  5
1EF
102
{ACAD_REACTORS
330
C
102
}
330
C
100
AcDbDictionary
281
     1
  3
CANNOSCALE
350
1F0
  3
CMLEADERSTYLE
350
1F5
  3
CTABLESTYLE
350
1F4
  0
LAYOUT
  5
1E
102
{ACAD_REACTORS
330
1A
102
}
330
1A
100
AcDbPlotSettings
  1

  2
none_device
  4

  6

 40
0.0
 41
0.0
 42
0.0
 43
0.0
 44
0.0
 45
0.0
 46
0.0
 47
0.0
 48
0.0
 49
0.0
140
0.0
141
0.0
142
1.0
143
1.0
 70
   688
 72
     1
 73
     0
 74
     5
  7

 75
    16
 76
     0
 77
     2
 78
   300
147
1.0
148
0.0
149
0.0
100
AcDbLayout
  1
Layout1
 70
     1
 71
     1
 10
0.0
 20
0.0
 11
420.0
 21
297.0
 12
0.0
 22
0.0
 32
0.0
 14
1.000000000000000E+20
 24
1.000000000000000E+20
 34
1.000000000000000E+20
 15
-1.000000000000000E+20
 25
-1.000000000000000E+20
 35
-1.000000000000000E+20
146
0.0
 13
0.0
 23
0.0
 33
0.0
 16
1.0
 26
0.0
 36
0.0
 17
0.0
 27
1.0
 37
0.0
 76
     0
330
1B
  0
LAYOUT
  5
26
102
{ACAD_REACTORS
330
1A
102
}
330
1A
100
AcDbPlotSettings
  1

  2
none_device
  4

  6

 40
0.0
 41
0.0
 42
0.0
 43
0.0
 44
0.0
 45
0.0
 46
0.0
 47
0.0
 48
0.0
 49
0.0
140
0.0
141
0.0
142
1.0
143
1.0
 70
   688
 72
     1
 73
     0
 74
     5
  7

 75
    16
 76
     0
 77
     2
 78
   300
147
1.0
148
0.0
149
0.0
100
AcDbLayout
  1
Layout2
 70
     1
 71
     2
 10
0.0
 20
0.0
 11
0.0
 21
0.0
 12
0.0
 22
0.0
 32
0.0
 14
0.0
 24
0.0
 34
0.0
 15
0.0
 25
0.0
 35
0.0
146
0.0
 13
0.0
 23
0.0
 33
0.0
 16
1.0
 26
0.0
 36
0.0
 17
0.0
 27
1.0
 37
0.0
 76
     0
330
23
  0
LAYOUT
  5
22
102
{ACAD_REACTORS
330
1A
102
}
330
1A
100
AcDbPlotSettings
  1

  2
none_device
  4
Letter_(8.50_x_11.00_Inches)
  6

 40
6.35
 41
6.35
 42
6.35000508
 43
6.35000508
 44
215.9
 45
279.4
 46
0.0
 47
0.0
 48
0.0
 49
0.0
140
0.0
141
0.0
142
1.0
143
1.0
 70
  1712
 72
     1
 73
     0
 74
     0
  7

 75
     0
 76
     0
 77
     2
 78
   300
147
1.0
148
0.0
149
0.0
100
AcDbLayout
  1
Model
 70
     1
 71
     0
 10
0.0
 20
0.0
 11
420.0
 21
297.0
 12
0.0
 22
0.0
 32
0.0
 14
1.000000000000000E+20
 24
1.000000000000000E+20
 34
1.000000000000000E+20
 15
-1.000000000000000E+20
 25
-1.000000000000000E+20
 35
-1.000000000000000E+20
146
0.0
 13
0.0
 23
0.0
 33
0.0
 16
1.0
 26
0.0
 36
0.0
 17
0.0
 27
1.0
 37
0.0
 76
     0
330
1F
331
29
  0
MATERIAL
  5
45
102
{ACAD_REACTORS
330
43
102
}
330
43
100
AcDbMaterial
  1
ByBlock
 72
     1
 94
      127
  0
MATERIAL
  5
44
102
{ACAD_REACTORS
330
43
102
}
330
43
100
AcDbMaterial
  1
ByLayer
 72
     1
 94
      127
  0
MATERIAL
  5
46
102
{ACAD_REACTORS
330
43
102
}
330
43
100
AcDbMaterial
  1
Global
 72
     1
 94
      127
  0
MLEADERSTYLE
  5
6C
102
{ACAD_REACTORS
330
6B
102
}
330
6B
100
AcDbMLeaderStyle
179
     2
170
     2
171
     1
172
     0
 90
        2
 40
0.0
 41
0.0
173
     1
 91
-1056964608
340
14
 92
       -2
290
     1
 42
2.0
291
     1
 43
8.0
  3
Standard
341
0
 44
4.0
300

342
11
174
     1
178
     6
175
     1
176
     0
 93
-1056964608
 45
4.0
292
     0
297
     0
 46
4.0
343
0
 94
-1056964608
 47
1.0
 49
1.0
140
1.0
293
     1
141
0.0
294
     1
177
     0
142
1.0
295
     0
296
     0
143
3.75
271
     0
272
     9
273
     9
298
     0
  0
MLINESTYLE
  5
18
102
{ACAD_REACTORS
330
17
102
}
330
17
100
AcDbMlineStyle
  2
Standard
 70
     0
  3

 62
   256
 51
90.0
 52
90.0
 71
     2
 49
0.5
 62
   256
  6
BYLAYER
 49
-0.5
 62
   256
  6
BYLAYER
  0
ACDBPLACEHOLDER
  5
F
102
{ACAD_REACTORS
330
E
102
}
330
E
  0
SCALE
  5
48
102
{ACAD_REACTORS
330
47
102
}
330
47
100
AcDbScale
 70
     0
300
1:1
140
1.0
141
1.0
290
     1
  0
SCALE
  5
49
102
{ACAD_REACTORS
330
47
102
}
330
47
100
AcDbScale
 70
     0
300
1:2
140
1.0
141
2.0
290
     0
  0
SCALE
  5
4A
102
{ACAD_REACTORS
330
47
102
}
330
47
100
AcDbScale
 70
     0
300
1:4
140
1.0
141
4.0
290
     0
  0
SCALE
  5
4B
102
{ACAD_REACTORS
330
47
102
}
330
47
100
AcDbScale
 70
     0
300
1:5
140
1.0
141
5.0
290
     0
  0
SCALE
  5
4C
102
{ACAD_REACTORS
330
47
102
}
330
47
100
AcDbScale
 70
     0
300
1:8
140
1.0
141
8.0
290
     0
  0
SCALE
  5
4D
102
{ACAD_REACTORS
330
47
102
}
330
47
100
AcDbScale
 70
     0
300
1:10
140
1.0
141
10.0
290
     0
  0
SCALE
  5
4E
102
{ACAD_REACTORS
330
47
102
}
330
47
100
AcDbScale
 70
     0
300
1:16
140
1.0
141
16.0
290
     0
  0
SCALE
  5
4F
102
{ACAD_REACTORS
330
47
102
}
330
47
100
AcDbScale
 70
     0
300
1:20
140
1.0
141
20.0
290
     0
  0
SCALE
  5
50
102
{ACAD_REACTORS
330
47
102
}
330
47
100
AcDbScale
 70
     0
300
1:30
140
1.0
141
30.0
290
     0
  0
SCALE
  5
51
102
{ACAD_REACTORS
330
47
102
}
330
47
100
AcDbScale
 70
     0
300
1:40
140
1.0
141
40.0
290
     0
  0
SCALE
  5
52
102
{ACAD_REACTORS
330
47
102
}
330
47
100
AcDbScale
 70
     0
300
1:50
140
1.0
141
50.0
290
     0
  0
SCALE
  5
53
102
{ACAD_REACTORS
330
47
102
}
330
47
100
AcDbScale
 70
     0
300
1:100
140
1.0
141
100.0
290
     0
  0
SCALE
  5
54
102
{ACAD_REACTORS
330
47
102
}
330
47
100
AcDbScale
 70
     0
300
2:1
140
2.0
141
1.0
290
     0
  0
SCALE
  5
55
102
{ACAD_REACTORS
330
47
102
}
330
47
100
AcDbScale
 70
     0
300
4:1
140
4.0
141
1.0
290
     0
  0
SCALE
  5
56
102
{ACAD_REACTORS
330
47
102
}
330
47
100
AcDbScale
 70
     0
300
8:1
140
8.0
141
1.0
290
     0
  0
SCALE
  5
57
102
{ACAD_REACTORS
330
47
102
}
330
47
100
AcDbScale
 70
     0
300
10:1
140
10.0
141
1.0
290
     0
  0
SCALE
  5
58
102
{ACAD_REACTORS
330
47
102
}
330
47
100
AcDbScale
 70
     0
300
100:1
140
100.0
141
1.0
290
     0
  0
SCALE
  5
59
102
{ACAD_REACTORS
330
47
102
}
330
47
100
AcDbScale
 70
     0
300
1/128" = 1'-0"
140
0.0078125
141
12.0
290
     0
  0
SCALE
  5
5A
102
{ACAD_REACTORS
330
47
102
}
330
47
100
AcDbScale
 70
     0
300
1/64" = 1'-0"
140
0.015625
141
12.0
290
     0
  0
SCALE
  5
5B
102
{ACAD_REACTORS
330
47
102
}
330
47
100
AcDbScale
 70
     0
300
1/32" = 1'-0"
140
0.03125
141
12.0
290
     0
  0
SCALE
  5
5C
102
{ACAD_REACTORS
330
47
102
}
330
47
100
AcDbScale
 70
     0
300
1/16" = 1'-0"
140
0.0625
141
12.0
290
     0
  0
SCALE
  5
5D
102
{ACAD_REACTORS
330
47
102
}
330
47
100
AcDbScale
 70
     0
300
3/32" = 1'-0"
140
0.09375
141
12.0
290
     0
  0
SCALE
  5
5E
102
{ACAD_REACTORS
330
47
102
}
330
47
100
AcDbScale
 70
     0
300
1/8" = 1'-0"
140
0.125
141
12.0
290
     0
  0
SCALE
  5
5F
102
{ACAD_REACTORS
330
47
102
}
330
47
100
AcDbScale
 70
     0
300
3/16" = 1'-0"
140
0.1875
141
12.0
290
     0
  0
SCALE
  5
60
102
{ACAD_REACTORS
330
47
102
}
330
47
100
AcDbScale
 70
     0
300
1/4" = 1'-0"
140
0.25
141
12.0
290
     0
  0
SCALE
  5
61
102
{ACAD_REACTORS
330
47
102
}
330
47
100
AcDbScale
 70
     0
300
3/8" = 1'-0"
140
0.375
141
12.0
290
     0
  0
SCALE
  5
62
102
{ACAD_REACTORS
330
47
102
}
330
47
100
AcDbScale
 70
     0
300
1/2" = 1'-0"
140
0.5
141
12.0
290
     0
  0
SCALE
  5
63
102
{ACAD_REACTORS
330
47
102
}
330
47
100
AcDbScale
 70
     0
300
3/4" = 1'-0"
140
0.75
141
12.0
290
     0
  0
SCALE
  5
64
102
{ACAD_REACTORS
330
47
102
}
330
47
100
AcDbScale
 70
     0
300
1" = 1'-0"
140
1.0
141
12.0
290
     0
  0
SCALE
  5
65
102
{ACAD_REACTORS
330
47
102
}
330
47
100
AcDbScale
 70
     0
300
1-1/2" = 1'-0"
140
1.5
141
12.0
290
     0
  0
SCALE
  5
66
102
{ACAD_REACTORS
330
47
102
}
330
47
100
AcDbScale
 70
     0
300
3" = 1'-0"
140
3.0
141
12.0
290
     0
  0
SCALE
  5
67
102
{ACAD_REACTORS
330
47
102
}
330
47
100
AcDbScale
 70
     0
300
6" = 1'-0"
140
6.0
141
12.0
290
     0
  0
SCALE
  5
68
102
{ACAD_REACTORS
330
47
102
}
330
47
100
AcDbScale
 70
     0
300
1'-0" = 1'-0"
140
12.0
141
12.0
290
     0
  0
TABLESTYLE
  5
6A
102
{ACAD_REACTORS
330
69
102
}
102
{ACAD_XDICTIONARY
360
1F1
102
}
330
69
100
AcDbTableStyle
  3
Standard
 70
     0
 71
     0
 40
0.06
 41
0.06
280
     0
281
     0
  7
Standard
140
4.5
170
     2
 62
     0
 63
   257
283
     0
 90
        4
 91
        0
  1

274
    -2
284
     1
 64
     0
275
    -2
285
     1
 65
     0
276
    -2
286
     1
 66
     0
277
    -2
287
     1
 67
     0
278
    -2
288
     1
 68
     0
279
    -2
289
     1
 69
     0
  7
Standard
140
6.0
170
     5
 62
     0
 63
   257
283
     0
 90
        4
 91
        0
  1

274
    -2
284
     1
 64
     0
275
    -2
285
     1
 65
     0
276
    -2
286
     1
 66
     0
277
    -2
287
     1
 67
     0
278
    -2
288
     1
 68
     0
279
    -2
289
     1
 69
     0
  7
Standard
140
4.5
170
     5
 62
     0
 63
   257
283
     0
 90
        4
 91
        0
  1

274
    -2
284
     1
 64
     0
275
    -2
285
     1
 65
     0
276
    -2
286
     1
 66
     0
277
    -2
287
     1
 67
     0
278
    -2
288
     1
 68
     0
279
    -2
289
     1
 69
     0
  0
VISUALSTYLE
  5
2F
102
{ACAD_REACTORS
330
2A
102
}
330
2A
100
AcDbVisualStyle
  2
2dWireframe
 70
     4
177
     3
291
     0
 70
    58
 90
        0
176
     1
 90
        2
176
     1
 90
        0
176
     1
 90
        0
176
     1
 40
0.6
176
     1
 40
30.0
176
     1
 62
     7
420
 16777215
176
     1
 90
        1
176
     1
 90
        4
176
     1
 62
     7
176
     1
 62
   257
176
     1
 90
        1
176
     1
 90
        1
176
     1
 40
1.0
176
     1
 90
        0
176
     1
 62
   257
176
     1
 40
1.0
176
     1
 90
        1
176
     1
 90
        6
176
     1
 90
        2
176
     1
 62
     7
176
     1
 90
        5
176
     1
 90
        0
176
     1
 90
        0
176
     1
290
     0
176
     1
 90
        1
176
     1
 40
0.0
176
     1
 90
        0
176
     1
290
     1
176
     1
290
     1
176
     1
290
     0
176
     1
290
     0
176
     1
290
     0
176
     1
290
     0
176
     1
290
     0
176
     1
290
     0
176
     1
290
     0
176
     1
 90
       50
176
     1
 40
0.0
176
     1
 40
1.0
176
     1
 90
        0
176
     1
 62
    18
420
        0
176
     1
 90
       50
176
     1
 90
        3
176
     1
 62
     5
420
      255
176
     1
290
     0
176
     1
 90
       50
176
     1
 90
       50
176
     1
 90
       50
176
     1
290
     0
176
     1
 90
       50
176
     1
 62
   256
176
     0
 40
1.0
176
     0
 90
        2
176
     1
  1
strokes_ogs.tif
176
     1
290
     0
176
     1
 40
1.0
176
     1
 40
1.0
176
     1
  0
VISUALSTYLE
  5
32
102
{ACAD_REACTORS
330
2A
102
}
330
2A
100
AcDbVisualStyle
  2
Basic
 70
     7
177
     3
291
     1
 70
    58
 90
        1
176
     1
 90
        0
176
     1
 90
        1
176
     1
 90
        0
176
     1
 40
0.6
176
     1
 40
30.0
176
     1
 62
     7
420
 16777215
176
     1
 90
        0
176
     1
 90
        4
176
     1
 62
     7
176
     1
 62
   257
176
     1
 90
        1
176
     1
 90
        1
176
     1
 40
1.0
176
     1
 90
        8
176
     1
 62
     7
176
     1
 40
1.0
176
     1
 90
        1
176
     1
 90
        6
176
     1
 90
        2
176
     1
 62
     7
176
     1
 90
        5
176
     1
 90
        0
176
     1
 90
        0
176
     1
290
     0
176
     1
 90
        1
176
     1
 40
0.0
176
     1
 90
        0
176
     1
290
     0
176
     1
290
     1
176
     1
290
     1
176
     1
290
     0
176
     1
290
     0
176
     1
290
     0
176
     1
290
     0
176
     1
290
     0
176
     1
290
     0
176
     1
 90
       50
176
     1
 40
0.0
176
     1
 40
1.0
176
     1
 90
        0
176
     1
 62
    18
420
        0
176
     1
 90
       50
176
     1
 90
        3
176
     1
 62
     5
420
      255
176
     1
290
     0
176
     1
 90
       50
176
     1
 90
       50
176
     1
 90
       50
176
     1
290
     0
176
     1
 90
       50
176
     1
 62
   256
176
     0
 40
1.0
176
     0
 90
        2
176
     1
  1
strokes_ogs.tif
176
     1
290
     0
176
     1
 40
1.0
176
     1
 40
1.0
176
     1
  0
VISUALSTYLE
  5
36
102
{ACAD_REACTORS
330
2A
102
}
330
2A
100
AcDbVisualStyle
  2
Brighten
 70
    12
177
     3
291
     1
 70
    58
 90
        2
176
     1
 90
        2
176
     1
 90
        0
176
     1
 90
        0
176
     1
 40
0.6
176
     1
 40
30.0
176
     1
 62
     7
420
 16777215
176
     1
 90
        1
176
     1
 90
        4
176
     1
 62
     7
176
     1
 62
   257
176
     1
 90
        1
176
     1
 90
        1
176
     1
 40
1.0
176
     1
 90
        8
176
     1
 62
     7
176
     1
 40
1.0
176
     1
 90
        1
176
     1
 90
        6
176
     1
 90
        2
176
     1
 62
     7
176
     1
 90
        5
176
     1
 90
        0
176
     1
 90
        0
176
     1
290
     0
176
     1
 90
        1
176
     1
 40
50.0
176
     1
 90
        0
176
     1
290
     0
176
     1
290
     1
176
     1
290
     1
176
     1
290
     0
176
     1
290
     0
176
     1
290
     0
176
     1
290
     0
176
     1
290
     0
176
     1
290
     0
176
     1
 90
       50
176
     1
 40
0.0
176
     1
 40
1.0
176
     1
 90
        0
176
     1
 62
    18
420
        0
176
     1
 90
       50
176
     1
 90
        3
176
     1
 62
     5
420
      255
176
     1
290
     0
176
     1
 90
       50
176
     1
 90
       50
176
     1
 90
       50
176
     1
290
     0
176
     1
 90
       50
176
     1
 62
   256
176
     0
 40
1.0
176
     0
 90
        2
176
     1
  1
strokes_ogs.tif
176
     1
290
     0
176
     1
 40
1.0
176
     1
 40
1.0
176
     1
  0
VISUALSTYLE
  5
3A
102
{ACAD_REACTORS
330
2A
102
}
330
2A
100
AcDbVisualStyle
  2
ColorChange
 70
    16
177
     3
291
     1
 70
    58
 90
        2
176
     1
 90
        2
176
     1
 90
        3
176
     1
 90
        0
176
     1
 40
0.6
176
     1
 40
30.0
176
     1
 62
     8
420
  8421504
176
     1
 90
        1
176
     1
 90
        4
176
     1
 62
     7
176
     1
 62
   257
176
     1
 90
        1
176
     1
 90
        1
176
     1
 40
1.0
176
     1
 90
        8
176
     1
 62
     8
420
  8421504
176
     1
 40
1.0
176
     1
 90
        1
176
     1
 90
        6
176
     1
 90
        2
176
     1
 62
     7
176
     1
 90
        5
176
     1
 90
        0
176
     1
 90
        0
176
     1
290
     0
176
     1
 90
        1
176
     1
 40
0.0
176
     1
 90
        0
176
     1
290
     0
176
     1
290
     1
176
     1
290
     1
176
     1
290
     0
176
     1
290
     0
176
     1
290
     0
176
     1
290
     0
176
     1
290
     0
176
     1
290
     0
176
     1
 90
       50
176
     1
 40
0.0
176
     1
 40
1.0
176
     1
 90
        0
176
     1
 62
    18
420
        0
176
     1
 90
       50
176
     1
 90
        3
176
     1
 62
     5
420
      255
176
     1
290
     0
176
     1
 90
       50
176
     1
 90
       50
176
     1
 90
       50
176
     1
290
     0
176
     1
 90
       50
176
     1
 62
   256
176
     0
 40
1.0
176
     0
 90
        2
176
     1
  1
strokes_ogs.tif
176
     1
290
     0
176
     1
 40
1.0
176
     1
 40
1.0
176
     1
  0
VISUALSTYLE
  5
34
102
{ACAD_REACTORS
330
2A
102
}
330
2A
100
AcDbVisualStyle
  2
Conceptual
 70
     9
177
     3
291
     0
 70
    58
 90
        3
176
     1
 90
        2
176
     1
 90
        0
176
     1
 90
        0
176
     1
 40
0.6
176
     1
 40
30.0
176
     1
 62
     7
420
 16777215
176
     1
 90
        2
176
     1
 90
        2
176
     1
 62
     7
176
     1
 62
   257
176
     1
 90
        1
176
     1
 90
        1
176
     1
 40
179.0
176
     1
 90
        8
176
     1
 62
     7
176
     1
 40
1.0
176
     1
 90
        1
176
     1
 90
        6
176
     1
 90
        2
176
     1
 62
     7
176
     1
 90
        3
176
     1
 90
        0
176
     1
 90
        0
176
     1
290
     0
176
     1
 90
        1
176
     1
 40
0.0
176
     1
 90
        0
176
     1
290
     0
176
     1
290
     1
176
     1
290
     1
176
     1
290
     0
176
     1
290
     0
176
     1
290
     0
176
     1
290
     0
176
     1
290
     0
176
     1
290
     0
176
     1
 90
       50
176
     1
 40
0.0
176
     1
 40
1.0
176
     1
 90
        0
176
     1
 62
    18
420
        0
176
     1
 90
       50
176
     1
 90
        3
176
     1
 62
     5
420
      255
176
     1
290
     0
176
     1
 90
       50
176
     1
 90
       50
176
     1
 90
       50
176
     1
290
     0
176
     1
 90
       50
176
     1
 62
   256
176
     0
 40
1.0
176
     0
 90
        2
176
     1
  1
strokes_ogs.tif
176
     1
290
     0
176
     1
 40
1.0
176
     1
 40
1.0
176
     1
  0
VISUALSTYLE
  5
35
102
{ACAD_REACTORS
330
2A
102
}
330
2A
100
AcDbVisualStyle
  2
Dim
 70
    11
177
     3
291
     1
 70
    58
 90
        2
176
     1
 90
        2
176
     1
 90
        0
176
     1
 90
        0
176
     1
 40
0.6
176
     1
 40
30.0
176
     1
 62
     7
420
 16777215
176
     1
 90
        1
176
     1
 90
        4
176
     1
 62
     7
176
     1
 62
   257
176
     1
 90
        1
176
     1
 90
        1
176
     1
 40
1.0
176
     1
 90
        8
176
     1
 62
     7
176
     1
 40
1.0
176
     1
 90
        1
176
     1
 90
        6
176
     1
 90
        2
176
     1
 62
     7
176
     1
 90
        5
176
     1
 90
        0
176
     1
 90
        0
176
     1
290
     0
176
     1
 90
        1
176
     1
 40
-50.0
176
     1
 90
        0
176
     1
290
     0
176
     1
290
     1
176
     1
290
     1
176
     1
290
     0
176
     1
290
     0
176
     1
290
     0
176
     1
290
     0
176
     1
290
     0
176
     1
290
     0
176
     1
 90
       50
176
     1
 40
0.0
176
     1
 40
1.0
176
     1
 90
        0
176
     1
 62
    18
420
        0
176
     1
 90
       50
176
     1
 90
        3
176
     1
 62
     5
420
      255
176
     1
290
     0
176
     1
 90
       50
176
     1
 90
       50
176
     1
 90
       50
176
     1
290
     0
176
     1
 90
       50
176
     1
 62
   256
176
     0
 40
1.0
176
     0
 90
        2
176
     1
  1
strokes_ogs.tif
176
     1
290
     0
176
     1
 40
1.0
176
     1
 40
1.0
176
     1
  0
VISUALSTYLE
  5
3D
102
{ACAD_REACTORS
330
2A
102
}
330
2A
100
AcDbVisualStyle
  2
EdgeColorOff
 70
    22
177
     3
291
     1
 70
    58
 90
        2
176
     0
 90
        2
176
     0
 90
        0
176
     0
 90
        0
176
     0
 40
0.6
176
     0
 40
30.0
176
     0
 62
     7
420
 16777215
176
     0
 90
        1
176
     0
 90
        4
176
     0
 62
     7
176
     0
 62
   257
176
     0
 90
        1
176
     0
 90
        1
176
     0
 40
1.0
176
     0
 90
        8
176
     2
 62
     7
176
     0
 40
1.0
176
     0
 90
        1
176
     0
 90
        6
176
     0
 90
        2
176
     0
 62
     7
176
     0
 90
        5
176
     0
 90
        0
176
     0
 90
        0
176
     0
290
     0
176
     0
 90
        1
176
     0
 40
0.0
176
     0
 90
        0
176
     0
290
     0
176
     0
290
     1
176
     0
290
     1
176
     0
290
     0
176
     0
290
     0
176
     0
290
     0
176
     0
290
     0
176
     0
290
     0
176
     0
290
     0
176
     0
 90
       50
176
     0
 40
0.0
176
     0
 40
1.0
176
     0
 90
        0
176
     0
 62
    18
420
        0
176
     0
 90
       50
176
     0
 90
        3
176
     0
 62
     5
420
      255
176
     0
290
     0
176
     0
 90
       50
176
     0
 90
       50
176
     0
 90
       50
176
     0
290
     0
176
     0
 90
       50
176
     0
 62
   256
176
     0
 40
1.0
176
     0
 90
        2
176
     0
  1
strokes_ogs.tif
176
     0
290
     0
176
     0
 40
1.0
176
     0
 40
1.0
176
     0
  0
VISUALSTYLE
  5
39
102
{ACAD_REACTORS
330
2A
102
}
330
2A
100
AcDbVisualStyle
  2
Facepattern
 70
    15
177
     3
291
     1
 70
    58
 90
        2
176
     1
 90
        2
176
     1
 90
        0
176
     1
 90
        0
176
     1
 40
0.6
176
     1
 40
30.0
176
     1
 62
     7
420
 16777215
176
     1
 90
        1
176
     1
 90
        4
176
     1
 62
     7
176
     1
 62
   257
176
     1
 90
        1
176
     1
 90
        1
176
     1
 40
1.0
176
     1
 90
        8
176
     1
 62
     7
176
     1
 40
1.0
176
     1
 90
        1
176
     1
 90
        6
176
     1
 90
        2
176
     1
 62
     7
176
     1
 90
        5
176
     1
 90
        0
176
     1
 90
        0
176
     1
290
     0
176
     1
 90
        1
176
     1
 40
0.0
176
     1
 90
        0
176
     1
290
     0
176
     1
290
     1
176
     1
290
     1
176
     1
290
     0
176
     1
290
     0
176
     1
290
     0
176
     1
290
     0
176
     1
290
     0
176
     1
290
     0
176
     1
 90
       50
176
     1
 40
0.0
176
     1
 40
1.0
176
     1
 90
        0
176
     1
 62
    18
420
        0
176
     1
 90
       50
176
     1
 90
        3
176
     1
 62
     5
420
      255
176
     1
290
     0
176
     1
 90
       50
176
     1
 90
       50
176
     1
 90
       50
176
     1
290
     0
176
     1
 90
       50
176
     1
 62
   256
176
     0
 40
1.0
176
     0
 90
        2
176
     1
  1
strokes_ogs.tif
176
     1
290
     0
176
     1
 40
1.0
176
     1
 40
1.0
176
     1
  0
VISUALSTYLE
  5
2B
102
{ACAD_REACTORS
330
2A
102
}
330
2A
100
AcDbVisualStyle
  2
Flat
 70
     0
177
     3
291
     1
 70
    58
 90
        2
176
     1
 90
        1
176
     1
 90
        1
176
     1
 90
        2
176
     1
 40
0.6
176
     1
 40
30.0
176
     1
 62
     7
420
 16777215
176
     1
 90
        0
176
     1
 90
        0
176
     1
 62
     7
176
     1
 62
   257
176
     1
 90
        1
176
     1
 90
        1
176
     1
 40
1.0
176
     1
 90
        8
176
     1
 62
     7
176
     1
 40
1.0
176
     1
 90
        1
176
     1
 90
        6
176
     1
 90
        2
176
     1
 62
     7
176
     1
 90
        5
176
     1
 90
        0
176
     1
 90
        0
176
     1
290
     0
176
     1
 90
       13
176
     1
 40
0.0
176
     1
 90
        0
176
     1
290
     0
176
     1
290
     1
176
     1
290
     1
176
     1
290
     0
176
     1
290
     0
176
     1
290
     0
176
     1
290
     0
176
     1
290
     0
176
     1
290
     0
176
     1
 90
       50
176
     1
 40
0.0
176
     1
 40
1.0
176
     1
 90
        0
176
     1
 62
    18
420
        0
176
     1
 90
       50
176
     1
 90
        3
176
     1
 62
     5
420
      255
176
     1
290
     0
176
     1
 90
       50
176
     1
 90
       50
176
     1
 90
       50
176
     1
290
     0
176
     1
 90
       50
176
     1
 62
   256
176
     0
 40
1.0
176
     0
 90
        2
176
     1
  1
strokes_ogs.tif
176
     1
290
     0
176
     1
 40
1.0
176
     1
 40
1.0
176
     1
  0
VISUALSTYLE
  5
2C
102
{ACAD_REACTORS
330
2A
102
}
330
2A
100
AcDbVisualStyle
  2
FlatWithEdges
 70
     1
177
     3
291
     1
 70
    58
 90
        2
176
     1
 90
        1
176
     1
 90
        1
176
     1
 90
        2
176
     1
 40
0.6
176
     1
 40
30.0
176
     1
 62
     7
420
 16777215
176
     1
 90
        1
176
     1
 90
        0
176
     1
 62
     7
176
     1
 62
   257
176
     1
 90
        1
176
     1
 90
        1
176
     1
 40
1.0
176
     1
 90
        0
176
     1
 62
   257
176
     1
 40
1.0
176
     1
 90
        1
176
     1
 90
        6
176
     1
 90
        2
176
     1
 62
     7
176
     1
 90
        5
176
     1
 90
        0
176
     1
 90
        0
176
     1
290
     0
176
     1
 90
       13
176
     1
 40
0.0
176
     1
 90
        0
176
     1
290
     0
176
     1
290
     1
176
     1
290
     1
176
     1
290
     0
176
     1
290
     0
176
     1
290
     0
176
     1
290
     0
176
     1
290
     0
176
     1
290
     0
176
     1
 90
       50
176
     1
 40
0.0
176
     1
 40
1.0
176
     1
 90
        0
176
     1
 62
    18
420
        0
176
     1
 90
       50
176
     1
 90
        3
176
     1
 62
     5
420
      255
176
     1
290
     0
176
     1
 90
       50
176
     1
 90
       50
176
     1
 90
       50
176
     1
290
     0
176
     1
 90
       50
176
     1
 62
   256
176
     0
 40
1.0
176
     0
 90
        2
176
     1
  1
strokes_ogs.tif
176
     1
290
     0
176
     1
 40
1.0
176
     1
 40
1.0
176
     1
  0
VISUALSTYLE
  5
2D
102
{ACAD_REACTORS
330
2A
102
}
330
2A
100
AcDbVisualStyle
  2
Gouraud
 70
     2
177
     3
291
     1
 70
    58
 90
        2
176
     1
 90
        2
176
     1
 90
        1
176
     1
 90
        2
176
     1
 40
0.6
176
     1
 40
30.0
176
     1
 62
     7
420
 16777215
176
     1
 90
        0
176
     1
 90
        0
176
     1
 62
     7
176
     1
 62
   257
176
     1
 90
        1
176
     1
 90
        1
176
     1
 40
1.0
176
     1
 90
        0
176
     1
 62
     7
176
     1
 40
1.0
176
     1
 90
        1
176
     1
 90
        6
176
     1
 90
        2
176
     1
 62
     7
176
     1
 90
        5
176
     1
 90
        0
176
     1
 90
        0
176
     1
290
     0
176
     1
 90
       13
176
     1
 40
0.0
176
     1
 90
        0
176
     1
290
     0
176
     1
290
     1
176
     1
290
     1
176
     1
290
     0
176
     1
290
     0
176
     1
290
     0
176
     1
290
     0
176
     1
290
     0
176
     1
290
     0
176
     1
 90
       50
176
     1
 40
0.0
176
     1
 40
1.0
176
     1
 90
        0
176
     1
 62
    18
420
        0
176
     1
 90
       50
176
     1
 90
        3
176
     1
 62
     5
420
      255
176
     1
290
     0
176
     1
 90
       50
176
     1
 90
       50
176
     1
 90
       50
176
     1
290
     0
176
     1
 90
       50
176
     1
 62
   256
176
     0
 40
1.0
176
     0
 90
        2
176
     1
  1
strokes_ogs.tif
176
     1
290
     0
176
     1
 40
1.0
176
     1
 40
1.0
176
     1
  0
VISUALSTYLE
  5
2E
102
{ACAD_REACTORS
330
2A
102
}
330
2A
100
AcDbVisualStyle
  2
GouraudWithEdges
 70
     3
177
     3
291
     1
 70
    58
 90
        2
176
     1
 90
        2
176
     1
 90
        1
176
     1
 90
        2
176
     1
 40
0.6
176
     1
 40
30.0
176
     1
 62
     7
420
 16777215
176
     1
 90
        1
176
     1
 90
        0
176
     1
 62
     7
176
     1
 62
   257
176
     1
 90
        1
176
     1
 90
        1
176
     1
 40
1.0
176
     1
 90
        0
176
     1
 62
   257
176
     1
 40
1.0
176
     1
 90
        1
176
     1
 90
        6
176
     1
 90
        2
176
     1
 62
     7
176
     1
 90
        5
176
     1
 90
        0
176
     1
 90
        0
176
     1
290
     0
176
     1
 90
       13
176
     1
 40
0.0
176
     1
 90
        0
176
     1
290
     0
176
     1
290
     1
176
     1
290
     1
176
     1
290
     0
176
     1
290
     0
176
     1
290
     0
176
     1
290
     0
176
     1
290
     0
176
     1
290
     0
176
     1
 90
       50
176
     1
 40
0.0
176
     1
 40
1.0
176
     1
 90
        0
176
     1
 62
    18
420
        0
176
     1
 90
       50
176
     1
 90
        3
176
     1
 62
     5
420
      255
176
     1
290
     0
176
     1
 90
       50
176
     1
 90
       50
176
     1
 90
       50
176
     1
290
     0
176
     1
 90
       50
176
     1
 62
   256
176
     0
 40
1.0
176
     0
 90
        2
176
     1
  1
strokes_ogs.tif
176
     1
290
     0
176
     1
 40
1.0
176
     1
 40
1.0
176
     1
  0
VISUALSTYLE
  5
31
102
{ACAD_REACTORS
330
2A
102
}
330
2A
100
AcDbVisualStyle
  2
Hidden
 70
     6
177
     3
291
     0
 70
    58
 90
        1
176
     1
 90
        2
176
     1
 90
        2
176
     1
 90
        0
176
     1
 40
0.6
176
     1
 40
30.0
176
     1
 62
     7
420
 16777215
176
     1
 90
        2
176
     1
 90
        2
176
     1
 62
     7
176
     1
 62
   257
176
     1
 90
        2
176
     1
 90
        1
176
     1
 40
40.0
176
     1
 90
        0
176
     1
 62
   257
176
     1
 40
1.0
176
     1
 90
        1
176
     1
 90
        6
176
     1
 90
        2
176
     1
 62
     7
176
     1
 90
        3
176
     1
 90
        0
176
     1
 90
        0
176
     1
290
     0
176
     1
 90
        1
176
     1
 40
0.0
176
     1
 90
        0
176
     1
290
     0
176
     1
290
     1
176
     1
290
     1
176
     1
290
     0
176
     1
290
     0
176
     1
290
     0
176
     1
290
     0
176
     1
290
     0
176
     1
290
     0
176
     1
 90
       50
176
     1
 40
0.0
176
     1
 40
1.0
176
     1
 90
        0
176
     1
 62
    18
420
        0
176
     1
 90
       50
176
     1
 90
        3
176
     1
 62
     5
420
      255
176
     1
290
     0
176
     1
 90
       50
176
     1
 90
       50
176
     1
 90
       50
176
     1
290
     0
176
     1
 90
       50
176
     1
 62
   256
176
     0
 40
1.0
176
     0
 90
        2
176
     1
  1
strokes_ogs.tif
176
     1
290
     0
176
     1
 40
1.0
176
     1
 40
1.0
176
     1
  0
VISUALSTYLE
  5
3B
102
{ACAD_REACTORS
330
2A
102
}
330
2A
100
AcDbVisualStyle
  2
JitterOff
 70
    20
177
     3
291
     1
 70
    58
 90
        2
176
     0
 90
        2
176
     0
 90
        0
176
     0
 90
        0
176
     0
 40
0.6
176
     0
 40
30.0
176
     0
 62
     7
420
 16777215
176
     0
 90
        1
176
     0
 90
        4
176
     0
 62
     7
176
     0
 62
   257
176
     0
 90
        1
176
     0
 90
        1
176
     0
 40
1.0
176
     0
 90
       10
176
     2
 62
     7
176
     0
 40
1.0
176
     0
 90
        1
176
     0
 90
        6
176
     0
 90
        2
176
     0
 62
     7
176
     0
 90
        5
176
     0
 90
        0
176
     0
 90
        0
176
     0
290
     0
176
     0
 90
        1
176
     0
 40
0.0
176
     0
 90
        0
176
     0
290
     0
176
     0
290
     1
176
     0
290
     1
176
     0
290
     0
176
     0
290
     0
176
     0
290
     0
176
     0
290
     0
176
     0
290
     0
176
     0
290
     0
176
     0
 90
       50
176
     0
 40
0.0
176
     0
 40
1.0
176
     0
 90
        0
176
     0
 62
    18
420
        0
176
     0
 90
       50
176
     0
 90
        3
176
     0
 62
     5
420
      255
176
     0
290
     0
176
     0
 90
       50
176
     0
 90
       50
176
     0
 90
       50
176
     0
290
     0
176
     0
 90
       50
176
     0
 62
   256
176
     0
 40
1.0
176
     0
 90
        2
176
     0
  1
strokes_ogs.tif
176
     0
290
     0
176
     0
 40
1.0
176
     0
 40
1.0
176
     0
  0
VISUALSTYLE
  5
38
102
{ACAD_REACTORS
330
2A
102
}
330
2A
100
AcDbVisualStyle
  2
Linepattern
 70
    14
177
     3
291
     1
 70
    58
 90
        2
176
     1
 90
        2
176
     1
 90
        0
176
     1
 90
        0
176
     1
 40
0.6
176
     1
 40
30.0
176
     1
 62
     7
420
 16777215
176
     1
 90
        1
176
     1
 90
        4
176
     1
 62
     7
176
     1
 62
   257
176
     1
 90
        7
176
     1
 90
        7
176
     1
 40
1.0
176
     1
 90
        8
176
     1
 62
     7
176
     1
 40
1.0
176
     1
 90
        1
176
     1
 90
        6
176
     1
 90
        2
176
     1
 62
     7
176
     1
 90
        5
176
     1
 90
        0
176
     1
 90
        0
176
     1
290
     0
176
     1
 90
        1
176
     1
 40
0.0
176
     1
 90
        0
176
     1
290
     0
176
     1
290
     1
176
     1
290
     1
176
     1
290
     0
176
     1
290
     0
176
     1
290
     0
176
     1
290
     0
176
     1
290
     0
176
     1
290
     0
176
     1
 90
       50
176
     1
 40
0.0
176
     1
 40
1.0
176
     1
 90
        0
176
     1
 62
    18
420
        0
176
     1
 90
       50
176
     1
 90
        3
176
     1
 62
     5
420
      255
176
     1
290
     0
176
     1
 90
       50
176
     1
 90
       50
176
     1
 90
       50
176
     1
290
     0
176
     1
 90
       50
176
     1
 62
   256
176
     0
 40
1.0
176
     0
 90
        2
176
     1
  1
strokes_ogs.tif
176
     1
290
     0
176
     1
 40
1.0
176
     1
 40
1.0
176
     1
  0
VISUALSTYLE
  5
3C
102
{ACAD_REACTORS
330
2A
102
}
330
2A
100
AcDbVisualStyle
  2
OverhangOff
 70
    21
177
     3
291
     1
 70
    58
 90
        2
176
     0
 90
        2
176
     0
 90
        0
176
     0
 90
        0
176
     0
 40
0.6
176
     0
 40
30.0
176
     0
 62
     7
420
 16777215
176
     0
 90
        1
176
     0
 90
        4
176
     0
 62
     7
176
     0
 62
   257
176
     0
 90
        1
176
     0
 90
        1
176
     0
 40
1.0
176
     0
 90
        9
176
     2
 62
     7
176
     0
 40
1.0
176
     0
 90
        1
176
     0
 90
        6
176
     0
 90
        2
176
     0
 62
     7
176
     0
 90
        5
176
     0
 90
        0
176
     0
 90
        0
176
     0
290
     0
176
     0
 90
        1
176
     0
 40
0.0
176
     0
 90
        0
176
     0
290
     0
176
     0
290
     1
176
     0
290
     1
176
     0
290
     0
176
     0
290
     0
176
     0
290
     0
176
     0
290
     0
176
     0
290
     0
176
     0
290
     0
176
     0
 90
       50
176
     0
 40
0.0
176
     0
 40
1.0
176
     0
 90
        0
176
     0
 62
    18
420
        0
176
     0
 90
       50
176
     0
 90
        3
176
     0
 62
     5
420
      255
176
     0
290
     0
176
     0
 90
       50
176
     0
 90
       50
176
     0
 90
       50
176
     0
290
     0
176
     0
 90
       50
176
     0
 62
   256
176
     0
 40
1.0
176
     0
 90
        2
176
     0
  1
strokes_ogs.tif
176
     0
290
     0
176
     0
 40
1.0
176
     0
 40
1.0
176
     0
  0
VISUALSTYLE
  5
33
102
{ACAD_REACTORS
330
2A
102
}
330
2A
100
AcDbVisualStyle
  2
Realistic
 70
     8
177
     3
291
     0
 70
    58
 90
        2
176
     1
 90
        3
176
     1
 90
        0
176
     1
 90
        2
176
     1
 40
0.6
176
     1
 40
30.0
176
     1
 62
     7
420
 16777215
176
     1
 90
        0
176
     1
 90
        0
176
     1
 62
     7
176
     1
 62
   257
176
     1
 90
        1
176
     1
 90
        1
176
     1
 40
1.0
176
     1
 90
        8
176
     1
 62
   257
176
     1
 40
1.0
176
     1
 90
        1
176
     1
 90
        6
176
     1
 90
        2
176
     1
 62
     7
176
     1
 90
        3
176
     1
 90
        0
176
     1
 90
        0
176
     1
290
     0
176
     1
 90
       13
176
     1
 40
0.0
176
     1
 90
        0
176
     1
290
     0
176
     1
290
     1
176
     1
290
     1
176
     1
290
     0
176
     1
290
     0
176
     1
290
     0
176
     1
290
     0
176
     1
290
     0
176
     1
290
     0
176
     1
 90
       50
176
     1
 40
0.0
176
     1
 40
1.0
176
     1
 90
        0
176
     1
 62
    18
420
        0
176
     1
 90
       50
176
     1
 90
        3
176
     1
 62
     5
420
      255
176
     1
290
     0
176
     1
 90
       50
176
     1
 90
       50
176
     1
 90
       50
176
     1
290
     0
176
     1
 90
       50
176
     1
 62
   256
176
     0
 40
1.0
176
     0
 90
        2
176
     1
  1
strokes_ogs.tif
176
     1
290
     0
176
     1
 40
1.0
176
     1
 40
1.0
176
     1
  0
VISUALSTYLE
  5
42
102
{ACAD_REACTORS
330
2A
102
}
330
2A
100
AcDbVisualStyle
  2
Shaded
 70
    27
177
     3
291
     0
 70
    58
 90
        2
176
     1
 90
        2
176
     1
 90
        1
176
     1
 90
        2
176
     1
 40
0.6
176
     1
 40
30.0
176
     1
 62
     7
420
 16777215
176
     1
 90
        0
176
     1
 90
        4
176
     1
 62
     7
176
     1
 62
   257
176
     1
 90
        1
176
     1
 90
        1
176
     1
 40
1.0
176
     1
 90
        8
176
     1
 62
   257
176
     1
 40
1.0
176
     1
 90
        1
176
     1
 90
        6
176
     1
 90
        2
176
     1
 62
     8
420
  7895160
176
     1
 90
        3
176
     1
 90
        0
176
     1
 90
        0
176
     1
290
     0
176
     1
 90
        5
176
     1
 40
0.0
176
     1
 90
        0
176
     1
290
     0
176
     1
290
     1
176
     1
290
     1
176
     1
290
     0
176
     1
290
     0
176
     1
290
     0
176
     1
290
     0
176
     1
290
     0
176
     1
290
     0
176
     1
 90
       50
176
     1
 40
0.0
176
     1
 40
1.0
176
     1
 90
        0
176
     1
 62
    18
420
        0
176
     1
 90
       50
176
     1
 90
        3
176
     1
 62
     5
420
      255
176
     1
290
     0
176
     1
 90
       50
176
     1
 90
       50
176
     1
 90
       50
176
     1
290
     0
176
     1
 90
       50
176
     1
 62
   256
176
     0
 40
1.0
176
     0
 90
        2
176
     1
  1
strokes_ogs.tif
176
     1
290
     0
176
     1
 40
1.0
176
     1
 40
1.0
176
     1
  0
VISUALSTYLE
  5
41
102
{ACAD_REACTORS
330
2A
102
}
330
2A
100
AcDbVisualStyle
  2
Shaded with edges
 70
    26
177
     3
291
     0
 70
    58
 90
        2
176
     1
 90
        2
176
     1
 90
        1
176
     1
 90
        2
176
     1
 40
0.6
176
     1
 40
30.0
176
     1
 62
     7
420
 16777215
176
     1
 90
        1
176
     1
 90
       10
176
     1
 62
     7
176
     1
 62
   257
176
     1
 90
        2
176
     1
 90
        1
176
     1
 40
1.0
176
     1
 90
        8
176
     1
 62
   257
176
     1
 40
1.0
176
     1
 90
        1
176
     1
 90
        6
176
     1
 90
        2
176
     1
 62
     7
176
     1
 90
        3
176
     1
 90
        0
176
     1
 90
        0
176
     1
290
     0
176
     1
 90
        5
176
     1
 40
0.0
176
     1
 90
        0
176
     1
290
     0
176
     1
290
     1
176
     1
290
     1
176
     1
290
     0
176
     1
290
     0
176
     1
290
     0
176
     1
290
     0
176
     1
290
     0
176
     1
290
     0
176
     1
 90
       50
176
     1
 40
0.0
176
     1
 40
1.0
176
     1
 90
        0
176
     1
 62
    18
420
        0
176
     1
 90
       50
176
     1
 90
        3
176
     1
 62
     5
420
      255
176
     1
290
     0
176
     1
 90
       50
176
     1
 90
       50
176
     1
 90
       50
176
     1
290
     0
176
     1
 90
       50
176
     1
 62
   256
176
     0
 40
1.0
176
     0
 90
        2
176
     1
  1
strokes_ogs.tif
176
     1
290
     0
176
     1
 40
1.0
176
     1
 40
1.0
176
     1
  0
VISUALSTYLE
  5
3E
102
{ACAD_REACTORS
330
2A
102
}
330
2A
100
AcDbVisualStyle
  2
Shades of Gray
 70
    23
177
     3
291
     0
 70
    58
 90
        2
176
     1
 90
        2
176
     1
 90
        3
176
     1
 90
        0
176
     1
 40
0.6
176
     1
 40
30.0
176
     1
 62
     7
420
 16777215
176
     1
 90
        2
176
     1
 90
        2
176
     1
 62
     7
176
     1
 62
     7
176
     1
 90
        1
176
     1
 90
        1
176
     1
 40
40.0
176
     1
 90
        8
176
     1
 62
     7
176
     1
 40
1.0
176
     1
 90
        1
176
     1
 90
        6
176
     1
 90
        2
176
     1
 62
     7
176
     1
 90
        3
176
     1
 90
        0
176
     1
 90
        0
176
     1
290
     0
176
     1
 90
        1
176
     1
 40
0.0
176
     1
 90
        0
176
     1
290
     0
176
     1
290
     1
176
     1
290
     1
176
     1
290
     0
176
     1
290
     0
176
     1
290
     0
176
     1
290
     0
176
     1
290
     0
176
     1
290
     0
176
     1
 90
       50
176
     1
 40
0.0
176
     1
 40
1.0
176
     1
 90
        0
176
     1
 62
    18
420
        0
176
     1
 90
       50
176
     1
 90
        3
176
     1
 62
     5
420
      255
176
     1
290
     0
176
     1
 90
       50
176
     1
 90
       50
176
     1
 90
       50
176
     1
290
     0
176
     1
 90
       50
176
     1
 62
   256
176
     0
 40
1.0
176
     0
 90
        2
176
     1
  1
strokes_ogs.tif
176
     1
290
     0
176
     1
 40
1.0
176
     1
 40
1.0
176
     1
  0
VISUALSTYLE
  5
3F
102
{ACAD_REACTORS
330
2A
102
}
330
2A
100
AcDbVisualStyle
  2
Sketchy
 70
    24
177
     3
291
     0
 70
    58
 90
        1
176
     1
 90
        2
176
     1
 90
        2
176
     1
 90
        0
176
     1
 40
0.6
176
     1
 40
30.0
176
     1
 62
     7
420
 16777215
176
     1
 90
        2
176
     1
 90
        2
176
     1
 62
     7
176
     1
 62
     7
176
     1
 90
        1
176
     1
 90
        1
176
     1
 40
40.0
176
     1
 90
       11
176
     1
 62
     7
176
     1
 40
1.0
176
     1
 90
        1
176
     1
 90
        6
176
     1
 90
        2
176
     1
 62
     7
176
     1
 90
        6
176
     1
 90
        0
176
     1
 90
        0
176
     1
290
     0
176
     1
 90
        1
176
     1
 40
0.0
176
     1
 90
        0
176
     1
290
     0
176
     1
290
     1
176
     1
290
     1
176
     1
290
     0
176
     1
290
     0
176
     1
290
     0
176
     1
290
     0
176
     1
290
     0
176
     1
290
     0
176
     1
 90
       50
176
     1
 40
0.0
176
     1
 40
1.0
176
     1
 90
        0
176
     1
 62
    18
420
        0
176
     1
 90
       50
176
     1
 90
        3
176
     1
 62
     5
420
      255
176
     1
290
     0
176
     1
 90
       50
176
     1
 90
       50
176
     1
 90
       50
176
     1
290
     0
176
     1
 90
       50
176
     1
 62
   256
176
     0
 40
1.0
176
     0
 90
        2
176
     1
  1
strokes_ogs.tif
176
     1
290
     0
176
     1
 40
1.0
176
     1
 40
1.0
176
     1
  0
VISUALSTYLE
  5
37
102
{ACAD_REACTORS
330
2A
102
}
330
2A
100
AcDbVisualStyle
  2
Thicken
 70
    13
177
     3
291
     1
 70
    58
 90
        2
176
     1
 90
        2
176
     1
 90
        0
176
     1
 90
        0
176
     1
 40
0.6
176
     1
 40
30.0
176
     1
 62
     7
420
 16777215
176
     1
 90
        1
176
     1
 90
        4
176
     1
 62
     7
176
     1
 62
   257
176
     1
 90
        1
176
     1
 90
        1
176
     1
 40
1.0
176
     1
 90
       12
176
     1
 62
     7
176
     1
 40
1.0
176
     1
 90
        1
176
     1
 90
        6
176
     1
 90
        2
176
     1
 62
     7
176
     1
 90
        5
176
     1
 90
        0
176
     1
 90
        0
176
     1
290
     0
176
     1
 90
        1
176
     1
 40
0.0
176
     1
 90
        0
176
     1
290
     0
176
     1
290
     1
176
     1
290
     1
176
     1
290
     0
176
     1
290
     0
176
     1
290
     0
176
     1
290
     0
176
     1
290
     0
176
     1
290
     0
176
     1
 90
       50
176
     1
 40
0.0
176
     1
 40
1.0
176
     1
 90
        0
176
     1
 62
    18
420
        0
176
     1
 90
       50
176
     1
 90
        3
176
     1
 62
     5
420
      255
176
     1
290
     0
176
     1
 90
       50
176
     1
 90
       50
176
     1
 90
       50
176
     1
290
     0
176
     1
 90
       50
176
     1
 62
   256
176
     0
 40
1.0
176
     0
 90
        2
176
     1
  1
strokes_ogs.tif
176
     1
290
     0
176
     1
 40
1.0
176
     1
 40
1.0
176
     1
  0
VISUALSTYLE
  5
30
102
{ACAD_REACTORS
330
2A
102
}
330
2A
100
AcDbVisualStyle
  2
Wireframe
 70
     5
177
     3
291
     0
 70
    58
 90
        0
176
     1
 90
        2
176
     1
 90
        0
176
     1
 90
        0
176
     1
 40
0.6
176
     1
 40
30.0
176
     1
 62
     7
420
 16777215
176
     1
 90
        1
176
     1
 90
        4
176
     1
 62
     7
176
     1
 62
   257
176
     1
 90
        1
176
     1
 90
        1
176
     1
 40
1.0
176
     1
 90
        0
176
     1
 62
   257
176
     1
 40
1.0
176
     1
 90
        1
176
     1
 90
        6
176
     1
 90
        2
176
     1
 62
     7
176
     1
 90
        3
176
     1
 90
        0
176
     1
 90
        0
176
     1
290
     0
176
     1
 90
        1
176
     1
 40
0.0
176
     1
 90
        0
176
     1
290
     0
176
     1
290
     1
176
     1
290
     1
176
     1
290
     0
176
     1
290
     0
176
     1
290
     0
176
     1
290
     0
176
     1
290
     0
176
     1
290
     0
176
     1
 90
       50
176
     1
 40
0.0
176
     1
 40
1.0
176
     1
 90
        0
176
     1
 62
    18
420
        0
176
     1
 90
       50
176
     1
 90
        3
176
     1
 62
     5
420
      255
176
     1
290
     0
176
     1
 90
       50
176
     1
 90
       50
176
     1
 90
       50
176
     1
290
     0
176
     1
 90
       50
176
     1
 62
   256
176
     0
 40
1.0
176
     0
 90
        2
176
     1
  1
strokes_ogs.tif
176
     1
290
     0
176
     1
 40
1.0
176
     1
 40
1.0
176
     1
  0
VISUALSTYLE
  5
40
102
{ACAD_REACTORS
330
2A
102
}
330
2A
100
AcDbVisualStyle
  2
X-Ray
 70
    25
177
     3
291
     0
 70
    58
 90
        2
176
     1
 90
        2
176
     1
 90
        1
176
     1
 90
        1
176
     1
 40
0.5
176
     1
 40
30.0
176
     1
 62
     7
420
 16777215
176
     1
 90
        1
176
     1
 90
        0
176
     1
 62
     7
176
     1
 62
   257
176
     1
 90
        1
176
     1
 90
        1
176
     1
 40
1.0
176
     1
 90
        8
176
     1
 62
     7
176
     1
 40
1.0
176
     1
 90
        1
176
     1
 90
        6
176
     1
 90
        2
176
     1
 62
     7
176
     1
 90
        3
176
     1
 90
        0
176
     1
 90
        0
176
     1
290
     0
176
     1
 90
       13
176
     1
 40
0.0
176
     1
 90
        0
176
     1
290
     0
176
     1
290
     1
176
     1
290
     1
176
     1
290
     0
176
     1
290
     0
176
     1
290
     0
176
     1
290
     0
176
     1
290
     0
176
     1
290
     0
176
     1
 90
       50
176
     1
 40
0.0
176
     1
 40
1.0
176
     1
 90
        0
176
     1
 62
    18
420
        0
176
     1
 90
       50
176
     1
 90
        3
176
     1
 62
     5
420
      255
176
     1
290
     0
176
     1
 90
       50
176
     1
 90
       50
176
     1
 90
       50
176
     1
290
     0
176
     1
 90
       50
176
     1
 62
   256
176
     0
 40
1.0
176
     0
 90
        2
176
     1
  1
strokes_ogs.tif
176
     1
290
     0
176
     1
 40
1.0
176
     1
 40
1.0
176
     1
  0
DICTIONARYVAR
  5
1F0
102
{ACAD_REACTORS
330
1EF
102
}
330
1EF
100
DictionaryVariables
280
     0
  1
1:1
  0
DICTIONARYVAR
  5
1F5
102
{ACAD_REACTORS
330
1EF
102
}
330
1EF
100
DictionaryVariables
280
     0
  1
Standard
  0
DICTIONARYVAR
  5
1F4
102
{ACAD_REACTORS
330
1EF
102
}
330
1EF
100
DictionaryVariables
280
     0
  1
Standard
  0
DICTIONARY
  5
1F1
330
6A
100
AcDbDictionary
280
     1
281
     1
  3
ACAD_ROUNDTRIP_2008_TABLESTYLE_CELLSTYLEMAP
360
1F2
  0
CELLSTYLEMAP
  5
1F2
102
{ACAD_REACTORS
330
1F1
102
}
330
1F1
100
AcDbCellStyleMap
 90
        3
300
CELLSTYLE
  1
TABLEFORMAT_BEGIN
 90
        5
170
     1
 91
        0
 92
    32768
 62
   257
 93
        1
300
CONTENTFORMAT
  1
CONTENTFORMAT_BEGIN
 90
        0
 91
        0
 92
        4
 93
        0
300

 40
0.0
140
1.0
 94
        5
 62
     0
340
11
144
6.0
309
CONTENTFORMAT_END
171
     1
301
MARGIN
  1
CELLMARGIN_BEGIN
 40
1.5
 40
1.5
 40
1.5
 40
1.5
 40
1.5
 40
1.5
309
CELLMARGIN_END
 94
        6
 95
        1
302
GRIDFORMAT
  1
GRIDFORMAT_BEGIN
 90
        0
 91
        1
 62
     0
 92
       -2
340
14
 93
        0
 40
0.045
309
GRIDFORMAT_END
 95
        2
302
GRIDFORMAT
  1
GRIDFORMAT_BEGIN
 90
        0
 91
        1
 62
     0
 92
       -2
340
14
 93
        0
 40
0.045
309
GRIDFORMAT_END
 95
        4
302
GRIDFORMAT
  1
GRIDFORMAT_BEGIN
 90
        0
 91
        1
 62
     0
 92
       -2
340
14
 93
        0
 40
0.045
309
GRIDFORMAT_END
 95
        8
302
GRIDFORMAT
  1
GRIDFORMAT_BEGIN
 90
        0
 91
        1
 62
     0
 92
       -2
340
14
 93
        0
 40
0.045
309
GRIDFORMAT_END
 95
       16
302
GRIDFORMAT
  1
GRIDFORMAT_BEGIN
 90
        0
 91
        1
 62
     0
 92
       -2
340
14
 93
        0
 40
0.045
309
GRIDFORMAT_END
 95
       32
302
GRIDFORMAT
  1
GRIDFORMAT_BEGIN
 90
        0
 91
        1
 62
     0
 92
       -2
340
14
 93
        0
 40
0.045
309
GRIDFORMAT_END
309
TABLEFORMAT_END
  1
CELLSTYLE_BEGIN
 90
        1
 91
        1
300
_TITLE
309
CELLSTYLE_END
300
CELLSTYLE
  1
TABLEFORMAT_BEGIN
 90
        5
170
     1
 91
        0
 92
        0
 62
   257
 93
        1
300
CONTENTFORMAT
  1
CONTENTFORMAT_BEGIN
 90
        0
 91
        0
 92
        4
 93
        0
300

 40
0.0
140
1.0
 94
        5
 62
     0
340
11
144
4.5
309
CONTENTFORMAT_END
171
     1
301
MARGIN
  1
CELLMARGIN_BEGIN
 40
1.5
 40
1.5
 40
1.5
 40
1.5
 40
1.5
 40
1.5
309
CELLMARGIN_END
 94
        6
 95
        1
302
GRIDFORMAT
  1
GRIDFORMAT_BEGIN
 90
        0
 91
        1
 62
     0
 92
       -2
340
14
 93
        0
 40
0.045
309
GRIDFORMAT_END
 95
        2
302
GRIDFORMAT
  1
GRIDFORMAT_BEGIN
 90
        0
 91
        1
 62
     0
 92
       -2
340
14
 93
        0
 40
0.045
309
GRIDFORMAT_END
 95
        4
302
GRIDFORMAT
  1
GRIDFORMAT_BEGIN
 90
        0
 91
        1
 62
     0
 92
       -2
340
14
 93
        0
 40
0.045
309
GRIDFORMAT_END
 95
        8
302
GRIDFORMAT
  1
GRIDFORMAT_BEGIN
 90
        0
 91
        1
 62
     0
 92
       -2
340
14
 93
        0
 40
0.045
309
GRIDFORMAT_END
 95
       16
302
GRIDFORMAT
  1
GRIDFORMAT_BEGIN
 90
        0
 91
        1
 62
     0
 92
       -2
340
14
 93
        0
 40
0.045
309
GRIDFORMAT_END
 95
       32
302
GRIDFORMAT
  1
GRIDFORMAT_BEGIN
 90
        0
 91
        1
 62
     0
 92
       -2
340
14
 93
        0
 40
0.045
309
GRIDFORMAT_END
309
TABLEFORMAT_END
  1
CELLSTYLE_BEGIN
 90
        2
 91
        1
300
_HEADER
309
CELLSTYLE_END
300
CELLSTYLE
  1
TABLEFORMAT_BEGIN
 90
        5
170
     1
 91
        0
 92
        0
 62
   257
 93
        1
300
CONTENTFORMAT
  1
CONTENTFORMAT_BEGIN
 90
        0
 91
        0
 92
        4
 93
        0
300

 40
0.0
140
1.0
 94
        2
 62
     0
340
11
144
4.5
309
CONTENTFORMAT_END
171
     1
301
MARGIN
  1
CELLMARGIN_BEGIN
 40
1.5
 40
1.5
 40
1.5
 40
1.5
 40
1.5
 40
1.5
309
CELLMARGIN_END
 94
        6
 95
        1
302
GRIDFORMAT
  1
GRIDFORMAT_BEGIN
 90
        0
 91
        1
 62
     0
 92
       -2
340
14
 93
        0
 40
0.045
309
GRIDFORMAT_END
 95
        2
302
GRIDFORMAT
  1
GRIDFORMAT_BEGIN
 90
        0
 91
        1
 62
     0
 92
       -2
340
14
 93
        0
 40
0.045
309
GRIDFORMAT_END
 95
        4
302
GRIDFORMAT
  1
GRIDFORMAT_BEGIN
 90
        0
 91
        1
 62
     0
 92
       -2
340
14
 93
        0
 40
0.045
309
GRIDFORMAT_END
 95
        8
302
GRIDFORMAT
  1
GRIDFORMAT_BEGIN
 90
        0
 91
        1
 62
     0
 92
       -2
340
14
 93
        0
 40
0.045
309
GRIDFORMAT_END
 95
       16
302
GRIDFORMAT
  1
GRIDFORMAT_BEGIN
 90
        0
 91
        1
 62
     0
 92
       -2
340
14
 93
        0
 40
0.045
309
GRIDFORMAT_END
 95
       32
302
GRIDFORMAT
  1
GRIDFORMAT_BEGIN
 90
        0
 91
        1
 62
     0
 92
       -2
340
14
 93
        0
 40
0.045
309
GRIDFORMAT_END
309
TABLEFORMAT_END
  1
CELLSTYLE_BEGIN
 90
        3
 91
        2
300
_DATA
309
CELLSTYLE_END
  0
ENDSEC
  0
EOF