0
SECTION
  2
HEADER
  9
$ACADVER
  1
AC1027
  9
$ACADMAINTVER
 70
     8
  9
$DWGCODEPAGE
  3
ANSI_1252
  9
$REQUIREDVERSIONS
160
                 0
  9
$COMMENTS
  1
File was created by Cadenas
  9
$CUSTOMPROPERTYTAG
  1
NN
  9
$CUSTOMPROPERTY
  1
Grip Tight Two-Bolt Flange Metric Bore
  9
$CUSTOMPROPERTYTAG
  1
NT
  9
$CUSTOMPROPERTY
  1
GT Normal Duty 2 Bolt Flange Bearings
  9
$CUSTOMPROPERTYTAG
  1
NB
  9
$CUSTOMPROPERTY
  1
129323
  9
$CUSTOMPROPERTYTAG
  1
NBSYN
  9
$CUSTOMPROPERTY
  1
$PN.$LUBE.
  9
$CUSTOMPROPERTYTAG
  1
LINA
  9
$CUSTOMPROPERTY
  1
129323
  9
$CUSTOMPROPERTYTAG
  1
SERIES
  9
$CUSTOMPROPERTY
  1
205
  9
$CUSTOMPROPERTYTAG
  1
SS
  9
$CUSTOMPROPERTY
  1
25
  9
$CUSTOMPROPERTYTAG
  1
PN
  9
$CUSTOMPROPERTY
  1
129323
  9
$CUSTOMPROPERTYTAG
  1
DESCRIPTION
  9
$CUSTOMPROPERTY
  1
F2B-GT-25M
  9
$CUSTOMPROPERTYTAG
  1
A
  9
$CUSTOMPROPERTY
  1
36.9
  9
$CUSTOMPROPERTYTAG
  1
B
  9
$CUSTOMPROPERTY
  1
123.8
  9
$CUSTOMPROPERTYTAG
  1
C
  9
$CUSTOMPROPERTY
  1
39.3
  9
$CUSTOMPROPERTYTAG
  1
D
  9
$CUSTOMPROPERTY
  1
98.8
  9
$CUSTOMPROPERTYTAG
  1
F
  9
$CUSTOMPROPERTY
  1
M10
  9
$CUSTOMPROPERTYTAG
  1
H
  9
$CUSTOMPROPERTY
  1
12.7
  9
$CUSTOMPROPERTYTAG
  1
J
  9
$CUSTOMPROPERTY
  1
15.1
  9
$CUSTOMPROPERTYTAG
  1
L
  9
$CUSTOMPROPERTY
  1
45.6
  9
$CUSTOMPROPERTYTAG
  1
M
  9
$CUSTOMPROPERTY
  1
69.9
  9
$CUSTOMPROPERTYTAG
  1
N
  9
$CUSTOMPROPERTY
  1
36.5
  9
$CUSTOMPROPERTYTAG
  1
Z
  9
$CUSTOMPROPERTY
  1
39.3
  9
$CUSTOMPROPERTYTAG
  1
COMPANY
  9
$CUSTOMPROPERTY
  1
baldor
  9
$INSBASE
 10
0.0
 20
0.0
 30
0.0
  9
$EXTMIN
 10
1.000000000000000E+20
 20
1.000000000000000E+20
 30
1.000000000000000E+20
  9
$EXTMAX
 10
-1.000000000000000E+20
 20
-1.000000000000000E+20
 30
-1.000000000000000E+20
  9
$LIMMIN
 10
0.0
 20
0.0
  9
$LIMMAX
 10
420.0
 20
297.0
  9
$ORTHOMODE
 70
     0
  9
$REGENMODE
 70
     1
  9
$FILLMODE
 70
     1
  9
$QTEXTMODE
 70
     0
  9
$MIRRTEXT
 70
     1
  9
$LTSCALE
 40
1.0
  9
$ATTMODE
 70
     1
  9
$TEXTSIZE
 40
2.5
  9
$TRACEWID
 40
1.0
  9
$TEXTSTYLE
  7
Standard
  9
$CLAYER
  8
0
  9
$CELTYPE
  6
ByLayer
  9
$CECOLOR
 62
   256
  9
$CELTSCALE
 40
1.0
  9
$DISPSILH
 70
     0
  9
$DIMSCALE
 40
1.0
  9
$DIMASZ
 40
2.5
  9
$DIMEXO
 40
0.625
  9
$DIMDLI
 40
3.75
  9
$DIMRND
 40
0.0
  9
$DIMDLE
 40
0.0
  9
$DIMEXE
 40
1.25
  9
$DIMTP
 40
0.0
  9
$DIMTM
 40
0.0
  9
$DIMTXT
 40
2.5
  9
$DIMCEN
 40
2.5
  9
$DIMTSZ
 40
0.0
  9
$DIMTOL
 70
     0
  9
$DIMLIM
 70
     0
  9
$DIMTIH
 70
     0
  9
$DIMTOH
 70
     0
  9
$DIMSE1
 70
     0
  9
$DIMSE2
 70
     0
  9
$DIMTAD
 70
     1
  9
$DIMZIN
 70
     8
  9
$DIMBLK
  1

  9
$DIMASO
 70
     1
  9
$DIMSHO
 70
     1
  9
$DIMPOST
  1

  9
$DIMAPOST
  1

  9
$DIMALT
 70
     0
  9
$DIMALTD
 70
     3
  9
$DIMALTF
 40
0.03937007874016
  9
$DIMLFAC
 40
1.0
  9
$DIMTOFL
 70
     1
  9
$DIMTVP
 40
0.0
  9
$DIMTIX
 70
     0
  9
$DIMSOXD
 70
     0
  9
$DIMSAH
 70
     0
  9
$DIMBLK1
  1

  9
$DIMBLK2
  1

  9
$DIMSTYLE
  2
ISO-25
  9
$DIMCLRD
 70
     0
  9
$DIMCLRE
 70
     0
  9
$DIMCLRT
 70
     0
  9
$DIMTFAC
 40
1.0
  9
$DIMGAP
 40
0.625
  9
$DIMJUST
 70
     0
  9
$DIMSD1
 70
     0
  9
$DIMSD2
 70
     0
  9
$DIMTOLJ
 70
     0
  9
$DIMTZIN
 70
     8
  9
$DIMALTZ
 70
     0
  9
$DIMALTTZ
 70
     0
  9
$DIMUPT
 70
     0
  9
$DIMDEC
 70
     2
  9
$DIMTDEC
 70
     2
  9
$DIMALTU
 70
     2
  9
$DIMALTTD
 70
     3
  9
$DIMTXSTY
  7
Standard
  9
$DIMAUNIT
 70
     0
  9
$DIMADEC
 70
     0
  9
$DIMALTRND
 40
0.0
  9
$DIMAZIN
 70
     0
  9
$DIMDSEP
 70
    44
  9
$DIMATFIT
 70
     3
  9
$DIMFRAC
 70
     0
  9
$DIMLDRBLK
  1

  9
$DIMLUNIT
 70
     2
  9
$DIMLWD
 70
    -2
  9
$DIMLWE
 70
    -2
  9
$DIMTMOVE
 70
     0
  9
$DIMFXL
 40
1.0
  9
$DIMFXLON
 70
     0
  9
$DIMJOGANG
 40
0.7853981633974483
  9
$DIMTFILL
 70
     0
  9
$DIMTFILLCLR
 70
     0
  9
$DIMARCSYM
 70
     0
  9
$DIMLTYPE
  6

  9
$DIMLTEX1
  6

  9
$DIMLTEX2
  6

  9
$DIMTXTDIRECTION
 70
     0
  9
$LUNITS
 70
     2
  9
$LUPREC
 70
     4
  9
$SKETCHINC
 40
1.0
  9
$FILLETRAD
 40
10.0
  9
$AUNITS
 70
     0
  9
$AUPREC
 70
     0
  9
$MENU
  1
.
  9
$ELEVATION
 40
0.0
  9
$PELEVATION
 40
0.0
  9
$THICKNESS
 40
0.0
  9
$LIMCHECK
 70
     0
  9
$CHAMFERA
 40
0.0
  9
$CHAMFERB
 40
0.0
  9
$CHAMFERC
 40
0.0
  9
$CHAMFERD
 40
0.0
  9
$SKPOLY
 70
     0
  9
$TDCREATE
 40
2458168.995097176
  9
$TDUCREATE
 40
2458168.953430509
  9
$TDUPDATE
 40
2458168.995097349
  9
$TDUUPDATE
 40
2458168.953430683
  9
$TDINDWG
 40
0.0000000116
  9
$TDUSRTIMER
 40
0.0000000116
  9
$USRTIMER
 70
     1
  9
$ANGBASE
 50
0.0
  9
$ANGDIR
 70
     0
  9
$PDMODE
 70
     0
  9
$PDSIZE
 40
0.0
  9
$PLINEWID
 40
0.0
  9
$SPLFRAME
 70
     0
  9
$SPLINETYPE
 70
     6
  9
$SPLINESEGS
 70
     8
  9
$HANDSEED
  5
1F4
  9
$SURFTAB1
 70
     6
  9
$SURFTAB2
 70
     6
  9
$SURFTYPE
 70
     6
  9
$SURFU
 70
     6
  9
$SURFV
 70
     6
  9
$UCSBASE
  2

  9
$UCSNAME
  2

  9
$UCSORG
 10
0.0
 20
0.0
 30
0.0
  9
$UCSXDIR
 10
1.0
 20
0.0
 30
0.0
  9
$UCSYDIR
 10
0.0
 20
1.0
 30
0.0
  9
$UCSORTHOREF
  2

  9
$UCSORTHOVIEW
 70
     0
  9
$UCSORGTOP
 10
0.0
 20
0.0
 30
0.0
  9
$UCSORGBOTTOM
 10
0.0
 20
0.0
 30
0.0
  9
$UCSORGLEFT
 10
0.0
 20
0.0
 30
0.0
  9
$UCSORGRIGHT
 10
0.0
 20
0.0
 30
0.0
  9
$UCSORGFRONT
 10
0.0
 20
0.0
 30
0.0
  9
$UCSORGBACK
 10
0.0
 20
0.0
 30
0.0
  9
$PUCSBASE
  2

  9
$PUCSNAME
  2

  9
$PUCSORG
 10
0.0
 20
0.0
 30
0.0
  9
$PUCSXDIR
 10
1.0
 20
0.0
 30
0.0
  9
$PUCSYDIR
 10
0.0
 20
1.0
 30
0.0
  9
$PUCSORTHOREF
  2

  9
$PUCSORTHOVIEW
 70
     0
  9
$PUCSORGTOP
 10
0.0
 20
0.0
 30
0.0
  9
$PUCSORGBOTTOM
 10
0.0
 20
0.0
 30
0.0
  9
$PUCSORGLEFT
 10
0.0
 20
0.0
 30
0.0
  9
$PUCSORGRIGHT
 10
0.0
 20
0.0
 30
0.0
  9
$PUCSORGFRONT
 10
0.0
 20
0.0
 30
0.0
  9
$PUCSORGBACK
 10
0.0
 20
0.0
 30
0.0
  9
$USERI1
 70
     0
  9
$USERI2
 70
     0
  9
$USERI3
 70
     0
  9
$USERI4
 70
     0
  9
$USERI5
 70
     0
  9
$USERR1
 40
0.0
  9
$USERR2
 40
0.0
  9
$USERR3
 40
0.0
  9
$USERR4
 40
0.0
  9
$USERR5
 40
0.0
  9
$WORLDVIEW
 70
     1
  9
$SHADEDGE
 70
     3
  9
$SHADEDIF
 70
    70
  9
$TILEMODE
 70
     1
  9
$MAXACTVP
 70
    64
  9
$PINSBASE
 10
0.0
 20
0.0
 30
0.0
  9
$PLIMCHECK
 70
     0
  9
$PEXTMIN
 10
1.000000000000000E+20
 20
1.000000000000000E+20
 30
1.000000000000000E+20
  9
$PEXTMAX
 10
-1.000000000000000E+20
 20
-1.000000000000000E+20
 30
-1.000000000000000E+20
  9
$PLIMMIN
 10
0.0
 20
0.0
  9
$PLIMMAX
 10
420.0
 20
297.0
  9
$UNITMODE
 70
     0
  9
$VISRETAIN
 70
     1
  9
$PLINEGEN
 70
     0
  9
$PSLTSCALE
 70
     1
  9
$TREEDEPTH
 70
  3020
  9
$CMLSTYLE
  2
Standard
  9
$CMLJUST
 70
     0
  9
$CMLSCALE
 40
20.0
  9
$PROXYGRAPHICS
 70
     1
  9
$MEASUREMENT
 70
     1
  9
$CELWEIGHT
370
    -1
  9
$ENDCAPS
280
     0
  9
$JOINSTYLE
280
     0
  9
$LWDISPLAY
290
     0
  9
$INSUNITS
 70
     4
  9
$HYPERLINKBASE
  1

  9
$STYLESHEET
  1

  9
$XEDIT
290
     1
  9
$CEPSNTYPE
380
     0
  9
$PSTYLEMODE
290
     1
  9
$FINGERPRINTGUID
  2
{F4E7EC0B-E3BD-44D2-9CCC-B12B934E1323}
  9
$VERSIONGUID
  2
{FAEB1C32-E019-11D5-929B-00C0DF256EC4}
  9
$EXTNAMES
290
     1
  9
$PSVPSCALE
 40
0.0
  9
$OLESTARTUP
290
     0
  9
$SORTENTS
280
   127
  9
$INDEXCTL
280
     0
  9
$HIDETEXT
280
     1
  9
$XCLIPFRAME
280
     2
  9
$HALOGAP
280
     0
  9
$OBSCOLOR
 70
   257
  9
$OBSLTYPE
280
     0
  9
$INTERSECTIONDISPLAY
280
     0
  9
$INTERSECTIONCOLOR
 70
   257
  9
$DIMASSOC
280
     2
  9
$PROJECTNAME
  1

  9
$CAMERADISPLAY
290
     0
  9
$LENSLENGTH
 40
50.0
  9
$CAMERAHEIGHT
 40
0.0
  9
$STEPSPERSEC
 40
2.0
  9
$STEPSIZE
 40
6.0
  9
$3DDWFPREC
 40
2.0
  9
$PSOLWIDTH
 40
5.0
  9
$PSOLHEIGHT
 40
80.0
  9
$LOFTANG1
 40
1.570796326794897
  9
$LOFTANG2
 40
1.570796326794897
  9
$LOFTMAG1
 40
0.0
  9
$LOFTMAG2
 40
0.0
  9
$LOFTPARAM
 70
     7
  9
$LOFTNORMALS
280
     1
  9
$LATITUDE
 40
37.795
  9
$LONGITUDE
 40
-122.394
  9
$NORTHDIRECTION
 40
0.0
  9
$TIMEZONE
 70
 -8000
  9
$LIGHTGLYPHDISPLAY
280
     1
  9
$TILEMODELIGHTSYNCH
280
     1
  9
$CMATERIAL
347
44
  9
$SOLIDHIST
280
     0
  9
$SHOWHIST
280
     1
  9
$DWFFRAME
280
     2
  9
$DGNFRAME
280
     2
  9
$REALWORLDSCALE
290
     1
  9
$INTERFERECOLOR
 62
   256
  9
$CSHADOW
280
     0
  9
$SHADOWPLANELOCATION
 40
0.0
  0
ENDSEC
  0
SECTION
  2
CLASSES
  0
CLASS
  1
ACDBDICTIONARYWDFLT
  2
AcDbDictionaryWithDefault
  3
ObjectDBX Classes
 90
        0
 91
        4
280
     0
281
     0
  0
CLASS
  1
VISUALSTYLE
  2
AcDbVisualStyle
  3
ObjectDBX Classes
 90
     4095
 91
        4
280
     0
281
     0
  0
CLASS
  1
MATERIAL
  2
AcDbMaterial
  3
ObjectDBX Classes
 90
     1153
 91
        4
280
     0
281
     0
  0
CLASS
  1
SCALE
  2
AcDbScale
  3
ObjectDBX Classes
 90
     1153
 91
        4
280
     0
281
     0
  0
CLASS
  1
TABLESTYLE
  2
AcDbTableStyle
  3
ObjectDBX Classes
 90
     4095
 91
        4
280
     0
281
     0
  0
CLASS
  1
MLEADERSTYLE
  2
AcDbMLeaderStyle
  3
ACDB_MLEADERSTYLE_CLASS
 90
     4095
 91
        4
280
     0
281
     0
  0
CLASS
  1
SUN
  2
AcDbSun
  3
SCENEOE
 90
     1153
 91
        4
280
     0
281
     0
  0
CLASS
  1
DICTIONARYVAR
  2
AcDbDictionaryVar
  3
ObjectDBX Classes
 90
        0
 91
        4
280
     0
281
     0
  0
CLASS
  1
CELLSTYLEMAP
  2
AcDbCellStyleMap
  3
ObjectDBX Classes
 90
     1152
 91
        4
280
     0
281
     0
  0
ENDSEC
  0
SECTION
  2
TABLES
  0
TABLE
  2
VPORT
  5
8
330
0
100
AcDbSymbolTable
 70
     1
  0
VPORT
  5
29
330
8
100
AcDbSymbolTableRecord
100
AcDbViewportTableRecord
  2
*Active
 70
     0
 10
0.0
 20
0.0
 11
1.0
 21
1.0
 12
0.7749999999999773
 22
-19.9675
 13
0.0
 23
0.0
 14
10.0
 24
10.0
 15
10.0
 25
10.0
 16
0.0
 26
0.0
 36
1.0
 17
0.0
 27
0.0
 37
0.0
 40
43.20210000000002
 41
1.686931885255578
 42
50.0
 43
0.0
 44
0.0
 50
0.0
 51
0.0
 71
     0
 72
   100
 73
     1
 74
     3
 75
     0
 76
     0
 77
     0
 78
     0
281
     0
 65
     1
110
0.0
120
0.0
130
0.0
111
1.0
121
0.0
131
0.0
112
0.0
122
1.0
132
0.0
 79
     0
146
0.0
348
2F
 60
     3
 61
     5
292
     1
282
     1
141
0.0
142
0.0
 63
   250
361
6D
  0
ENDTAB
  0
TABLE
  2
LTYPE
  5
5
330
0
100
AcDbSymbolTable
 70
     3
  0
LTYPE
  5
14
330
5
100
AcDbSymbolTableRecord
100
AcDbLinetypeTableRecord
  2
ByBlock
 70
     0
  3

 72
    65
 73
     0
 40
0.0
  0
LTYPE
  5
15
330
5
100
AcDbSymbolTableRecord
100
AcDbLinetypeTableRecord
  2
ByLayer
 70
     0
  3

 72
    65
 73
     0
 40
0.0
  0
LTYPE
  5
16
330
5
100
AcDbSymbolTableRecord
100
AcDbLinetypeTableRecord
  2
Continuous
 70
     0
  3
Solid line
 72
    65
 73
     0
 40
0.0
  0
LTYPE
  5
9E
330
5
100
AcDbSymbolTableRecord
100
AcDbLinetypeTableRecord
  2
Dashed
 70
     0
  3

 72
    65
 73
     2
 40
2.0
 49
1.0
 74
     0
 49
-1.0
 74
     0
  0
LTYPE
  5
106
330
5
100
AcDbSymbolTableRecord
100
AcDbLinetypeTableRecord
  2
Center
 70
     0
  3

 72
    65
 73
     4
 40
1.5
 49
0.45
 74
     0
 49
-0.5
 74
     0
 49
0.05
 74
     0
 49
-0.5
 74
     0
  0
ENDTAB
  0
TABLE
  2
LAYER
  5
2
330
0
100
AcDbSymbolTable
 70
     7
  0
LAYER
  5
10
330
2
100
AcDbSymbolTableRecord
100
AcDbLayerTableRecord
  2
0
 70
     0
 62
     7
  6
Continuous
370
    -3
390
F
347
46
348
0
  0
LAYER
  5
72
330
2
100
AcDbSymbolTableRecord
100
AcDbLayerTableRecord
  2
AM_6
 70
     0
 62
    -2
  6
Continuous
370
    35
390
F
347
46
348
0
  0
LAYER
  5
9F
330
2
100
AcDbSymbolTableRecord
100
AcDbLayerTableRecord
  2
AM_9
 70
     0
 62
     6
  6
Dashed
370
    25
390
F
347
46
348
0
  0
LAYER
  5
CF
330
2
100
AcDbSymbolTableRecord
100
AcDbLayerTableRecord
  2
AM_4
 70
     0
 62
     7
  6
Continuous
370
    50
390
F
347
46
348
0
  0
LAYER
  5
104
330
2
100
AcDbSymbolTableRecord
100
AcDbLayerTableRecord
  2
AM_5
 70
     0
 62
     3
  6
Continuous
370
    25
390
F
347
46
348
0
  0
LAYER
  5
107
330
2
100
AcDbSymbolTableRecord
100
AcDbLayerTableRecord
  2
AM_7
 70
     0
 62
     7
  6
Center
370
    25
390
F
347
46
348
0
  0
LAYER
  5
1E7
330
2
100
AcDbSymbolTableRecord
100
AcDbLayerTableRecord
  2
ConnectionPoints
 70
     0
 62
     7
  6
Continuous
370
    50
390
F
347
46
348
0
  0
ENDTAB
  0
TABLE
  2
STYLE
  5
3
330
0
100
AcDbSymbolTable
 70
     1
  0
STYLE
  5
11
330
3
100
AcDbSymbolTableRecord
100
AcDbTextStyleTableRecord
  2
Standard
 70
     0
 40
0.0
 41
1.0
 50
0.0
 71
     0
 42
2.5
  3
txt
  4

  0
ENDTAB
  0
TABLE
  2
VIEW
  5
6
330
0
100
AcDbSymbolTable
 70
     0
  0
ENDTAB
  0
TABLE
  2
UCS
  5
7
330
0
100
AcDbSymbolTable
 70
     0
  0
ENDTAB
  0
TABLE
  2
APPID
  5
9
330
0
100
AcDbSymbolTable
 70
     1
  0
APPID
  5
12
330
9
100
AcDbSymbolTableRecord
100
AcDbRegAppTableRecord
  2
ACAD
 70
     0
  0
ENDTAB
  0
TABLE
  2
DIMSTYLE
  5
A
330
0
100
AcDbSymbolTable
 70
     1
100
AcDbDimStyleTable
  0
DIMSTYLE
105
27
330
A
100
AcDbSymbolTableRecord
100
AcDbDimStyleTableRecord
  2
ISO-25
 70
     0
 41
2.5
 42
0.625
 43
3.75
 44
1.25
 73
     0
 74
     0
 77
     1
 78
     8
140
2.5
141
2.5
143
0.03937007874016
147
0.625
171
     3
172
     1
178
     0
271
     2
272
     2
274
     3
278
    44
283
     0
284
     8
340
11
  0
ENDTAB
  0
TABLE
  2
BLOCK_RECORD
  5
1
330
0
100
AcDbSymbolTable
 70
     5
  0
BLOCK_RECORD
  5
1F
330
1
100
AcDbSymbolTableRecord
100
AcDbBlockTableRecord
  2
*Model_Space
340
22
 70
     0
280
     1
281
     0
  0
BLOCK_RECORD
  5
1B
330
1
100
AcDbSymbolTableRecord
100
AcDbBlockTableRecord
  2
*Paper_Space
340
1E
 70
     0
280
     1
281
     0
  0
BLOCK_RECORD
  5
23
330
1
100
AcDbSymbolTableRecord
100
AcDbBlockTableRecord
  2
*Paper_Space0
340
26
 70
     0
280
     1
281
     0
  0
BLOCK_RECORD
  5
6E
330
1
100
AcDbSymbolTableRecord
100
AcDbBlockTableRecord
  2
1_129323_4
340
0
102
{BLKREFS
331
6F
102
}
 70
     0
280
     1
281
     0
  0
BLOCK_RECORD
  5
88
330
1
100
AcDbSymbolTableRecord
100
AcDbBlockTableRecord
  2
2_129518_0_in_129323_4
340
0
102
{BLKREFS
331
89
102
}
 70
     0
280
     1
281
     0
  0
BLOCK_RECORD
  5
D2
330
1
100
AcDbSymbolTableRecord
100
AcDbBlockTableRecord
  2
3_129944_0_in_129323_4
340
0
102
{BLKREFS
331
D3
102
}
 70
     0
280
     1
281
     0
  0
BLOCK_RECORD
  5
11E
330
1
100
AcDbSymbolTableRecord
100
AcDbBlockTableRecord
  2
4_129492_0_in_129323_4
340
0
102
{BLKREFS
331
11F
102
}
 70
     0
280
     1
281
     0
  0
ENDTAB
  0
ENDSEC
  0
SECTION
  2
BLOCKS
  0
BLOCK
  5
20
330
1F
100
AcDbEntity
  8
0
100
AcDbBlockBegin
  2
*Model_Space
 70
     0
 10
0.0
 20
0.0
 30
0.0
  3
*Model_Space
  1

  0
ENDBLK
  5
21
330
1F
100
AcDbEntity
  8
0
100
AcDbBlockEnd
  0
BLOCK
  5
1C
330
1B
100
AcDbEntity
 67
     1
  8
0
100
AcDbBlockBegin
  2
*Paper_Space
 70
     0
 10
0.0
 20
0.0
 30
0.0
  3
*Paper_Space
  1

  0
ENDBLK
  5
1D
330
1B
100
AcDbEntity
 67
     1
  8
0
100
AcDbBlockEnd
  0
BLOCK
  5
24
330
23
100
AcDbEntity
  8
0
100
AcDbBlockBegin
  2
*Paper_Space0
 70
     0
 10
0.0
 20
0.0
 30
0.0
  3
*Paper_Space0
  1

  0
ENDBLK
  5
25
330
23
100
AcDbEntity
  8
0
100
AcDbBlockEnd
  0
BLOCK
  5
70
330
6E
100
AcDbEntity
  8
0
100
AcDbBlockBegin
  2
1_129323_4
 70
     2
 10
0.0
 20
0.0
 30
0.0
  3
1_129323_4
  1

  0
ATTDEF
  5
73
330
6E
100
AcDbEntity
  8
AM_6
100
AcDbText
 10
41.49999999999999
 20
1.209999999999997
 30
0.0
 40
0.5
  1
Grip Tight Two-Bolt Flange Metric Bore
100
AcDbAttributeDefinition
  3

  2
NN
 70
     8
280
     0
  0
ATTDEF
  5
74
330
6E
100
AcDbEntity
  8
AM_6
100
AcDbText
 10
41.49999999999999
 20
0.7099999999999969
 30
0.0
 40
0.5
  1
GT Normal Duty 2 Bolt Flange Bearings
100
AcDbAttributeDefinition
  3

  2
NT
 70
     8
280
     0
  0
ATTDEF
  5
75
330
6E
100
AcDbEntity
  8
AM_6
100
AcDbText
 10
41.49999999999999
 20
0.2099999999999969
 30
0.0
 40
0.5
  1
129323
100
AcDbAttributeDefinition
  3

  2
NB
 70
     8
280
     0
  0
ATTDEF
  5
76
330
6E
100
AcDbEntity
  8
AM_6
100
AcDbText
 10
41.49999999999999
 20
-0.2900000000000031
 30
0.0
 40
0.5
  1
$PN.$LUBE.
100
AcDbAttributeDefinition
  3

  2
NBSYN
 70
     8
280
     0
  0
ATTDEF
  5
77
330
6E
100
AcDbEntity
  8
AM_6
100
AcDbText
 10
41.49999999999999
 20
-0.7900000000000031
 30
0.0
 40
0.5
  1
129323
100
AcDbAttributeDefinition
  3

  2
LINA
 70
     8
280
     0
  0
ATTDEF
  5
78
330
6E
100
AcDbEntity
  8
AM_6
100
AcDbText
 10
41.49999999999999
 20
-1.290000000000003
 30
0.0
 40
0.5
  1
205
100
AcDbAttributeDefinition
  3

  2
SERIES
 70
     8
280
     0
  0
ATTDEF
  5
79
330
6E
100
AcDbEntity
  8
AM_6
100
AcDbText
 10
41.49999999999999
 20
-1.790000000000003
 30
0.0
 40
0.5
  1
25
100
AcDbAttributeDefinition
  3

  2
SS
 70
     8
280
     0
  0
ATTDEF
  5
7A
330
6E
100
AcDbEntity
  8
AM_6
100
AcDbText
 10
41.49999999999999
 20
-2.290000000000003
 30
0.0
 40
0.5
  1
129323
100
AcDbAttributeDefinition
  3

  2
PN
 70
     8
280
     0
  0
ATTDEF
  5
7B
330
6E
100
AcDbEntity
  8
AM_6
100
AcDbText
 10
41.49999999999999
 20
-2.790000000000003
 30
0.0
 40
0.5
  1
F2B-GT-25M
100
AcDbAttributeDefinition
  3

  2
DESCRIPTION
 70
     8
280
     0
  0
ATTDEF
  5
7C
330
6E
100
AcDbEntity
  8
AM_6
100
AcDbText
 10
41.49999999999999
 20
-3.290000000000003
 30
0.0
 40
0.5
  1
36.9
100
AcDbAttributeDefinition
  3

  2
A
 70
     8
280
     0
  0
ATTDEF
  5
7D
330
6E
100
AcDbEntity
  8
AM_6
100
AcDbText
 10
41.49999999999999
 20
-3.790000000000003
 30
0.0
 40
0.5
  1
123.8
100
AcDbAttributeDefinition
  3

  2
B
 70
     8
280
     0
  0
ATTDEF
  5
7E
330
6E
100
AcDbEntity
  8
AM_6
100
AcDbText
 10
41.49999999999999
 20
-4.290000000000003
 30
0.0
 40
0.5
  1
39.3
100
AcDbAttributeDefinition
  3

  2
C
 70
     8
280
     0
  0
ATTDEF
  5
7F
330
6E
100
AcDbEntity
  8
AM_6
100
AcDbText
 10
41.49999999999999
 20
-4.790000000000003
 30
0.0
 40
0.5
  1
98.8
100
AcDbAttributeDefinition
  3

  2
D
 70
     8
280
     0
  0
ATTDEF
  5
80
330
6E
100
AcDbEntity
  8
AM_6
100
AcDbText
 10
41.49999999999999
 20
-5.290000000000003
 30
0.0
 40
0.5
  1
M10
100
AcDbAttributeDefinition
  3

  2
F
 70
     8
280
     0
  0
ATTDEF
  5
81
330
6E
100
AcDbEntity
  8
AM_6
100
AcDbText
 10
41.49999999999999
 20
-5.790000000000003
 30
0.0
 40
0.5
  1
12.7
100
AcDbAttributeDefinition
  3

  2
H
 70
     8
280
     0
  0
ATTDEF
  5
82
330
6E
100
AcDbEntity
  8
AM_6
100
AcDbText
 10
41.49999999999999
 20
-6.290000000000003
 30
0.0
 40
0.5
  1
15.1
100
AcDbAttributeDefinition
  3

  2
J
 70
     8
280
     0
  0
ATTDEF
  5
83
330
6E
100
AcDbEntity
  8
AM_6
100
AcDbText
 10
41.49999999999999
 20
-6.790000000000003
 30
0.0
 40
0.5
  1
45.6
100
AcDbAttributeDefinition
  3

  2
L
 70
     8
280
     0
  0
ATTDEF
  5
84
330
6E
100
AcDbEntity
  8
AM_6
100
AcDbText
 10
41.49999999999999
 20
-7.290000000000003
 30
0.0
 40
0.5
  1
69.9
100
AcDbAttributeDefinition
  3

  2
M
 70
     8
280
     0
  0
ATTDEF
  5
85
330
6E
100
AcDbEntity
  8
AM_6
100
AcDbText
 10
41.49999999999999
 20
-7.790000000000003
 30
0.0
 40
0.5
  1
36.5
100
AcDbAttributeDefinition
  3

  2
N
 70
     8
280
     0
  0
ATTDEF
  5
86
330
6E
100
AcDbEntity
  8
AM_6
100
AcDbText
 10
41.49999999999999
 20
-8.290000000000003
 30
0.0
 40
0.5
  1
39.3
100
AcDbAttributeDefinition
  3

  2
Z
 70
     8
280
     0
  0
ATTDEF
  5
87
330
6E
100
AcDbEntity
  8
AM_6
100
AcDbText
 10
41.49999999999999
 20
-8.790000000000003
 30
0.0
 40
0.5
  1
baldor
100
AcDbAttributeDefinition
  3

  2
COMPANY
 70
     8
280
     0
  0
INSERT
  5
89
330
6E
100
AcDbEntity
  8
0
100
AcDbBlockReference
  2
2_129518_0_in_129323_4
 10
0.0
 20
0.0
 30
0.0
  0
INSERT
  5
D3
330
6E
100
AcDbEntity
  8
0
100
AcDbBlockReference
  2
3_129944_0_in_129323_4
 10
0.0
 20
0.0
 30
0.0
  0
INSERT
  5
11F
330
6E
100
AcDbEntity
  8
0
100
AcDbBlockReference
  2
4_129492_0_in_129323_4
 10
0.0
 20
0.0
 30
0.0
  0
ENDBLK
  5
71
330
6E
100
AcDbEntity
  8
0
100
AcDbBlockEnd
  0
BLOCK
  5
8A
330
88
100
AcDbEntity
  8
0
100
AcDbBlockBegin
  2
2_129518_0_in_129323_4
 70
     2
 10
0.0
 20
0.0
 30
0.0
  3
2_129518_0_in_129323_4
  1

  0
ATTDEF
  5
8C
330
88
100
AcDbEntity
  8
AM_6
100
AcDbText
 10
30.99916142265027
 20
-4.12
 30
0.0
 40
0.5
  1
INS-GT-M B
100
AcDbAttributeDefinition
  3

  2
NN
 70
     8
280
     0
  0
ATTDEF
  5
8D
330
88
100
AcDbEntity
  8
AM_6
100
AcDbText
 10
30.99916142265027
 20
-4.62
 30
0.0
 40
0.5
  1
GT Normal Duty Bearing Inserts
100
AcDbAttributeDefinition
  3

  2
NT
 70
     8
280
     0
  0
ATTDEF
  5
8E
330
88
100
AcDbEntity
  8
AM_6
100
AcDbText
 10
30.99916142265027
 20
-5.12
 30
0.0
 40
0.5
  1
129518
100
AcDbAttributeDefinition
  3

  2
NB
 70
     8
280
     0
  0
ATTDEF
  5
8F
330
88
100
AcDbEntity
  8
AM_6
100
AcDbText
 10
30.99916142265027
 20
-5.62
 30
0.0
 40
0.5
  1
$PN.
100
AcDbAttributeDefinition
  3

  2
NBSYN
 70
     8
280
     0
  0
ATTDEF
  5
90
330
88
100
AcDbEntity
  8
AM_6
100
AcDbText
 10
30.99916142265027
 20
-6.12
 30
0.0
 40
0.5
  1
129518
100
AcDbAttributeDefinition
  3

  2
LINA
 70
     8
280
     0
  0
ATTDEF
  5
91
330
88
100
AcDbEntity
  8
AM_6
100
AcDbText
 10
30.99916142265027
 20
-6.62
 30
0.0
 40
0.5
  1
205
100
AcDbAttributeDefinition
  3

  2
SERIES
 70
     8
280
     0
  0
ATTDEF
  5
92
330
88
100
AcDbEntity
  8
AM_6
100
AcDbText
 10
30.99916142265027
 20
-7.12
 30
0.0
 40
0.5
  1
129518
100
AcDbAttributeDefinition
  3

  2
PN
 70
     8
280
     0
  0
ATTDEF
  5
93
330
88
100
AcDbEntity
  8
AM_6
100
AcDbText
 10
30.99916142265027
 20
-7.62
 30
0.0
 40
0.5
  1
INS-GT-05
100
AcDbAttributeDefinition
  3

  2
DESCRIPTION
 70
     8
280
     0
  0
ATTDEF
  5
94
330
88
100
AcDbEntity
  8
AM_6
100
AcDbText
 10
30.99916142265027
 20
-8.120000000000001
 30
0.0
 40
0.5
  1
37.1
100
AcDbAttributeDefinition
  3

  2
A
 70
     8
280
     0
  0
ATTDEF
  5
95
330
88
100
AcDbEntity
  8
AM_6
100
AcDbText
 10
30.99916142265027
 20
-8.620000000000001
 30
0.0
 40
0.5
  1
15.0
100
AcDbAttributeDefinition
  3

  2
C
 70
     8
280
     0
  0
ATTDEF
  5
96
330
88
100
AcDbEntity
  8
AM_6
100
AcDbText
 10
30.99916142265027
 20
-9.120000000000001
 30
0.0
 40
0.5
  1
52.0
100
AcDbAttributeDefinition
  3

  2
D
 70
     8
280
     0
  0
ATTDEF
  5
97
330
88
100
AcDbEntity
  8
AM_6
100
AcDbText
 10
30.99916142265027
 20
-9.620000000000001
 30
0.0
 40
0.5
  1
4.1
100
AcDbAttributeDefinition
  3

  2
J
 70
     8
280
     0
  0
ATTDEF
  5
98
330
88
100
AcDbEntity
  8
AM_6
100
AcDbText
 10
30.99916142265027
 20
-10.12
 30
0.0
 40
0.5
  1
45.7
100
AcDbAttributeDefinition
  3

  2
L
 70
     8
280
     0
  0
ATTDEF
  5
99
330
88
100
AcDbEntity
  8
AM_6
100
AcDbText
 10
30.99916142265027
 20
-10.62
 30
0.0
 40
0.5
  1
#10 - 32 x 1/4
100
AcDbAttributeDefinition
  3

  2
N
 70
     8
280
     0
  0
ATTDEF
  5
9A
330
88
100
AcDbEntity
  8
AM_6
100
AcDbText
 10
30.99916142265027
 20
-11.12
 30
0.0
 40
0.5
  1
12.2
100
AcDbAttributeDefinition
  3

  2
W
 70
     8
280
     0
  0
ATTDEF
  5
9B
330
88
100
AcDbEntity
  8
AM_6
100
AcDbText
 10
30.99916142265027
 20
-11.62
 30
0.0
 40
0.5
  1
25.4
100
AcDbAttributeDefinition
  3

  2
X
 70
     8
280
     0
  0
ATTDEF
  5
9C
330
88
100
AcDbEntity
  8
AM_6
100
AcDbText
 10
30.99916142265027
 20
-12.12
 30
0.0
 40
0.5
  1
24.9
100
AcDbAttributeDefinition
  3

  2
Y
 70
     8
280
     0
  0
ATTDEF
  5
9D
330
88
100
AcDbEntity
  8
AM_6
100
AcDbText
 10
30.99916142265027
 20
-12.62
 30
0.0
 40
0.5
  1
baldor
100
AcDbAttributeDefinition
  3

  2
COMPANY
 70
     8
280
     0
  0
LINE
  5
A0
330
88
100
AcDbEntity
  8
AM_9
100
AcDbLine
 10
17.0468253968254
 20
-34.15
 30
0.0
 11
17.0468253968254
 21
-24.62499999999999
 31
0.0
  0
LINE
  5
A1
330
88
100
AcDbEntity
  8
AM_9
100
AcDbLine
 10
-17.0468253968254
 20
-24.62499999999999
 30
0.0
 11
-17.0468253968254
 21
-34.15
 31
0.0
  0
LINE
  5
A2
330
88
100
AcDbEntity
  8
AM_9
100
AcDbLine
 10
-17.0468253968254
 20
-24.62499999999999
 30
0.0
 11
17.0468253968254
 21
-24.62499999999999
 31
0.0
  0
LINE
  5
A3
330
88
100
AcDbEntity
  8
AM_9
100
AcDbLine
 10
17.0468253968254
 20
-24.62499999999999
 30
0.0
 11
17.76287577525369
 21
-4.12
 31
0.0
  0
LINE
  5
A4
330
88
100
AcDbEntity
  8
AM_9
100
AcDbLine
 10
-17.76287577525369
 20
-4.12
 30
0.0
 11
-17.0468253968254
 21
-24.62499999999999
 31
0.0
  0
LINE
  5
A5
330
88
100
AcDbEntity
  8
AM_9
100
AcDbLine
 10
18.67896825396826
 20
-30.975
 30
0.0
 11
18.67896825396826
 21
-27.79999999999999
 31
0.0
  0
LINE
  5
A6
330
88
100
AcDbEntity
  8
AM_9
100
AcDbLine
 10
-18.67896825396826
 20
-27.79999999999999
 30
0.0
 11
-18.67896825396826
 21
-30.975
 31
0.0
  0
LINE
  5
A7
330
88
100
AcDbEntity
  8
AM_9
100
AcDbLine
 10
20.31111111111111
 20
-33.55
 30
0.0
 11
20.31111111111111
 21
-30.975
 31
0.0
  0
LINE
  5
A8
330
88
100
AcDbEntity
  8
AM_9
100
AcDbLine
 10
-20.31111111111111
 20
-30.975
 30
0.0
 11
-20.31111111111111
 21
-33.55
 31
0.0
  0
LINE
  5
A9
330
88
100
AcDbEntity
  8
AM_9
100
AcDbLine
 10
-20.31111111111111
 20
-30.975
 30
0.0
 11
20.31111111111111
 21
-30.975
 31
0.0
  0
LINE
  5
AA
330
88
100
AcDbEntity
  8
AM_9
100
AcDbLine
 10
-19.71111111111111
 20
-4.12
 30
0.0
 11
19.71111111111111
 21
-4.12
 31
0.0
  0
LINE
  5
AB
330
88
100
AcDbEntity
  8
AM_9
100
AcDbLine
 10
-19.71111111111111
 20
-4.12
 30
0.0
 11
-20.31111111111111
 21
-4.720000000000001
 31
0.0
  0
LINE
  5
AC
330
88
100
AcDbEntity
  8
AM_9
100
AcDbLine
 10
20.31111111111111
 20
-4.720000000000001
 30
0.0
 11
19.71111111111111
 21
-4.12
 31
0.0
  0
LINE
  5
AD
330
88
100
AcDbEntity
  8
AM_9
100
AcDbLine
 10
19.71111111111111
 20
-34.15
 30
0.0
 11
20.31111111111111
 21
-33.55
 31
0.0
  0
LINE
  5
AE
330
88
100
AcDbEntity
  8
AM_9
100
AcDbLine
 10
-20.31111111111111
 20
-33.55
 30
0.0
 11
-19.71111111111111
 21
-34.15
 31
0.0
  0
LINE
  5
AF
330
88
100
AcDbEntity
  8
AM_9
100
AcDbLine
 10
-19.71111111111111
 20
-34.15
 30
0.0
 11
19.71111111111111
 21
-34.15
 31
0.0
  0
LINE
  5
B0
330
88
100
AcDbEntity
  8
AM_9
100
AcDbLine
 10
-20.31111111111111
 20
-33.55
 30
0.0
 11
20.31111111111111
 21
-33.55
 31
0.0
  0
LINE
  5
B1
330
88
100
AcDbEntity
  8
AM_9
100
AcDbLine
 10
-20.31111111111111
 20
-4.720000000000001
 30
0.0
 11
20.31111111111111
 21
-4.720000000000001
 31
0.0
  0
LINE
  5
B2
330
88
100
AcDbEntity
  8
AM_9
100
AcDbLine
 10
20.31111111111111
 20
-7.599999999999999
 30
0.0
 11
20.31111111111111
 21
-4.720000000000001
 31
0.0
  0
LINE
  5
B3
330
88
100
AcDbEntity
  8
AM_9
100
AcDbLine
 10
-20.31111111111111
 20
-4.720000000000001
 30
0.0
 11
-20.31111111111111
 21
-7.599999999999999
 31
0.0
  0
LINE
  5
B4
330
88
100
AcDbEntity
  8
AM_9
100
AcDbLine
 10
20.31111111111111
 20
-24.19999999999999
 30
0.0
 11
20.31111111111111
 21
-22.59999999999999
 31
0.0
  0
LINE
  5
B5
330
88
100
AcDbEntity
  8
AM_9
100
AcDbLine
 10
20.31111111111111
 20
-27.79999999999999
 30
0.0
 11
20.31111111111111
 21
-27.2
 31
0.0
  0
LINE
  5
B6
330
88
100
AcDbEntity
  8
AM_9
100
AcDbLine
 10
-20.31111111111111
 20
-27.2
 30
0.0
 11
-20.31111111111111
 21
-27.79999999999999
 31
0.0
  0
LINE
  5
B7
330
88
100
AcDbEntity
  8
AM_9
100
AcDbLine
 10
-20.31111111111111
 20
-22.59999999999999
 30
0.0
 11
-20.31111111111111
 21
-24.19999999999999
 31
0.0
  0
LINE
  5
B8
330
88
100
AcDbEntity
  8
AM_9
100
AcDbLine
 10
-13.04697893284443
 20
-27.79999999999999
 30
0.0
 11
-9.669479858085126
 21
-27.79999999999999
 31
0.0
  0
LINE
  5
B9
330
88
100
AcDbEntity
  8
AM_9
100
AcDbLine
 10
24.5
 20
-20.02
 30
0.0
 11
24.5
 21
-18.38
 31
0.0
  0
LINE
  5
BA
330
88
100
AcDbEntity
  8
AM_9
100
AcDbLine
 10
-24.5
 20
-18.38
 30
0.0
 11
-24.5
 21
-20.02
 31
0.0
  0
LINE
  5
BB
330
88
100
AcDbEntity
  8
AM_9
100
AcDbLine
 10
-24.09545395833822
 20
-22.6
 30
0.0
 11
24.09545395833822
 21
-22.6
 31
0.0
  0
ARC
  5
BC
330
88
100
AcDbEntity
  8
AM_9
100
AcDbCircle
 10
24.09545395833821
 20
-21.99999999999999
 30
0.0
 40
0.6000000000000085
100
AcDbArc
 50
270.0
 51
338.5875329531156
  0
ARC
  5
BD
330
88
100
AcDbEntity
  8
AM_9
100
AcDbCircle
 10
-24.09545395833821
 20
-21.99999999999999
 30
0.0
 40
0.6000000000000056
100
AcDbArc
 50
201.4124670468845
 51
270.0
  0
LINE
  5
BE
330
88
100
AcDbEntity
  8
AM_9
100
AcDbLine
 10
-24.09545395833822
 20
-7.599999999999999
 30
0.0
 11
24.09545395833822
 21
-7.599999999999999
 31
0.0
  0
ARC
  5
BF
330
88
100
AcDbEntity
  8
AM_9
100
AcDbCircle
 10
24.09545395833822
 20
-8.200000000000001
 30
0.0
 40
0.600000000000002
100
AcDbArc
 50
21.41246704688453
 51
90.0
  0
ARC
  5
C0
330
88
100
AcDbEntity
  8
AM_9
100
AcDbCircle
 10
-24.09545395833822
 20
-8.200000000000001
 30
0.0
 40
0.6000000000000023
100
AcDbArc
 50
90.0
 51
158.5875329531155
  0
LINE
  5
C1
330
88
100
AcDbEntity
  8
AM_9
100
AcDbLine
 10
-24.65403979828546
 20
-22.21904761904762
 30
0.0
 11
24.65403979828546
 21
-22.21904761904762
 31
0.0
  0
ARC
  5
C2
330
88
100
AcDbEntity
  8
AM_9
100
AcDbCircle
 10
6.500000000000426
 20
-15.10000000000012
 30
0.0
 40
19.49999999999956
100
AcDbArc
 50
338.5875329531158
 51
344.8103113718976
  0
ARC
  5
C3
330
88
100
AcDbEntity
  8
AM_9
100
AcDbCircle
 10
-6.499999999999048
 20
-15.09999999999967
 30
0.0
 40
19.50000000000101
100
AcDbArc
 50
195.1896886281026
 51
201.4124670468839
  0
LINE
  5
C4
330
88
100
AcDbEntity
  8
AM_9
100
AcDbLine
 10
-25.31874145475914
 20
-20.20930230647295
 30
0.0
 11
25.31874145475914
 21
-20.20930230647295
 31
0.0
  0
LINE
  5
C5
330
88
100
AcDbEntity
  8
AM_9
100
AcDbLine
 10
-25.1739818999591
 20
-20.02
 30
0.0
 11
25.1739818999591
 21
-20.02
 31
0.0
  0
ARC
  5
C6
330
88
100
AcDbEntity
  8
AM_9
100
AcDbCircle
 10
25.17398189995911
 20
-20.16999999999999
 30
0.0
 40
0.1499999999999895
100
AcDbArc
 50
344.8103188768313
 51
90.0
  0
ARC
  5
C7
330
88
100
AcDbEntity
  8
AM_9
100
AcDbCircle
 10
-25.17398189995911
 20
-20.16999999999999
 30
0.0
 40
0.149999999999995
100
AcDbArc
 50
90.0
 51
195.1896811231687
  0
LINE
  5
C8
330
88
100
AcDbEntity
  8
AM_9
100
AcDbLine
 10
-25.59517216471259
 20
-18.38
 30
0.0
 11
25.59517216471259
 21
-18.38
 31
0.0
  0
ARC
  5
C9
330
88
100
AcDbEntity
  8
AM_9
100
AcDbCircle
 10
25.5951721647126
 20
-18.23000000000001
 30
0.0
 40
0.1499999999999915
100
AcDbArc
 50
270.0
 51
350.6912291254139
  0
ARC
  5
CA
330
88
100
AcDbEntity
  8
AM_9
100
AcDbCircle
 10
-25.5951721647126
 20
-18.23000000000001
 30
0.0
 40
0.1499999999999912
100
AcDbArc
 50
189.3087708745861
 51
270.0
  0
LINE
  5
CB
330
88
100
AcDbEntity
  8
AM_9
100
AcDbLine
 10
-25.74319680967675
 20
-18.25426323315707
 30
0.0
 11
25.74319680967675
 21
-18.25426323315707
 31
0.0
  0
LINE
  5
CC
330
88
100
AcDbEntity
  8
AM_9
100
AcDbLine
 10
-24.65403979828546
 20
-7.980952380952377
 30
0.0
 11
24.65403979828546
 21
-7.980952380952377
 31
0.0
  0
ARC
  5
CD
330
88
100
AcDbEntity
  8
AM_9
100
AcDbCircle
 10
6.500000000000149
 20
-15.09999999999998
 30
0.0
 40
19.49999999999985
100
AcDbArc
 50
350.6911013248533
 51
21.41246704688418
  0
ARC
  5
CE
330
88
100
AcDbEntity
  8
AM_9
100
AcDbCircle
 10
-6.500000000000483
 20
-15.09999999999994
 30
0.0
 40
19.49999999999953
100
AcDbArc
 50
158.5875329531156
 51
189.308898675147
  0
LINE
  5
D0
330
88
100
AcDbEntity
  8
AM_4
100
AcDbLine
 10
20.31111111111111
 20
-27.2
 30
0.0
 11
20.31111111111111
 21
-24.19999999999999
 31
0.0
  0
LINE
  5
D1
330
88
100
AcDbEntity
  8
AM_4
100
AcDbLine
 10
-20.31111111111111
 20
-24.19999999999999
 30
0.0
 11
-20.31111111111111
 21
-27.2
 31
0.0
  0
ENDBLK
  5
8B
330
88
100
AcDbEntity
  8
0
100
AcDbBlockEnd
  0
BLOCK
  5
D4
330
D2
100
AcDbEntity
  8
0
100
AcDbBlockBegin
  2
3_129944_0_in_129323_4
 70
     2
 10
0.0
 20
0.0
 30
0.0
  3
3_129944_0_in_129323_4
  1

  0
ATTDEF
  5
D6
330
D2
100
AcDbEntity
  8
AM_6
100
AcDbText
 10
27.71645879092954
 20
-2.399999999999996
 30
0.0
 40
0.5
  1
Grip Tight Normal Duty Adapter and Nut Metric Bore
100
AcDbAttributeDefinition
  3

  2
NN
 70
     8
280
     0
  0
ATTDEF
  5
D7
330
D2
100
AcDbEntity
  8
AM_6
100
AcDbText
 10
27.71645879092954
 20
-2.899999999999996
 30
0.0
 40
0.5
  1
GT and GTM Adapter & Lock Nut Assemblies
100
AcDbAttributeDefinition
  3

  2
NT
 70
     8
280
     0
  0
ATTDEF
  5
D8
330
D2
100
AcDbEntity
  8
AM_6
100
AcDbText
 10
27.71645879092954
 20
-3.399999999999996
 30
0.0
 40
0.5
  1
129944
100
AcDbAttributeDefinition
  3

  2
NB
 70
     8
280
     0
  0
ATTDEF
  5
D9
330
D2
100
AcDbEntity
  8
AM_6
100
AcDbText
 10
27.71645879092954
 20
-3.899999999999996
 30
0.0
 40
0.5
  1
$PN.
100
AcDbAttributeDefinition
  3

  2
NBSYN
 70
     8
280
     0
  0
ATTDEF
  5
DA
330
D2
100
AcDbEntity
  8
AM_6
100
AcDbText
 10
27.71645879092954
 20
-4.399999999999996
 30
0.0
 40
0.5
  1
129944
100
AcDbAttributeDefinition
  3

  2
LINA
 70
     8
280
     0
  0
ATTDEF
  5
DB
330
D2
100
AcDbEntity
  8
AM_6
100
AcDbText
 10
27.71645879092954
 20
-4.899999999999996
 30
0.0
 40
0.5
  1
205
100
AcDbAttributeDefinition
  3

  2
SERIES
 70
     8
280
     0
  0
ATTDEF
  5
DC
330
D2
100
AcDbEntity
  8
AM_6
100
AcDbText
 10
27.71645879092954
 20
-5.399999999999996
 30
0.0
 40
0.5
  1
25
100
AcDbAttributeDefinition
  3

  2
SS
 70
     8
280
     0
  0
ATTDEF
  5
DD
330
D2
100
AcDbEntity
  8
AM_6
100
AcDbText
 10
27.71645879092954
 20
-5.899999999999996
 30
0.0
 40
0.5
  1
129944
100
AcDbAttributeDefinition
  3

  2
PN
 70
     8
280
     0
  0
ATTDEF
  5
DE
330
D2
100
AcDbEntity
  8
AM_6
100
AcDbText
 10
27.71645879092954
 20
-6.399999999999996
 30
0.0
 40
0.5
  1
AN-GT-05-25M
100
AcDbAttributeDefinition
  3

  2
DESCRIPTION
 70
     8
280
     0
  0
ATTDEF
  5
DF
330
D2
100
AcDbEntity
  8
AM_6
100
AcDbText
 10
27.71645879092954
 20
-6.899999999999996
 30
0.0
 40
0.5
  1
36.9
100
AcDbAttributeDefinition
  3

  2
A
 70
     8
280
     0
  0
ATTDEF
  5
E0
330
D2
100
AcDbEntity
  8
AM_6
100
AcDbText
 10
27.71645879092954
 20
-7.399999999999996
 30
0.0
 40
0.5
  1
15.0
100
AcDbAttributeDefinition
  3

  2
C
 70
     8
280
     0
  0
ATTDEF
  5
E1
330
D2
100
AcDbEntity
  8
AM_6
100
AcDbText
 10
27.71645879092954
 20
-7.899999999999996
 30
0.0
 40
0.5
  1
52.0
100
AcDbAttributeDefinition
  3

  2
D
 70
     8
280
     0
  0
ATTDEF
  5
E2
330
D2
100
AcDbEntity
  8
AM_6
100
AcDbText
 10
27.71645879092954
 20
-8.399999999999995
 30
0.0
 40
0.5
  1
3.9
100
AcDbAttributeDefinition
  3

  2
J
 70
     8
280
     0
  0
ATTDEF
  5
E3
330
D2
100
AcDbEntity
  8
AM_6
100
AcDbText
 10
27.71645879092954
 20
-8.899999999999995
 30
0.0
 40
0.5
  1
45.6
100
AcDbAttributeDefinition
  3

  2
L
 70
     8
280
     0
  0
ATTDEF
  5
E4
330
D2
100
AcDbEntity
  8
AM_6
100
AcDbText
 10
27.71645879092954
 20
-9.399999999999995
 30
0.0
 40
0.5
  1
10 - 32 x 1/4
100
AcDbAttributeDefinition
  3

  2
N
 70
     8
280
     0
  0
ATTDEF
  5
E5
330
D2
100
AcDbEntity
  8
AM_6
100
AcDbText
 10
27.71645879092954
 20
-9.899999999999995
 30
0.0
 40
0.5
  1
12.7
100
AcDbAttributeDefinition
  3

  2
W
 70
     8
280
     0
  0
ATTDEF
  5
E6
330
D2
100
AcDbEntity
  8
AM_6
100
AcDbText
 10
27.71645879092954
 20
-10.4
 30
0.0
 40
0.5
  1
24.2
100
AcDbAttributeDefinition
  3

  2
X
 70
     8
280
     0
  0
ATTDEF
  5
E7
330
D2
100
AcDbEntity
  8
AM_6
100
AcDbText
 10
27.71645879092954
 20
-10.9
 30
0.0
 40
0.5
  1
24.2
100
AcDbAttributeDefinition
  3

  2
Y
 70
     8
280
     0
  0
ATTDEF
  5
E8
330
D2
100
AcDbEntity
  8
AM_6
100
AcDbText
 10
27.71645879092954
 20
-11.4
 30
0.0
 40
0.5
  1
baldor
100
AcDbAttributeDefinition
  3

  2
COMPANY
 70
     8
280
     0
  0
LINE
  5
E9
330
D2
100
AcDbEntity
  8
AM_9
100
AcDbLine
 10
21.27999493331645
 20
-27.2
 30
0.0
 11
21.27999493331645
 21
-39.3
 31
0.0
  0
LINE
  5
EA
330
D2
100
AcDbEntity
  8
AM_9
100
AcDbLine
 10
-22.3682
 20
-38.3562
 30
0.0
 11
-17.5318
 21
-38.3562
 31
0.0
  0
LINE
  5
EB
330
D2
100
AcDbEntity
  8
AM_9
100
AcDbLine
 10
-17.5318
 20
-34.39379999999999
 30
0.0
 11
-22.3682
 21
-34.39379999999999
 31
0.0
  0
LINE
  5
EC
330
D2
100
AcDbEntity
  8
AM_9
100
AcDbLine
 10
-17.5318
 20
-38.3562
 30
0.0
 11
-17.1
 21
-38.788
 31
0.0
  0
LINE
  5
ED
330
D2
100
AcDbEntity
  8
AM_9
100
AcDbLine
 10
-17.1
 20
-33.96199999999999
 30
0.0
 11
-17.5318
 21
-34.39379999999999
 31
0.0
  0
LINE
  5
EE
330
D2
100
AcDbEntity
  8
AM_9
100
AcDbLine
 10
-17.1
 20
-33.96199999999999
 30
0.0
 11
-17.1
 21
-38.788
 31
0.0
  0
LINE
  5
EF
330
D2
100
AcDbEntity
  8
AM_9
100
AcDbLine
 10
-17.5318
 20
-34.39379999999999
 30
0.0
 11
-17.5318
 21
-38.3562
 31
0.0
  0
LINE
  5
F0
330
D2
100
AcDbEntity
  8
AM_9
100
AcDbLine
 10
-22.3682
 20
-34.39379999999999
 30
0.0
 11
-22.79723539852216
 21
-33.96476460147783
 31
0.0
  0
LINE
  5
F1
330
D2
100
AcDbEntity
  8
AM_9
100
AcDbLine
 10
-22.75593000455771
 20
-38.74393000455771
 30
0.0
 11
-22.3682
 21
-38.3562
 31
0.0
  0
LINE
  5
F2
330
D2
100
AcDbEntity
  8
AM_9
100
AcDbLine
 10
-22.3682
 20
-34.39379999999999
 30
0.0
 11
-22.3682
 21
-38.3562
 31
0.0
  0
LINE
  5
F3
330
D2
100
AcDbEntity
  8
AM_9
100
AcDbLine
 10
12.5
 20
-39.3
 30
0.0
 11
12.5
 21
-2.399999999999996
 31
0.0
  0
LINE
  5
F4
330
D2
100
AcDbEntity
  8
AM_9
100
AcDbLine
 10
-12.5
 20
-2.399999999999996
 30
0.0
 11
-12.5
 21
-39.3
 31
0.0
  0
LINE
  5
F5
330
D2
100
AcDbEntity
  8
AM_9
100
AcDbLine
 10
17.0095238095238
 20
-33.25
 30
0.0
 11
17.0095238095238
 21
-24.17500000000028
 31
0.0
  0
LINE
  5
F6
330
D2
100
AcDbEntity
  8
AM_9
100
AcDbLine
 10
-17.0095238095238
 20
-24.17500000000028
 30
0.0
 11
-17.0095238095238
 21
-33.25
 31
0.0
  0
LINE
  5
F7
330
D2
100
AcDbEntity
  8
AM_9
100
AcDbLine
 10
-1.249999999999998
 20
-2.399999999999998
 30
0.0
 11
-1.249999999999998
 21
-39.3
 31
0.0
  0
LINE
  5
F8
330
D2
100
AcDbEntity
  8
AM_9
100
AcDbLine
 10
1.250000000000002
 20
-2.399999999999998
 30
0.0
 11
1.250000000000002
 21
-39.3
 31
0.0
  0
LINE
  5
F9
330
D2
100
AcDbEntity
  8
AM_9
100
AcDbLine
 10
-17.0095238095238
 20
-24.17500000000028
 30
0.0
 11
17.0095238095238
 21
-24.17500000000028
 31
0.0
  0
LINE
  5
FA
330
D2
100
AcDbEntity
  8
AM_9
100
AcDbLine
 10
17.0095238095238
 20
-24.17500000000028
 30
0.0
 11
17.76992356520662
 21
-2.399999999999999
 31
0.0
  0
LINE
  5
FB
330
D2
100
AcDbEntity
  8
AM_9
100
AcDbLine
 10
-17.76992356520662
 20
-2.399999999999999
 30
0.0
 11
-17.0095238095238
 21
-24.17500000000028
 31
0.0
  0
LINE
  5
FC
330
D2
100
AcDbEntity
  8
AM_9
100
AcDbLine
 10
-17.76992356520662
 20
-2.399999999999999
 30
0.0
 11
17.76992356520662
 21
-2.399999999999999
 31
0.0
  0
LINE
  5
FD
330
D2
100
AcDbEntity
  8
AM_9
100
AcDbLine
 10
18.63809523809523
 20
-30.225
 30
0.0
 11
18.63809523809523
 21
-27.2
 31
0.0
  0
LINE
  5
FE
330
D2
100
AcDbEntity
  8
AM_9
100
AcDbLine
 10
-18.63809523809523
 20
-27.2
 30
0.0
 11
-18.63809523809523
 21
-30.225
 31
0.0
  0
LINE
  5
FF
330
D2
100
AcDbEntity
  8
AM_9
100
AcDbLine
 10
-8.951247929278574
 20
-27.2
 30
0.0
 11
-8.951247929278574
 21
-39.3
 31
0.0
  0
LINE
  5
100
330
D2
100
AcDbEntity
  8
AM_9
100
AcDbLine
 10
-20.49466666666667
 20
-30.225
 30
0.0
 11
20.49466666666667
 21
-30.225
 31
0.0
  0
LINE
  5
101
330
D2
100
AcDbEntity
  8
AM_9
100
AcDbLine
 10
-20.49466666666667
 20
-33.25
 30
0.0
 11
20.49466666666667
 21
-33.25
 31
0.0
  0
LINE
  5
102
330
D2
100
AcDbEntity
  8
AM_9
100
AcDbLine
 10
20.49466666666667
 20
-33.25
 30
0.0
 11
20.49466666666667
 21
-30.225
 31
0.0
  0
LINE
  5
103
330
D2
100
AcDbEntity
  8
AM_9
100
AcDbLine
 10
-20.49466666666667
 20
-30.225
 30
0.0
 11
-20.49466666666667
 21
-33.25
 31
0.0
  0
LINE
  5
105
330
D2
100
AcDbEntity
  8
AM_5
100
AcDbLine
 10
-22.712
 20
-38.788
 30
0.0
 11
-17.1
 21
-38.788
 31
0.0
  0
LINE
  5
108
330
D2
100
AcDbEntity
  8
AM_7
100
AcDbLine
 10
-16.815
 20
-36.375
 30
0.0
 11
-23.085
 21
-36.375
 31
0.0
  0
LINE
  5
109
330
D2
100
AcDbEntity
  8
AM_4
100
AcDbLine
 10
-22.2
 20
-27.2
 30
0.0
 11
-22.8
 21
-27.8
 31
0.0
  0
LINE
  5
10A
330
D2
100
AcDbEntity
  8
AM_4
100
AcDbLine
 10
-12.74584567515471
 20
-27.2
 30
0.0
 11
-13.04697893284443
 21
-27.8
 31
0.0
  0
LINE
  5
10B
330
D2
100
AcDbEntity
  8
AM_4
100
AcDbLine
 10
-13.04697893284443
 20
-27.8
 30
0.0
 11
-13.04697893284443
 21
-38.7
 31
0.0
  0
LINE
  5
10C
330
D2
100
AcDbEntity
  8
AM_4
100
AcDbLine
 10
-22.8
 20
-27.8
 30
0.0
 11
-22.8
 21
-33.96705459264602
 31
0.0
  0
LWPOLYLINE
  5
10D
330
D2
100
AcDbEntity
  8
AM_4
100
AcDbPolyline
 90
       20
 70
     0
 43
0.0
 10
-22.79999999999985
 20
-33.96200000000157
 10
-22.79989503277836
 20
-33.96309702829537
 10
-22.79595436578188
 20
-34.0046420980726
 10
-22.78638550387028
 20
-34.10863393795875
 10
-22.77269998078226
 20
-34.26610720684406
 10
-22.75566320576637
 20
-34.48006640838765
 10
-22.73720277170957
 20
-34.74287165027118
 10
-22.7189042142356
 20
-35.05349102917081
 10
-22.70283335700977
 20
-35.40457402467037
 10
-22.69083308501306
 20
-35.79057466214773
 10
-22.68463746362819
 20
-36.1963529442968
 10
-22.68518432157153
 20
-36.61839038516751
 10
-22.69255639645356
 20
-37.02899243378893
 10
-22.70636381676779
 20
-37.43254730104778
 10
-22.72050135437961
 20
-37.7264475073998
 10
-22.73674906633673
 20
-38.0001395801447
 10
-22.75366330067443
 20
-38.24323145761375
 10
-22.77002612631052
 20
-38.45175306946742
 10
-22.78213169146122
 20
-38.5935987078612
 10
-22.79172885369208
 20
-38.69999999999991
  0
LINE
  5
10E
330
D2
100
AcDbEntity
  8
AM_4
100
AcDbLine
 10
-22.8
 20
-27.8
 30
0.0
 11
-13.04697893284443
 21
-27.8
 31
0.0
  0
LINE
  5
10F
330
D2
100
AcDbEntity
  8
AM_4
100
AcDbLine
 10
-22.79172885369209
 20
-38.7
 30
0.0
 11
-13.04697893284443
 21
-38.7
 31
0.0
  0
LINE
  5
110
330
D2
100
AcDbEntity
  8
AM_4
100
AcDbLine
 10
-22.79172885369213
 20
-38.69999999999995
 30
0.0
 11
-22.75600000000009
 21
-38.74399999999989
 31
0.0
  0
LINE
  5
111
330
D2
100
AcDbEntity
  8
AM_4
100
AcDbLine
 10
-13.04697893284443
 20
-38.7
 30
0.0
 11
-12.74584567515471
 21
-39.3
 31
0.0
  0
LINE
  5
112
330
D2
100
AcDbEntity
  8
AM_4
100
AcDbLine
 10
-22.75668010835136
 20
-38.74331989164863
 30
0.0
 11
-22.2
 21
-39.3
 31
0.0
  0
LINE
  5
113
330
D2
100
AcDbEntity
  8
AM_4
100
AcDbLine
 10
-12.32874700403788
 20
-27.2
 30
0.0
 11
-12.32874700403788
 21
-39.3
 31
0.0
  0
LINE
  5
114
330
D2
100
AcDbEntity
  8
AM_4
100
AcDbLine
 10
22.11419227555011
 20
-27.2
 30
0.0
 11
22.71645879092954
 21
-27.8
 31
0.0
  0
LINE
  5
115
330
D2
100
AcDbEntity
  8
AM_4
100
AcDbLine
 10
-22.2
 20
-27.2
 30
0.0
 11
22.11419227555011
 21
-27.2
 31
0.0
  0
LINE
  5
116
330
D2
100
AcDbEntity
  8
AM_4
100
AcDbLine
 10
-9.669479858085126
 20
-27.8
 30
0.0
 11
-9.368346600395405
 21
-27.2
 31
0.0
  0
LINE
  5
117
330
D2
100
AcDbEntity
  8
AM_4
100
AcDbLine
 10
22.71645879092954
 20
-27.8
 30
0.0
 11
22.71645879092954
 21
-38.7
 31
0.0
  0
LINE
  5
118
330
D2
100
AcDbEntity
  8
AM_4
100
AcDbLine
 10
-9.669479858085126
 20
-27.8
 30
0.0
 11
22.71645879092954
 21
-27.8
 31
0.0
  0
LINE
  5
119
330
D2
100
AcDbEntity
  8
AM_4
100
AcDbLine
 10
-9.669479858085126
 20
-38.7
 30
0.0
 11
-9.669479858085126
 21
-27.8
 31
0.0
  0
LINE
  5
11A
330
D2
100
AcDbEntity
  8
AM_4
100
AcDbLine
 10
22.71645879092954
 20
-38.7
 30
0.0
 11
22.11419227555011
 21
-39.3
 31
0.0
  0
LINE
  5
11B
330
D2
100
AcDbEntity
  8
AM_4
100
AcDbLine
 10
-9.669479858085126
 20
-38.7
 30
0.0
 11
22.71645879092954
 21
-38.7
 31
0.0
  0
LINE
  5
11C
330
D2
100
AcDbEntity
  8
AM_4
100
AcDbLine
 10
-9.368346600395407
 20
-39.3
 30
0.0
 11
-9.669479858085126
 21
-38.7
 31
0.0
  0
LINE
  5
11D
330
D2
100
AcDbEntity
  8
AM_4
100
AcDbLine
 10
-22.2
 20
-39.3
 30
0.0
 11
22.11419227555011
 21
-39.3
 31
0.0
  0
ENDBLK
  5
D5
330
D2
100
AcDbEntity
  8
0
100
AcDbBlockEnd
  0
BLOCK
  5
120
330
11E
100
AcDbEntity
  8
0
100
AcDbBlockBegin
  2
4_129492_0_in_129323_4
 70
     2
 10
0.0
 20
0.0
 30
0.0
  3
4_129492_0_in_129323_4
  1

  0
ATTDEF
  5
122
330
11E
100
AcDbEntity
  8
AM_6
100
AcDbText
 10
41.49999999999999
 20
1.209999999999997
 30
0.0
 40
0.5
  1
F2B-GT-M-B
100
AcDbAttributeDefinition
  3

  2
NN
 70
     8
280
     0
  0
ATTDEF
  5
123
330
11E
100
AcDbEntity
  8
AM_6
100
AcDbText
 10
41.49999999999999
 20
0.7099999999999969
 30
0.0
 40
0.5
  1
GT Normal Duty 2 Bolt Flange Bearings
100
AcDbAttributeDefinition
  3

  2
NT
 70
     8
280
     0
  0
ATTDEF
  5
124
330
11E
100
AcDbEntity
  8
AM_6
100
AcDbText
 10
41.49999999999999
 20
0.2099999999999969
 30
0.0
 40
0.5
  1
129492
100
AcDbAttributeDefinition
  3

  2
NB
 70
     8
280
     0
  0
ATTDEF
  5
125
330
11E
100
AcDbEntity
  8
AM_6
100
AcDbText
 10
41.49999999999999
 20
-0.2900000000000031
 30
0.0
 40
0.5
  1
$PN.$LUBE.
100
AcDbAttributeDefinition
  3

  2
NBSYN
 70
     8
280
     0
  0
ATTDEF
  5
126
330
11E
100
AcDbEntity
  8
AM_6
100
AcDbText
 10
41.49999999999999
 20
-0.7900000000000031
 30
0.0
 40
0.5
  1
129492
100
AcDbAttributeDefinition
  3

  2
LINA
 70
     8
280
     0
  0
ATTDEF
  5
127
330
11E
100
AcDbEntity
  8
AM_6
100
AcDbText
 10
41.49999999999999
 20
-1.290000000000003
 30
0.0
 40
0.5
  1
205
100
AcDbAttributeDefinition
  3

  2
SERIES
 70
     8
280
     0
  0
ATTDEF
  5
128
330
11E
100
AcDbEntity
  8
AM_6
100
AcDbText
 10
41.49999999999999
 20
-1.790000000000003
 30
0.0
 40
0.5
  1
52
100
AcDbAttributeDefinition
  3

  2
BOD
 70
     8
280
     0
  0
ATTDEF
  5
129
330
11E
100
AcDbEntity
  8
AM_6
100
AcDbText
 10
41.49999999999999
 20
-2.290000000000003
 30
0.0
 40
0.5
  1
25
100
AcDbAttributeDefinition
  3

  2
SS
 70
     8
280
     0
  0
ATTDEF
  5
12A
330
11E
100
AcDbEntity
  8
AM_6
100
AcDbText
 10
41.49999999999999
 20
-2.790000000000003
 30
0.0
 40
0.5
  1
129492
100
AcDbAttributeDefinition
  3

  2
PN
 70
     8
280
     0
  0
ATTDEF
  5
12B
330
11E
100
AcDbEntity
  8
AM_6
100
AcDbText
 10
41.49999999999999
 20
-3.290000000000003
 30
0.0
 40
0.5
  1
F2B-GT-05
100
AcDbAttributeDefinition
  3

  2
DESCRIPTION
 70
     8
280
     0
  0
ATTDEF
  5
12C
330
11E
100
AcDbEntity
  8
AM_6
100
AcDbText
 10
41.49999999999999
 20
-3.790000000000003
 30
0.0
 40
0.5
  1
With Lube
100
AcDbAttributeDefinition
  3

  2
LUBE
 70
     8
280
     0
  0
ATTDEF
  5
12D
330
11E
100
AcDbEntity
  8
AM_6
100
AcDbText
 10
41.49999999999999
 20
-4.290000000000003
 30
0.0
 40
0.5
  1
0.8
100
AcDbAttributeDefinition
  3

  2
WEIGHT
 70
     8
280
     0
  0
ATTDEF
  5
12E
330
11E
100
AcDbEntity
  8
AM_6
100
AcDbText
 10
41.49999999999999
 20
-4.790000000000003
 30
0.0
 40
0.5
  1
36.9
100
AcDbAttributeDefinition
  3

  2
A
 70
     8
280
     0
  0
ATTDEF
  5
12F
330
11E
100
AcDbEntity
  8
AM_6
100
AcDbText
 10
41.49999999999999
 20
-5.290000000000003
 30
0.0
 40
0.5
  1
123.8
100
AcDbAttributeDefinition
  3

  2
B
 70
     8
280
     0
  0
ATTDEF
  5
130
330
11E
100
AcDbEntity
  8
AM_6
100
AcDbText
 10
41.49999999999999
 20
-5.790000000000003
 30
0.0
 40
0.5
  1
39.3
100
AcDbAttributeDefinition
  3

  2
C
 70
     8
280
     0
  0
ATTDEF
  5
131
330
11E
100
AcDbEntity
  8
AM_6
100
AcDbText
 10
41.49999999999999
 20
-6.290000000000003
 30
0.0
 40
0.5
  1
98.8
100
AcDbAttributeDefinition
  3

  2
D
 70
     8
280
     0
  0
ATTDEF
  5
132
330
11E
100
AcDbEntity
  8
AM_6
100
AcDbText
 10
41.49999999999999
 20
-6.790000000000003
 30
0.0
 40
0.5
  1
M10
100
AcDbAttributeDefinition
  3

  2
F
 70
     8
280
     0
  0
ATTDEF
  5
133
330
11E
100
AcDbEntity
  8
AM_6
100
AcDbText
 10
41.49999999999999
 20
-7.290000000000003
 30
0.0
 40
0.5
  1
12.7
100
AcDbAttributeDefinition
  3

  2
H
 70
     8
280
     0
  0
ATTDEF
  5
134
330
11E
100
AcDbEntity
  8
AM_6
100
AcDbText
 10
41.49999999999999
 20
-7.790000000000003
 30
0.0
 40
0.5
  1
15.1
100
AcDbAttributeDefinition
  3

  2
J
 70
     8
280
     0
  0
ATTDEF
  5
135
330
11E
100
AcDbEntity
  8
AM_6
100
AcDbText
 10
41.49999999999999
 20
-8.290000000000003
 30
0.0
 40
0.5
  1
45.6
100
AcDbAttributeDefinition
  3

  2
L
 70
     8
280
     0
  0
ATTDEF
  5
136
330
11E
100
AcDbEntity
  8
AM_6
100
AcDbText
 10
41.49999999999999
 20
-8.790000000000003
 30
0.0
 40
0.5
  1
69.9
100
AcDbAttributeDefinition
  3

  2
M
 70
     8
280
     0
  0
ATTDEF
  5
137
330
11E
100
AcDbEntity
  8
AM_6
100
AcDbText
 10
41.49999999999999
 20
-9.290000000000003
 30
0.0
 40
0.5
  1
36.5
100
AcDbAttributeDefinition
  3

  2
N
 70
     8
280
     0
  0
ATTDEF
  5
138
330
11E
100
AcDbEntity
  8
AM_6
100
AcDbText
 10
41.49999999999999
 20
-9.790000000000003
 30
0.0
 40
0.5
  1
39.3
100
AcDbAttributeDefinition
  3

  2
Z
 70
     8
280
     0
  0
ATTDEF
  5
139
330
11E
100
AcDbEntity
  8
AM_6
100
AcDbText
 10
41.49999999999999
 20
-10.29
 30
0.0
 40
0.5
  1
10.8
100
AcDbAttributeDefinition
  3

  2
F1
 70
     8
280
     0
  0
ATTDEF
  5
13A
330
11E
100
AcDbEntity
  8
AM_6
100
AcDbText
 10
41.49999999999999
 20
-10.79
 30
0.0
 40
0.5
  1
baldor
100
AcDbAttributeDefinition
  3

  2
COMPANY
 70
     8
280
     0
  0
LINE
  5
13B
330
11E
100
AcDbEntity
  8
AM_9
100
AcDbLine
 10
28.4061035
 20
-22.2
 30
0.0
 11
28.4061035
 21
-24.2
 31
0.0
  0
LINE
  5
13C
330
11E
100
AcDbEntity
  8
AM_9
100
AcDbLine
 10
28.184099
 20
-22.2
 30
0.0
 11
28.184099
 21
-24.2
 31
0.0
  0
LINE
  5
13D
330
11E
100
AcDbEntity
  8
AM_9
100
AcDbLine
 10
28.110097
 20
-22.2
 30
0.0
 11
28.110097
 21
-24.2
 31
0.0
  0
LINE
  5
13E
330
11E
100
AcDbEntity
  8
AM_9
100
AcDbLine
 10
28.33210200000001
 20
-22.2
 30
0.0
 11
28.33210200000001
 21
-24.2
 31
0.0
  0
LINE
  5
13F
330
11E
100
AcDbEntity
  8
AM_9
100
AcDbLine
 10
28.84191000000001
 20
-22.2
 30
0.0
 11
28.84191000000001
 21
-24.2
 31
0.0
  0
LINE
  5
140
330
11E
100
AcDbEntity
  8
AM_9
100
AcDbLine
 10
27.91689000000001
 20
-22.2
 30
0.0
 11
27.91689000000001
 21
-24.2
 31
0.0
  0
LINE
  5
141
330
11E
100
AcDbEntity
  8
AM_9
100
AcDbLine
 10
28.10189400000001
 20
-22.2
 30
0.0
 11
28.10189400000001
 21
-24.2
 31
0.0
  0
LINE
  5
142
330
11E
100
AcDbEntity
  8
AM_9
100
AcDbLine
 10
28.656906
 20
-22.2
 30
0.0
 11
28.656906
 21
-24.2
 31
0.0
  0
LINE
  5
143
330
11E
100
AcDbEntity
  8
AM_9
100
AcDbLine
 10
28.8049095
 20
-22.2
 30
0.0
 11
28.8049095
 21
-24.2
 31
0.0
  0
LINE
  5
144
330
11E
100
AcDbEntity
  8
AM_9
100
AcDbLine
 10
27.9538905
 20
-22.2
 30
0.0
 11
27.9538905
 21
-24.2
 31
0.0
  0
LINE
  5
145
330
11E
100
AcDbEntity
  8
AM_9
100
AcDbLine
 10
27.84289
 20
-22.2
 30
0.0
 11
27.84289
 21
-24.2
 31
0.0
  0
LINE
  5
146
330
11E
100
AcDbEntity
  8
AM_9
100
AcDbLine
 10
28.91591
 20
-22.2
 30
0.0
 11
28.91591
 21
-24.2
 31
0.0
  0
LINE
  5
147
330
11E
100
AcDbEntity
  8
AM_9
100
AcDbLine
 10
27.620885
 20
-22.2
 30
0.0
 11
27.620885
 21
-24.2
 31
0.0
  0
LINE
  5
148
330
11E
100
AcDbEntity
  8
AM_9
100
AcDbLine
 10
29.137915
 20
-22.2
 30
0.0
 11
29.137915
 21
-24.2
 31
0.0
  0
LINE
  5
149
330
11E
100
AcDbEntity
  8
AM_9
100
AcDbLine
 10
27.768885
 20
-22.2
 30
0.0
 11
27.768885
 21
-24.2
 31
0.0
  0
LINE
  5
14A
330
11E
100
AcDbEntity
  8
AM_9
100
AcDbLine
 10
28.989915
 20
-22.2
 30
0.0
 11
28.989915
 21
-24.2
 31
0.0
  0
LINE
  5
14B
330
11E
100
AcDbEntity
  8
AM_9
100
AcDbLine
 10
27.54688000000001
 20
-22.2
 30
0.0
 11
27.54688000000001
 21
-24.2
 31
0.0
  0
LINE
  5
14C
330
11E
100
AcDbEntity
  8
AM_9
100
AcDbLine
 10
29.21192
 20
-22.2
 30
0.0
 11
29.21192
 21
-24.2
 31
0.0
  0
LINE
  5
14D
330
11E
100
AcDbEntity
  8
AM_9
100
AcDbLine
 10
29.026915
 20
-22.2
 30
0.0
 11
29.026915
 21
-24.2
 31
0.0
  0
LINE
  5
14E
330
11E
100
AcDbEntity
  8
AM_9
100
AcDbLine
 10
27.73188500000001
 20
-22.2
 30
0.0
 11
27.73188500000001
 21
-24.2
 31
0.0
  0
LINE
  5
14F
330
11E
100
AcDbEntity
  8
AM_9
100
AcDbLine
 10
27.50988
 20
-22.2
 30
0.0
 11
27.50988
 21
-24.2
 31
0.0
  0
LINE
  5
150
330
11E
100
AcDbEntity
  8
AM_9
100
AcDbLine
 10
29.24892000000001
 20
-22.2
 30
0.0
 11
27.37008
 21
-22.2
 31
0.0
  0
LINE
  5
151
330
11E
100
AcDbEntity
  8
AM_9
100
AcDbLine
 10
29.24892000000001
 20
-22.2
 30
0.0
 11
29.24892000000001
 21
-24.19999999999999
 31
0.0
  0
LINE
  5
152
330
11E
100
AcDbEntity
  8
AM_9
100
AcDbLine
 10
28.70211
 20
-22.2
 30
0.0
 11
28.70211
 21
-24.2
 31
0.0
  0
LINE
  5
153
330
11E
100
AcDbEntity
  8
AM_9
100
AcDbLine
 10
27.77709
 20
-22.2
 30
0.0
 11
27.77709
 21
-24.2
 31
0.0
  0
LINE
  5
154
330
11E
100
AcDbEntity
  8
AM_9
100
AcDbLine
 10
27.962094
 20
-22.2
 30
0.0
 11
27.962094
 21
-24.2
 31
0.0
  0
LINE
  5
155
330
11E
100
AcDbEntity
  8
AM_9
100
AcDbLine
 10
28.51710600000001
 20
-22.2
 30
0.0
 11
28.51710600000001
 21
-24.2
 31
0.0
  0
LINE
  5
156
330
11E
100
AcDbEntity
  8
AM_9
100
AcDbLine
 10
28.6651095
 20
-22.2
 30
0.0
 11
28.6651095
 21
-24.2
 31
0.0
  0
LINE
  5
157
330
11E
100
AcDbEntity
  8
AM_9
100
AcDbLine
 10
27.8140905
 20
-22.2
 30
0.0
 11
27.8140905
 21
-24.2
 31
0.0
  0
LINE
  5
158
330
11E
100
AcDbEntity
  8
AM_9
100
AcDbLine
 10
27.70309
 20
-22.2
 30
0.0
 11
27.70309
 21
-24.2
 31
0.0
  0
LINE
  5
159
330
11E
100
AcDbEntity
  8
AM_9
100
AcDbLine
 10
28.77611
 20
-22.2
 30
0.0
 11
28.77611
 21
-24.2
 31
0.0
  0
LINE
  5
15A
330
11E
100
AcDbEntity
  8
AM_9
100
AcDbLine
 10
28.998115
 20
-22.2
 30
0.0
 11
28.998115
 21
-24.2
 31
0.0
  0
LINE
  5
15B
330
11E
100
AcDbEntity
  8
AM_9
100
AcDbLine
 10
27.48108500000001
 20
-22.2
 30
0.0
 11
27.48108500000001
 21
-24.2
 31
0.0
  0
LINE
  5
15C
330
11E
100
AcDbEntity
  8
AM_9
100
AcDbLine
 10
28.850115
 20
-22.2
 30
0.0
 11
28.850115
 21
-24.2
 31
0.0
  0
LINE
  5
15D
330
11E
100
AcDbEntity
  8
AM_9
100
AcDbLine
 10
27.629085
 20
-22.2
 30
0.0
 11
27.629085
 21
-24.2
 31
0.0
  0
LINE
  5
15E
330
11E
100
AcDbEntity
  8
AM_9
100
AcDbLine
 10
29.07212
 20
-22.2
 30
0.0
 11
29.07212
 21
-24.2
 31
0.0
  0
LINE
  5
15F
330
11E
100
AcDbEntity
  8
AM_9
100
AcDbLine
 10
27.40708
 20
-22.2
 30
0.0
 11
27.40708
 21
-24.2
 31
0.0
  0
LINE
  5
160
330
11E
100
AcDbEntity
  8
AM_9
100
AcDbLine
 10
28.887115
 20
-22.2
 30
0.0
 11
28.887115
 21
-24.2
 31
0.0
  0
LINE
  5
161
330
11E
100
AcDbEntity
  8
AM_9
100
AcDbLine
 10
27.592085
 20
-22.2
 30
0.0
 11
27.592085
 21
-24.2
 31
0.0
  0
LINE
  5
162
330
11E
100
AcDbEntity
  8
AM_9
100
AcDbLine
 10
27.37008
 20
-22.2
 30
0.0
 11
27.37008
 21
-24.2
 31
0.0
  0
LINE
  5
163
330
11E
100
AcDbEntity
  8
AM_9
100
AcDbLine
 10
29.10912
 20
-22.2
 30
0.0
 11
29.10912
 21
-24.2
 31
0.0
  0
LINE
  5
164
330
11E
100
AcDbEntity
  8
AM_9
100
AcDbLine
 10
27.77336928498603
 20
-10.88571428571428
 30
0.0
 11
27.77336928498604
 21
-13.02009849180358
 31
0.0
  0
LINE
  5
165
330
11E
100
AcDbEntity
  8
AM_9
100
AcDbLine
 10
28.19587368943973
 20
-3.174999999999999
 30
0.0
 11
28.19587368943973
 21
-10.88571428571428
 31
0.0
  0
LINE
  5
166
330
11E
100
AcDbEntity
  8
AM_9
100
AcDbLine
 10
21.85469517510084
 20
-10.88571428571428
 30
0.0
 11
31.13242870082851
 21
-10.88571428571428
 31
0.0
  0
LINE
  5
167
330
11E
100
AcDbEntity
  8
AM_9
100
AcDbLine
 10
31.13242870082851
 20
-3.174999999999999
 30
0.0
 11
31.13242870082851
 21
-10.88571428571428
 31
0.0
  0
LINE
  5
168
330
11E
100
AcDbEntity
  8
AM_9
100
AcDbLine
 10
26.0
 20
-24.2
 30
0.0
 11
26.0
 21
-3.175000000000001
 31
0.0
  0
LINE
  5
169
330
11E
100
AcDbEntity
  8
AM_9
100
AcDbLine
 10
-26.0
 20
-3.175000000000001
 30
0.0
 11
-26.0
 21
-24.2
 31
0.0
  0
LINE
  5
16A
330
11E
100
AcDbEntity
  8
AM_9
100
AcDbLine
 10
32.58601601189433
 20
-19.61691066363469
 30
0.0
 11
32.58601601189433
 21
-12.64975952912384
 31
0.0
  0
LWPOLYLINE
  5
16B
330
11E
100
AcDbEntity
  8
AM_9
100
AcDbPolyline
 90
        3
 70
     0
 43
0.0
 10
32.02104955629085
 20
-13.82393225657482
 10
31.23109817667197
 20
-13.24917790966014
 10
30.48959235991434
 20
-12.66923171819557
  0
LWPOLYLINE
  5
16C
330
11E
100
AcDbEntity
  8
AM_9
100
AcDbPolyline
 90
        3
 70
     0
 43
0.0
 10
31.90380592228744
 20
-16.13333333333333
 10
31.93475222232053
 20
-14.97863279495408
 10
32.02104955629085
 20
-13.82393225657482
  0
LWPOLYLINE
  5
16D
330
11E
100
AcDbEntity
  8
AM_9
100
AcDbPolyline
 90
        3
 70
     0
 43
0.0
 10
30.48959235991435
 20
-19.59743494847109
 10
31.22764544113398
 20
-19.02008467928146
 10
32.02104955629085
 20
-18.44273441009183
  0
LWPOLYLINE
  5
16E
330
11E
100
AcDbEntity
  8
AM_9
100
AcDbPolyline
 90
        3
 70
     0
 43
0.0
 10
32.02104955629085
 20
-18.44273441009183
 10
31.93502561536576
 20
-17.29322571626246
 10
31.90380592228744
 20
-16.13333333333333
  0
LINE
  5
16F
330
11E
100
AcDbEntity
  8
AM_9
100
AcDbLine
 10
32.02104955629085
 20
-13.82393225657482
 30
0.0
 11
33.90788263184368
 21
-13.82393225657482
 31
0.0
  0
LINE
  5
170
330
11E
100
AcDbEntity
  8
AM_9
100
AcDbLine
 10
32.02104955629085
 20
-18.44273441009183
 30
0.0
 11
33.90788263184368
 21
-18.44273441009183
 31
0.0
  0
LINE
  5
171
330
11E
100
AcDbEntity
  8
AM_9
100
AcDbLine
 10
33.90788263184368
 20
-18.44273441009183
 30
0.0
 11
33.52207309301165
 21
-18.80688815736272
 31
0.0
  0
LWPOLYLINE
  5
172
330
11E
100
AcDbEntity
  8
AM_9
100
AcDbPolyline
 90
        3
 70
     0
 43
0.0
 10
34.02512626584709
 20
-16.13333333333333
 10
33.994179965814
 20
-17.28803387171258
 10
33.90788263184368
 20
-18.44273441009183
  0
LINE
  5
173
330
11E
100
AcDbEntity
  8
AM_9
100
AcDbLine
 10
33.52142276472949
 20
-13.45917940107399
 30
0.0
 11
33.90788263184368
 21
-13.82393225657482
 31
0.0
  0
LWPOLYLINE
  5
174
330
11E
100
AcDbEntity
  8
AM_9
100
AcDbPolyline
 90
        3
 70
     0
 43
0.0
 10
33.90788263184368
 20
-13.82393225657482
 10
33.99390657276876
 20
-14.9734409504042
 10
34.02512626584709
 20
-16.13333333333333
  0
LWPOLYLINE
  5
175
330
11E
100
AcDbEntity
  8
AM_9
100
AcDbPolyline
 90
        6
 70
     0
 43
0.0
 10
26.35444774042715
 20
-23.37364817766693
 10
26.27446470839701
 20
-23.68803681092444
 10
26.12548150847577
 20
-23.94750911362265
 10
25.92329954498198
 20
-24.12447298596758
 10
25.68894811194756
 20
-24.19857964537314
 10
25.65087223941859
 20
-24.2
  0
ARC
  5
176
330
11E
100
AcDbEntity
  8
AM_9
100
AcDbCircle
 10
31.97734390225034
 20
-23.19999999999999
 30
0.0
 40
1.0
100
AcDbArc
 50
270.0
 51
307.4935496564473
  0
LWPOLYLINE
  5
177
330
11E
100
AcDbEntity
  8
AM_9
100
AcDbPolyline
 90
        3
 70
     0
 43
0.0
 10
30.48959235991434
 20
-12.66923171819557
 10
29.81343187876089
 20
-12.09188144900595
 10
29.19262243154466
 20
-11.51453117981632
  0
LWPOLYLINE
  5
178
330
11E
100
AcDbEntity
  8
AM_9
100
AcDbPolyline
 90
        3
 70
     0
 43
0.0
 10
29.19262243154466
 20
-20.75213548685033
 10
29.81052592931335
 20
-20.17738113993565
 10
30.48959235991435
 20
-19.59743494847109
  0
LINE
  5
179
330
11E
100
AcDbEntity
  8
AM_9
100
AcDbLine
 10
29.07537879754125
 20
-13.33333333333333
 30
0.0
 11
28.72182540694798
 21
-13.33333333333333
 31
0.0
  0
LINE
  5
17A
330
11E
100
AcDbEntity
  8
AM_9
100
AcDbLine
 10
28.72182540694798
 20
-18.93333333333333
 30
0.0
 11
29.07537879754125
 21
-18.93333333333333
 31
0.0
  0
LINE
  5
17B
330
11E
100
AcDbEntity
  8
AM_9
100
AcDbLine
 10
26.35444774042715
 20
-23.37364817766693
 30
0.0
 11
27.59393146329136
 21
-13.52635182233307
 31
0.0
  0
LINE
  5
17C
330
11E
100
AcDbEntity
  8
AM_9
100
AcDbLine
 10
33.76337087171936
 20
-18.82970820184687
 30
0.0
 11
34.66895493173409
 21
-13.69388578614967
 31
0.0
  0
LINE
  5
17D
330
11E
100
AcDbEntity
  8
AM_9
100
AcDbLine
 10
16.38668627283538
 20
-23.37364817766693
 30
0.0
 11
32.58601601189433
 21
-23.37364817766693
 31
0.0
  0
LINE
  5
17E
330
11E
100
AcDbEntity
  8
AM_9
100
AcDbLine
 10
32.00022957426743
 20
-20.0751486495701
 30
0.0
 11
32.00022957426743
 21
-12.1916045074966
 31
0.0
  0
LWPOLYLINE
  5
17F
330
11E
100
AcDbEntity
  8
AM_9
100
AcDbPolyline
 90
        3
 70
     0
 43
0.0
 10
27.59393146329136
 20
-13.52635182233307
 10
27.67391767771224
 20
-13.21174538526164
 10
27.77336928498604
 20
-13.02009849180358
  0
LINE
  5
180
330
11E
100
AcDbEntity
  8
AM_9
100
AcDbLine
 10
17.84014892612156
 20
-13.02009849180353
 30
0.0
 11
33.03501574734517
 21
-13.02009849180353
 31
0.0
  0
LINE
  5
181
330
11E
100
AcDbEntity
  8
AM_9
100
AcDbLine
 10
34.33300012004019
 20
-13.52635182233307
 30
0.0
 11
17.65657362254415
 21
-13.52635182233307
 31
0.0
  0
ELLIPSE
  5
182
330
11E
100
AcDbEntity
  8
AM_9
100
AcDbEllipse
 10
31.19669914110091
 20
-16.13333333333332
 30
0.0
 11
1.714505518806288E-16
 21
2.79999999999999
 31
0.0
210
0.0
220
0.0
230
1.0
 40
0.7071067811865461
 41
3.141592653589793
 42
6.283185307179586
  0
ELLIPSE
  5
183
330
11E
100
AcDbEntity
  8
AM_9
100
AcDbEllipse
 10
31.55025253169413
 20
-16.13333333333336
 30
0.0
 11
1.714505518806332E-16
 21
2.800000000000061
 31
0.0
210
0.0
220
0.0
230
1.0
 40
0.7071067811865471
 41
3.752133372468712
 42
5.672093389651779
  0
ELLIPSE
  5
184
330
11E
100
AcDbEntity
  8
AM_9
100
AcDbEllipse
 10
31.19669914110086
 20
-16.1333333333333
 30
0.0
 11
2.449293598294754E-16
 21
4.000000000000078
 31
0.0
210
0.0
220
0.0
230
1.0
 40
0.7071067811865456
 41
3.994151771096334
 42
5.431473666167188
  0
LWPOLYLINE
  5
185
330
11E
100
AcDbEntity
  8
AM_9
100
AcDbPolyline
 90
        4
 70
     0
 43
0.0
 10
31.7777919699759
 20
-16.73793018922283
 10
31.76649470432996
 20
-16.66940089060249
 10
31.73887519917388
 20
-16.43918235748213
 10
31.73739079714758
 20
-16.42146130980586
  0
LWPOLYLINE
  5
186
330
11E
100
AcDbEntity
  8
AM_9
100
AcDbPolyline
 90
        4
 70
     0
 43
0.0
 10
31.90250372408253
 20
-17.22185274036207
 10
31.86313016642962
 20
-17.10024372054971
 10
31.8083699286694
 20
-16.89086633644701
 10
31.79029207476484
 20
-16.8051021677587
  0
LWPOLYLINE
  5
187
330
11E
100
AcDbEntity
  8
AM_9
100
AcDbPolyline
 90
       27
 70
     0
 43
0.0
 10
33.4960878893653
 20
-16.13333333333333
 10
33.4942462950743
 20
-16.24807128097316
 10
33.47887628897553
 20
-16.48315450840493
 10
33.44834551444833
 20
-16.71279626633311
 10
33.40363143471586
 20
-16.9331892801639
 10
33.34619891501861
 20
-17.1408690552381
 10
33.27798298265475
 20
-17.33270205459943
 10
33.20135305161548
 20
-17.50599635359686
 10
33.11905737044372
 20
-17.65861539791013
 10
33.03414315996248
 20
-17.78908887586433
 10
32.94991912521485
 20
-17.89663121545638
 10
32.8698186502126
 20
-17.98129262819872
 10
32.7970546829333
 20
-18.04419488912712
 10
32.73446226027389
 20
-18.08741399611177
 10
32.6841978850615
 20
-18.11393894566682
 10
32.64723534593232
 20
-18.12757825889862
 10
32.62215132252026
 20
-18.13269867276063
 10
32.60037602290567
 20
-18.13277381169573
 10
32.57112810319096
 20
-18.12656561744671
 10
32.53176489998203
 20
-18.11127252948464
 10
32.47989019623554
 20
-18.08281437257689
 10
32.4173305378844
 20
-18.03837407485317
 10
32.3391592320683
 20
-17.96881122044322
 10
32.25572499994728
 20
-17.87750264761992
 10
32.17006002137657
 20
-17.76396377862816
 10
32.08511786226274
 20
-17.62828471161258
 10
32.02746870387017
 20
-17.52016069283852
  0
LWPOLYLINE
  5
188
330
11E
100
AcDbEntity
  8
AM_9
100
AcDbPolyline
 90
       28
 70
     0
 43
0.0
 10
32.00740583397721
 20
-14.7877933607688
 10
32.03807433740752
 20
-14.72549109437004
 10
32.12121094157051
 20
-14.5776110990714
 10
32.20627034992337
 20
-14.45209917250065
 10
32.28987831483339
 20
-14.34960423862796
 10
32.36864060613845
 20
-14.26982710507701
 10
32.43940565883766
 20
-14.21143617062527
 10
32.4994571841209
 20
-14.1721508839764
 10
32.54684190898411
 20
-14.14879268067058
 10
32.58096062090463
 20
-14.13739679259418
 10
32.60412442029811
 20
-14.13356870740751
 10
32.62866870278621
 20
-14.13486685065746
 10
32.65706322762069
 20
-14.14212141575946
 10
32.69894883204847
 20
-14.15966542456871
 10
32.75299503207646
 20
-14.19094734557894
 10
32.81733058003246
 20
-14.23866455854268
 10
32.89658627957766
 20
-14.31184685772372
 10
32.9806068572991
 20
-14.40691552067816
 10
33.06635764658852
 20
-14.5242490833745
 10
33.15088380761593
 20
-14.66363744059249
 10
33.23128847493321
 20
-14.82417166008497
 10
33.30474802827224
 20
-15.00403200492954
 10
33.36886146321539
 20
-15.20110002681376
 10
33.42154209455691
 20
-15.41275801403188
 10
33.46107389088236
 20
-15.63595846223235
 10
33.48616049524326
 20
-15.86731537056844
 10
33.49583793449829
 20
-16.09105070297475
 10
33.4960878893653
 20
-16.13333333333333
  0
LWPOLYLINE
  5
189
330
11E
100
AcDbEntity
  8
AM_9
100
AcDbPolyline
 90
        3
 70
     0
 43
0.0
 10
31.86369898424347
 20
-15.16452757774693
 10
31.88968871340391
 20
-15.08242232416279
 10
31.90409976202169
 20
-15.04024839118515
  0
LINE
  5
18A
330
11E
100
AcDbEntity
  8
AM_9
100
AcDbLine
 10
31.73739079714758
 20
-16.42146130980586
 30
0.0
 11
31.72671214392899
 21
-16.21681577579693
 31
0.0
  0
ELLIPSE
  5
18B
330
11E
100
AcDbEntity
  8
AM_9
100
AcDbEllipse
 10
33.52722600596261
 20
-16.13333333333332
 30
0.0
 11
1.560179129828982E-16
 21
2.547965880309718
 31
0.0
210
0.0
220
0.0
230
1.0
 40
0.7071067811865462
 41
1.903650287432746
 42
7.429114847787794
  0
LINE
  5
18C
330
11E
100
AcDbEntity
  8
AM_9
100
AcDbLine
 10
34.68488764878875
 20
-18.56279118895404
 30
0.0
 11
34.70254364498785
 21
-18.55145938681359
 31
0.0
  0
ELLIPSE
  5
18D
330
11E
100
AcDbEntity
  8
AM_9
100
AcDbEllipse
 10
33.9121831675976
 20
-16.13333333333334
 30
0.0
 11
1.631162342867223E-16
 21
2.663890264528355
 31
0.0
210
0.0
220
0.0
230
1.0
 40
0.707106781186544
 41
3.553109499657285
 42
5.871668461112098
  0
LINE
  5
18E
330
11E
100
AcDbEntity
  8
AM_9
100
AcDbLine
 10
9.109412610660911
 20
-3.174999999999998
 30
0.0
 11
9.109412610660911
 21
0.0000000000000017
 31
0.0
  0
LINE
  5
18F
330
11E
100
AcDbEntity
  8
AM_9
100
AcDbLine
 10
-9.10941277113069
 20
-3.174999999999998
 30
0.0
 11
-9.10941277113069
 21
0.0000000000000017
 31
0.0
  0
LINE
  5
190
330
11E
100
AcDbEntity
  8
AM_9
100
AcDbLine
 10
-19.36816269428272
 20
-3.174999999999998
 30
0.0
 11
19.36816269428275
 21
-3.174999999999998
 31
0.0
  0
LINE
  5
191
330
11E
100
AcDbEntity
  8
AM_9
100
AcDbLine
 10
5.4
 20
-12.7
 30
0.0
 11
5.4
 21
0.000000000000003
 31
0.0
  0
LINE
  5
192
330
11E
100
AcDbEntity
  8
AM_9
100
AcDbLine
 10
-5.4
 20
0.000000000000003
 30
0.0
 11
-5.4
 21
-12.7
 31
0.0
  0
ELLIPSE
  5
193
330
11E
100
AcDbEntity
  8
AM_9
100
AcDbEllipse
 10
29.07537879754123
 20
-16.13333333333334
 30
0.0
 11
2.449293598294696E-16
 21
3.999999999999982
 31
0.0
210
0.0
220
0.0
230
1.0
 40
0.7071067811865457
 41
0.0
 42
6.283185307179586
  0
ELLIPSE
  5
194
330
11E
100
AcDbEntity
  8
AM_9
100
AcDbEllipse
 10
29.07537879754125
 20
-16.13333333333332
 30
0.0
 11
1.714505518806296E-16
 21
2.800000000000002
 31
0.0
210
0.0
220
0.0
230
1.0
 40
0.707106781186548
 41
0.0
 42
6.283185307179586
  0
ELLIPSE
  5
195
330
11E
100
AcDbEntity
  8
AM_9
100
AcDbEllipse
 10
28.72182540694798
 20
-16.13333333333333
 30
0.0
 11
-5.143516556418878E-16
 21
-2.799999999999997
 31
0.0
210
0.0
220
0.0
230
1.0
 40
0.7071067811865468
 41
0.0
 42
6.283185307179586
  0
LINE
  5
196
330
11E
100
AcDbEntity
  8
AM_7
100
AcDbLine
 10
0.0
 20
1.209999999999997
 30
0.0
 11
0.0000000000000016
 21
-41.145
 31
0.0
  0
LINE
  5
197
330
11E
100
AcDbEntity
  8
AM_4
100
AcDbLine
 10
34.95
 20
-13.02009849180353
 30
0.0
 11
34.95
 21
-3.175
 31
0.0
  0
LINE
  5
198
330
11E
100
AcDbEntity
  8
AM_4
100
AcDbLine
 10
32.58601601189433
 20
-12.64975952912384
 30
0.0
 11
32.58601601189433
 21
-3.174999999999999
 31
0.0
  0
LINE
  5
199
330
11E
100
AcDbEntity
  8
AM_4
100
AcDbLine
 10
32.58601601189433
 20
-24.2
 30
0.0
 11
32.58601601189433
 21
-19.61691066363469
 31
0.0
  0
LINE
  5
19A
330
11E
100
AcDbEntity
  8
AM_4
100
AcDbLine
 10
-34.95
 20
-3.175
 30
0.0
 11
-34.95
 21
-13.02009849180353
 31
0.0
  0
LINE
  5
19B
330
11E
100
AcDbEntity
  8
AM_4
100
AcDbLine
 10
-34.95
 20
-3.175
 30
0.0
 11
-19.36816269428272
 21
-3.174999999999998
 31
0.0
  0
LWPOLYLINE
  5
19C
330
11E
100
AcDbEntity
  8
AM_4
100
AcDbPolyline
 90
        3
 70
     0
 43
0.0
 10
33.52207309301165
 20
-18.80688815736272
 10
33.28997913407498
 20
-19.01748875700652
 10
32.61091270347399
 20
-19.59743494847109
  0
LWPOLYLINE
  5
19D
330
11E
100
AcDbEntity
  8
AM_4
100
AcDbPolyline
 90
        3
 70
     0
 43
0.0
 10
32.61091270347399
 20
-12.66923171819557
 10
33.28707318462745
 20
-13.2465819873852
 10
33.52142276472949
 20
-13.45917940107399
  0
LINE
  5
19E
330
11E
100
AcDbEntity
  8
AM_4
100
AcDbLine
 10
32.58601601189433
 20
-24.2
 30
0.0
 11
-31.97734390225032
 21
-24.19999999999999
 31
0.0
  0
ARC
  5
19F
330
11E
100
AcDbEntity
  8
AM_4
100
AcDbCircle
 10
-31.97734390225032
 20
-23.20000000000001
 30
0.0
 40
0.9999999999999768
100
AcDbArc
 50
189.9999999999992
 51
270.0
  0
ARC
  5
1A0
330
11E
100
AcDbEntity
  8
AM_4
100
AcDbCircle
 10
31.9773439022503
 20
-23.20000000000001
 30
0.0
 40
0.9999999999999969
100
AcDbArc
 50
307.4935496564493
 51
350.0000000000006
  0
LINE
  5
1A1
330
11E
100
AcDbEntity
  8
AM_4
100
AcDbLine
 10
16.38668627283538
 20
-23.37364817766692
 30
0.0
 11
-32.96215165526251
 21
-23.37364817766693
 31
0.0
  0
LINE
  5
1A2
330
11E
100
AcDbEntity
  8
AM_4
100
AcDbLine
 10
34.66895493173409
 20
-13.69388578614967
 30
0.0
 11
34.69849568974
 21
-13.52635182233307
 31
0.0
  0
LINE
  5
1A3
330
11E
100
AcDbEntity
  8
AM_4
100
AcDbLine
 10
32.96215165526251
 20
-23.37364817766693
 30
0.0
 11
33.76337087171936
 21
-18.82970820184687
 31
0.0
  0
LINE
  5
1A4
330
11E
100
AcDbEntity
  8
AM_4
100
AcDbLine
 10
-34.69849568974
 20
-13.52635182233307
 30
0.0
 11
-32.96215165526251
 21
-23.37364817766693
 31
0.0
  0
LINE
  5
1A5
330
11E
100
AcDbEntity
  8
AM_4
100
AcDbLine
 10
32.96215165526251
 20
-23.37364817766693
 30
0.0
 11
32.58601601189433
 21
-23.37364817766693
 31
0.0
  0
LINE
  5
1A6
330
11E
100
AcDbEntity
  8
AM_4
100
AcDbLine
 10
32.00022957426743
 20
-12.1916045074966
 30
0.0
 11
32.00022957426743
 21
-3.174999999999999
 31
0.0
  0
LINE
  5
1A7
330
11E
100
AcDbEntity
  8
AM_4
100
AcDbLine
 10
32.00022957426743
 20
-24.2
 30
0.0
 11
32.00022957426743
 21
-20.0751486495701
 31
0.0
  0
LINE
  5
1A8
330
11E
100
AcDbEntity
  8
AM_4
100
AcDbLine
 10
17.84014892612156
 20
-13.02009849180358
 30
0.0
 11
17.84014892612154
 21
-10.88571428571428
 31
0.0
  0
LINE
  5
1A9
330
11E
100
AcDbEntity
  8
AM_4
100
AcDbLine
 10
17.65657362254415
 20
-13.52635182233307
 30
0.0
 11
16.38668627283538
 21
-23.37364817766692
 31
0.0
  0
LWPOLYLINE
  5
1AA
330
11E
100
AcDbEntity
  8
AM_4
100
AcDbPolyline
 90
        8
 70
     0
 43
0.0
 10
15.66429346279351
 20
-24.2
 10
15.86672225072352
 20
-24.16123463082823
 10
15.9852121858492
 20
-24.09935763107069
 10
16.09773540047972
 20
-24.00694905668608
 10
16.19235093169982
 20
-23.89433031223516
 10
16.27412032700863
 20
-23.75596863446781
 10
16.37533138292045
 20
-23.44583863690768
 10
16.38668627283538
 20
-23.37364817766692
  0
LINE
  5
1AB
330
11E
100
AcDbEntity
  8
AM_4
100
AcDbLine
 10
25.44342123962853
 20
-24.19999999999999
 30
0.0
 11
25.44342123962853
 21
-3.174999999999998
 31
0.0
  0
LINE
  5
1AC
330
11E
100
AcDbEntity
  8
AM_4
100
AcDbLine
 10
22.61499411488234
 20
-24.19999999999999
 30
0.0
 11
22.61499411488234
 21
-3.174999999999998
 31
0.0
  0
LWPOLYLINE
  5
1AD
330
11E
100
AcDbEntity
  8
AM_4
100
AcDbPolyline
 90
        3
 70
     0
 43
0.0
 10
31.07945550709749
 20
-11.51453117981632
 10
31.86940688671636
 20
-12.08928552673101
 10
32.61091270347399
 20
-12.66923171819557
  0
LWPOLYLINE
  5
1AE
330
11E
100
AcDbEntity
  8
AM_4
100
AcDbPolyline
 90
        3
 70
     0
 43
0.0
 10
32.61091270347399
 20
-19.59743494847109
 10
31.87285962225435
 20
-20.17478521766071
 10
31.07945550709749
 20
-20.75213548685033
  0
LINE
  5
1AF
330
11E
100
AcDbEntity
  8
AM_4
100
AcDbLine
 10
17.65657362254415
 20
-13.52635182233307
 30
0.0
 11
-34.69849568974
 21
-13.52635182233307
 31
0.0
  0
LWPOLYLINE
  5
1B0
330
11E
100
AcDbEntity
  8
AM_4
100
AcDbPolyline
 90
        4
 70
     0
 43
0.0
 10
17.84014892612156
 20
-13.02009849180358
 10
17.77017730469746
 20
-13.14101969603745
 10
17.66855787907075
 20
-13.45056896246595
 10
17.65657362254415
 20
-13.52635182233307
  0
LINE
  5
1B1
330
11E
100
AcDbEntity
  8
AM_4
100
AcDbLine
 10
15.30666768407366
 20
-13.02009849180358
 30
0.0
 11
17.84014892612156
 21
-13.02009849180358
 31
0.0
  0
LINE
  5
1B2
330
11E
100
AcDbEntity
  8
AM_4
100
AcDbLine
 10
33.03501574734517
 20
-13.02009849180353
 30
0.0
 11
34.95000000000005
 21
-13.02009849180353
 31
0.0
  0
ARC
  5
1B3
330
11E
100
AcDbEntity
  8
AM_4
100
AcDbCircle
 10
-35.68330344275216
 20
-13.69999999999997
 30
0.0
 40
0.9999999999999502
100
AcDbArc
 50
9.999999999998694
 51
42.83594702614181
  0
ARC
  5
1B4
330
11E
100
AcDbEntity
  8
AM_4
100
AcDbCircle
 10
35.68330344275216
 20
-13.69999999999997
 30
0.0
 40
0.9999999999999497
100
AcDbArc
 50
137.1640529738582
 51
170.0000000000013
  0
LINE
  5
1B5
330
11E
100
AcDbEntity
  8
AM_4
100
AcDbLine
 10
34.69849568974
 20
-13.52635182233307
 30
0.0
 11
34.33300012004019
 21
-13.52635182233307
 31
0.0
  0
LINE
  5
1B6
330
11E
100
AcDbEntity
  8
AM_4
100
AcDbLine
 10
-34.95000000000005
 20
-13.02009849180353
 30
0.0
 11
-15.30666768407366
 21
-13.02009849180357
 31
0.0
  0
LINE
  5
1B7
330
11E
100
AcDbEntity
  8
AM_4
100
AcDbLine
 10
31.55025253169418
 20
-13.33333333333333
 30
0.0
 11
31.1966991411009
 21
-13.33333333333333
 31
0.0
  0
LINE
  5
1B8
330
11E
100
AcDbEntity
  8
AM_4
100
AcDbLine
 10
31.1966991411009
 20
-18.93333333333333
 30
0.0
 11
31.55025253169418
 21
-18.93333333333333
 31
0.0
  0
ELLIPSE
  5
1B9
330
11E
100
AcDbEntity
  8
AM_4
100
AcDbEllipse
 10
31.19669914110089
 20
-16.13333333333332
 30
0.0
 11
1.714505518806296E-16
 21
2.800000000000002
 31
0.0
210
0.0
220
0.0
230
1.0
 40
0.707106781186548
 41
0.0
 42
3.141592653589793
  0
ELLIPSE
  5
1BA
330
11E
100
AcDbEntity
  8
AM_4
100
AcDbEllipse
 10
31.55025253169418
 20
-16.13333333333333
 30
0.0
 11
1.714505518806291E-16
 21
2.799999999999994
 31
0.0
210
0.0
220
0.0
230
1.0
 40
0.7071067811865477
 41
5.67209338965179
 42
10.03531867964827
  0
LWPOLYLINE
  5
1BB
330
11E
100
AcDbEntity
  8
AM_4
100
AcDbPolyline
 90
        3
 70
     0
 43
0.0
 10
31.07945550709749
 20
-20.75213548685033
 10
30.46155200932879
 20
-20.17738113993564
 10
29.78248557872779
 20
-19.59743494847108
  0
LWPOLYLINE
  5
1BC
330
11E
100
AcDbEntity
  8
AM_4
100
AcDbPolyline
 90
        3
 70
     0
 43
0.0
 10
26.36419530679846
 20
-18.44273441009183
 10
26.98209880456716
 20
-19.01748875700651
 10
27.66116523516816
 20
-19.59743494847108
  0
LWPOLYLINE
  5
1BD
330
11E
100
AcDbEntity
  8
AM_4
100
AcDbPolyline
 90
        3
 70
     0
 43
0.0
 10
27.66116523516816
 20
-19.59743494847108
 10
28.39921831638779
 20
-20.17478521766071
 10
29.19262243154466
 20
-20.75213548685033
  0
LINE
  5
1BE
330
11E
100
AcDbEntity
  8
AM_4
100
AcDbLine
 10
29.19262243154466
 20
-20.75213548685033
 30
0.0
 11
31.07945550709749
 21
-20.75213548685033
 31
0.0
  0
LWPOLYLINE
  5
1BF
330
11E
100
AcDbEntity
  8
AM_4
100
AcDbPolyline
 90
        3
 70
     0
 43
0.0
 10
29.7824855787278
 20
-12.66923171819558
 10
30.45864605988125
 20
-12.09188144900595
 10
31.07945550709749
 20
-11.51453117981632
  0
LINE
  5
1C0
330
11E
100
AcDbEntity
  8
AM_4
100
AcDbLine
 10
29.19262243154466
 20
-11.51453117981632
 30
0.0
 11
31.07945550709749
 21
-11.51453117981632
 31
0.0
  0
LWPOLYLINE
  5
1C1
330
11E
100
AcDbEntity
  8
AM_4
100
AcDbPolyline
 90
        3
 70
     0
 43
0.0
 10
29.19262243154466
 20
-11.51453117981632
 10
28.40267105192578
 20
-12.08928552673101
 10
27.66116523516816
 20
-12.66923171819557
  0
LWPOLYLINE
  5
1C2
330
11E
100
AcDbEntity
  8
AM_4
100
AcDbPolyline
 90
        3
 70
     0
 43
0.0
 10
27.66116523516816
 20
-12.66923171819557
 10
26.9850047540147
 20
-13.2465819873852
 10
26.36419530679846
 20
-13.82393225657482
  0
LINE
  5
1C3
330
11E
100
AcDbEntity
  8
AM_4
100
AcDbLine
 10
26.36419530679846
 20
-13.82393225657482
 30
0.0
 11
28.2510283823513
 21
-13.82393225657482
 31
0.0
  0
LWPOLYLINE
  5
1C4
330
11E
100
AcDbEntity
  8
AM_4
100
AcDbPolyline
 90
        3
 70
     0
 43
0.0
 10
26.36419530679846
 20
-13.82393225657482
 10
26.27817136587338
 20
-14.9734409504042
 10
26.24695167279506
 20
-16.13333333333333
  0
LWPOLYLINE
  5
1C5
330
11E
100
AcDbEntity
  8
AM_4
100
AcDbPolyline
 90
        3
 70
     0
 43
0.0
 10
26.24695167279506
 20
-16.13333333333333
 10
26.27789797282815
 20
-17.28803387171258
 10
26.36419530679846
 20
-18.44273441009183
  0
LINE
  5
1C6
330
11E
100
AcDbEntity
  8
AM_4
100
AcDbLine
 10
26.36419530679846
 20
-18.44273441009183
 30
0.0
 11
28.2510283823513
 21
-18.44273441009183
 31
0.0
  0
LWPOLYLINE
  5
1C7
330
11E
100
AcDbEntity
  8
AM_4
100
AcDbPolyline
 90
        3
 70
     0
 43
0.0
 10
28.36827201635471
 20
-16.13333333333333
 10
28.33732571632162
 20
-14.97863279495408
 10
28.2510283823513
 20
-13.82393225657482
  0
ELLIPSE
  5
1C8
330
11E
100
AcDbEntity
  8
AM_4
100
AcDbEllipse
 10
31.19669914110086
 20
-16.13333333333332
 30
0.0
 11
2.449293598294690E-16
 21
3.999999999999973
 31
0.0
210
0.0
220
0.0
230
1.0
 40
0.7071067811865401
 41
5.431473666167186
 42
10.27733707827593
  0
LWPOLYLINE
  5
1C9
330
11E
100
AcDbEntity
  8
AM_4
100
AcDbPolyline
 90
        3
 70
     0
 43
0.0
 10
28.2510283823513
 20
-13.82393225657482
 10
29.04097976197017
 20
-13.24917790966014
 10
29.7824855787278
 20
-12.66923171819558
  0
LWPOLYLINE
  5
1CA
330
11E
100
AcDbEntity
  8
AM_4
100
AcDbPolyline
 90
        3
 70
     0
 43
0.0
 10
28.2510283823513
 20
-18.44273441009183
 10
28.33705232327639
 20
-17.29322571626246
 10
28.36827201635471
 20
-16.13333333333333
  0
LWPOLYLINE
  5
1CB
330
11E
100
AcDbEntity
  8
AM_4
100
AcDbPolyline
 90
        3
 70
     0
 43
0.0
 10
29.78248557872779
 20
-19.59743494847108
 10
29.04443249750816
 20
-19.02008467928145
 10
28.2510283823513
 20
-18.44273441009183
  0
ELLIPSE
  5
1CC
330
11E
100
AcDbEntity
  8
AM_4
100
AcDbEllipse
 10
33.52722600596248
 20
-16.1333333333333
 30
0.0
 11
1.560179129828904E-16
 21
2.54796588030959
 31
0.0
210
0.0
220
0.0
230
1.0
 40
0.7071067811865288
 41
1.145929540608193
 42
1.903650287432767
  0
LWPOLYLINE
  5
1CD
330
11E
100
AcDbEntity
  8
AM_4
100
AcDbPolyline
 90
       16
 70
     0
 43
0.0
 10
34.45221016297059
 20
-13.57882697480481
 10
34.30458341606322
 20
-13.52095510615096
 10
34.09234215446547
 20
-13.46419118449954
 10
33.87820323545002
 20
-13.43664367572067
 10
33.66454017869268
 20
-13.4379149854064
 10
33.45343770895676
 20
-13.467423273637
 10
33.24705525847943
 20
-13.52442399915267
 10
33.04699499289177
 20
-13.60820018145099
 10
32.8548068821087
 20
-13.71807632746791
 10
32.67211305572027
 20
-13.85331558530432
 10
32.50067223171963
 20
-14.01295521995012
 10
32.34235475354466
 20
-14.19564396012817
 10
32.19903332720185
 20
-14.3995551461498
 10
32.072438314976
 20
-14.62241470950396
 10
31.96404194037557
 20
-14.86161949640509
 10
31.8886554746225
 20
-15.07083203772806
  0
LWPOLYLINE
  5
1CE
330
11E
100
AcDbEntity
  8
AM_4
100
AcDbPolyline
 90
        3
 70
     0
 43
0.0
 10
34.68563159517803
 20
-13.70434738826093
 10
34.51224620173004
 20
-13.60696253188925
 10
34.45221016297059
 20
-13.57882697480481
  0
LWPOLYLINE
  5
1CF
330
11E
100
AcDbEntity
  8
AM_4
100
AcDbPolyline
 90
       19
 70
     0
 43
0.0
 10
31.82524807145063
 20
-16.97114618873404
 10
31.83874378714028
 20
-17.02443061659748
 10
31.91844172668524
 20
-17.28414275820296
 10
32.01855846821147
 20
-17.53240358219488
 10
32.13846096240294
 20
-17.76650957140249
 10
32.27724215154167
 20
-17.98365564570079
 10
32.43365727274915
 20
-18.18104018965815
 10
32.60604266005537
 20
-18.35595450550297
 10
32.79224753945299
 20
-18.50591597097063
 10
32.98967459387602
 20
-18.6288789538453
 10
33.1954435463981
 20
-18.72342112520512
 10
33.40662791302996
 20
-18.78881173119785
 10
33.62046921897634
 20
-18.8249302718665
 10
33.83449997874938
 20
-18.83208641012111
 10
34.04656675494645
 20
-18.81082247468991
 10
34.25451180398107
 20
-18.76183998436557
 10
34.45659439957633
 20
-18.68587757315548
 10
34.65126399051295
 20
-18.58361611058018
 10
34.68488764878875
 20
-18.56279118895404
  0
LINE
  5
1D0
330
11E
100
AcDbEntity
  8
AM_4
100
AcDbLine
 10
19.86681235486488
 20
-3.174999999999998
 30
0.0
 11
19.86681235486488
 21
0.0000000000000022
 31
0.0
  0
LINE
  5
1D1
330
11E
100
AcDbEntity
  8
AM_4
100
AcDbLine
 10
19.86681235486488
 20
0.0000000000000022
 30
0.0
 11
-19.86681235486488
 21
0.0000000000000022
 31
0.0
  0
LINE
  5
1D2
330
11E
100
AcDbEntity
  8
AM_4
100
AcDbLine
 10
-19.86681235486488
 20
0.0000000000000022
 30
0.0
 11
-19.86681235486488
 21
-3.174999999999998
 31
0.0
  0
LINE
  5
1D3
330
11E
100
AcDbEntity
  8
AM_4
100
AcDbLine
 10
35.65147186257614
 20
-14.30030305535099
 30
0.0
 11
34.66564511575153
 21
-13.69183757728191
 31
0.0
  0
LINE
  5
1D4
330
11E
100
AcDbEntity
  8
AM_4
100
AcDbLine
 10
34.66564511575153
 20
-18.57482908938474
 30
0.0
 11
35.65147186257614
 21
-17.96636361131566
 31
0.0
  0
ELLIPSE
  5
1D5
330
11E
100
AcDbEntity
  8
AM_4
100
AcDbEllipse
 10
33.9121831675976
 20
-16.13333333333333
 30
0.0
 11
1.631162342867215E-16
 21
2.663890264528343
 31
0.0
210
0.0
220
0.0
230
1.0
 40
0.7071067811865474
 41
5.871668461112098
 42
9.836294806836868
  0
LINE
  5
1D6
330
11E
100
AcDbEntity
  8
AM_4
100
AcDbLine
 10
11.13463115194153
 20
-10.88571428571428
 30
0.0
 11
21.85469517510084
 21
-10.88571428571428
 31
0.0
  0
LINE
  5
1D7
330
11E
100
AcDbEntity
  8
AM_4
100
AcDbLine
 10
19.36816269428276
 20
0.0000000000000024
 30
0.0
 11
19.36816269428275
 21
-3.174999999999998
 31
0.0
  0
LINE
  5
1D8
330
11E
100
AcDbEntity
  8
AM_4
100
AcDbLine
 10
21.85469517510084
 20
-10.88571428571428
 30
0.0
 11
21.85469517510084
 21
-3.174999999999998
 31
0.0
  0
LINE
  5
1D9
330
11E
100
AcDbEntity
  8
AM_4
100
AcDbLine
 10
19.36816269428275
 20
-3.174999999999998
 30
0.0
 11
34.95
 21
-3.175
 31
0.0
  0
LINE
  5
1DA
330
11E
100
AcDbEntity
  8
AM_4
100
AcDbLine
 10
-15.30666768407366
 20
-10.88571428571428
 30
0.0
 11
-15.30666768407366
 21
-13.02009849180357
 31
0.0
  0
LWPOLYLINE
  5
1DB
330
11E
100
AcDbEntity
  8
AM_4
100
AcDbPolyline
 90
        6
 70
     0
 43
0.0
 10
-15.30666768407366
 20
-13.02009849180357
 10
-15.27692867633533
 20
-12.89594930392198
 10
-15.24293527899083
 20
-12.79986912426118
 10
-15.20786302896116
 20
-12.73749037100446
 10
-15.17076865489765
 20
-12.70471339939513
 10
-15.15016585314891
 20
-12.69999999999954
  0
LINE
  5
1DC
330
11E
100
AcDbEntity
  8
AM_4
100
AcDbLine
 10
-19.36816269428272
 20
-3.174999999999998
 30
0.0
 11
-19.36816269428272
 21
0.0000000000000024
 31
0.0
  0
LINE
  5
1DD
330
11E
100
AcDbEntity
  8
AM_4
100
AcDbLine
 10
-31.13242870082853
 20
-3.174999999999999
 30
0.0
 11
-31.13242870082853
 21
-10.88571428571428
 31
0.0
  0
LINE
  5
1DE
330
11E
100
AcDbEntity
  8
AM_4
100
AcDbLine
 10
-31.13242870082853
 20
-10.88571428571428
 30
0.0
 11
-11.13463115194153
 21
-10.88571428571428
 31
0.0
  0
LINE
  5
1DF
330
11E
100
AcDbEntity
  8
AM_4
100
AcDbLine
 10
-15.15016585314891
 20
-12.69999999999954
 30
0.0
 11
15.15016585314891
 21
-12.7
 31
0.0
  0
LWPOLYLINE
  5
1E0
330
11E
100
AcDbEntity
  8
AM_4
100
AcDbPolyline
 90
        5
 70
     0
 43
0.0
 10
15.15016585314891
 20
-12.7
 10
15.19849004454958
 20
-12.72616439731044
 10
15.23978650596772
 20
-12.79288287247814
 10
15.27957525639219
 20
-12.90523676519758
 10
15.30666768407366
 20
-13.02009849180358
  0
LINE
  5
1E1
330
11E
100
AcDbEntity
  8
AM_4
100
AcDbLine
 10
15.30666768407366
 20
-10.88571428571428
 30
0.0
 11
15.30666768407366
 21
-13.02009849180358
 31
0.0
  0
LINE
  5
1E2
330
11E
100
AcDbEntity
  8
AM_4
100
AcDbLine
 10
11.13463115194153
 20
-10.88571428571428
 30
0.0
 11
11.13463115194153
 21
-12.7
 31
0.0
  0
LINE
  5
1E3
330
11E
100
AcDbEntity
  8
AM_4
100
AcDbLine
 10
11.13463115194152
 20
0.0000000000000034
 30
0.0
 11
11.13463115194153
 21
-10.88571428571428
 31
0.0
  0
LINE
  5
1E4
330
11E
100
AcDbEntity
  8
AM_4
100
AcDbLine
 10
-11.13463115194153
 20
0.0000000000000034
 30
0.0
 11
-11.13463115194153
 21
-10.88571428571428
 31
0.0
  0
LINE
  5
1E5
330
11E
100
AcDbEntity
  8
AM_4
100
AcDbLine
 10
-11.13463115194153
 20
-10.88571428571428
 30
0.0
 11
-11.13463115194153
 21
-12.7
 31
0.0
  0
ELLIPSE
  5
1E6
330
11E
100
AcDbEntity
  8
AM_4
100
AcDbEllipse
 10
35.08578643762689
 20
-16.13333333333332
 30
0.0
 11
1.224646799147363E-16
 21
2.000000000000016
 31
0.0
210
0.0
220
0.0
230
1.0
 40
0.7071067811865476
 41
0.0
 42
6.283185307179586
  0
ENDBLK
  5
121
330
11E
100
AcDbEntity
  8
0
100
AcDbBlockEnd
  0
ENDSEC
  0
SECTION
  2
ENTITIES
  0
INSERT
  5
6F
330
1F
100
AcDbEntity
  8
0
100
AcDbBlockReference
  2
1_129323_4
 10
0.0
 20
0.0
 30
0.0
  0
POINT
  5
1E8
330
1F
100
AcDbEntity
  8
ConnectionPoints
100
AcDbPoint
 10
0.0000000000000016
 20
-15.1
 30
0.0000000000000009
  0
POINT
  5
1E9
330
1F
100
AcDbEntity
  8
ConnectionPoints
100
AcDbPoint
 10
0.0000000000000016
 20
-2.399999999999999
 30
0.0000000000000001
  0
POINT
  5
1EA
330
1F
100
AcDbEntity
  8
ConnectionPoints
100
AcDbPoint
 10
0.0
 20
-2.399999999999999
 30
0.0000000000000001
  0
ENDSEC
  0
SECTION
  2
OBJECTS
  0
DICTIONARY
  5
C
330
0
100
AcDbDictionary
281
     1
  3
ACAD_DETAILVIEWSTYLE
350
1F2
  3
ACAD_GROUP
350
D
  3
ACAD_LAYOUT
350
1A
  3
ACAD_MATERIAL
350
43
  3
ACAD_MLEADERSTYLE
350
6B
  3
ACAD_MLINESTYLE
350
17
  3
ACAD_PLOTSETTINGS
350
19
  3
ACAD_PLOTSTYLENAME
350
E
  3
ACAD_SCALELIST
350
47
  3
ACAD_SECTIONVIEWSTYLE
350
1F3
  3
ACAD_TABLESTYLE
350
69
  3
ACAD_VISUALSTYLE
350
2A
  3
ACDB_RECOMPOSE_DATA
350
1EF
  3
AcDbVariableDictionary
350
1EB
  0
SUN
  5
6D
330
29
100
AcDbSun
 90
        1
290
     0
 63
     7
421
 16777215
 40
1.0
291
     1
 91
  2455826
 92
 54000000
292
     0
 70
     2
 71
   256
280
     1
  0
DICTIONARY
  5
1F2
102
{ACAD_REACTORS
330
C
102
}
330
C
100
AcDbDictionary
281
     1
  0
DICTIONARY
  5
D
102
{ACAD_REACTORS
330
C
102
}
330
C
100
AcDbDictionary
281
     1
  0
DICTIONARY
  5
1A
102
{ACAD_REACTORS
330
C
102
}
330
C
100
AcDbDictionary
281
     1
  3
Layout1
350
1E
  3
Layout2
350
26
  3
Model
350
22
  0
DICTIONARY
  5
43
102
{ACAD_REACTORS
330
C
102
}
330
C
100
AcDbDictionary
281
     1
  3
ByBlock
350
45
  3
ByLayer
350
44
  3
Global
350
46
  0
DICTIONARY
  5
6B
102
{ACAD_REACTORS
330
C
102
}
330
C
100
AcDbDictionary
281
     1
  3
Standard
350
6C
  0
DICTIONARY
  5
17
102
{ACAD_REACTORS
330
C
102
}
330
C
100
AcDbDictionary
281
     1
  3
Standard
350
18
  0
DICTIONARY
  5
19
102
{ACAD_REACTORS
330
C
102
}
330
C
100
AcDbDictionary
281
     1
  0
ACDBDICTIONARYWDFLT
  5
E
102
{ACAD_REACTORS
330
C
102
}
330
C
100
AcDbDictionary
281
     1
  3
Normal
350
F
100
AcDbDictionaryWithDefault
340
F
  0
DICTIONARY
  5
47
102
{ACAD_REACTORS
330
C
102
}
330
C
100
AcDbDictionary
281
     1
  3
A0
350
48
  3
A1
350
49
  3
A2
350
4A
  3
A3
350
4B
  3
A4
350
4C
  3
A5
350
4D
  3
A6
350
4E
  3
A7
350
4F
  3
A8
350
50
  3
A9
350
51
  3
B0
350
52
  3
B1
350
53
  3
B2
350
54
  3
B3
350
55
  3
B4
350
56
  3
B5
350
57
  3
B6
350
58
  3
B7
350
59
  3
B8
350
5A
  3
B9
350
5B
  3
C0
350
5C
  3
C1
350
5D
  3
C2
350
5E
  3
C3
350
5F
  3
C4
350
60
  3
C5
350
61
  3
C6
350
62
  3
C7
350
63
  3
C8
350
64
  3
C9
350
65
  3
D0
350
66
  3
D1
350
67
  3
D2
350
68
  0
DICTIONARY
  5
1F3
102
{ACAD_REACTORS
330
C
102
}
330
C
100
AcDbDictionary
281
     1
  0
DICTIONARY
  5
69
102
{ACAD_REACTORS
330
C
102
}
330
C
100
AcDbDictionary
281
     1
  3
Standard
350
6A
  0
DICTIONARY
  5
2A
102
{ACAD_REACTORS
330
C
102
}
330
C
100
AcDbDictionary
281
     1
  3
2dWireframe
350
2F
  3
Basic
350
32
  3
Brighten
350
36
  3
ColorChange
350
3A
  3
Conceptual
350
34
  3
Dim
350
35
  3
EdgeColorOff
350
3D
  3
Facepattern
350
39
  3
Flat
350
2B
  3
FlatWithEdges
350
2C
  3
Gouraud
350
2D
  3
GouraudWithEdges
350
2E
  3
Hidden
350
31
  3
JitterOff
350
3B
  3
Linepattern
350
38
  3
OverhangOff
350
3C
  3
Realistic
350
33
  3
Shaded
350
42
  3
Shaded with edges
350
41
  3
Shades of Gray
350
3E
  3
Sketchy
350
3F
  3
Thicken
350
37
  3
Wireframe
350
30
  3
X-Ray
350
40
  0
XRECORD
  5
1EF
102
{ACAD_REACTORS
330
C
102
}
330
C
100
AcDbXrecord
280
     1
 90
        1
330
6A
  0
DICTIONARY
  5
1EB
102
{ACAD_REACTORS
330
C
102
}
330
C
100
AcDbDictionary
281
     1
  3
CANNOSCALE
350
1EC
  3
CMLEADERSTYLE
350
1F1
  3
CTABLESTYLE
350
1F0
  0
LAYOUT
  5
1E
102
{ACAD_REACTORS
330
1A
102
}
330
1A
100
AcDbPlotSettings
  1

  2
none_device
  4

  6

 40
0.0
 41
0.0
 42
0.0
 43
0.0
 44
0.0
 45
0.0
 46
0.0
 47
0.0
 48
0.0
 49
0.0
140
0.0
141
0.0
142
1.0
143
1.0
 70
   688
 72
     1
 73
     0
 74
     5
  7

 75
    16
 76
     0
 77
     2
 78
   300
147
1.0
148
0.0
149
0.0
100
AcDbLayout
  1
Layout1
 70
     1
 71
     1
 10
0.0
 20
0.0
 11
420.0
 21
297.0
 12
0.0
 22
0.0
 32
0.0
 14
1.000000000000000E+20
 24
1.000000000000000E+20
 34
1.000000000000000E+20
 15
-1.000000000000000E+20
 25
-1.000000000000000E+20
 35
-1.000000000000000E+20
146
0.0
 13
0.0
 23
0.0
 33
0.0
 16
1.0
 26
0.0
 36
0.0
 17
0.0
 27
1.0
 37
0.0
 76
     0
330
1B
  0
LAYOUT
  5
26
102
{ACAD_REACTORS
330
1A
102
}
330
1A
100
AcDbPlotSettings
  1

  2
none_device
  4

  6

 40
0.0
 41
0.0
 42
0.0
 43
0.0
 44
0.0
 45
0.0
 46
0.0
 47
0.0
 48
0.0
 49
0.0
140
0.0
141
0.0
142
1.0
143
1.0
 70
   688
 72
     1
 73
     0
 74
     5
  7

 75
    16
 76
     0
 77
     2
 78
   300
147
1.0
148
0.0
149
0.0
100
AcDbLayout
  1
Layout2
 70
     1
 71
     2
 10
0.0
 20
0.0
 11
0.0
 21
0.0
 12
0.0
 22
0.0
 32
0.0
 14
0.0
 24
0.0
 34
0.0
 15
0.0
 25
0.0
 35
0.0
146
0.0
 13
0.0
 23
0.0
 33
0.0
 16
1.0
 26
0.0
 36
0.0
 17
0.0
 27
1.0
 37
0.0
 76
     0
330
23
  0
LAYOUT
  5
22
102
{ACAD_REACTORS
330
1A
102
}
330
1A
100
AcDbPlotSettings
  1

  2
none_device
  4
Letter_(8.50_x_11.00_Inches)
  6

 40
6.35
 41
6.35
 42
6.35000508
 43
6.35000508
 44
215.9
 45
279.4
 46
0.0
 47
0.0
 48
0.0
 49
0.0
140
0.0
141
0.0
142
1.0
143
1.0
 70
  1712
 72
     1
 73
     0
 74
     0
  7

 75
     0
 76
     0
 77
     2
 78
   300
147
1.0
148
0.0
149
0.0
100
AcDbLayout
  1
Model
 70
     1
 71
     0
 10
0.0
 20
0.0
 11
420.0
 21
297.0
 12
0.0
 22
0.0
 32
0.0
 14
1.000000000000000E+20
 24
1.000000000000000E+20
 34
1.000000000000000E+20
 15
-1.000000000000000E+20
 25
-1.000000000000000E+20
 35
-1.000000000000000E+20
146
0.0
 13
0.0
 23
0.0
 33
0.0
 16
1.0
 26
0.0
 36
0.0
 17
0.0
 27
1.0
 37
0.0
 76
     0
330
1F
331
29
  0
MATERIAL
  5
45
102
{ACAD_REACTORS
330
43
102
}
330
43
100
AcDbMaterial
  1
ByBlock
 72
     1
 94
      127
  0
MATERIAL
  5
44
102
{ACAD_REACTORS
330
43
102
}
330
43
100
AcDbMaterial
  1
ByLayer
 72
     1
 94
      127
  0
MATERIAL
  5
46
102
{ACAD_REACTORS
330
43
102
}
330
43
100
AcDbMaterial
  1
Global
 72
     1
 94
      127
  0
MLEADERSTYLE
  5
6C
102
{ACAD_REACTORS
330
6B
102
}
330
6B
100
AcDbMLeaderStyle
179
     2
170
     2
171
     1
172
     0
 90
        2
 40
0.0
 41
0.0
173
     1
 91
-1056964608
340
14
 92
       -2
290
     1
 42
2.0
291
     1
 43
8.0
  3
Standard
341
0
 44
4.0
300

342
11
174
     1
178
     6
175
     1
176
     0
 93
-1056964608
 45
4.0
292
     0
297
     0
 46
4.0
343
0
 94
-1056964608
 47
1.0
 49
1.0
140
1.0
293
     1
141
0.0
294
     1
177
     0
142
1.0
295
     0
296
     0
143
3.75
271
     0
272
     9
273
     9
298
     0
  0
MLINESTYLE
  5
18
102
{ACAD_REACTORS
330
17
102
}
330
17
100
AcDbMlineStyle
  2
Standard
 70
     0
  3

 62
   256
 51
90.0
 52
90.0
 71
     2
 49
0.5
 62
   256
  6
BYLAYER
 49
-0.5
 62
   256
  6
BYLAYER
  0
ACDBPLACEHOLDER
  5
F
102
{ACAD_REACTORS
330
E
102
}
330
E
  0
SCALE
  5
48
102
{ACAD_REACTORS
330
47
102
}
330
47
100
AcDbScale
 70
     0
300
1:1
140
1.0
141
1.0
290
     1
  0
SCALE
  5
49
102
{ACAD_REACTORS
330
47
102
}
330
47
100
AcDbScale
 70
     0
300
1:2
140
1.0
141
2.0
290
     0
  0
SCALE
  5
4A
102
{ACAD_REACTORS
330
47
102
}
330
47
100
AcDbScale
 70
     0
300
1:4
140
1.0
141
4.0
290
     0
  0
SCALE
  5
4B
102
{ACAD_REACTORS
330
47
102
}
330
47
100
AcDbScale
 70
     0
300
1:5
140
1.0
141
5.0
290
     0
  0
SCALE
  5
4C
102
{ACAD_REACTORS
330
47
102
}
330
47
100
AcDbScale
 70
     0
300
1:8
140
1.0
141
8.0
290
     0
  0
SCALE
  5
4D
102
{ACAD_REACTORS
330
47
102
}
330
47
100
AcDbScale
 70
     0
300
1:10
140
1.0
141
10.0
290
     0
  0
SCALE
  5
4E
102
{ACAD_REACTORS
330
47
102
}
330
47
100
AcDbScale
 70
     0
300
1:16
140
1.0
141
16.0
290
     0
  0
SCALE
  5
4F
102
{ACAD_REACTORS
330
47
102
}
330
47
100
AcDbScale
 70
     0
300
1:20
140
1.0
141
20.0
290
     0
  0
SCALE
  5
50
102
{ACAD_REACTORS
330
47
102
}
330
47
100
AcDbScale
 70
     0
300
1:30
140
1.0
141
30.0
290
     0
  0
SCALE
  5
51
102
{ACAD_REACTORS
330
47
102
}
330
47
100
AcDbScale
 70
     0
300
1:40
140
1.0
141
40.0
290
     0
  0
SCALE
  5
52
102
{ACAD_REACTORS
330
47
102
}
330
47
100
AcDbScale
 70
     0
300
1:50
140
1.0
141
50.0
290
     0
  0
SCALE
  5
53
102
{ACAD_REACTORS
330
47
102
}
330
47
100
AcDbScale
 70
     0
300
1:100
140
1.0
141
100.0
290
     0
  0
SCALE
  5
54
102
{ACAD_REACTORS
330
47
102
}
330
47
100
AcDbScale
 70
     0
300
2:1
140
2.0
141
1.0
290
     0
  0
SCALE
  5
55
102
{ACAD_REACTORS
330
47
102
}
330
47
100
AcDbScale
 70
     0
300
4:1
140
4.0
141
1.0
290
     0
  0
SCALE
  5
56
102
{ACAD_REACTORS
330
47
102
}
330
47
100
AcDbScale
 70
     0
300
8:1
140
8.0
141
1.0
290
     0
  0
SCALE
  5
57
102
{ACAD_REACTORS
330
47
102
}
330
47
100
AcDbScale
 70
     0
300
10:1
140
10.0
141
1.0
290
     0
  0
SCALE
  5
58
102
{ACAD_REACTORS
330
47
102
}
330
47
100
AcDbScale
 70
     0
300
100:1
140
100.0
141
1.0
290
     0
  0
SCALE
  5
59
102
{ACAD_REACTORS
330
47
102
}
330
47
100
AcDbScale
 70
     0
300
1/128" = 1'-0"
140
0.0078125
141
12.0
290
     0
  0
SCALE
  5
5A
102
{ACAD_REACTORS
330
47
102
}
330
47
100
AcDbScale
 70
     0
300
1/64" = 1'-0"
140
0.015625
141
12.0
290
     0
  0
SCALE
  5
5B
102
{ACAD_REACTORS
330
47
102
}
330
47
100
AcDbScale
 70
     0
300
1/32" = 1'-0"
140
0.03125
141
12.0
290
     0
  0
SCALE
  5
5C
102
{ACAD_REACTORS
330
47
102
}
330
47
100
AcDbScale
 70
     0
300
1/16" = 1'-0"
140
0.0625
141
12.0
290
     0
  0
SCALE
  5
5D
102
{ACAD_REACTORS
330
47
102
}
330
47
100
AcDbScale
 70
     0
300
3/32" = 1'-0"
140
0.09375
141
12.0
290
     0
  0
SCALE
  5
5E
102
{ACAD_REACTORS
330
47
102
}
330
47
100
AcDbScale
 70
     0
300
1/8" = 1'-0"
140
0.125
141
12.0
290
     0
  0
SCALE
  5
5F
102
{ACAD_REACTORS
330
47
102
}
330
47
100
AcDbScale
 70
     0
300
3/16" = 1'-0"
140
0.1875
141
12.0
290
     0
  0
SCALE
  5
60
102
{ACAD_REACTORS
330
47
102
}
330
47
100
AcDbScale
 70
     0
300
1/4" = 1'-0"
140
0.25
141
12.0
290
     0
  0
SCALE
  5
61
102
{ACAD_REACTORS
330
47
102
}
330
47
100
AcDbScale
 70
     0
300
3/8" = 1'-0"
140
0.375
141
12.0
290
     0
  0
SCALE
  5
62
102
{ACAD_REACTORS
330
47
102
}
330
47
100
AcDbScale
 70
     0
300
1/2" = 1'-0"
140
0.5
141
12.0
290
     0
  0
SCALE
  5
63
102
{ACAD_REACTORS
330
47
102
}
330
47
100
AcDbScale
 70
     0
300
3/4" = 1'-0"
140
0.75
141
12.0
290
     0
  0
SCALE
  5
64
102
{ACAD_REACTORS
330
47
102
}
330
47
100
AcDbScale
 70
     0
300
1" = 1'-0"
140
1.0
141
12.0
290
     0
  0
SCALE
  5
65
102
{ACAD_REACTORS
330
47
102
}
330
47
100
AcDbScale
 70
     0
300
1-1/2" = 1'-0"
140
1.5
141
12.0
290
     0
  0
SCALE
  5
66
102
{ACAD_REACTORS
330
47
102
}
330
47
100
AcDbScale
 70
     0
300
3" = 1'-0"
140
3.0
141
12.0
290
     0
  0
SCALE
  5
67
102
{ACAD_REACTORS
330
47
102
}
330
47
100
AcDbScale
 70
     0
300
6" = 1'-0"
140
6.0
141
12.0
290
     0
  0
SCALE
  5
68
102
{ACAD_REACTORS
330
47
102
}
330
47
100
AcDbScale
 70
     0
300
1'-0" = 1'-0"
140
12.0
141
12.0
290
     0
  0
TABLESTYLE
  5
6A
102
{ACAD_REACTORS
330
69
102
}
102
{ACAD_XDICTIONARY
360
1ED
102
}
330
69
100
AcDbTableStyle
  3
Standard
 70
     0
 71
     0
 40
0.06
 41
0.06
280
     0
281
     0
  7
Standard
140
4.5
170
     2
 62
     0
 63
   257
283
     0
 90
        4
 91
        0
  1

274
    -2
284
     1
 64
     0
275
    -2
285
     1
 65
     0
276
    -2
286
     1
 66
     0
277
    -2
287
     1
 67
     0
278
    -2
288
     1
 68
     0
279
    -2
289
     1
 69
     0
  7
Standard
140
6.0
170
     5
 62
     0
 63
   257
283
     0
 90
        4
 91
        0
  1

274
    -2
284
     1
 64
     0
275
    -2
285
     1
 65
     0
276
    -2
286
     1
 66
     0
277
    -2
287
     1
 67
     0
278
    -2
288
     1
 68
     0
279
    -2
289
     1
 69
     0
  7
Standard
140
4.5
170
     5
 62
     0
 63
   257
283
     0
 90
        4
 91
        0
  1

274
    -2
284
     1
 64
     0
275
    -2
285
     1
 65
     0
276
    -2
286
     1
 66
     0
277
    -2
287
     1
 67
     0
278
    -2
288
     1
 68
     0
279
    -2
289
     1
 69
     0
  0
VISUALSTYLE
  5
2F
102
{ACAD_REACTORS
330
2A
102
}
330
2A
100
AcDbVisualStyle
  2
2dWireframe
 70
     4
177
     3
291
     0
 70
    58
 90
        0
176
     1
 90
        2
176
     1
 90
        0
176
     1
 90
        0
176
     1
 40
0.6
176
     1
 40
30.0
176
     1
 62
     7
420
 16777215
176
     1
 90
        1
176
     1
 90
        4
176
     1
 62
     7
176
     1
 62
   257
176
     1
 90
        1
176
     1
 90
        1
176
     1
 40
1.0
176
     1
 90
        0
176
     1
 62
   257
176
     1
 40
1.0
176
     1
 90
        1
176
     1
 90
        6
176
     1
 90
        2
176
     1
 62
     7
176
     1
 90
        5
176
     1
 90
        0
176
     1
 90
        0
176
     1
290
     0
176
     1
 90
        1
176
     1
 40
0.0
176
     1
 90
        0
176
     1
290
     1
176
     1
290
     1
176
     1
290
     0
176
     1
290
     0
176
     1
290
     0
176
     1
290
     0
176
     1
290
     0
176
     1
290
     0
176
     1
290
     0
176
     1
 90
       50
176
     1
 40
0.0
176
     1
 40
1.0
176
     1
 90
        0
176
     1
 62
    18
420
        0
176
     1
 90
       50
176
     1
 90
        3
176
     1
 62
     5
420
      255
176
     1
290
     0
176
     1
 90
       50
176
     1
 90
       50
176
     1
 90
       50
176
     1
290
     0
176
     1
 90
       50
176
     1
 62
   256
176
     0
 40
1.0
176
     0
 90
        2
176
     1
  1
strokes_ogs.tif
176
     1
290
     0
176
     1
 40
1.0
176
     1
 40
1.0
176
     1
  0
VISUALSTYLE
  5
32
102
{ACAD_REACTORS
330
2A
102
}
330
2A
100
AcDbVisualStyle
  2
Basic
 70
     7
177
     3
291
     1
 70
    58
 90
        1
176
     1
 90
        0
176
     1
 90
        1
176
     1
 90
        0
176
     1
 40
0.6
176
     1
 40
30.0
176
     1
 62
     7
420
 16777215
176
     1
 90
        0
176
     1
 90
        4
176
     1
 62
     7
176
     1
 62
   257
176
     1
 90
        1
176
     1
 90
        1
176
     1
 40
1.0
176
     1
 90
        8
176
     1
 62
     7
176
     1
 40
1.0
176
     1
 90
        1
176
     1
 90
        6
176
     1
 90
        2
176
     1
 62
     7
176
     1
 90
        5
176
     1
 90
        0
176
     1
 90
        0
176
     1
290
     0
176
     1
 90
        1
176
     1
 40
0.0
176
     1
 90
        0
176
     1
290
     0
176
     1
290
     1
176
     1
290
     1
176
     1
290
     0
176
     1
290
     0
176
     1
290
     0
176
     1
290
     0
176
     1
290
     0
176
     1
290
     0
176
     1
 90
       50
176
     1
 40
0.0
176
     1
 40
1.0
176
     1
 90
        0
176
     1
 62
    18
420
        0
176
     1
 90
       50
176
     1
 90
        3
176
     1
 62
     5
420
      255
176
     1
290
     0
176
     1
 90
       50
176
     1
 90
       50
176
     1
 90
       50
176
     1
290
     0
176
     1
 90
       50
176
     1
 62
   256
176
     0
 40
1.0
176
     0
 90
        2
176
     1
  1
strokes_ogs.tif
176
     1
290
     0
176
     1
 40
1.0
176
     1
 40
1.0
176
     1
  0
VISUALSTYLE
  5
36
102
{ACAD_REACTORS
330
2A
102
}
330
2A
100
AcDbVisualStyle
  2
Brighten
 70
    12
177
     3
291
     1
 70
    58
 90
        2
176
     1
 90
        2
176
     1
 90
        0
176
     1
 90
        0
176
     1
 40
0.6
176
     1
 40
30.0
176
     1
 62
     7
420
 16777215
176
     1
 90
        1
176
     1
 90
        4
176
     1
 62
     7
176
     1
 62
   257
176
     1
 90
        1
176
     1
 90
        1
176
     1
 40
1.0
176
     1
 90
        8
176
     1
 62
     7
176
     1
 40
1.0
176
     1
 90
        1
176
     1
 90
        6
176
     1
 90
        2
176
     1
 62
     7
176
     1
 90
        5
176
     1
 90
        0
176
     1
 90
        0
176
     1
290
     0
176
     1
 90
        1
176
     1
 40
50.0
176
     1
 90
        0
176
     1
290
     0
176
     1
290
     1
176
     1
290
     1
176
     1
290
     0
176
     1
290
     0
176
     1
290
     0
176
     1
290
     0
176
     1
290
     0
176
     1
290
     0
176
     1
 90
       50
176
     1
 40
0.0
176
     1
 40
1.0
176
     1
 90
        0
176
     1
 62
    18
420
        0
176
     1
 90
       50
176
     1
 90
        3
176
     1
 62
     5
420
      255
176
     1
290
     0
176
     1
 90
       50
176
     1
 90
       50
176
     1
 90
       50
176
     1
290
     0
176
     1
 90
       50
176
     1
 62
   256
176
     0
 40
1.0
176
     0
 90
        2
176
     1
  1
strokes_ogs.tif
176
     1
290
     0
176
     1
 40
1.0
176
     1
 40
1.0
176
     1
  0
VISUALSTYLE
  5
3A
102
{ACAD_REACTORS
330
2A
102
}
330
2A
100
AcDbVisualStyle
  2
ColorChange
 70
    16
177
     3
291
     1
 70
    58
 90
        2
176
     1
 90
        2
176
     1
 90
        3
176
     1
 90
        0
176
     1
 40
0.6
176
     1
 40
30.0
176
     1
 62
     8
420
  8421504
176
     1
 90
        1
176
     1
 90
        4
176
     1
 62
     7
176
     1
 62
   257
176
     1
 90
        1
176
     1
 90
        1
176
     1
 40
1.0
176
     1
 90
        8
176
     1
 62
     8
420
  8421504
176
     1
 40
1.0
176
     1
 90
        1
176
     1
 90
        6
176
     1
 90
        2
176
     1
 62
     7
176
     1
 90
        5
176
     1
 90
        0
176
     1
 90
        0
176
     1
290
     0
176
     1
 90
        1
176
     1
 40
0.0
176
     1
 90
        0
176
     1
290
     0
176
     1
290
     1
176
     1
290
     1
176
     1
290
     0
176
     1
290
     0
176
     1
290
     0
176
     1
290
     0
176
     1
290
     0
176
     1
290
     0
176
     1
 90
       50
176
     1
 40
0.0
176
     1
 40
1.0
176
     1
 90
        0
176
     1
 62
    18
420
        0
176
     1
 90
       50
176
     1
 90
        3
176
     1
 62
     5
420
      255
176
     1
290
     0
176
     1
 90
       50
176
     1
 90
       50
176
     1
 90
       50
176
     1
290
     0
176
     1
 90
       50
176
     1
 62
   256
176
     0
 40
1.0
176
     0
 90
        2
176
     1
  1
strokes_ogs.tif
176
     1
290
     0
176
     1
 40
1.0
176
     1
 40
1.0
176
     1
  0
VISUALSTYLE
  5
34
102
{ACAD_REACTORS
330
2A
102
}
330
2A
100
AcDbVisualStyle
  2
Conceptual
 70
     9
177
     3
291
     0
 70
    58
 90
        3
176
     1
 90
        2
176
     1
 90
        0
176
     1
 90
        0
176
     1
 40
0.6
176
     1
 40
30.0
176
     1
 62
     7
420
 16777215
176
     1
 90
        2
176
     1
 90
        2
176
     1
 62
     7
176
     1
 62
   257
176
     1
 90
        1
176
     1
 90
        1
176
     1
 40
179.0
176
     1
 90
        8
176
     1
 62
     7
176
     1
 40
1.0
176
     1
 90
        1
176
     1
 90
        6
176
     1
 90
        2
176
     1
 62
     7
176
     1
 90
        3
176
     1
 90
        0
176
     1
 90
        0
176
     1
290
     0
176
     1
 90
        1
176
     1
 40
0.0
176
     1
 90
        0
176
     1
290
     0
176
     1
290
     1
176
     1
290
     1
176
     1
290
     0
176
     1
290
     0
176
     1
290
     0
176
     1
290
     0
176
     1
290
     0
176
     1
290
     0
176
     1
 90
       50
176
     1
 40
0.0
176
     1
 40
1.0
176
     1
 90
        0
176
     1
 62
    18
420
        0
176
     1
 90
       50
176
     1
 90
        3
176
     1
 62
     5
420
      255
176
     1
290
     0
176
     1
 90
       50
176
     1
 90
       50
176
     1
 90
       50
176
     1
290
     0
176
     1
 90
       50
176
     1
 62
   256
176
     0
 40
1.0
176
     0
 90
        2
176
     1
  1
strokes_ogs.tif
176
     1
290
     0
176
     1
 40
1.0
176
     1
 40
1.0
176
     1
  0
VISUALSTYLE
  5
35
102
{ACAD_REACTORS
330
2A
102
}
330
2A
100
AcDbVisualStyle
  2
Dim
 70
    11
177
     3
291
     1
 70
    58
 90
        2
176
     1
 90
        2
176
     1
 90
        0
176
     1
 90
        0
176
     1
 40
0.6
176
     1
 40
30.0
176
     1
 62
     7
420
 16777215
176
     1
 90
        1
176
     1
 90
        4
176
     1
 62
     7
176
     1
 62
   257
176
     1
 90
        1
176
     1
 90
        1
176
     1
 40
1.0
176
     1
 90
        8
176
     1
 62
     7
176
     1
 40
1.0
176
     1
 90
        1
176
     1
 90
        6
176
     1
 90
        2
176
     1
 62
     7
176
     1
 90
        5
176
     1
 90
        0
176
     1
 90
        0
176
     1
290
     0
176
     1
 90
        1
176
     1
 40
-50.0
176
     1
 90
        0
176
     1
290
     0
176
     1
290
     1
176
     1
290
     1
176
     1
290
     0
176
     1
290
     0
176
     1
290
     0
176
     1
290
     0
176
     1
290
     0
176
     1
290
     0
176
     1
 90
       50
176
     1
 40
0.0
176
     1
 40
1.0
176
     1
 90
        0
176
     1
 62
    18
420
        0
176
     1
 90
       50
176
     1
 90
        3
176
     1
 62
     5
420
      255
176
     1
290
     0
176
     1
 90
       50
176
     1
 90
       50
176
     1
 90
       50
176
     1
290
     0
176
     1
 90
       50
176
     1
 62
   256
176
     0
 40
1.0
176
     0
 90
        2
176
     1
  1
strokes_ogs.tif
176
     1
290
     0
176
     1
 40
1.0
176
     1
 40
1.0
176
     1
  0
VISUALSTYLE
  5
3D
102
{ACAD_REACTORS
330
2A
102
}
330
2A
100
AcDbVisualStyle
  2
EdgeColorOff
 70
    22
177
     3
291
     1
 70
    58
 90
        2
176
     0
 90
        2
176
     0
 90
        0
176
     0
 90
        0
176
     0
 40
0.6
176
     0
 40
30.0
176
     0
 62
     7
420
 16777215
176
     0
 90
        1
176
     0
 90
        4
176
     0
 62
     7
176
     0
 62
   257
176
     0
 90
        1
176
     0
 90
        1
176
     0
 40
1.0
176
     0
 90
        8
176
     2
 62
     7
176
     0
 40
1.0
176
     0
 90
        1
176
     0
 90
        6
176
     0
 90
        2
176
     0
 62
     7
176
     0
 90
        5
176
     0
 90
        0
176
     0
 90
        0
176
     0
290
     0
176
     0
 90
        1
176
     0
 40
0.0
176
     0
 90
        0
176
     0
290
     0
176
     0
290
     1
176
     0
290
     1
176
     0
290
     0
176
     0
290
     0
176
     0
290
     0
176
     0
290
     0
176
     0
290
     0
176
     0
290
     0
176
     0
 90
       50
176
     0
 40
0.0
176
     0
 40
1.0
176
     0
 90
        0
176
     0
 62
    18
420
        0
176
     0
 90
       50
176
     0
 90
        3
176
     0
 62
     5
420
      255
176
     0
290
     0
176
     0
 90
       50
176
     0
 90
       50
176
     0
 90
       50
176
     0
290
     0
176
     0
 90
       50
176
     0
 62
   256
176
     0
 40
1.0
176
     0
 90
        2
176
     0
  1
strokes_ogs.tif
176
     0
290
     0
176
     0
 40
1.0
176
     0
 40
1.0
176
     0
  0
VISUALSTYLE
  5
39
102
{ACAD_REACTORS
330
2A
102
}
330
2A
100
AcDbVisualStyle
  2
Facepattern
 70
    15
177
     3
291
     1
 70
    58
 90
        2
176
     1
 90
        2
176
     1
 90
        0
176
     1
 90
        0
176
     1
 40
0.6
176
     1
 40
30.0
176
     1
 62
     7
420
 16777215
176
     1
 90
        1
176
     1
 90
        4
176
     1
 62
     7
176
     1
 62
   257
176
     1
 90
        1
176
     1
 90
        1
176
     1
 40
1.0
176
     1
 90
        8
176
     1
 62
     7
176
     1
 40
1.0
176
     1
 90
        1
176
     1
 90
        6
176
     1
 90
        2
176
     1
 62
     7
176
     1
 90
        5
176
     1
 90
        0
176
     1
 90
        0
176
     1
290
     0
176
     1
 90
        1
176
     1
 40
0.0
176
     1
 90
        0
176
     1
290
     0
176
     1
290
     1
176
     1
290
     1
176
     1
290
     0
176
     1
290
     0
176
     1
290
     0
176
     1
290
     0
176
     1
290
     0
176
     1
290
     0
176
     1
 90
       50
176
     1
 40
0.0
176
     1
 40
1.0
176
     1
 90
        0
176
     1
 62
    18
420
        0
176
     1
 90
       50
176
     1
 90
        3
176
     1
 62
     5
420
      255
176
     1
290
     0
176
     1
 90
       50
176
     1
 90
       50
176
     1
 90
       50
176
     1
290
     0
176
     1
 90
       50
176
     1
 62
   256
176
     0
 40
1.0
176
     0
 90
        2
176
     1
  1
strokes_ogs.tif
176
     1
290
     0
176
     1
 40
1.0
176
     1
 40
1.0
176
     1
  0
VISUALSTYLE
  5
2B
102
{ACAD_REACTORS
330
2A
102
}
330
2A
100
AcDbVisualStyle
  2
Flat
 70
     0
177
     3
291
     1
 70
    58
 90
        2
176
     1
 90
        1
176
     1
 90
        1
176
     1
 90
        2
176
     1
 40
0.6
176
     1
 40
30.0
176
     1
 62
     7
420
 16777215
176
     1
 90
        0
176
     1
 90
        0
176
     1
 62
     7
176
     1
 62
   257
176
     1
 90
        1
176
     1
 90
        1
176
     1
 40
1.0
176
     1
 90
        8
176
     1
 62
     7
176
     1
 40
1.0
176
     1
 90
        1
176
     1
 90
        6
176
     1
 90
        2
176
     1
 62
     7
176
     1
 90
        5
176
     1
 90
        0
176
     1
 90
        0
176
     1
290
     0
176
     1
 90
       13
176
     1
 40
0.0
176
     1
 90
        0
176
     1
290
     0
176
     1
290
     1
176
     1
290
     1
176
     1
290
     0
176
     1
290
     0
176
     1
290
     0
176
     1
290
     0
176
     1
290
     0
176
     1
290
     0
176
     1
 90
       50
176
     1
 40
0.0
176
     1
 40
1.0
176
     1
 90
        0
176
     1
 62
    18
420
        0
176
     1
 90
       50
176
     1
 90
        3
176
     1
 62
     5
420
      255
176
     1
290
     0
176
     1
 90
       50
176
     1
 90
       50
176
     1
 90
       50
176
     1
290
     0
176
     1
 90
       50
176
     1
 62
   256
176
     0
 40
1.0
176
     0
 90
        2
176
     1
  1
strokes_ogs.tif
176
     1
290
     0
176
     1
 40
1.0
176
     1
 40
1.0
176
     1
  0
VISUALSTYLE
  5
2C
102
{ACAD_REACTORS
330
2A
102
}
330
2A
100
AcDbVisualStyle
  2
FlatWithEdges
 70
     1
177
     3
291
     1
 70
    58
 90
        2
176
     1
 90
        1
176
     1
 90
        1
176
     1
 90
        2
176
     1
 40
0.6
176
     1
 40
30.0
176
     1
 62
     7
420
 16777215
176
     1
 90
        1
176
     1
 90
        0
176
     1
 62
     7
176
     1
 62
   257
176
     1
 90
        1
176
     1
 90
        1
176
     1
 40
1.0
176
     1
 90
        0
176
     1
 62
   257
176
     1
 40
1.0
176
     1
 90
        1
176
     1
 90
        6
176
     1
 90
        2
176
     1
 62
     7
176
     1
 90
        5
176
     1
 90
        0
176
     1
 90
        0
176
     1
290
     0
176
     1
 90
       13
176
     1
 40
0.0
176
     1
 90
        0
176
     1
290
     0
176
     1
290
     1
176
     1
290
     1
176
     1
290
     0
176
     1
290
     0
176
     1
290
     0
176
     1
290
     0
176
     1
290
     0
176
     1
290
     0
176
     1
 90
       50
176
     1
 40
0.0
176
     1
 40
1.0
176
     1
 90
        0
176
     1
 62
    18
420
        0
176
     1
 90
       50
176
     1
 90
        3
176
     1
 62
     5
420
      255
176
     1
290
     0
176
     1
 90
       50
176
     1
 90
       50
176
     1
 90
       50
176
     1
290
     0
176
     1
 90
       50
176
     1
 62
   256
176
     0
 40
1.0
176
     0
 90
        2
176
     1
  1
strokes_ogs.tif
176
     1
290
     0
176
     1
 40
1.0
176
     1
 40
1.0
176
     1
  0
VISUALSTYLE
  5
2D
102
{ACAD_REACTORS
330
2A
102
}
330
2A
100
AcDbVisualStyle
  2
Gouraud
 70
     2
177
     3
291
     1
 70
    58
 90
        2
176
     1
 90
        2
176
     1
 90
        1
176
     1
 90
        2
176
     1
 40
0.6
176
     1
 40
30.0
176
     1
 62
     7
420
 16777215
176
     1
 90
        0
176
     1
 90
        0
176
     1
 62
     7
176
     1
 62
   257
176
     1
 90
        1
176
     1
 90
        1
176
     1
 40
1.0
176
     1
 90
        0
176
     1
 62
     7
176
     1
 40
1.0
176
     1
 90
        1
176
     1
 90
        6
176
     1
 90
        2
176
     1
 62
     7
176
     1
 90
        5
176
     1
 90
        0
176
     1
 90
        0
176
     1
290
     0
176
     1
 90
       13
176
     1
 40
0.0
176
     1
 90
        0
176
     1
290
     0
176
     1
290
     1
176
     1
290
     1
176
     1
290
     0
176
     1
290
     0
176
     1
290
     0
176
     1
290
     0
176
     1
290
     0
176
     1
290
     0
176
     1
 90
       50
176
     1
 40
0.0
176
     1
 40
1.0
176
     1
 90
        0
176
     1
 62
    18
420
        0
176
     1
 90
       50
176
     1
 90
        3
176
     1
 62
     5
420
      255
176
     1
290
     0
176
     1
 90
       50
176
     1
 90
       50
176
     1
 90
       50
176
     1
290
     0
176
     1
 90
       50
176
     1
 62
   256
176
     0
 40
1.0
176
     0
 90
        2
176
     1
  1
strokes_ogs.tif
176
     1
290
     0
176
     1
 40
1.0
176
     1
 40
1.0
176
     1
  0
VISUALSTYLE
  5
2E
102
{ACAD_REACTORS
330
2A
102
}
330
2A
100
AcDbVisualStyle
  2
GouraudWithEdges
 70
     3
177
     3
291
     1
 70
    58
 90
        2
176
     1
 90
        2
176
     1
 90
        1
176
     1
 90
        2
176
     1
 40
0.6
176
     1
 40
30.0
176
     1
 62
     7
420
 16777215
176
     1
 90
        1
176
     1
 90
        0
176
     1
 62
     7
176
     1
 62
   257
176
     1
 90
        1
176
     1
 90
        1
176
     1
 40
1.0
176
     1
 90
        0
176
     1
 62
   257
176
     1
 40
1.0
176
     1
 90
        1
176
     1
 90
        6
176
     1
 90
        2
176
     1
 62
     7
176
     1
 90
        5
176
     1
 90
        0
176
     1
 90
        0
176
     1
290
     0
176
     1
 90
       13
176
     1
 40
0.0
176
     1
 90
        0
176
     1
290
     0
176
     1
290
     1
176
     1
290
     1
176
     1
290
     0
176
     1
290
     0
176
     1
290
     0
176
     1
290
     0
176
     1
290
     0
176
     1
290
     0
176
     1
 90
       50
176
     1
 40
0.0
176
     1
 40
1.0
176
     1
 90
        0
176
     1
 62
    18
420
        0
176
     1
 90
       50
176
     1
 90
        3
176
     1
 62
     5
420
      255
176
     1
290
     0
176
     1
 90
       50
176
     1
 90
       50
176
     1
 90
       50
176
     1
290
     0
176
     1
 90
       50
176
     1
 62
   256
176
     0
 40
1.0
176
     0
 90
        2
176
     1
  1
strokes_ogs.tif
176
     1
290
     0
176
     1
 40
1.0
176
     1
 40
1.0
176
     1
  0
VISUALSTYLE
  5
31
102
{ACAD_REACTORS
330
2A
102
}
330
2A
100
AcDbVisualStyle
  2
Hidden
 70
     6
177
     3
291
     0
 70
    58
 90
        1
176
     1
 90
        2
176
     1
 90
        2
176
     1
 90
        0
176
     1
 40
0.6
176
     1
 40
30.0
176
     1
 62
     7
420
 16777215
176
     1
 90
        2
176
     1
 90
        2
176
     1
 62
     7
176
     1
 62
   257
176
     1
 90
        2
176
     1
 90
        1
176
     1
 40
40.0
176
     1
 90
        0
176
     1
 62
   257
176
     1
 40
1.0
176
     1
 90
        1
176
     1
 90
        6
176
     1
 90
        2
176
     1
 62
     7
176
     1
 90
        3
176
     1
 90
        0
176
     1
 90
        0
176
     1
290
     0
176
     1
 90
        1
176
     1
 40
0.0
176
     1
 90
        0
176
     1
290
     0
176
     1
290
     1
176
     1
290
     1
176
     1
290
     0
176
     1
290
     0
176
     1
290
     0
176
     1
290
     0
176
     1
290
     0
176
     1
290
     0
176
     1
 90
       50
176
     1
 40
0.0
176
     1
 40
1.0
176
     1
 90
        0
176
     1
 62
    18
420
        0
176
     1
 90
       50
176
     1
 90
        3
176
     1
 62
     5
420
      255
176
     1
290
     0
176
     1
 90
       50
176
     1
 90
       50
176
     1
 90
       50
176
     1
290
     0
176
     1
 90
       50
176
     1
 62
   256
176
     0
 40
1.0
176
     0
 90
        2
176
     1
  1
strokes_ogs.tif
176
     1
290
     0
176
     1
 40
1.0
176
     1
 40
1.0
176
     1
  0
VISUALSTYLE
  5
3B
102
{ACAD_REACTORS
330
2A
102
}
330
2A
100
AcDbVisualStyle
  2
JitterOff
 70
    20
177
     3
291
     1
 70
    58
 90
        2
176
     0
 90
        2
176
     0
 90
        0
176
     0
 90
        0
176
     0
 40
0.6
176
     0
 40
30.0
176
     0
 62
     7
420
 16777215
176
     0
 90
        1
176
     0
 90
        4
176
     0
 62
     7
176
     0
 62
   257
176
     0
 90
        1
176
     0
 90
        1
176
     0
 40
1.0
176
     0
 90
       10
176
     2
 62
     7
176
     0
 40
1.0
176
     0
 90
        1
176
     0
 90
        6
176
     0
 90
        2
176
     0
 62
     7
176
     0
 90
        5
176
     0
 90
        0
176
     0
 90
        0
176
     0
290
     0
176
     0
 90
        1
176
     0
 40
0.0
176
     0
 90
        0
176
     0
290
     0
176
     0
290
     1
176
     0
290
     1
176
     0
290
     0
176
     0
290
     0
176
     0
290
     0
176
     0
290
     0
176
     0
290
     0
176
     0
290
     0
176
     0
 90
       50
176
     0
 40
0.0
176
     0
 40
1.0
176
     0
 90
        0
176
     0
 62
    18
420
        0
176
     0
 90
       50
176
     0
 90
        3
176
     0
 62
     5
420
      255
176
     0
290
     0
176
     0
 90
       50
176
     0
 90
       50
176
     0
 90
       50
176
     0
290
     0
176
     0
 90
       50
176
     0
 62
   256
176
     0
 40
1.0
176
     0
 90
        2
176
     0
  1
strokes_ogs.tif
176
     0
290
     0
176
     0
 40
1.0
176
     0
 40
1.0
176
     0
  0
VISUALSTYLE
  5
38
102
{ACAD_REACTORS
330
2A
102
}
330
2A
100
AcDbVisualStyle
  2
Linepattern
 70
    14
177
     3
291
     1
 70
    58
 90
        2
176
     1
 90
        2
176
     1
 90
        0
176
     1
 90
        0
176
     1
 40
0.6
176
     1
 40
30.0
176
     1
 62
     7
420
 16777215
176
     1
 90
        1
176
     1
 90
        4
176
     1
 62
     7
176
     1
 62
   257
176
     1
 90
        7
176
     1
 90
        7
176
     1
 40
1.0
176
     1
 90
        8
176
     1
 62
     7
176
     1
 40
1.0
176
     1
 90
        1
176
     1
 90
        6
176
     1
 90
        2
176
     1
 62
     7
176
     1
 90
        5
176
     1
 90
        0
176
     1
 90
        0
176
     1
290
     0
176
     1
 90
        1
176
     1
 40
0.0
176
     1
 90
        0
176
     1
290
     0
176
     1
290
     1
176
     1
290
     1
176
     1
290
     0
176
     1
290
     0
176
     1
290
     0
176
     1
290
     0
176
     1
290
     0
176
     1
290
     0
176
     1
 90
       50
176
     1
 40
0.0
176
     1
 40
1.0
176
     1
 90
        0
176
     1
 62
    18
420
        0
176
     1
 90
       50
176
     1
 90
        3
176
     1
 62
     5
420
      255
176
     1
290
     0
176
     1
 90
       50
176
     1
 90
       50
176
     1
 90
       50
176
     1
290
     0
176
     1
 90
       50
176
     1
 62
   256
176
     0
 40
1.0
176
     0
 90
        2
176
     1
  1
strokes_ogs.tif
176
     1
290
     0
176
     1
 40
1.0
176
     1
 40
1.0
176
     1
  0
VISUALSTYLE
  5
3C
102
{ACAD_REACTORS
330
2A
102
}
330
2A
100
AcDbVisualStyle
  2
OverhangOff
 70
    21
177
     3
291
     1
 70
    58
 90
        2
176
     0
 90
        2
176
     0
 90
        0
176
     0
 90
        0
176
     0
 40
0.6
176
     0
 40
30.0
176
     0
 62
     7
420
 16777215
176
     0
 90
        1
176
     0
 90
        4
176
     0
 62
     7
176
     0
 62
   257
176
     0
 90
        1
176
     0
 90
        1
176
     0
 40
1.0
176
     0
 90
        9
176
     2
 62
     7
176
     0
 40
1.0
176
     0
 90
        1
176
     0
 90
        6
176
     0
 90
        2
176
     0
 62
     7
176
     0
 90
        5
176
     0
 90
        0
176
     0
 90
        0
176
     0
290
     0
176
     0
 90
        1
176
     0
 40
0.0
176
     0
 90
        0
176
     0
290
     0
176
     0
290
     1
176
     0
290
     1
176
     0
290
     0
176
     0
290
     0
176
     0
290
     0
176
     0
290
     0
176
     0
290
     0
176
     0
290
     0
176
     0
 90
       50
176
     0
 40
0.0
176
     0
 40
1.0
176
     0
 90
        0
176
     0
 62
    18
420
        0
176
     0
 90
       50
176
     0
 90
        3
176
     0
 62
     5
420
      255
176
     0
290
     0
176
     0
 90
       50
176
     0
 90
       50
176
     0
 90
       50
176
     0
290
     0
176
     0
 90
       50
176
     0
 62
   256
176
     0
 40
1.0
176
     0
 90
        2
176
     0
  1
strokes_ogs.tif
176
     0
290
     0
176
     0
 40
1.0
176
     0
 40
1.0
176
     0
  0
VISUALSTYLE
  5
33
102
{ACAD_REACTORS
330
2A
102
}
330
2A
100
AcDbVisualStyle
  2
Realistic
 70
     8
177
     3
291
     0
 70
    58
 90
        2
176
     1
 90
        3
176
     1
 90
        0
176
     1
 90
        2
176
     1
 40
0.6
176
     1
 40
30.0
176
     1
 62
     7
420
 16777215
176
     1
 90
        0
176
     1
 90
        0
176
     1
 62
     7
176
     1
 62
   257
176
     1
 90
        1
176
     1
 90
        1
176
     1
 40
1.0
176
     1
 90
        8
176
     1
 62
   257
176
     1
 40
1.0
176
     1
 90
        1
176
     1
 90
        6
176
     1
 90
        2
176
     1
 62
     7
176
     1
 90
        3
176
     1
 90
        0
176
     1
 90
        0
176
     1
290
     0
176
     1
 90
       13
176
     1
 40
0.0
176
     1
 90
        0
176
     1
290
     0
176
     1
290
     1
176
     1
290
     1
176
     1
290
     0
176
     1
290
     0
176
     1
290
     0
176
     1
290
     0
176
     1
290
     0
176
     1
290
     0
176
     1
 90
       50
176
     1
 40
0.0
176
     1
 40
1.0
176
     1
 90
        0
176
     1
 62
    18
420
        0
176
     1
 90
       50
176
     1
 90
        3
176
     1
 62
     5
420
      255
176
     1
290
     0
176
     1
 90
       50
176
     1
 90
       50
176
     1
 90
       50
176
     1
290
     0
176
     1
 90
       50
176
     1
 62
   256
176
     0
 40
1.0
176
     0
 90
        2
176
     1
  1
strokes_ogs.tif
176
     1
290
     0
176
     1
 40
1.0
176
     1
 40
1.0
176
     1
  0
VISUALSTYLE
  5
42
102
{ACAD_REACTORS
330
2A
102
}
330
2A
100
AcDbVisualStyle
  2
Shaded
 70
    27
177
     3
291
     0
 70
    58
 90
        2
176
     1
 90
        2
176
     1
 90
        1
176
     1
 90
        2
176
     1
 40
0.6
176
     1
 40
30.0
176
     1
 62
     7
420
 16777215
176
     1
 90
        0
176
     1
 90
        4
176
     1
 62
     7
176
     1
 62
   257
176
     1
 90
        1
176
     1
 90
        1
176
     1
 40
1.0
176
     1
 90
        8
176
     1
 62
   257
176
     1
 40
1.0
176
     1
 90
        1
176
     1
 90
        6
176
     1
 90
        2
176
     1
 62
     8
420
  7895160
176
     1
 90
        3
176
     1
 90
        0
176
     1
 90
        0
176
     1
290
     0
176
     1
 90
        5
176
     1
 40
0.0
176
     1
 90
        0
176
     1
290
     0
176
     1
290
     1
176
     1
290
     1
176
     1
290
     0
176
     1
290
     0
176
     1
290
     0
176
     1
290
     0
176
     1
290
     0
176
     1
290
     0
176
     1
 90
       50
176
     1
 40
0.0
176
     1
 40
1.0
176
     1
 90
        0
176
     1
 62
    18
420
        0
176
     1
 90
       50
176
     1
 90
        3
176
     1
 62
     5
420
      255
176
     1
290
     0
176
     1
 90
       50
176
     1
 90
       50
176
     1
 90
       50
176
     1
290
     0
176
     1
 90
       50
176
     1
 62
   256
176
     0
 40
1.0
176
     0
 90
        2
176
     1
  1
strokes_ogs.tif
176
     1
290
     0
176
     1
 40
1.0
176
     1
 40
1.0
176
     1
  0
VISUALSTYLE
  5
41
102
{ACAD_REACTORS
330
2A
102
}
330
2A
100
AcDbVisualStyle
  2
Shaded with edges
 70
    26
177
     3
291
     0
 70
    58
 90
        2
176
     1
 90
        2
176
     1
 90
        1
176
     1
 90
        2
176
     1
 40
0.6
176
     1
 40
30.0
176
     1
 62
     7
420
 16777215
176
     1
 90
        1
176
     1
 90
       10
176
     1
 62
     7
176
     1
 62
   257
176
     1
 90
        2
176
     1
 90
        1
176
     1
 40
1.0
176
     1
 90
        8
176
     1
 62
   257
176
     1
 40
1.0
176
     1
 90
        1
176
     1
 90
        6
176
     1
 90
        2
176
     1
 62
     7
176
     1
 90
        3
176
     1
 90
        0
176
     1
 90
        0
176
     1
290
     0
176
     1
 90
        5
176
     1
 40
0.0
176
     1
 90
        0
176
     1
290
     0
176
     1
290
     1
176
     1
290
     1
176
     1
290
     0
176
     1
290
     0
176
     1
290
     0
176
     1
290
     0
176
     1
290
     0
176
     1
290
     0
176
     1
 90
       50
176
     1
 40
0.0
176
     1
 40
1.0
176
     1
 90
        0
176
     1
 62
    18
420
        0
176
     1
 90
       50
176
     1
 90
        3
176
     1
 62
     5
420
      255
176
     1
290
     0
176
     1
 90
       50
176
     1
 90
       50
176
     1
 90
       50
176
     1
290
     0
176
     1
 90
       50
176
     1
 62
   256
176
     0
 40
1.0
176
     0
 90
        2
176
     1
  1
strokes_ogs.tif
176
     1
290
     0
176
     1
 40
1.0
176
     1
 40
1.0
176
     1
  0
VISUALSTYLE
  5
3E
102
{ACAD_REACTORS
330
2A
102
}
330
2A
100
AcDbVisualStyle
  2
Shades of Gray
 70
    23
177
     3
291
     0
 70
    58
 90
        2
176
     1
 90
        2
176
     1
 90
        3
176
     1
 90
        0
176
     1
 40
0.6
176
     1
 40
30.0
176
     1
 62
     7
420
 16777215
176
     1
 90
        2
176
     1
 90
        2
176
     1
 62
     7
176
     1
 62
     7
176
     1
 90
        1
176
     1
 90
        1
176
     1
 40
40.0
176
     1
 90
        8
176
     1
 62
     7
176
     1
 40
1.0
176
     1
 90
        1
176
     1
 90
        6
176
     1
 90
        2
176
     1
 62
     7
176
     1
 90
        3
176
     1
 90
        0
176
     1
 90
        0
176
     1
290
     0
176
     1
 90
        1
176
     1
 40
0.0
176
     1
 90
        0
176
     1
290
     0
176
     1
290
     1
176
     1
290
     1
176
     1
290
     0
176
     1
290
     0
176
     1
290
     0
176
     1
290
     0
176
     1
290
     0
176
     1
290
     0
176
     1
 90
       50
176
     1
 40
0.0
176
     1
 40
1.0
176
     1
 90
        0
176
     1
 62
    18
420
        0
176
     1
 90
       50
176
     1
 90
        3
176
     1
 62
     5
420
      255
176
     1
290
     0
176
     1
 90
       50
176
     1
 90
       50
176
     1
 90
       50
176
     1
290
     0
176
     1
 90
       50
176
     1
 62
   256
176
     0
 40
1.0
176
     0
 90
        2
176
     1
  1
strokes_ogs.tif
176
     1
290
     0
176
     1
 40
1.0
176
     1
 40
1.0
176
     1
  0
VISUALSTYLE
  5
3F
102
{ACAD_REACTORS
330
2A
102
}
330
2A
100
AcDbVisualStyle
  2
Sketchy
 70
    24
177
     3
291
     0
 70
    58
 90
        1
176
     1
 90
        2
176
     1
 90
        2
176
     1
 90
        0
176
     1
 40
0.6
176
     1
 40
30.0
176
     1
 62
     7
420
 16777215
176
     1
 90
        2
176
     1
 90
        2
176
     1
 62
     7
176
     1
 62
     7
176
     1
 90
        1
176
     1
 90
        1
176
     1
 40
40.0
176
     1
 90
       11
176
     1
 62
     7
176
     1
 40
1.0
176
     1
 90
        1
176
     1
 90
        6
176
     1
 90
        2
176
     1
 62
     7
176
     1
 90
        6
176
     1
 90
        0
176
     1
 90
        0
176
     1
290
     0
176
     1
 90
        1
176
     1
 40
0.0
176
     1
 90
        0
176
     1
290
     0
176
     1
290
     1
176
     1
290
     1
176
     1
290
     0
176
     1
290
     0
176
     1
290
     0
176
     1
290
     0
176
     1
290
     0
176
     1
290
     0
176
     1
 90
       50
176
     1
 40
0.0
176
     1
 40
1.0
176
     1
 90
        0
176
     1
 62
    18
420
        0
176
     1
 90
       50
176
     1
 90
        3
176
     1
 62
     5
420
      255
176
     1
290
     0
176
     1
 90
       50
176
     1
 90
       50
176
     1
 90
       50
176
     1
290
     0
176
     1
 90
       50
176
     1
 62
   256
176
     0
 40
1.0
176
     0
 90
        2
176
     1
  1
strokes_ogs.tif
176
     1
290
     0
176
     1
 40
1.0
176
     1
 40
1.0
176
     1
  0
VISUALSTYLE
  5
37
102
{ACAD_REACTORS
330
2A
102
}
330
2A
100
AcDbVisualStyle
  2
Thicken
 70
    13
177
     3
291
     1
 70
    58
 90
        2
176
     1
 90
        2
176
     1
 90
        0
176
     1
 90
        0
176
     1
 40
0.6
176
     1
 40
30.0
176
     1
 62
     7
420
 16777215
176
     1
 90
        1
176
     1
 90
        4
176
     1
 62
     7
176
     1
 62
   257
176
     1
 90
        1
176
     1
 90
        1
176
     1
 40
1.0
176
     1
 90
       12
176
     1
 62
     7
176
     1
 40
1.0
176
     1
 90
        1
176
     1
 90
        6
176
     1
 90
        2
176
     1
 62
     7
176
     1
 90
        5
176
     1
 90
        0
176
     1
 90
        0
176
     1
290
     0
176
     1
 90
        1
176
     1
 40
0.0
176
     1
 90
        0
176
     1
290
     0
176
     1
290
     1
176
     1
290
     1
176
     1
290
     0
176
     1
290
     0
176
     1
290
     0
176
     1
290
     0
176
     1
290
     0
176
     1
290
     0
176
     1
 90
       50
176
     1
 40
0.0
176
     1
 40
1.0
176
     1
 90
        0
176
     1
 62
    18
420
        0
176
     1
 90
       50
176
     1
 90
        3
176
     1
 62
     5
420
      255
176
     1
290
     0
176
     1
 90
       50
176
     1
 90
       50
176
     1
 90
       50
176
     1
290
     0
176
     1
 90
       50
176
     1
 62
   256
176
     0
 40
1.0
176
     0
 90
        2
176
     1
  1
strokes_ogs.tif
176
     1
290
     0
176
     1
 40
1.0
176
     1
 40
1.0
176
     1
  0
VISUALSTYLE
  5
30
102
{ACAD_REACTORS
330
2A
102
}
330
2A
100
AcDbVisualStyle
  2
Wireframe
 70
     5
177
     3
291
     0
 70
    58
 90
        0
176
     1
 90
        2
176
     1
 90
        0
176
     1
 90
        0
176
     1
 40
0.6
176
     1
 40
30.0
176
     1
 62
     7
420
 16777215
176
     1
 90
        1
176
     1
 90
        4
176
     1
 62
     7
176
     1
 62
   257
176
     1
 90
        1
176
     1
 90
        1
176
     1
 40
1.0
176
     1
 90
        0
176
     1
 62
   257
176
     1
 40
1.0
176
     1
 90
        1
176
     1
 90
        6
176
     1
 90
        2
176
     1
 62
     7
176
     1
 90
        3
176
     1
 90
        0
176
     1
 90
        0
176
     1
290
     0
176
     1
 90
        1
176
     1
 40
0.0
176
     1
 90
        0
176
     1
290
     0
176
     1
290
     1
176
     1
290
     1
176
     1
290
     0
176
     1
290
     0
176
     1
290
     0
176
     1
290
     0
176
     1
290
     0
176
     1
290
     0
176
     1
 90
       50
176
     1
 40
0.0
176
     1
 40
1.0
176
     1
 90
        0
176
     1
 62
    18
420
        0
176
     1
 90
       50
176
     1
 90
        3
176
     1
 62
     5
420
      255
176
     1
290
     0
176
     1
 90
       50
176
     1
 90
       50
176
     1
 90
       50
176
     1
290
     0
176
     1
 90
       50
176
     1
 62
   256
176
     0
 40
1.0
176
     0
 90
        2
176
     1
  1
strokes_ogs.tif
176
     1
290
     0
176
     1
 40
1.0
176
     1
 40
1.0
176
     1
  0
VISUALSTYLE
  5
40
102
{ACAD_REACTORS
330
2A
102
}
330
2A
100
AcDbVisualStyle
  2
X-Ray
 70
    25
177
     3
291
     0
 70
    58
 90
        2
176
     1
 90
        2
176
     1
 90
        1
176
     1
 90
        1
176
     1
 40
0.5
176
     1
 40
30.0
176
     1
 62
     7
420
 16777215
176
     1
 90
        1
176
     1
 90
        0
176
     1
 62
     7
176
     1
 62
   257
176
     1
 90
        1
176
     1
 90
        1
176
     1
 40
1.0
176
     1
 90
        8
176
     1
 62
     7
176
     1
 40
1.0
176
     1
 90
        1
176
     1
 90
        6
176
     1
 90
        2
176
     1
 62
     7
176
     1
 90
        3
176
     1
 90
        0
176
     1
 90
        0
176
     1
290
     0
176
     1
 90
       13
176
     1
 40
0.0
176
     1
 90
        0
176
     1
290
     0
176
     1
290
     1
176
     1
290
     1
176
     1
290
     0
176
     1
290
     0
176
     1
290
     0
176
     1
290
     0
176
     1
290
     0
176
     1
290
     0
176
     1
 90
       50
176
     1
 40
0.0
176
     1
 40
1.0
176
     1
 90
        0
176
     1
 62
    18
420
        0
176
     1
 90
       50
176
     1
 90
        3
176
     1
 62
     5
420
      255
176
     1
290
     0
176
     1
 90
       50
176
     1
 90
       50
176
     1
 90
       50
176
     1
290
     0
176
     1
 90
       50
176
     1
 62
   256
176
     0
 40
1.0
176
     0
 90
        2
176
     1
  1
strokes_ogs.tif
176
     1
290
     0
176
     1
 40
1.0
176
     1
 40
1.0
176
     1
  0
DICTIONARYVAR
  5
1EC
102
{ACAD_REACTORS
330
1EB
102
}
330
1EB
100
DictionaryVariables
280
     0
  1
1:1
  0
DICTIONARYVAR
  5
1F1
102
{ACAD_REACTORS
330
1EB
102
}
330
1EB
100
DictionaryVariables
280
     0
  1
Standard
  0
DICTIONARYVAR
  5
1F0
102
{ACAD_REACTORS
330
1EB
102
}
330
1EB
100
DictionaryVariables
280
     0
  1
Standard
  0
DICTIONARY
  5
1ED
330
6A
100
AcDbDictionary
280
     1
281
     1
  3
ACAD_ROUNDTRIP_2008_TABLESTYLE_CELLSTYLEMAP
360
1EE
  0
CELLSTYLEMAP
  5
1EE
102
{ACAD_REACTORS
330
1ED
102
}
330
1ED
100
AcDbCellStyleMap
 90
        3
300
CELLSTYLE
  1
TABLEFORMAT_BEGIN
 90
        5
170
     1
 91
        0
 92
    32768
 62
   257
 93
        1
300
CONTENTFORMAT
  1
CONTENTFORMAT_BEGIN
 90
        0
 91
        0
 92
        4
 93
        0
300

 40
0.0
140
1.0
 94
        5
 62
     0
340
11
144
6.0
309
CONTENTFORMAT_END
171
     1
301
MARGIN
  1
CELLMARGIN_BEGIN
 40
1.5
 40
1.5
 40
1.5
 40
1.5
 40
1.5
 40
1.5
309
CELLMARGIN_END
 94
        6
 95
        1
302
GRIDFORMAT
  1
GRIDFORMAT_BEGIN
 90
        0
 91
        1
 62
     0
 92
       -2
340
14
 93
        0
 40
0.045
309
GRIDFORMAT_END
 95
        2
302
GRIDFORMAT
  1
GRIDFORMAT_BEGIN
 90
        0
 91
        1
 62
     0
 92
       -2
340
14
 93
        0
 40
0.045
309
GRIDFORMAT_END
 95
        4
302
GRIDFORMAT
  1
GRIDFORMAT_BEGIN
 90
        0
 91
        1
 62
     0
 92
       -2
340
14
 93
        0
 40
0.045
309
GRIDFORMAT_END
 95
        8
302
GRIDFORMAT
  1
GRIDFORMAT_BEGIN
 90
        0
 91
        1
 62
     0
 92
       -2
340
14
 93
        0
 40
0.045
309
GRIDFORMAT_END
 95
       16
302
GRIDFORMAT
  1
GRIDFORMAT_BEGIN
 90
        0
 91
        1
 62
     0
 92
       -2
340
14
 93
        0
 40
0.045
309
GRIDFORMAT_END
 95
       32
302
GRIDFORMAT
  1
GRIDFORMAT_BEGIN
 90
        0
 91
        1
 62
     0
 92
       -2
340
14
 93
        0
 40
0.045
309
GRIDFORMAT_END
309
TABLEFORMAT_END
  1
CELLSTYLE_BEGIN
 90
        1
 91
        1
300
_TITLE
309
CELLSTYLE_END
300
CELLSTYLE
  1
TABLEFORMAT_BEGIN
 90
        5
170
     1
 91
        0
 92
        0
 62
   257
 93
        1
300
CONTENTFORMAT
  1
CONTENTFORMAT_BEGIN
 90
        0
 91
        0
 92
        4
 93
        0
300

 40
0.0
140
1.0
 94
        5
 62
     0
340
11
144
4.5
309
CONTENTFORMAT_END
171
     1
301
MARGIN
  1
CELLMARGIN_BEGIN
 40
1.5
 40
1.5
 40
1.5
 40
1.5
 40
1.5
 40
1.5
309
CELLMARGIN_END
 94
        6
 95
        1
302
GRIDFORMAT
  1
GRIDFORMAT_BEGIN
 90
        0
 91
        1
 62
     0
 92
       -2
340
14
 93
        0
 40
0.045
309
GRIDFORMAT_END
 95
        2
302
GRIDFORMAT
  1
GRIDFORMAT_BEGIN
 90
        0
 91
        1
 62
     0
 92
       -2
340
14
 93
        0
 40
0.045
309
GRIDFORMAT_END
 95
        4
302
GRIDFORMAT
  1
GRIDFORMAT_BEGIN
 90
        0
 91
        1
 62
     0
 92
       -2
340
14
 93
        0
 40
0.045
309
GRIDFORMAT_END
 95
        8
302
GRIDFORMAT
  1
GRIDFORMAT_BEGIN
 90
        0
 91
        1
 62
     0
 92
       -2
340
14
 93
        0
 40
0.045
309
GRIDFORMAT_END
 95
       16
302
GRIDFORMAT
  1
GRIDFORMAT_BEGIN
 90
        0
 91
        1
 62
     0
 92
       -2
340
14
 93
        0
 40
0.045
309
GRIDFORMAT_END
 95
       32
302
GRIDFORMAT
  1
GRIDFORMAT_BEGIN
 90
        0
 91
        1
 62
     0
 92
       -2
340
14
 93
        0
 40
0.045
309
GRIDFORMAT_END
309
TABLEFORMAT_END
  1
CELLSTYLE_BEGIN
 90
        2
 91
        1
300
_HEADER
309
CELLSTYLE_END
300
CELLSTYLE
  1
TABLEFORMAT_BEGIN
 90
        5
170
     1
 91
        0
 92
        0
 62
   257
 93
        1
300
CONTENTFORMAT
  1
CONTENTFORMAT_BEGIN
 90
        0
 91
        0
 92
        4
 93
        0
300

 40
0.0
140
1.0
 94
        2
 62
     0
340
11
144
4.5
309
CONTENTFORMAT_END
171
     1
301
MARGIN
  1
CELLMARGIN_BEGIN
 40
1.5
 40
1.5
 40
1.5
 40
1.5
 40
1.5
 40
1.5
309
CELLMARGIN_END
 94
        6
 95
        1
302
GRIDFORMAT
  1
GRIDFORMAT_BEGIN
 90
        0
 91
        1
 62
     0
 92
       -2
340
14
 93
        0
 40
0.045
309
GRIDFORMAT_END
 95
        2
302
GRIDFORMAT
  1
GRIDFORMAT_BEGIN
 90
        0
 91
        1
 62
     0
 92
       -2
340
14
 93
        0
 40
0.045
309
GRIDFORMAT_END
 95
        4
302
GRIDFORMAT
  1
GRIDFORMAT_BEGIN
 90
        0
 91
        1
 62
     0
 92
       -2
340
14
 93
        0
 40
0.045
309
GRIDFORMAT_END
 95
        8
302
GRIDFORMAT
  1
GRIDFORMAT_BEGIN
 90
        0
 91
        1
 62
     0
 92
       -2
340
14
 93
        0
 40
0.045
309
GRIDFORMAT_END
 95
       16
302
GRIDFORMAT
  1
GRIDFORMAT_BEGIN
 90
        0
 91
        1
 62
     0
 92
       -2
340
14
 93
        0
 40
0.045
309
GRIDFORMAT_END
 95
       32
302
GRIDFORMAT
  1
GRIDFORMAT_BEGIN
 90
        0
 91
        1
 62
     0
 92
       -2
340
14
 93
        0
 40
0.045
309
GRIDFORMAT_END
309
TABLEFORMAT_END
  1
CELLSTYLE_BEGIN
 90
        3
 91
        2
300
_DATA
309
CELLSTYLE_END
  0
ENDSEC
  0
EOF