0
SECTION
  2
HEADER
  9
$ACADVER
  1
AC1027
  9
$ACADMAINTVER
 70
     8
  9
$DWGCODEPAGE
  3
ANSI_1252
  9
$REQUIREDVERSIONS
160
                 0
  9
$COMMENTS
  1
File was created by Cadenas
  9
$CUSTOMPROPERTYTAG
  1
NN
  9
$CUSTOMPROPERTY
  1
Grip Tight Two-Bolt Flange Metric Bore
  9
$CUSTOMPROPERTYTAG
  1
NT
  9
$CUSTOMPROPERTY
  1
GT Normal Duty 2 Bolt Flange Bearings
  9
$CUSTOMPROPERTYTAG
  1
NB
  9
$CUSTOMPROPERTY
  1
129323
  9
$CUSTOMPROPERTYTAG
  1
NBSYN
  9
$CUSTOMPROPERTY
  1
$PN.$LUBE.
  9
$CUSTOMPROPERTYTAG
  1
LINA
  9
$CUSTOMPROPERTY
  1
129323
  9
$CUSTOMPROPERTYTAG
  1
SERIES
  9
$CUSTOMPROPERTY
  1
205
  9
$CUSTOMPROPERTYTAG
  1
SS
  9
$CUSTOMPROPERTY
  1
25
  9
$CUSTOMPROPERTYTAG
  1
PN
  9
$CUSTOMPROPERTY
  1
129323
  9
$CUSTOMPROPERTYTAG
  1
DESCRIPTION
  9
$CUSTOMPROPERTY
  1
F2B-GT-25M
  9
$CUSTOMPROPERTYTAG
  1
A
  9
$CUSTOMPROPERTY
  1
36.9
  9
$CUSTOMPROPERTYTAG
  1
B
  9
$CUSTOMPROPERTY
  1
123.8
  9
$CUSTOMPROPERTYTAG
  1
C
  9
$CUSTOMPROPERTY
  1
39.3
  9
$CUSTOMPROPERTYTAG
  1
D
  9
$CUSTOMPROPERTY
  1
98.8
  9
$CUSTOMPROPERTYTAG
  1
F
  9
$CUSTOMPROPERTY
  1
M10
  9
$CUSTOMPROPERTYTAG
  1
H
  9
$CUSTOMPROPERTY
  1
12.7
  9
$CUSTOMPROPERTYTAG
  1
J
  9
$CUSTOMPROPERTY
  1
15.1
  9
$CUSTOMPROPERTYTAG
  1
L
  9
$CUSTOMPROPERTY
  1
45.6
  9
$CUSTOMPROPERTYTAG
  1
M
  9
$CUSTOMPROPERTY
  1
69.9
  9
$CUSTOMPROPERTYTAG
  1
N
  9
$CUSTOMPROPERTY
  1
36.5
  9
$CUSTOMPROPERTYTAG
  1
Z
  9
$CUSTOMPROPERTY
  1
39.3
  9
$CUSTOMPROPERTYTAG
  1
COMPANY
  9
$CUSTOMPROPERTY
  1
baldor
  9
$INSBASE
 10
0.0
 20
0.0
 30
0.0
  9
$EXTMIN
 10
1.000000000000000E+20
 20
1.000000000000000E+20
 30
1.000000000000000E+20
  9
$EXTMAX
 10
-1.000000000000000E+20
 20
-1.000000000000000E+20
 30
-1.000000000000000E+20
  9
$LIMMIN
 10
0.0
 20
0.0
  9
$LIMMAX
 10
420.0
 20
297.0
  9
$ORTHOMODE
 70
     0
  9
$REGENMODE
 70
     1
  9
$FILLMODE
 70
     1
  9
$QTEXTMODE
 70
     0
  9
$MIRRTEXT
 70
     1
  9
$LTSCALE
 40
1.0
  9
$ATTMODE
 70
     1
  9
$TEXTSIZE
 40
2.5
  9
$TRACEWID
 40
1.0
  9
$TEXTSTYLE
  7
Standard
  9
$CLAYER
  8
0
  9
$CELTYPE
  6
ByLayer
  9
$CECOLOR
 62
   256
  9
$CELTSCALE
 40
1.0
  9
$DISPSILH
 70
     0
  9
$DIMSCALE
 40
1.0
  9
$DIMASZ
 40
2.5
  9
$DIMEXO
 40
0.625
  9
$DIMDLI
 40
3.75
  9
$DIMRND
 40
0.0
  9
$DIMDLE
 40
0.0
  9
$DIMEXE
 40
1.25
  9
$DIMTP
 40
0.0
  9
$DIMTM
 40
0.0
  9
$DIMTXT
 40
2.5
  9
$DIMCEN
 40
2.5
  9
$DIMTSZ
 40
0.0
  9
$DIMTOL
 70
     0
  9
$DIMLIM
 70
     0
  9
$DIMTIH
 70
     0
  9
$DIMTOH
 70
     0
  9
$DIMSE1
 70
     0
  9
$DIMSE2
 70
     0
  9
$DIMTAD
 70
     1
  9
$DIMZIN
 70
     8
  9
$DIMBLK
  1

  9
$DIMASO
 70
     1
  9
$DIMSHO
 70
     1
  9
$DIMPOST
  1

  9
$DIMAPOST
  1

  9
$DIMALT
 70
     0
  9
$DIMALTD
 70
     3
  9
$DIMALTF
 40
0.03937007874016
  9
$DIMLFAC
 40
1.0
  9
$DIMTOFL
 70
     1
  9
$DIMTVP
 40
0.0
  9
$DIMTIX
 70
     0
  9
$DIMSOXD
 70
     0
  9
$DIMSAH
 70
     0
  9
$DIMBLK1
  1

  9
$DIMBLK2
  1

  9
$DIMSTYLE
  2
ISO-25
  9
$DIMCLRD
 70
     0
  9
$DIMCLRE
 70
     0
  9
$DIMCLRT
 70
     0
  9
$DIMTFAC
 40
1.0
  9
$DIMGAP
 40
0.625
  9
$DIMJUST
 70
     0
  9
$DIMSD1
 70
     0
  9
$DIMSD2
 70
     0
  9
$DIMTOLJ
 70
     0
  9
$DIMTZIN
 70
     8
  9
$DIMALTZ
 70
     0
  9
$DIMALTTZ
 70
     0
  9
$DIMUPT
 70
     0
  9
$DIMDEC
 70
     2
  9
$DIMTDEC
 70
     2
  9
$DIMALTU
 70
     2
  9
$DIMALTTD
 70
     3
  9
$DIMTXSTY
  7
Standard
  9
$DIMAUNIT
 70
     0
  9
$DIMADEC
 70
     0
  9
$DIMALTRND
 40
0.0
  9
$DIMAZIN
 70
     0
  9
$DIMDSEP
 70
    44
  9
$DIMATFIT
 70
     3
  9
$DIMFRAC
 70
     0
  9
$DIMLDRBLK
  1

  9
$DIMLUNIT
 70
     2
  9
$DIMLWD
 70
    -2
  9
$DIMLWE
 70
    -2
  9
$DIMTMOVE
 70
     0
  9
$DIMFXL
 40
1.0
  9
$DIMFXLON
 70
     0
  9
$DIMJOGANG
 40
0.7853981633974483
  9
$DIMTFILL
 70
     0
  9
$DIMTFILLCLR
 70
     0
  9
$DIMARCSYM
 70
     0
  9
$DIMLTYPE
  6

  9
$DIMLTEX1
  6

  9
$DIMLTEX2
  6

  9
$DIMTXTDIRECTION
 70
     0
  9
$LUNITS
 70
     2
  9
$LUPREC
 70
     4
  9
$SKETCHINC
 40
1.0
  9
$FILLETRAD
 40
10.0
  9
$AUNITS
 70
     0
  9
$AUPREC
 70
     0
  9
$MENU
  1
.
  9
$ELEVATION
 40
0.0
  9
$PELEVATION
 40
0.0
  9
$THICKNESS
 40
0.0
  9
$LIMCHECK
 70
     0
  9
$CHAMFERA
 40
0.0
  9
$CHAMFERB
 40
0.0
  9
$CHAMFERC
 40
0.0
  9
$CHAMFERD
 40
0.0
  9
$SKPOLY
 70
     0
  9
$TDCREATE
 40
2458168.995086864
  9
$TDUCREATE
 40
2458168.953420197
  9
$TDUPDATE
 40
2458168.995087049
  9
$TDUUPDATE
 40
2458168.953420382
  9
$TDINDWG
 40
0.0000000116
  9
$TDUSRTIMER
 40
0.0000000116
  9
$USRTIMER
 70
     1
  9
$ANGBASE
 50
0.0
  9
$ANGDIR
 70
     0
  9
$PDMODE
 70
     0
  9
$PDSIZE
 40
0.0
  9
$PLINEWID
 40
0.0
  9
$SPLFRAME
 70
     0
  9
$SPLINETYPE
 70
     6
  9
$SPLINESEGS
 70
     8
  9
$HANDSEED
  5
1F9
  9
$SURFTAB1
 70
     6
  9
$SURFTAB2
 70
     6
  9
$SURFTYPE
 70
     6
  9
$SURFU
 70
     6
  9
$SURFV
 70
     6
  9
$UCSBASE
  2

  9
$UCSNAME
  2

  9
$UCSORG
 10
0.0
 20
0.0
 30
0.0
  9
$UCSXDIR
 10
1.0
 20
0.0
 30
0.0
  9
$UCSYDIR
 10
0.0
 20
1.0
 30
0.0
  9
$UCSORTHOREF
  2

  9
$UCSORTHOVIEW
 70
     0
  9
$UCSORGTOP
 10
0.0
 20
0.0
 30
0.0
  9
$UCSORGBOTTOM
 10
0.0
 20
0.0
 30
0.0
  9
$UCSORGLEFT
 10
0.0
 20
0.0
 30
0.0
  9
$UCSORGRIGHT
 10
0.0
 20
0.0
 30
0.0
  9
$UCSORGFRONT
 10
0.0
 20
0.0
 30
0.0
  9
$UCSORGBACK
 10
0.0
 20
0.0
 30
0.0
  9
$PUCSBASE
  2

  9
$PUCSNAME
  2

  9
$PUCSORG
 10
0.0
 20
0.0
 30
0.0
  9
$PUCSXDIR
 10
1.0
 20
0.0
 30
0.0
  9
$PUCSYDIR
 10
0.0
 20
1.0
 30
0.0
  9
$PUCSORTHOREF
  2

  9
$PUCSORTHOVIEW
 70
     0
  9
$PUCSORGTOP
 10
0.0
 20
0.0
 30
0.0
  9
$PUCSORGBOTTOM
 10
0.0
 20
0.0
 30
0.0
  9
$PUCSORGLEFT
 10
0.0
 20
0.0
 30
0.0
  9
$PUCSORGRIGHT
 10
0.0
 20
0.0
 30
0.0
  9
$PUCSORGFRONT
 10
0.0
 20
0.0
 30
0.0
  9
$PUCSORGBACK
 10
0.0
 20
0.0
 30
0.0
  9
$USERI1
 70
     0
  9
$USERI2
 70
     0
  9
$USERI3
 70
     0
  9
$USERI4
 70
     0
  9
$USERI5
 70
     0
  9
$USERR1
 40
0.0
  9
$USERR2
 40
0.0
  9
$USERR3
 40
0.0
  9
$USERR4
 40
0.0
  9
$USERR5
 40
0.0
  9
$WORLDVIEW
 70
     1
  9
$SHADEDGE
 70
     3
  9
$SHADEDIF
 70
    70
  9
$TILEMODE
 70
     1
  9
$MAXACTVP
 70
    64
  9
$PINSBASE
 10
0.0
 20
0.0
 30
0.0
  9
$PLIMCHECK
 70
     0
  9
$PEXTMIN
 10
1.000000000000000E+20
 20
1.000000000000000E+20
 30
1.000000000000000E+20
  9
$PEXTMAX
 10
-1.000000000000000E+20
 20
-1.000000000000000E+20
 30
-1.000000000000000E+20
  9
$PLIMMIN
 10
0.0
 20
0.0
  9
$PLIMMAX
 10
420.0
 20
297.0
  9
$UNITMODE
 70
     0
  9
$VISRETAIN
 70
     1
  9
$PLINEGEN
 70
     0
  9
$PSLTSCALE
 70
     1
  9
$TREEDEPTH
 70
  3020
  9
$CMLSTYLE
  2
Standard
  9
$CMLJUST
 70
     0
  9
$CMLSCALE
 40
20.0
  9
$PROXYGRAPHICS
 70
     1
  9
$MEASUREMENT
 70
     1
  9
$CELWEIGHT
370
    -1
  9
$ENDCAPS
280
     0
  9
$JOINSTYLE
280
     0
  9
$LWDISPLAY
290
     0
  9
$INSUNITS
 70
     4
  9
$HYPERLINKBASE
  1

  9
$STYLESHEET
  1

  9
$XEDIT
290
     1
  9
$CEPSNTYPE
380
     0
  9
$PSTYLEMODE
290
     1
  9
$FINGERPRINTGUID
  2
{D903E5D8-6725-487C-BED6-61C6599B55E8}
  9
$VERSIONGUID
  2
{FAEB1C32-E019-11D5-929B-00C0DF256EC4}
  9
$EXTNAMES
290
     1
  9
$PSVPSCALE
 40
0.0
  9
$OLESTARTUP
290
     0
  9
$SORTENTS
280
   127
  9
$INDEXCTL
280
     0
  9
$HIDETEXT
280
     1
  9
$XCLIPFRAME
280
     2
  9
$HALOGAP
280
     0
  9
$OBSCOLOR
 70
   257
  9
$OBSLTYPE
280
     0
  9
$INTERSECTIONDISPLAY
280
     0
  9
$INTERSECTIONCOLOR
 70
   257
  9
$DIMASSOC
280
     2
  9
$PROJECTNAME
  1

  9
$CAMERADISPLAY
290
     0
  9
$LENSLENGTH
 40
50.0
  9
$CAMERAHEIGHT
 40
0.0
  9
$STEPSPERSEC
 40
2.0
  9
$STEPSIZE
 40
6.0
  9
$3DDWFPREC
 40
2.0
  9
$PSOLWIDTH
 40
5.0
  9
$PSOLHEIGHT
 40
80.0
  9
$LOFTANG1
 40
1.570796326794897
  9
$LOFTANG2
 40
1.570796326794897
  9
$LOFTMAG1
 40
0.0
  9
$LOFTMAG2
 40
0.0
  9
$LOFTPARAM
 70
     7
  9
$LOFTNORMALS
280
     1
  9
$LATITUDE
 40
37.795
  9
$LONGITUDE
 40
-122.394
  9
$NORTHDIRECTION
 40
0.0
  9
$TIMEZONE
 70
 -8000
  9
$LIGHTGLYPHDISPLAY
280
     1
  9
$TILEMODELIGHTSYNCH
280
     1
  9
$CMATERIAL
347
44
  9
$SOLIDHIST
280
     0
  9
$SHOWHIST
280
     1
  9
$DWFFRAME
280
     2
  9
$DGNFRAME
280
     2
  9
$REALWORLDSCALE
290
     1
  9
$INTERFERECOLOR
 62
   256
  9
$CSHADOW
280
     0
  9
$SHADOWPLANELOCATION
 40
0.0
  0
ENDSEC
  0
SECTION
  2
CLASSES
  0
CLASS
  1
ACDBDICTIONARYWDFLT
  2
AcDbDictionaryWithDefault
  3
ObjectDBX Classes
 90
        0
 91
        4
280
     0
281
     0
  0
CLASS
  1
VISUALSTYLE
  2
AcDbVisualStyle
  3
ObjectDBX Classes
 90
     4095
 91
        4
280
     0
281
     0
  0
CLASS
  1
MATERIAL
  2
AcDbMaterial
  3
ObjectDBX Classes
 90
     1153
 91
        4
280
     0
281
     0
  0
CLASS
  1
SCALE
  2
AcDbScale
  3
ObjectDBX Classes
 90
     1153
 91
        4
280
     0
281
     0
  0
CLASS
  1
TABLESTYLE
  2
AcDbTableStyle
  3
ObjectDBX Classes
 90
     4095
 91
        4
280
     0
281
     0
  0
CLASS
  1
MLEADERSTYLE
  2
AcDbMLeaderStyle
  3
ACDB_MLEADERSTYLE_CLASS
 90
     4095
 91
        4
280
     0
281
     0
  0
CLASS
  1
SUN
  2
AcDbSun
  3
SCENEOE
 90
     1153
 91
        4
280
     0
281
     0
  0
CLASS
  1
DICTIONARYVAR
  2
AcDbDictionaryVar
  3
ObjectDBX Classes
 90
        0
 91
        4
280
     0
281
     0
  0
CLASS
  1
CELLSTYLEMAP
  2
AcDbCellStyleMap
  3
ObjectDBX Classes
 90
     1152
 91
        4
280
     0
281
     0
  0
ENDSEC
  0
SECTION
  2
TABLES
  0
TABLE
  2
VPORT
  5
8
330
0
100
AcDbSymbolTable
 70
     1
  0
VPORT
  5
29
330
8
100
AcDbSymbolTableRecord
100
AcDbViewportTableRecord
  2
*Active
 70
     0
 10
0.0
 20
0.0
 11
1.0
 21
1.0
 12
0.7749999999999773
 22
0.0
 13
0.0
 23
0.0
 14
10.0
 24
10.0
 15
10.0
 25
10.0
 16
0.0
 26
0.0
 36
1.0
 17
0.0
 27
0.0
 37
0.0
 40
126.276
 41
0.5771405492730213
 42
50.0
 43
0.0
 44
0.0
 50
0.0
 51
0.0
 71
     0
 72
   100
 73
     1
 74
     3
 75
     0
 76
     0
 77
     0
 78
     0
281
     0
 65
     1
110
0.0
120
0.0
130
0.0
111
1.0
121
0.0
131
0.0
112
0.0
122
1.0
132
0.0
 79
     0
146
0.0
348
2F
 60
     3
 61
     5
292
     1
282
     1
141
0.0
142
0.0
 63
   250
361
6D
  0
ENDTAB
  0
TABLE
  2
LTYPE
  5
5
330
0
100
AcDbSymbolTable
 70
     3
  0
LTYPE
  5
14
330
5
100
AcDbSymbolTableRecord
100
AcDbLinetypeTableRecord
  2
ByBlock
 70
     0
  3

 72
    65
 73
     0
 40
0.0
  0
LTYPE
  5
15
330
5
100
AcDbSymbolTableRecord
100
AcDbLinetypeTableRecord
  2
ByLayer
 70
     0
  3

 72
    65
 73
     0
 40
0.0
  0
LTYPE
  5
16
330
5
100
AcDbSymbolTableRecord
100
AcDbLinetypeTableRecord
  2
Continuous
 70
     0
  3
Solid line
 72
    65
 73
     0
 40
0.0
  0
LTYPE
  5
9E
330
5
100
AcDbSymbolTableRecord
100
AcDbLinetypeTableRecord
  2
Dashed
 70
     0
  3

 72
    65
 73
     2
 40
2.0
 49
1.0
 74
     0
 49
-1.0
 74
     0
  0
LTYPE
  5
115
330
5
100
AcDbSymbolTableRecord
100
AcDbLinetypeTableRecord
  2
Center
 70
     0
  3

 72
    65
 73
     4
 40
1.5
 49
0.45
 74
     0
 49
-0.5
 74
     0
 49
0.05
 74
     0
 49
-0.5
 74
     0
  0
ENDTAB
  0
TABLE
  2
LAYER
  5
2
330
0
100
AcDbSymbolTable
 70
     7
  0
LAYER
  5
10
330
2
100
AcDbSymbolTableRecord
100
AcDbLayerTableRecord
  2
0
 70
     0
 62
     7
  6
Continuous
370
    -3
390
F
347
46
348
0
  0
LAYER
  5
72
330
2
100
AcDbSymbolTableRecord
100
AcDbLayerTableRecord
  2
AM_6
 70
     0
 62
    -2
  6
Continuous
370
    35
390
F
347
46
348
0
  0
LAYER
  5
9F
330
2
100
AcDbSymbolTableRecord
100
AcDbLayerTableRecord
  2
AM_9
 70
     0
 62
     6
  6
Dashed
370
    25
390
F
347
46
348
0
  0
LAYER
  5
A8
330
2
100
AcDbSymbolTableRecord
100
AcDbLayerTableRecord
  2
AM_4
 70
     0
 62
     3
  6
Continuous
370
    25
390
F
347
46
348
0
  0
LAYER
  5
DA
330
2
100
AcDbSymbolTableRecord
100
AcDbLayerTableRecord
  2
AM_5
 70
     0
 62
     3
  6
Continuous
370
    25
390
F
347
46
348
0
  0
LAYER
  5
116
330
2
100
AcDbSymbolTableRecord
100
AcDbLayerTableRecord
  2
AM_7
 70
     0
 62
     7
  6
Center
370
    25
390
F
347
46
348
0
  0
LAYER
  5
1EC
330
2
100
AcDbSymbolTableRecord
100
AcDbLayerTableRecord
  2
ConnectionPoints
 70
     0
 62
     7
  6
Continuous
370
    50
390
F
347
46
348
0
  0
ENDTAB
  0
TABLE
  2
STYLE
  5
3
330
0
100
AcDbSymbolTable
 70
     1
  0
STYLE
  5
11
330
3
100
AcDbSymbolTableRecord
100
AcDbTextStyleTableRecord
  2
Standard
 70
     0
 40
0.0
 41
1.0
 50
0.0
 71
     0
 42
2.5
  3
txt
  4

  0
ENDTAB
  0
TABLE
  2
VIEW
  5
6
330
0
100
AcDbSymbolTable
 70
     0
  0
ENDTAB
  0
TABLE
  2
UCS
  5
7
330
0
100
AcDbSymbolTable
 70
     0
  0
ENDTAB
  0
TABLE
  2
APPID
  5
9
330
0
100
AcDbSymbolTable
 70
     1
  0
APPID
  5
12
330
9
100
AcDbSymbolTableRecord
100
AcDbRegAppTableRecord
  2
ACAD
 70
     0
  0
ENDTAB
  0
TABLE
  2
DIMSTYLE
  5
A
330
0
100
AcDbSymbolTable
 70
     1
100
AcDbDimStyleTable
  0
DIMSTYLE
105
27
330
A
100
AcDbSymbolTableRecord
100
AcDbDimStyleTableRecord
  2
ISO-25
 70
     0
 41
2.5
 42
0.625
 43
3.75
 44
1.25
 73
     0
 74
     0
 77
     1
 78
     8
140
2.5
141
2.5
143
0.03937007874016
147
0.625
171
     3
172
     1
178
     0
271
     2
272
     2
274
     3
278
    44
283
     0
284
     8
340
11
  0
ENDTAB
  0
TABLE
  2
BLOCK_RECORD
  5
1
330
0
100
AcDbSymbolTable
 70
     5
  0
BLOCK_RECORD
  5
1F
330
1
100
AcDbSymbolTableRecord
100
AcDbBlockTableRecord
  2
*Model_Space
340
22
 70
     0
280
     1
281
     0
  0
BLOCK_RECORD
  5
1B
330
1
100
AcDbSymbolTableRecord
100
AcDbBlockTableRecord
  2
*Paper_Space
340
1E
 70
     0
280
     1
281
     0
  0
BLOCK_RECORD
  5
23
330
1
100
AcDbSymbolTableRecord
100
AcDbBlockTableRecord
  2
*Paper_Space0
340
26
 70
     0
280
     1
281
     0
  0
BLOCK_RECORD
  5
6E
330
1
100
AcDbSymbolTableRecord
100
AcDbBlockTableRecord
  2
1_129323_0
340
0
102
{BLKREFS
331
6F
102
}
 70
     0
280
     1
281
     0
  0
BLOCK_RECORD
  5
88
330
1
100
AcDbSymbolTableRecord
100
AcDbBlockTableRecord
  2
2_129518_0_in_129323_0
340
0
102
{BLKREFS
331
89
102
}
 70
     0
280
     1
281
     0
  0
BLOCK_RECORD
  5
B1
330
1
100
AcDbSymbolTableRecord
100
AcDbBlockTableRecord
  2
3_129944_0_in_129323_0
340
0
102
{BLKREFS
331
B2
102
}
 70
     0
280
     1
281
     0
  0
BLOCK_RECORD
  5
F2
330
1
100
AcDbSymbolTableRecord
100
AcDbBlockTableRecord
  2
4_129492_0_in_129323_0
340
0
102
{BLKREFS
331
F3
102
}
 70
     0
280
     1
281
     0
  0
ENDTAB
  0
ENDSEC
  0
SECTION
  2
BLOCKS
  0
BLOCK
  5
20
330
1F
100
AcDbEntity
  8
0
100
AcDbBlockBegin
  2
*Model_Space
 70
     0
 10
0.0
 20
0.0
 30
0.0
  3
*Model_Space
  1

  0
ENDBLK
  5
21
330
1F
100
AcDbEntity
  8
0
100
AcDbBlockEnd
  0
BLOCK
  5
1C
330
1B
100
AcDbEntity
 67
     1
  8
0
100
AcDbBlockBegin
  2
*Paper_Space
 70
     0
 10
0.0
 20
0.0
 30
0.0
  3
*Paper_Space
  1

  0
ENDBLK
  5
1D
330
1B
100
AcDbEntity
 67
     1
  8
0
100
AcDbBlockEnd
  0
BLOCK
  5
24
330
23
100
AcDbEntity
  8
0
100
AcDbBlockBegin
  2
*Paper_Space0
 70
     0
 10
0.0
 20
0.0
 30
0.0
  3
*Paper_Space0
  1

  0
ENDBLK
  5
25
330
23
100
AcDbEntity
  8
0
100
AcDbBlockEnd
  0
BLOCK
  5
70
330
6E
100
AcDbEntity
  8
0
100
AcDbBlockBegin
  2
1_129323_0
 70
     2
 10
0.0
 20
0.0
 30
0.0
  3
1_129323_0
  1

  0
ATTDEF
  5
73
330
6E
100
AcDbEntity
  8
AM_6
100
AcDbText
 10
41.5
 20
61.89999999999999
 30
0.0
 40
0.5
  1
Grip Tight Two-Bolt Flange Metric Bore
100
AcDbAttributeDefinition
  3

  2
NN
 70
     8
280
     0
  0
ATTDEF
  5
74
330
6E
100
AcDbEntity
  8
AM_6
100
AcDbText
 10
41.5
 20
61.39999999999999
 30
0.0
 40
0.5
  1
GT Normal Duty 2 Bolt Flange Bearings
100
AcDbAttributeDefinition
  3

  2
NT
 70
     8
280
     0
  0
ATTDEF
  5
75
330
6E
100
AcDbEntity
  8
AM_6
100
AcDbText
 10
41.5
 20
60.89999999999999
 30
0.0
 40
0.5
  1
129323
100
AcDbAttributeDefinition
  3

  2
NB
 70
     8
280
     0
  0
ATTDEF
  5
76
330
6E
100
AcDbEntity
  8
AM_6
100
AcDbText
 10
41.5
 20
60.39999999999999
 30
0.0
 40
0.5
  1
$PN.$LUBE.
100
AcDbAttributeDefinition
  3

  2
NBSYN
 70
     8
280
     0
  0
ATTDEF
  5
77
330
6E
100
AcDbEntity
  8
AM_6
100
AcDbText
 10
41.5
 20
59.89999999999999
 30
0.0
 40
0.5
  1
129323
100
AcDbAttributeDefinition
  3

  2
LINA
 70
     8
280
     0
  0
ATTDEF
  5
78
330
6E
100
AcDbEntity
  8
AM_6
100
AcDbText
 10
41.5
 20
59.39999999999999
 30
0.0
 40
0.5
  1
205
100
AcDbAttributeDefinition
  3

  2
SERIES
 70
     8
280
     0
  0
ATTDEF
  5
79
330
6E
100
AcDbEntity
  8
AM_6
100
AcDbText
 10
41.5
 20
58.89999999999999
 30
0.0
 40
0.5
  1
25
100
AcDbAttributeDefinition
  3

  2
SS
 70
     8
280
     0
  0
ATTDEF
  5
7A
330
6E
100
AcDbEntity
  8
AM_6
100
AcDbText
 10
41.5
 20
58.39999999999999
 30
0.0
 40
0.5
  1
129323
100
AcDbAttributeDefinition
  3

  2
PN
 70
     8
280
     0
  0
ATTDEF
  5
7B
330
6E
100
AcDbEntity
  8
AM_6
100
AcDbText
 10
41.5
 20
57.89999999999999
 30
0.0
 40
0.5
  1
F2B-GT-25M
100
AcDbAttributeDefinition
  3

  2
DESCRIPTION
 70
     8
280
     0
  0
ATTDEF
  5
7C
330
6E
100
AcDbEntity
  8
AM_6
100
AcDbText
 10
41.5
 20
57.39999999999999
 30
0.0
 40
0.5
  1
36.9
100
AcDbAttributeDefinition
  3

  2
A
 70
     8
280
     0
  0
ATTDEF
  5
7D
330
6E
100
AcDbEntity
  8
AM_6
100
AcDbText
 10
41.5
 20
56.89999999999999
 30
0.0
 40
0.5
  1
123.8
100
AcDbAttributeDefinition
  3

  2
B
 70
     8
280
     0
  0
ATTDEF
  5
7E
330
6E
100
AcDbEntity
  8
AM_6
100
AcDbText
 10
41.5
 20
56.39999999999999
 30
0.0
 40
0.5
  1
39.3
100
AcDbAttributeDefinition
  3

  2
C
 70
     8
280
     0
  0
ATTDEF
  5
7F
330
6E
100
AcDbEntity
  8
AM_6
100
AcDbText
 10
41.5
 20
55.89999999999999
 30
0.0
 40
0.5
  1
98.8
100
AcDbAttributeDefinition
  3

  2
D
 70
     8
280
     0
  0
ATTDEF
  5
80
330
6E
100
AcDbEntity
  8
AM_6
100
AcDbText
 10
41.5
 20
55.39999999999999
 30
0.0
 40
0.5
  1
M10
100
AcDbAttributeDefinition
  3

  2
F
 70
     8
280
     0
  0
ATTDEF
  5
81
330
6E
100
AcDbEntity
  8
AM_6
100
AcDbText
 10
41.5
 20
54.89999999999999
 30
0.0
 40
0.5
  1
12.7
100
AcDbAttributeDefinition
  3

  2
H
 70
     8
280
     0
  0
ATTDEF
  5
82
330
6E
100
AcDbEntity
  8
AM_6
100
AcDbText
 10
41.5
 20
54.39999999999999
 30
0.0
 40
0.5
  1
15.1
100
AcDbAttributeDefinition
  3

  2
J
 70
     8
280
     0
  0
ATTDEF
  5
83
330
6E
100
AcDbEntity
  8
AM_6
100
AcDbText
 10
41.5
 20
53.89999999999999
 30
0.0
 40
0.5
  1
45.6
100
AcDbAttributeDefinition
  3

  2
L
 70
     8
280
     0
  0
ATTDEF
  5
84
330
6E
100
AcDbEntity
  8
AM_6
100
AcDbText
 10
41.5
 20
53.39999999999999
 30
0.0
 40
0.5
  1
69.9
100
AcDbAttributeDefinition
  3

  2
M
 70
     8
280
     0
  0
ATTDEF
  5
85
330
6E
100
AcDbEntity
  8
AM_6
100
AcDbText
 10
41.5
 20
52.89999999999999
 30
0.0
 40
0.5
  1
36.5
100
AcDbAttributeDefinition
  3

  2
N
 70
     8
280
     0
  0
ATTDEF
  5
86
330
6E
100
AcDbEntity
  8
AM_6
100
AcDbText
 10
41.5
 20
52.39999999999999
 30
0.0
 40
0.5
  1
39.3
100
AcDbAttributeDefinition
  3

  2
Z
 70
     8
280
     0
  0
ATTDEF
  5
87
330
6E
100
AcDbEntity
  8
AM_6
100
AcDbText
 10
41.5
 20
51.89999999999999
 30
0.0
 40
0.5
  1
baldor
100
AcDbAttributeDefinition
  3

  2
COMPANY
 70
     8
280
     0
  0
INSERT
  5
89
330
6E
100
AcDbEntity
  8
0
100
AcDbBlockReference
  2
2_129518_0_in_129323_0
 10
0.0
 20
0.0
 30
0.0
  0
INSERT
  5
B2
330
6E
100
AcDbEntity
  8
0
100
AcDbBlockReference
  2
3_129944_0_in_129323_0
 10
0.0
 20
0.0
 30
0.0
  0
INSERT
  5
F3
330
6E
100
AcDbEntity
  8
0
100
AcDbBlockReference
  2
4_129492_0_in_129323_0
 10
0.0
 20
0.0
 30
0.0
  0
ENDBLK
  5
71
330
6E
100
AcDbEntity
  8
0
100
AcDbBlockEnd
  0
BLOCK
  5
8A
330
88
100
AcDbEntity
  8
0
100
AcDbBlockBegin
  2
2_129518_0_in_129323_0
 70
     2
 10
0.0
 20
0.0
 30
0.0
  3
2_129518_0_in_129323_0
  1

  0
ATTDEF
  5
8C
330
88
100
AcDbEntity
  8
AM_6
100
AcDbText
 10
30.74319680967675
 20
25.74319680967675
 30
0.0
 40
0.5
  1
INS-GT-M B
100
AcDbAttributeDefinition
  3

  2
NN
 70
     8
280
     0
  0
ATTDEF
  5
8D
330
88
100
AcDbEntity
  8
AM_6
100
AcDbText
 10
30.74319680967675
 20
25.24319680967675
 30
0.0
 40
0.5
  1
GT Normal Duty Bearing Inserts
100
AcDbAttributeDefinition
  3

  2
NT
 70
     8
280
     0
  0
ATTDEF
  5
8E
330
88
100
AcDbEntity
  8
AM_6
100
AcDbText
 10
30.74319680967675
 20
24.74319680967675
 30
0.0
 40
0.5
  1
129518
100
AcDbAttributeDefinition
  3

  2
NB
 70
     8
280
     0
  0
ATTDEF
  5
8F
330
88
100
AcDbEntity
  8
AM_6
100
AcDbText
 10
30.74319680967675
 20
24.24319680967675
 30
0.0
 40
0.5
  1
$PN.
100
AcDbAttributeDefinition
  3

  2
NBSYN
 70
     8
280
     0
  0
ATTDEF
  5
90
330
88
100
AcDbEntity
  8
AM_6
100
AcDbText
 10
30.74319680967675
 20
23.74319680967675
 30
0.0
 40
0.5
  1
129518
100
AcDbAttributeDefinition
  3

  2
LINA
 70
     8
280
     0
  0
ATTDEF
  5
91
330
88
100
AcDbEntity
  8
AM_6
100
AcDbText
 10
30.74319680967675
 20
23.24319680967675
 30
0.0
 40
0.5
  1
205
100
AcDbAttributeDefinition
  3

  2
SERIES
 70
     8
280
     0
  0
ATTDEF
  5
92
330
88
100
AcDbEntity
  8
AM_6
100
AcDbText
 10
30.74319680967675
 20
22.74319680967675
 30
0.0
 40
0.5
  1
129518
100
AcDbAttributeDefinition
  3

  2
PN
 70
     8
280
     0
  0
ATTDEF
  5
93
330
88
100
AcDbEntity
  8
AM_6
100
AcDbText
 10
30.74319680967675
 20
22.24319680967675
 30
0.0
 40
0.5
  1
INS-GT-05
100
AcDbAttributeDefinition
  3

  2
DESCRIPTION
 70
     8
280
     0
  0
ATTDEF
  5
94
330
88
100
AcDbEntity
  8
AM_6
100
AcDbText
 10
30.74319680967675
 20
21.74319680967675
 30
0.0
 40
0.5
  1
37.1
100
AcDbAttributeDefinition
  3

  2
A
 70
     8
280
     0
  0
ATTDEF
  5
95
330
88
100
AcDbEntity
  8
AM_6
100
AcDbText
 10
30.74319680967675
 20
21.24319680967675
 30
0.0
 40
0.5
  1
15.0
100
AcDbAttributeDefinition
  3

  2
C
 70
     8
280
     0
  0
ATTDEF
  5
96
330
88
100
AcDbEntity
  8
AM_6
100
AcDbText
 10
30.74319680967675
 20
20.74319680967675
 30
0.0
 40
0.5
  1
52.0
100
AcDbAttributeDefinition
  3

  2
D
 70
     8
280
     0
  0
ATTDEF
  5
97
330
88
100
AcDbEntity
  8
AM_6
100
AcDbText
 10
30.74319680967675
 20
20.24319680967675
 30
0.0
 40
0.5
  1
4.1
100
AcDbAttributeDefinition
  3

  2
J
 70
     8
280
     0
  0
ATTDEF
  5
98
330
88
100
AcDbEntity
  8
AM_6
100
AcDbText
 10
30.74319680967675
 20
19.74319680967675
 30
0.0
 40
0.5
  1
45.7
100
AcDbAttributeDefinition
  3

  2
L
 70
     8
280
     0
  0
ATTDEF
  5
99
330
88
100
AcDbEntity
  8
AM_6
100
AcDbText
 10
30.74319680967675
 20
19.24319680967675
 30
0.0
 40
0.5
  1
#10 - 32 x 1/4
100
AcDbAttributeDefinition
  3

  2
N
 70
     8
280
     0
  0
ATTDEF
  5
9A
330
88
100
AcDbEntity
  8
AM_6
100
AcDbText
 10
30.74319680967675
 20
18.74319680967675
 30
0.0
 40
0.5
  1
12.2
100
AcDbAttributeDefinition
  3

  2
W
 70
     8
280
     0
  0
ATTDEF
  5
9B
330
88
100
AcDbEntity
  8
AM_6
100
AcDbText
 10
30.74319680967675
 20
18.24319680967675
 30
0.0
 40
0.5
  1
25.4
100
AcDbAttributeDefinition
  3

  2
X
 70
     8
280
     0
  0
ATTDEF
  5
9C
330
88
100
AcDbEntity
  8
AM_6
100
AcDbText
 10
30.74319680967675
 20
17.74319680967675
 30
0.0
 40
0.5
  1
24.9
100
AcDbAttributeDefinition
  3

  2
Y
 70
     8
280
     0
  0
ATTDEF
  5
9D
330
88
100
AcDbEntity
  8
AM_6
100
AcDbText
 10
30.74319680967675
 20
17.24319680967675
 30
0.0
 40
0.5
  1
baldor
100
AcDbAttributeDefinition
  3

  2
COMPANY
 70
     8
280
     0
  0
CIRCLE
  5
A0
330
88
100
AcDbEntity
  8
AM_9
100
AcDbCircle
 10
0.0000000000000016
 20
0.0
 30
0.0
 40
17.76287577525369
  0
CIRCLE
  5
A1
330
88
100
AcDbEntity
  8
AM_9
100
AcDbCircle
 10
0.0000000000000016
 20
0.0
 30
0.0
 40
24.5
  0
CIRCLE
  5
A2
330
88
100
AcDbEntity
  8
AM_9
100
AcDbCircle
 10
0.0000000000000016
 20
0.0
 30
0.0
 40
25.1739818999591
  0
CIRCLE
  5
A3
330
88
100
AcDbEntity
  8
AM_9
100
AcDbCircle
 10
0.0000000000000016
 20
0.0
 30
0.0
 40
18.67896825396826
  0
ARC
  5
A4
330
88
100
AcDbEntity
  8
AM_9
100
AcDbCircle
 10
0.0000000000000018
 20
0.0000000000010019
 30
0.0
 40
17.0468253968244
100
AcDbArc
 50
86.20895661104946
 51
93.79104338895054
  0
ARC
  5
A5
330
88
100
AcDbEntity
  8
AM_9
100
AcDbCircle
 10
-0.0000000000000511
 20
0.0000000000000012
 30
0.0
 40
17.04682539682539
100
AcDbArc
 50
94.21263598276397
 51
85.78923828443392
  0
CIRCLE
  5
A6
330
88
100
AcDbEntity
  8
AM_9
100
AcDbCircle
 10
0.0000000000000016
 20
0.0
 30
0.0
 40
19.71111111111111
  0
CIRCLE
  5
A7
330
88
100
AcDbEntity
  8
AM_9
100
AcDbCircle
 10
0.0000000000000016
 20
0.0
 30
0.0
 40
20.31111111111111
  0
CIRCLE
  5
A9
330
88
100
AcDbEntity
  8
AM_4
100
AcDbCircle
 10
0.0000000000000016
 20
0.0
 30
0.0
 40
25.59517216471259
  0
CIRCLE
  5
AA
330
88
100
AcDbEntity
  8
AM_4
100
AcDbCircle
 10
0.0000000000000016
 20
0.0
 30
0.0
 40
25.74319680967675
  0
CIRCLE
  5
AB
330
88
100
AcDbEntity
  8
AM_4
100
AcDbCircle
 10
0.0000000000000016
 20
0.0
 30
0.0
 40
25.3239818999591
  0
CIRCLE
  5
AC
330
88
100
AcDbEntity
  8
AM_4
100
AcDbCircle
 10
0.0000000000000016
 20
0.0
 30
0.0
 40
25.31874145475914
  0
CIRCLE
  5
AD
330
88
100
AcDbEntity
  8
AM_4
100
AcDbCircle
 10
0.0000000000000016
 20
0.0
 30
0.0
 40
24.09545395833822
  0
CIRCLE
  5
AE
330
88
100
AcDbEntity
  8
AM_4
100
AcDbCircle
 10
0.0000000000000016
 20
0.0
 30
0.0
 40
24.65403979828546
  0
ARC
  5
AF
330
88
100
AcDbEntity
  8
AM_4
100
AcDbCircle
 10
0.0000000000182092
 20
-0.0000000002679634
 30
0.0
 40
17.04682539709398
100
AcDbArc
 50
93.79104338895182
 51
94.21263598275901
  0
ARC
  5
B0
330
88
100
AcDbEntity
  8
AM_4
100
AcDbCircle
 10
0.0000000000264215
 20
0.0000000003774723
 30
0.0
 40
17.046825396447
100
AcDbArc
 50
85.7892382844295
 51
86.2089566110544
  0
ENDBLK
  5
8B
330
88
100
AcDbEntity
  8
0
100
AcDbBlockEnd
  0
BLOCK
  5
B3
330
B1
100
AcDbEntity
  8
0
100
AcDbBlockBegin
  2
3_129944_0_in_129323_0
 70
     2
 10
0.0
 20
0.0
 30
0.0
  3
3_129944_0_in_129323_0
  1

  0
ATTDEF
  5
B5
330
B1
100
AcDbEntity
  8
AM_6
100
AcDbText
 10
27.71645879092954
 20
22.7954877204193
 30
0.0
 40
0.5
  1
Grip Tight Normal Duty Adapter and Nut Metric Bore
100
AcDbAttributeDefinition
  3

  2
NN
 70
     8
280
     0
  0
ATTDEF
  5
B6
330
B1
100
AcDbEntity
  8
AM_6
100
AcDbText
 10
27.71645879092954
 20
22.2954877204193
 30
0.0
 40
0.5
  1
GT and GTM Adapter & Lock Nut Assemblies
100
AcDbAttributeDefinition
  3

  2
NT
 70
     8
280
     0
  0
ATTDEF
  5
B7
330
B1
100
AcDbEntity
  8
AM_6
100
AcDbText
 10
27.71645879092954
 20
21.7954877204193
 30
0.0
 40
0.5
  1
129944
100
AcDbAttributeDefinition
  3

  2
NB
 70
     8
280
     0
  0
ATTDEF
  5
B8
330
B1
100
AcDbEntity
  8
AM_6
100
AcDbText
 10
27.71645879092954
 20
21.2954877204193
 30
0.0
 40
0.5
  1
$PN.
100
AcDbAttributeDefinition
  3

  2
NBSYN
 70
     8
280
     0
  0
ATTDEF
  5
B9
330
B1
100
AcDbEntity
  8
AM_6
100
AcDbText
 10
27.71645879092954
 20
20.7954877204193
 30
0.0
 40
0.5
  1
129944
100
AcDbAttributeDefinition
  3

  2
LINA
 70
     8
280
     0
  0
ATTDEF
  5
BA
330
B1
100
AcDbEntity
  8
AM_6
100
AcDbText
 10
27.71645879092954
 20
20.2954877204193
 30
0.0
 40
0.5
  1
205
100
AcDbAttributeDefinition
  3

  2
SERIES
 70
     8
280
     0
  0
ATTDEF
  5
BB
330
B1
100
AcDbEntity
  8
AM_6
100
AcDbText
 10
27.71645879092954
 20
19.7954877204193
 30
0.0
 40
0.5
  1
25
100
AcDbAttributeDefinition
  3

  2
SS
 70
     8
280
     0
  0
ATTDEF
  5
BC
330
B1
100
AcDbEntity
  8
AM_6
100
AcDbText
 10
27.71645879092954
 20
19.2954877204193
 30
0.0
 40
0.5
  1
129944
100
AcDbAttributeDefinition
  3

  2
PN
 70
     8
280
     0
  0
ATTDEF
  5
BD
330
B1
100
AcDbEntity
  8
AM_6
100
AcDbText
 10
27.71645879092954
 20
18.7954877204193
 30
0.0
 40
0.5
  1
AN-GT-05-25M
100
AcDbAttributeDefinition
  3

  2
DESCRIPTION
 70
     8
280
     0
  0
ATTDEF
  5
BE
330
B1
100
AcDbEntity
  8
AM_6
100
AcDbText
 10
27.71645879092954
 20
18.2954877204193
 30
0.0
 40
0.5
  1
36.9
100
AcDbAttributeDefinition
  3

  2
A
 70
     8
280
     0
  0
ATTDEF
  5
BF
330
B1
100
AcDbEntity
  8
AM_6
100
AcDbText
 10
27.71645879092954
 20
17.7954877204193
 30
0.0
 40
0.5
  1
15.0
100
AcDbAttributeDefinition
  3

  2
C
 70
     8
280
     0
  0
ATTDEF
  5
C0
330
B1
100
AcDbEntity
  8
AM_6
100
AcDbText
 10
27.71645879092954
 20
17.2954877204193
 30
0.0
 40
0.5
  1
52.0
100
AcDbAttributeDefinition
  3

  2
D
 70
     8
280
     0
  0
ATTDEF
  5
C1
330
B1
100
AcDbEntity
  8
AM_6
100
AcDbText
 10
27.71645879092954
 20
16.7954877204193
 30
0.0
 40
0.5
  1
3.9
100
AcDbAttributeDefinition
  3

  2
J
 70
     8
280
     0
  0
ATTDEF
  5
C2
330
B1
100
AcDbEntity
  8
AM_6
100
AcDbText
 10
27.71645879092954
 20
16.2954877204193
 30
0.0
 40
0.5
  1
45.6
100
AcDbAttributeDefinition
  3

  2
L
 70
     8
280
     0
  0
ATTDEF
  5
C3
330
B1
100
AcDbEntity
  8
AM_6
100
AcDbText
 10
27.71645879092954
 20
15.7954877204193
 30
0.0
 40
0.5
  1
10 - 32 x 1/4
100
AcDbAttributeDefinition
  3

  2
N
 70
     8
280
     0
  0
ATTDEF
  5
C4
330
B1
100
AcDbEntity
  8
AM_6
100
AcDbText
 10
27.71645879092954
 20
15.2954877204193
 30
0.0
 40
0.5
  1
12.7
100
AcDbAttributeDefinition
  3

  2
W
 70
     8
280
     0
  0
ATTDEF
  5
C5
330
B1
100
AcDbEntity
  8
AM_6
100
AcDbText
 10
27.71645879092954
 20
14.7954877204193
 30
0.0
 40
0.5
  1
24.2
100
AcDbAttributeDefinition
  3

  2
X
 70
     8
280
     0
  0
ATTDEF
  5
C6
330
B1
100
AcDbEntity
  8
AM_6
100
AcDbText
 10
27.71645879092954
 20
14.2954877204193
 30
0.0
 40
0.5
  1
24.2
100
AcDbAttributeDefinition
  3

  2
Y
 70
     8
280
     0
  0
ATTDEF
  5
C7
330
B1
100
AcDbEntity
  8
AM_6
100
AcDbText
 10
27.71645879092954
 20
13.7954877204193
 30
0.0
 40
0.5
  1
baldor
100
AcDbAttributeDefinition
  3

  2
COMPANY
 70
     8
280
     0
  0
LINE
  5
C8
330
B1
100
AcDbEntity
  8
AM_9
100
AcDbLine
 10
1.250000000000002
 20
17.00977505789123
 30
0.0
 11
1.250000000000002
 21
17.72590430734876
 31
0.0
  0
LINE
  5
C9
330
B1
100
AcDbEntity
  8
AM_9
100
AcDbLine
 10
-1.249999999999998
 20
17.00977505789123
 30
0.0
 11
-1.249999999999998
 21
17.72590430734876
 31
0.0
  0
ARC
  5
CA
330
B1
100
AcDbEntity
  8
AM_9
100
AcDbCircle
 10
0.0000000000000017
 20
-0.0000000000000006
 30
0.0
 40
17.76992356520662
100
AcDbArc
 50
94.03372141977252
 51
85.96627858022747
  0
CIRCLE
  5
CB
330
B1
100
AcDbEntity
  8
AM_9
100
AcDbCircle
 10
0.0000000000000016
 20
0.0
 30
0.0
 40
18.63809523809523
  0
ARC
  5
CC
330
B1
100
AcDbEntity
  8
AM_9
100
AcDbCircle
 10
0.0000000000000016
 20
-0.0000000000000013
 30
0.0
 40
17.0095238095238
100
AcDbArc
 50
94.21436521923737
 51
85.78563478076265
  0
CIRCLE
  5
CD
330
B1
100
AcDbEntity
  8
AM_9
100
AcDbCircle
 10
0.0000000000000016
 20
0.0
 30
0.0
 40
20.49466666666667
  0
LINE
  5
CE
330
B1
100
AcDbEntity
  8
AM_9
100
AcDbLine
 10
-22.3682
 20
-1.981200000000003
 30
0.0
 11
-17.5318
 21
-1.981200000000003
 31
0.0
  0
LINE
  5
CF
330
B1
100
AcDbEntity
  8
AM_9
100
AcDbLine
 10
-17.5318
 20
1.981200000000003
 30
0.0
 11
-22.3682
 21
1.981200000000003
 31
0.0
  0
LINE
  5
D0
330
B1
100
AcDbEntity
  8
AM_9
100
AcDbLine
 10
-17.5318
 20
-1.981200000000003
 30
0.0
 11
-17.1
 21
-2.413000000000002
 31
0.0
  0
LINE
  5
D1
330
B1
100
AcDbEntity
  8
AM_9
100
AcDbLine
 10
-17.1
 20
2.413000000000002
 30
0.0
 11
-17.5318
 21
1.981200000000003
 31
0.0
  0
LINE
  5
D2
330
B1
100
AcDbEntity
  8
AM_9
100
AcDbLine
 10
-17.1
 20
2.413000000000002
 30
0.0
 11
-17.1
 21
-2.413000000000002
 31
0.0
  0
LINE
  5
D3
330
B1
100
AcDbEntity
  8
AM_9
100
AcDbLine
 10
-17.5318
 20
1.981200000000003
 30
0.0
 11
-17.5318
 21
-1.981200000000003
 31
0.0
  0
LINE
  5
D4
330
B1
100
AcDbEntity
  8
AM_9
100
AcDbLine
 10
-22.3682
 20
1.981200000000003
 30
0.0
 11
-22.68012820284025
 21
2.293128202840258
 31
0.0
  0
LINE
  5
D5
330
B1
100
AcDbEntity
  8
AM_9
100
AcDbLine
 10
-22.6814006730283
 20
-2.294400673028298
 30
0.0
 11
-22.3682
 21
-1.981200000000003
 31
0.0
  0
LINE
  5
D6
330
B1
100
AcDbEntity
  8
AM_9
100
AcDbLine
 10
-22.3682
 20
1.981200000000003
 30
0.0
 11
-22.3682
 21
-1.981200000000003
 31
0.0
  0
LWPOLYLINE
  5
D7
330
B1
100
AcDbEntity
  8
AM_9
100
AcDbPolyline
 90
       10
 70
     0
 43
0.0
 10
-22.79128631974915
 20
0.6302919095270011
 10
-22.78638550387028
 20
0.7878043342166127
 10
-22.77269998078226
 20
1.115408259463513
 10
-22.75566320576637
 20
1.421193887451867
 10
-22.73720277170957
 20
1.691038177618365
 10
-22.7189042142356
 20
1.921299379167071
 10
-22.70283335700977
 20
2.102702443011056
 10
-22.69083308501306
 20
2.228473447918336
 10
-22.68463746362819
 20
2.290681807618941
 10
-22.68399869910178
 20
2.296998698116497
  0
LWPOLYLINE
  5
D8
330
B1
100
AcDbEntity
  8
AM_9
100
AcDbPolyline
 90
        6
 70
     0
 43
0.0
 10
-22.68962206485887
 20
-2.240770080545872
 10
-22.70066928476935
 20
-2.125938386578868
 10
-22.71768182998211
 20
-1.935699427003276
 10
-22.73705293566594
 20
-1.693051623762492
 10
-22.757780624798
 20
-1.386874555815604
 10
-22.7585268097251
 20
-1.374575371168858
  0
LINE
  5
D9
330
B1
100
AcDbEntity
  8
AM_9
100
AcDbLine
 10
-22.68399869953785
 20
-2.296998693810143
 30
0.0
 11
-22.68962206485887
 21
-2.240770080545872
 31
0.0
  0
LINE
  5
DB
330
B1
100
AcDbEntity
  8
AM_5
100
AcDbLine
 10
-22.67195251847533
 20
-2.413000000000002
 30
0.0
 11
-17.1
 21
-2.413000000000002
 31
0.0
  0
LINE
  5
DC
330
B1
100
AcDbEntity
  8
AM_5
100
AcDbLine
 10
-22.67195251847533
 20
2.412999999999998
 30
0.0
 11
-17.1
 21
2.412999999999998
 31
0.0
  0
LINE
  5
DD
330
B1
100
AcDbEntity
  8
AM_4
100
AcDbLine
 10
21.27999493331644
 20
-1.95
 30
0.0
 11
22.71645879092954
 21
-1.95
 31
0.0
  0
LINE
  5
DE
330
B1
100
AcDbEntity
  8
AM_4
100
AcDbLine
 10
-9.66947985808511
 20
-20.64803039696732
 30
0.0
 11
-8.951247929278562
 21
-19.40401620465618
 31
0.0
  0
ARC
  5
DF
330
B1
100
AcDbEntity
  8
AM_4
100
AcDbCircle
 10
0.0000000000000017
 20
-0.0000000000000071
 30
0.0
 40
22.8
100
AcDbArc
 50
244.9062907576422
 51
355.0937092423576
  0
LINE
  5
E0
330
B1
100
AcDbEntity
  8
AM_4
100
AcDbLine
 10
-12.32874700403788
 20
17.45401620465617
 30
0.0
 11
-8.951247929278574
 21
19.40401620465618
 31
0.0
  0
LINE
  5
E1
330
B1
100
AcDbEntity
  8
AM_4
100
AcDbLine
 10
22.71645879092954
 20
1.95
 30
0.0
 11
21.27999493331645
 21
1.95
 31
0.0
  0
LINE
  5
E2
330
B1
100
AcDbEntity
  8
AM_4
100
AcDbLine
 10
21.27999493331645
 20
1.95
 30
0.0
 11
21.27999493331644
 21
-1.95
 31
0.0
  0
LINE
  5
E3
330
B1
100
AcDbEntity
  8
AM_4
100
AcDbLine
 10
-12.32874700403787
 20
-17.45401620465618
 30
0.0
 11
-13.04697893284442
 21
-18.69803039696732
 31
0.0
  0
LINE
  5
E4
330
B1
100
AcDbEntity
  8
AM_4
100
AcDbLine
 10
-8.951247929278562
 20
-19.40401620465618
 30
0.0
 11
-12.32874700403787
 21
-17.45401620465618
 31
0.0
  0
LINE
  5
E5
330
B1
100
AcDbEntity
  8
AM_4
100
AcDbLine
 10
-8.951247929278574
 20
19.40401620465618
 30
0.0
 11
-9.669479858085126
 21
20.64803039696731
 31
0.0
  0
LINE
  5
E6
330
B1
100
AcDbEntity
  8
AM_4
100
AcDbLine
 10
-13.04697893284443
 20
18.69803039696732
 30
0.0
 11
-12.32874700403788
 21
17.45401620465617
 31
0.0
  0
LINE
  5
E7
330
B1
100
AcDbEntity
  8
AM_4
100
AcDbLine
 10
1.250000000000002
 20
17.00952380952381
 30
0.0
 11
-1.249999999999998
 21
17.00952380952381
 31
0.0
  0
LINE
  5
E8
330
B1
100
AcDbEntity
  8
AM_4
100
AcDbLine
 10
1.250000000000002
 20
17.00952380952381
 30
0.0
 11
1.250000000000002
 21
12.43734296383275
 31
0.0
  0
LINE
  5
E9
330
B1
100
AcDbEntity
  8
AM_4
100
AcDbLine
 10
-1.249999999999998
 20
17.00952380952381
 30
0.0
 11
-1.249999999999998
 21
12.43734296383275
 31
0.0
  0
ARC
  5
EA
330
B1
100
AcDbEntity
  8
AM_4
100
AcDbCircle
 10
0.0000000000000016
 20
0.000000000000001
 30
0.0
 40
12.5
100
AcDbArc
 50
95.7391704772668
 51
84.26082952273322
  0
ARC
  5
EB
330
B1
100
AcDbEntity
  8
AM_4
100
AcDbCircle
 10
0.0000000000000017
 20
-0.0000000000000071
 30
0.0
 40
22.2
100
AcDbArc
 50
245.0392316317715
 51
354.9607683682285
  0
ARC
  5
EC
330
B1
100
AcDbEntity
  8
AM_4
100
AcDbCircle
 10
-0.0000000000000036
 20
-0.0000000000000071
 30
0.0
 40
22.8
100
AcDbArc
 50
4.906290757642225
 51
115.0937092423578
  0
ARC
  5
ED
330
B1
100
AcDbEntity
  8
AM_4
100
AcDbCircle
 10
0.0
 20
-0.0000000000000018
 30
0.0
 40
22.2
100
AcDbArc
 50
5.039231631771522
 51
114.9607683682285
  0
ARC
  5
EE
330
B1
100
AcDbEntity
  8
AM_4
100
AcDbCircle
 10
0.0000000000000142
 20
-0.0000000000000053
 30
0.0
 40
22.80000000000001
100
AcDbArc
 50
124.9062907576423
 51
178.4566437385238
  0
LWPOLYLINE
  5
EF
330
B1
100
AcDbEntity
  8
AM_4
100
AcDbPolyline
 90
        3
 70
     0
 43
0.0
 10
-22.79172885369209
 20
0.6140813136545675
 10
-22.75601037937264
 20
0.0104777792177353
 10
-22.7917288536921
 20
-0.6140813136542685
  0
ARC
  5
F0
330
B1
100
AcDbEntity
  8
AM_4
100
AcDbCircle
 10
0.0000000000000746
 20
0.0000000000000515
 30
0.0
 40
22.80000000000009
100
AcDbArc
 50
181.5433562614753
 51
235.0937092423576
  0
ARC
  5
F1
330
B1
100
AcDbEntity
  8
AM_4
100
AcDbCircle
 10
0.0
 20
-0.0000000000000018
 30
0.0
 40
22.2
100
AcDbArc
 50
125.0392316317715
 51
234.9607683682285
  0
ENDBLK
  5
B4
330
B1
100
AcDbEntity
  8
0
100
AcDbBlockEnd
  0
BLOCK
  5
F4
330
F2
100
AcDbEntity
  8
0
100
AcDbBlockBegin
  2
4_129492_0_in_129323_0
 70
     2
 10
0.0
 20
0.0
 30
0.0
  3
4_129492_0_in_129323_0
  1

  0
ATTDEF
  5
F6
330
F2
100
AcDbEntity
  8
AM_6
100
AcDbText
 10
41.5
 20
61.89999999999999
 30
0.0
 40
0.5
  1
F2B-GT-M-B
100
AcDbAttributeDefinition
  3

  2
NN
 70
     8
280
     0
  0
ATTDEF
  5
F7
330
F2
100
AcDbEntity
  8
AM_6
100
AcDbText
 10
41.5
 20
61.39999999999999
 30
0.0
 40
0.5
  1
GT Normal Duty 2 Bolt Flange Bearings
100
AcDbAttributeDefinition
  3

  2
NT
 70
     8
280
     0
  0
ATTDEF
  5
F8
330
F2
100
AcDbEntity
  8
AM_6
100
AcDbText
 10
41.5
 20
60.89999999999999
 30
0.0
 40
0.5
  1
129492
100
AcDbAttributeDefinition
  3

  2
NB
 70
     8
280
     0
  0
ATTDEF
  5
F9
330
F2
100
AcDbEntity
  8
AM_6
100
AcDbText
 10
41.5
 20
60.39999999999999
 30
0.0
 40
0.5
  1
$PN.$LUBE.
100
AcDbAttributeDefinition
  3

  2
NBSYN
 70
     8
280
     0
  0
ATTDEF
  5
FA
330
F2
100
AcDbEntity
  8
AM_6
100
AcDbText
 10
41.5
 20
59.89999999999999
 30
0.0
 40
0.5
  1
129492
100
AcDbAttributeDefinition
  3

  2
LINA
 70
     8
280
     0
  0
ATTDEF
  5
FB
330
F2
100
AcDbEntity
  8
AM_6
100
AcDbText
 10
41.5
 20
59.39999999999999
 30
0.0
 40
0.5
  1
205
100
AcDbAttributeDefinition
  3

  2
SERIES
 70
     8
280
     0
  0
ATTDEF
  5
FC
330
F2
100
AcDbEntity
  8
AM_6
100
AcDbText
 10
41.5
 20
58.89999999999999
 30
0.0
 40
0.5
  1
52
100
AcDbAttributeDefinition
  3

  2
BOD
 70
     8
280
     0
  0
ATTDEF
  5
FD
330
F2
100
AcDbEntity
  8
AM_6
100
AcDbText
 10
41.5
 20
58.39999999999999
 30
0.0
 40
0.5
  1
25
100
AcDbAttributeDefinition
  3

  2
SS
 70
     8
280
     0
  0
ATTDEF
  5
FE
330
F2
100
AcDbEntity
  8
AM_6
100
AcDbText
 10
41.5
 20
57.89999999999999
 30
0.0
 40
0.5
  1
129492
100
AcDbAttributeDefinition
  3

  2
PN
 70
     8
280
     0
  0
ATTDEF
  5
FF
330
F2
100
AcDbEntity
  8
AM_6
100
AcDbText
 10
41.5
 20
57.39999999999999
 30
0.0
 40
0.5
  1
F2B-GT-05
100
AcDbAttributeDefinition
  3

  2
DESCRIPTION
 70
     8
280
     0
  0
ATTDEF
  5
100
330
F2
100
AcDbEntity
  8
AM_6
100
AcDbText
 10
41.5
 20
56.89999999999999
 30
0.0
 40
0.5
  1
With Lube
100
AcDbAttributeDefinition
  3

  2
LUBE
 70
     8
280
     0
  0
ATTDEF
  5
101
330
F2
100
AcDbEntity
  8
AM_6
100
AcDbText
 10
41.5
 20
56.39999999999999
 30
0.0
 40
0.5
  1
0.8
100
AcDbAttributeDefinition
  3

  2
WEIGHT
 70
     8
280
     0
  0
ATTDEF
  5
102
330
F2
100
AcDbEntity
  8
AM_6
100
AcDbText
 10
41.5
 20
55.89999999999999
 30
0.0
 40
0.5
  1
36.9
100
AcDbAttributeDefinition
  3

  2
A
 70
     8
280
     0
  0
ATTDEF
  5
103
330
F2
100
AcDbEntity
  8
AM_6
100
AcDbText
 10
41.5
 20
55.39999999999999
 30
0.0
 40
0.5
  1
123.8
100
AcDbAttributeDefinition
  3

  2
B
 70
     8
280
     0
  0
ATTDEF
  5
104
330
F2
100
AcDbEntity
  8
AM_6
100
AcDbText
 10
41.5
 20
54.89999999999999
 30
0.0
 40
0.5
  1
39.3
100
AcDbAttributeDefinition
  3

  2
C
 70
     8
280
     0
  0
ATTDEF
  5
105
330
F2
100
AcDbEntity
  8
AM_6
100
AcDbText
 10
41.5
 20
54.39999999999999
 30
0.0
 40
0.5
  1
98.8
100
AcDbAttributeDefinition
  3

  2
D
 70
     8
280
     0
  0
ATTDEF
  5
106
330
F2
100
AcDbEntity
  8
AM_6
100
AcDbText
 10
41.5
 20
53.89999999999999
 30
0.0
 40
0.5
  1
M10
100
AcDbAttributeDefinition
  3

  2
F
 70
     8
280
     0
  0
ATTDEF
  5
107
330
F2
100
AcDbEntity
  8
AM_6
100
AcDbText
 10
41.5
 20
53.39999999999999
 30
0.0
 40
0.5
  1
12.7
100
AcDbAttributeDefinition
  3

  2
H
 70
     8
280
     0
  0
ATTDEF
  5
108
330
F2
100
AcDbEntity
  8
AM_6
100
AcDbText
 10
41.5
 20
52.89999999999999
 30
0.0
 40
0.5
  1
15.1
100
AcDbAttributeDefinition
  3

  2
J
 70
     8
280
     0
  0
ATTDEF
  5
109
330
F2
100
AcDbEntity
  8
AM_6
100
AcDbText
 10
41.5
 20
52.39999999999999
 30
0.0
 40
0.5
  1
45.6
100
AcDbAttributeDefinition
  3

  2
L
 70
     8
280
     0
  0
ATTDEF
  5
10A
330
F2
100
AcDbEntity
  8
AM_6
100
AcDbText
 10
41.5
 20
51.89999999999999
 30
0.0
 40
0.5
  1
69.9
100
AcDbAttributeDefinition
  3

  2
M
 70
     8
280
     0
  0
ATTDEF
  5
10B
330
F2
100
AcDbEntity
  8
AM_6
100
AcDbText
 10
41.5
 20
51.39999999999999
 30
0.0
 40
0.5
  1
36.5
100
AcDbAttributeDefinition
  3

  2
N
 70
     8
280
     0
  0
ATTDEF
  5
10C
330
F2
100
AcDbEntity
  8
AM_6
100
AcDbText
 10
41.5
 20
50.89999999999999
 30
0.0
 40
0.5
  1
39.3
100
AcDbAttributeDefinition
  3

  2
Z
 70
     8
280
     0
  0
ATTDEF
  5
10D
330
F2
100
AcDbEntity
  8
AM_6
100
AcDbText
 10
41.5
 20
50.39999999999999
 30
0.0
 40
0.5
  1
10.8
100
AcDbAttributeDefinition
  3

  2
F1
 70
     8
280
     0
  0
ATTDEF
  5
10E
330
F2
100
AcDbEntity
  8
AM_6
100
AcDbText
 10
41.5
 20
49.89999999999999
 30
0.0
 40
0.5
  1
baldor
100
AcDbAttributeDefinition
  3

  2
COMPANY
 70
     8
280
     0
  0
ARC
  5
10F
330
F2
100
AcDbEntity
  8
AM_9
100
AcDbCircle
 10
11.63347902153154
 20
36.12040915104377
 30
0.0
 40
8.233333333333338
100
AcDbArc
 50
252.1475505680077
 51
20.04306838209715
  0
ARC
  5
110
330
F2
100
AcDbEntity
  8
AM_9
100
AcDbCircle
 10
11.63347902153154
 20
-36.12040915104375
 30
0.0
 40
8.233333333333336
100
AcDbArc
 50
339.9569316179021
 51
107.8524506051923
  0
ARC
  5
111
330
F2
100
AcDbEntity
  8
AM_9
100
AcDbCircle
 10
-11.63347902153154
 20
-36.12040915104377
 30
0.0
 40
8.233333333333347
100
AcDbArc
 50
72.14755056800779
 51
200.0430683820971
  0
ARC
  5
112
330
F2
100
AcDbEntity
  8
AM_9
100
AcDbCircle
 10
-0.0000000000000036
 20
-0.000000000000135
 30
0.0
 40
29.71428571428559
100
AcDbArc
 50
252.1475505680076
 51
287.8524491069182
  0
ARC
  5
113
330
F2
100
AcDbEntity
  8
AM_9
100
AcDbCircle
 10
0.0000000000000071
 20
-0.0000000000000036
 30
0.0
 40
29.71428571428572
100
AcDbArc
 50
72.14755056800772
 51
107.8524497570665
  0
ARC
  5
114
330
F2
100
AcDbEntity
  8
AM_9
100
AcDbCircle
 10
-11.63347902153154
 20
36.12040915104376
 30
0.0
 40
8.233333333333336
100
AcDbArc
 50
159.9569316179023
 51
287.8524482587923
  0
LINE
  5
117
330
F2
100
AcDbEntity
  8
AM_7
100
AcDbLine
 10
-5.670000000000001
 20
49.4
 30
0.0
 11
5.670000000000001
 21
49.4
 31
0.0
  0
LINE
  5
118
330
F2
100
AcDbEntity
  8
AM_7
100
AcDbLine
 10
0.0
 20
43.73
 30
0.0
 11
0.0
 21
55.07
 31
0.0
  0
LINE
  5
119
330
F2
100
AcDbEntity
  8
AM_7
100
AcDbLine
 10
-5.670000000000001
 20
-49.4
 30
0.0
 11
5.670000000000001
 21
-49.4
 31
0.0
  0
LINE
  5
11A
330
F2
100
AcDbEntity
  8
AM_7
100
AcDbLine
 10
0.0
 20
-55.07
 30
0.0
 11
0.0
 21
-43.73
 31
0.0
  0
LINE
  5
11B
330
F2
100
AcDbEntity
  8
AM_7
100
AcDbLine
 10
-27.3
 20
0.0
 30
0.0
 11
27.3
 21
0.0
 31
0.0
  0
LINE
  5
11C
330
F2
100
AcDbEntity
  8
AM_7
100
AcDbLine
 10
0.0
 20
-27.3
 30
0.0
 11
0.0
 21
27.3
 31
0.0
  0
LINE
  5
11D
330
F2
100
AcDbEntity
  8
AM_7
100
AcDbLine
 10
26.52544331120913
 20
29.35387043595532
 30
0.0
 11
36.2342003572708
 21
39.06262748201699
 31
0.0
  0
LINE
  5
11E
330
F2
100
AcDbEntity
  8
AM_4
100
AcDbLine
 10
31.13242870082852
 20
-15.88314777327937
 30
0.0
 11
11.13463115194152
 21
-55.08066801619434
 31
0.0
  0
LINE
  5
11F
330
F2
100
AcDbEntity
  8
AM_4
100
AcDbLine
 10
-31.13242870082853
 20
15.88314777327934
 30
0.0
 11
-11.13463115194153
 21
55.08066801619433
 31
0.0
  0
LINE
  5
120
330
F2
100
AcDbEntity
  8
AM_4
100
AcDbLine
 10
28.19587368943973
 20
21.63906535480083
 30
0.0
 11
31.13242870082851
 21
15.88314777327937
 31
0.0
  0
LINE
  5
121
330
F2
100
AcDbEntity
  8
AM_4
100
AcDbLine
 10
11.13463115194153
 20
55.08066801619434
 30
0.0
 11
21.85469517510084
 21
34.06835775923211
 31
0.0
  0
LINE
  5
122
330
F2
100
AcDbEntity
  8
AM_4
100
AcDbLine
 10
-11.13463115194153
 20
-55.08066801619432
 30
0.0
 11
-31.13242870082852
 21
-15.88314777327935
 31
0.0
  0
LINE
  5
123
330
F2
100
AcDbEntity
  8
AM_4
100
AcDbLine
 10
11.13463115194153
 20
55.08066801619434
 30
0.0
 11
15.30666768407366
 21
31.41987308073244
 31
0.0
  0
LINE
  5
124
330
F2
100
AcDbEntity
  8
AM_4
100
AcDbLine
 10
-15.30666768407366
 20
31.41987308073245
 30
0.0
 11
-11.13463115194153
 21
55.08066801619432
 31
0.0
  0
CIRCLE
  5
125
330
F2
100
AcDbEntity
  8
AM_4
100
AcDbCircle
 10
0.0
 20
49.4
 30
0.0
 40
5.4
  0
ARC
  5
126
330
F2
100
AcDbEntity
  8
AM_4
100
AcDbCircle
 10
0.0000000000000018
 20
49.39999999999999
 30
0.0
 40
12.5
100
AcDbArc
 50
27.02977319437831
 51
152.9702268056218
  0
LINE
  5
127
330
F2
100
AcDbEntity
  8
AM_4
100
AcDbLine
 10
-11.13463115194153
 20
-55.08066801619432
 30
0.0
 11
-15.30666768407366
 21
-31.41987308073244
 31
0.0
  0
LINE
  5
128
330
F2
100
AcDbEntity
  8
AM_4
100
AcDbLine
 10
15.30666768407368
 20
-31.41987308073244
 30
0.0
 11
11.13463115194152
 21
-55.08066801619434
 31
0.0
  0
ARC
  5
129
330
F2
100
AcDbEntity
  8
AM_4
100
AcDbCircle
 10
-0.0000000000000018
 20
-49.40000000000001
 30
0.0
 40
12.49999999999999
100
AcDbArc
 50
207.0297731943782
 51
332.9702268056218
  0
CIRCLE
  5
12A
330
F2
100
AcDbEntity
  8
AM_4
100
AcDbCircle
 10
0.0
 20
-49.4
 30
0.0
 40
5.4
  0
ARC
  5
12B
330
F2
100
AcDbEntity
  8
AM_4
100
AcDbCircle
 10
0.0000000000163531
 20
0.0000000000297256
 30
0.0
 40
34.94999999996611
100
AcDbArc
 50
59.30634113140405
 51
64.02626919162626
  0
ARC
  5
12C
330
F2
100
AcDbEntity
  8
AM_4
100
AcDbCircle
 10
0.000000000000032
 20
0.0000000000001634
 30
0.0
 40
35.68330344275204
100
AcDbArc
 50
64.87636367546327
 51
115.1236363245369
  0
ARC
  5
12D
330
F2
100
AcDbEntity
  8
AM_4
100
AcDbCircle
 10
-0.0000000000000711
 20
0.0000000000000018
 30
0.0
 40
34.94999999999998
100
AcDbArc
 50
115.9737308083764
 51
244.0262691916236
  0
ARC
  5
12E
330
F2
100
AcDbEntity
  8
AM_4
100
AcDbCircle
 10
-0.0000000000000391
 20
-0.000000000000135
 30
0.0
 40
35.68330344275207
100
AcDbArc
 50
244.8763636754633
 51
295.123636324537
  0
ARC
  5
12F
330
F2
100
AcDbEntity
  8
AM_4
100
AcDbCircle
 10
0.0000000000000959
 20
-0.0000000000000213
 30
0.0
 40
34.94999999999995
100
AcDbArc
 50
295.9737308083764
 51
37.37684025023675
  0
LINE
  5
130
330
F2
100
AcDbEntity
  8
AM_4
100
AcDbLine
 10
36.49999999999999
 20
36.5
 30
0.0
 11
33.6715728752538
 21
39.32842712474619
 31
0.0
  0
LINE
  5
131
330
F2
100
AcDbEntity
  8
AM_4
100
AcDbLine
 10
33.6715728752538
 20
39.32842712474619
 30
0.0
 11
32.02852829721278
 21
38.62426516272861
 31
0.0
  0
LINE
  5
132
330
F2
100
AcDbEntity
  8
AM_4
100
AcDbLine
 10
35.79583803798242
 20
34.85695542195898
 30
0.0
 11
36.5
 21
36.5
 31
0.0
  0
LINE
  5
133
330
F2
100
AcDbEntity
  8
AM_4
100
AcDbLine
 10
35.79583803798242
 20
34.85695542195898
 30
0.0
 11
32.02852829721278
 21
38.62426516272861
 31
0.0
  0
ARC
  5
134
330
F2
100
AcDbEntity
  8
AM_4
100
AcDbCircle
 10
32.22548794650239
 20
38.16469264771957
 30
0.0
 40
0.5000000000000233
100
AcDbArc
 50
113.1985905136503
 51
180.8429160447755
  0
ARC
  5
135
330
F2
100
AcDbEntity
  8
AM_4
100
AcDbCircle
 10
35.33626552297341
 20
35.05391507124853
 30
0.0
 40
0.4999999999999626
100
AcDbArc
 50
269.1570839552199
 51
336.8014094863548
  0
LINE
  5
136
330
F2
100
AcDbEntity
  8
AM_4
100
AcDbLine
 10
35.32890995816156
 20
34.55396917850986
 30
0.0
 11
31.72554205376367
 21
38.15733708290775
 31
0.0
  0
ARC
  5
137
330
F2
100
AcDbEntity
  8
AM_4
100
AcDbCircle
 10
29.91948751758268
 20
38.1307650141115
 30
0.0
 40
1.806250000000015
100
AcDbArc
 50
258.8550261282952
 51
0.8429189289433016
  0
ARC
  5
138
330
F2
100
AcDbEntity
  8
AM_4
100
AcDbCircle
 10
35.30233788936531
 20
32.74791464232887
 30
0.0
 40
1.806250000000016
100
AcDbArc
 50
89.15708107105688
 51
191.144973871705
  0
LINE
  5
139
330
F2
100
AcDbEntity
  8
AM_4
100
AcDbLine
 10
27.09547981021892
 20
33.88370490960978
 30
0.0
 11
26.74192641962564
 21
33.53015151901651
 31
0.0
  0
LINE
  5
13A
330
F2
100
AcDbEntity
  8
AM_4
100
AcDbLine
 10
30.70172439427031
 20
29.57035354437184
 30
0.0
 11
31.05527778486358
 21
29.92390693496511
 31
0.0
  0
LINE
  5
13B
330
F2
100
AcDbEntity
  8
AM_4
100
AcDbLine
 10
33.53015151901651
 20
32.39878066911803
 30
0.0
 11
29.57035354437184
 21
36.3585786437627
 31
0.0
  0
LINE
  5
13C
330
F2
100
AcDbEntity
  8
AM_4
100
AcDbLine
 10
29.57035354437184
 20
36.3585786437627
 30
0.0
 11
29.21680015377856
 21
36.00502525316942
 31
0.0
  0
LINE
  5
13D
330
F2
100
AcDbEntity
  8
AM_4
100
AcDbLine
 10
33.17659812842322
 20
32.04522727852476
 30
0.0
 11
33.53015151901651
 21
32.39878066911803
 31
0.0
  0
LINE
  5
13E
330
F2
100
AcDbEntity
  8
AM_4
100
AcDbLine
 10
26.24695167279506
 20
34.73223304703364
 30
0.0
 11
28.36827201635471
 21
36.85355339059328
 31
0.0
  0
LINE
  5
13F
330
F2
100
AcDbEntity
  8
AM_4
100
AcDbLine
 10
31.90380592228744
 20
29.07537879754125
 30
0.0
 11
26.24695167279506
 21
34.73223304703364
 31
0.0
  0
LINE
  5
140
330
F2
100
AcDbEntity
  8
AM_4
100
AcDbLine
 10
34.02512626584709
 20
31.1966991411009
 30
0.0
 11
28.36827201635471
 21
36.85355339059328
 31
0.0
  0
LINE
  5
141
330
F2
100
AcDbEntity
  8
AM_4
100
AcDbLine
 10
34.02512626584709
 20
31.1966991411009
 30
0.0
 11
31.90380592228744
 21
29.07537879754125
 31
0.0
  0
LWPOLYLINE
  5
142
330
F2
100
AcDbEntity
  8
AM_4
100
AcDbPolyline
 90
        3
 70
     0
 43
0.0
 10
31.07945550709749
 20
33.90788263184368
 10
30.46155200932879
 20
34.69783401146255
 10
29.78248557872779
 20
35.43933982822018
  0
LWPOLYLINE
  5
143
330
F2
100
AcDbEntity
  8
AM_4
100
AcDbPolyline
 90
        3
 70
     0
 43
0.0
 10
29.78248557872779
 20
35.43933982822018
 10
29.04443249750816
 20
36.11550030937364
 10
28.2510283823513
 20
36.73630975658987
  0
LWPOLYLINE
  5
144
330
F2
100
AcDbEntity
  8
AM_4
100
AcDbPolyline
 90
        3
 70
     0
 43
0.0
 10
26.36419530679846
 20
34.84947668103704
 10
26.98209880456716
 20
34.05952530141816
 10
27.66116523516816
 20
33.31801948466054
  0
LWPOLYLINE
  5
145
330
F2
100
AcDbEntity
  8
AM_4
100
AcDbPolyline
 90
        3
 70
     0
 43
0.0
 10
33.90788263184368
 20
31.07945550709749
 10
33.28997913407498
 20
31.86940688671636
 10
32.61091270347399
 20
32.610912703474
  0
LWPOLYLINE
  5
146
330
F2
100
AcDbEntity
  8
AM_4
100
AcDbPolyline
 90
        3
 70
     0
 43
0.0
 10
32.61091270347399
 20
32.610912703474
 10
31.87285962225435
 20
33.28707318462745
 10
31.07945550709749
 20
33.90788263184368
  0
LINE
  5
147
330
F2
100
AcDbEntity
  8
AM_4
100
AcDbLine
 10
29.19262243154466
 20
32.02104955629084
 30
0.0
 11
31.07945550709749
 21
33.90788263184368
 31
0.0
  0
LWPOLYLINE
  5
148
330
F2
100
AcDbEntity
  8
AM_4
100
AcDbPolyline
 90
        3
 70
     0
 43
0.0
 10
30.48959235991435
 20
30.48959235991435
 10
31.22764544113398
 20
29.81343187876089
 10
32.02104955629085
 20
29.19262243154465
  0
LWPOLYLINE
  5
149
330
F2
100
AcDbEntity
  8
AM_4
100
AcDbPolyline
 90
        3
 70
     0
 43
0.0
 10
29.19262243154466
 20
32.02104955629084
 10
29.81052592931335
 20
31.23109817667197
 10
30.48959235991435
 20
30.48959235991435
  0
LWPOLYLINE
  5
14A
330
F2
100
AcDbEntity
  8
AM_4
100
AcDbPolyline
 90
        3
 70
     0
 43
0.0
 10
27.66116523516816
 20
33.31801948466054
 10
28.39921831638779
 20
32.64185900350708
 10
29.19262243154466
 20
32.02104955629084
  0
ARC
  5
14B
330
F2
100
AcDbEntity
  8
AM_4
100
AcDbCircle
 10
-0.0000000000000027
 20
0.0000000000000071
 30
0.0
 40
34.69849568973999
100
AcDbArc
 50
59.41227265675014
 51
37.32125349153852
  0
LINE
  5
14C
330
F2
100
AcDbEntity
  8
AM_4
100
AcDbLine
 10
28.887115
 20
4.178865
 30
0.0
 11
27.592085
 21
4.178865
 31
0.0
  0
LINE
  5
14D
330
F2
100
AcDbEntity
  8
AM_4
100
AcDbLine
 10
28.887115
 20
3.479145
 30
0.0
 11
28.887115
 21
4.178865
 31
0.0
  0
LINE
  5
14E
330
F2
100
AcDbEntity
  8
AM_4
100
AcDbLine
 10
28.850115
 20
3.323655
 30
0.0
 11
28.887115
 21
3.479145
 31
0.0
  0
LINE
  5
14F
330
F2
100
AcDbEntity
  8
AM_4
100
AcDbLine
 10
28.77611
 20
3.207035
 30
0.0
 11
28.850115
 21
3.323655
 31
0.0
  0
LINE
  5
150
330
F2
100
AcDbEntity
  8
AM_4
100
AcDbLine
 10
28.6651095
 20
3.12929
 30
0.0
 11
28.77611
 21
3.207035
 31
0.0
  0
LINE
  5
151
330
F2
100
AcDbEntity
  8
AM_4
100
AcDbLine
 10
27.70309
 20
3.207035
 30
0.0
 11
27.8140905
 21
3.12929
 31
0.0
  0
LINE
  5
152
330
F2
100
AcDbEntity
  8
AM_4
100
AcDbLine
 10
27.629085
 20
3.323655
 30
0.0
 11
27.70309
 21
3.207035
 31
0.0
  0
LINE
  5
153
330
F2
100
AcDbEntity
  8
AM_4
100
AcDbLine
 10
27.592085
 20
3.479145000000003
 30
0.0
 11
27.629085
 21
3.323655
 31
0.0
  0
LINE
  5
154
330
F2
100
AcDbEntity
  8
AM_4
100
AcDbLine
 10
27.592085
 20
4.178865
 30
0.0
 11
27.592085
 21
3.479145000000003
 31
0.0
  0
LINE
  5
155
330
F2
100
AcDbEntity
  8
AM_4
100
AcDbLine
 10
28.51710600000001
 20
3.090415
 30
0.0
 11
28.6651095
 21
3.12929
 31
0.0
  0
LINE
  5
156
330
F2
100
AcDbEntity
  8
AM_4
100
AcDbLine
 10
27.962094
 20
3.090415
 30
0.0
 11
28.51710600000001
 21
3.090415
 31
0.0
  0
LINE
  5
157
330
F2
100
AcDbEntity
  8
AM_4
100
AcDbLine
 10
27.8140905
 20
3.12929
 30
0.0
 11
27.962094
 21
3.090415
 31
0.0
  0
LINE
  5
158
330
F2
100
AcDbEntity
  8
AM_4
100
AcDbLine
 10
27.962094
 20
2.31295
 30
0.0
 11
27.8140905
 21
2.27408
 31
0.0
  0
LINE
  5
159
330
F2
100
AcDbEntity
  8
AM_4
100
AcDbLine
 10
28.51710600000001
 20
2.31295
 30
0.0
 11
27.962094
 21
2.31295
 31
0.0
  0
LINE
  5
15A
330
F2
100
AcDbEntity
  8
AM_4
100
AcDbLine
 10
28.887115
 20
1.613235
 30
0.0
 11
28.887115
 21
1.92422
 31
0.0
  0
LINE
  5
15B
330
F2
100
AcDbEntity
  8
AM_4
100
AcDbLine
 10
27.962094
 20
1.224505
 30
0.0
 11
28.51710600000001
 21
1.224505
 31
0.0
  0
LINE
  5
15C
330
F2
100
AcDbEntity
  8
AM_4
100
AcDbLine
 10
27.70309
 20
2.19633
 30
0.0
 11
27.629085
 21
2.079715
 31
0.0
  0
LINE
  5
15D
330
F2
100
AcDbEntity
  8
AM_4
100
AcDbLine
 10
27.8140905
 20
2.27408
 30
0.0
 11
27.70309
 21
2.19633
 31
0.0
  0
LINE
  5
15E
330
F2
100
AcDbEntity
  8
AM_4
100
AcDbLine
 10
27.592085
 20
1.92422
 30
0.0
 11
27.592085
 21
1.613235000000004
 31
0.0
  0
LINE
  5
15F
330
F2
100
AcDbEntity
  8
AM_4
100
AcDbLine
 10
28.6651095
 20
2.27408
 30
0.0
 11
28.51710600000001
 21
2.31295
 31
0.0
  0
LINE
  5
160
330
F2
100
AcDbEntity
  8
AM_4
100
AcDbLine
 10
28.77611
 20
2.19633
 30
0.0
 11
28.6651095
 21
2.27408
 31
0.0
  0
LINE
  5
161
330
F2
100
AcDbEntity
  8
AM_4
100
AcDbLine
 10
28.850115
 20
2.079715
 30
0.0
 11
28.77611
 21
2.19633
 31
0.0
  0
LINE
  5
162
330
F2
100
AcDbEntity
  8
AM_4
100
AcDbLine
 10
28.887115
 20
1.92422
 30
0.0
 11
28.850115
 21
2.079715
 31
0.0
  0
LINE
  5
163
330
F2
100
AcDbEntity
  8
AM_4
100
AcDbLine
 10
28.850115
 20
1.457745
 30
0.0
 11
28.887115
 21
1.613235
 31
0.0
  0
LINE
  5
164
330
F2
100
AcDbEntity
  8
AM_4
100
AcDbLine
 10
28.77611
 20
1.341125
 30
0.0
 11
28.850115
 21
1.457745
 31
0.0
  0
LINE
  5
165
330
F2
100
AcDbEntity
  8
AM_4
100
AcDbLine
 10
28.6651095
 20
1.263375
 30
0.0
 11
28.77611
 21
1.341125
 31
0.0
  0
LINE
  5
166
330
F2
100
AcDbEntity
  8
AM_4
100
AcDbLine
 10
28.51710600000001
 20
1.224505
 30
0.0
 11
28.6651095
 21
1.263375
 31
0.0
  0
LINE
  5
167
330
F2
100
AcDbEntity
  8
AM_4
100
AcDbLine
 10
27.8140905
 20
1.263375
 30
0.0
 11
27.962094
 21
1.224505
 31
0.0
  0
LINE
  5
168
330
F2
100
AcDbEntity
  8
AM_4
100
AcDbLine
 10
27.70309
 20
1.341125
 30
0.0
 11
27.8140905
 21
1.263375
 31
0.0
  0
LINE
  5
169
330
F2
100
AcDbEntity
  8
AM_4
100
AcDbLine
 10
27.629085
 20
1.457745
 30
0.0
 11
27.70309
 21
1.341125
 31
0.0
  0
LINE
  5
16A
330
F2
100
AcDbEntity
  8
AM_4
100
AcDbLine
 10
27.592085
 20
1.613235000000004
 30
0.0
 11
27.629085
 21
1.457745
 31
0.0
  0
LINE
  5
16B
330
F2
100
AcDbEntity
  8
AM_4
100
AcDbLine
 10
27.629085
 20
2.079715
 30
0.0
 11
27.592085
 21
1.92422
 31
0.0
  0
LINE
  5
16C
330
F2
100
AcDbEntity
  8
AM_4
100
AcDbLine
 10
29.026915
 20
0.4470410000000002
 30
0.0
 11
27.73188500000001
 21
0.447041
 31
0.0
  0
LINE
  5
16D
330
F2
100
AcDbEntity
  8
AM_4
100
AcDbLine
 10
29.026915
 20
-0.2526754999999999
 30
0.0
 11
29.026915
 21
0.4470410000000002
 31
0.0
  0
LINE
  5
16E
330
F2
100
AcDbEntity
  8
AM_4
100
AcDbLine
 10
28.989915
 20
-0.4081679999999999
 30
0.0
 11
29.026915
 21
-0.2526754999999999
 31
0.0
  0
LINE
  5
16F
330
F2
100
AcDbEntity
  8
AM_4
100
AcDbLine
 10
28.91591
 20
-0.524785
 30
0.0
 11
28.989915
 21
-0.4081679999999999
 31
0.0
  0
LINE
  5
170
330
F2
100
AcDbEntity
  8
AM_4
100
AcDbLine
 10
28.8049095
 20
-0.602535
 30
0.0
 11
28.91591
 21
-0.524785
 31
0.0
  0
LINE
  5
171
330
F2
100
AcDbEntity
  8
AM_4
100
AcDbLine
 10
28.656906
 20
-0.641405
 30
0.0
 11
28.8049095
 21
-0.602535
 31
0.0
  0
LINE
  5
172
330
F2
100
AcDbEntity
  8
AM_4
100
AcDbLine
 10
28.10189400000001
 20
-0.641405
 30
0.0
 11
28.656906
 21
-0.641405
 31
0.0
  0
LINE
  5
173
330
F2
100
AcDbEntity
  8
AM_4
100
AcDbLine
 10
27.9538905
 20
-0.602535
 30
0.0
 11
28.10189400000001
 21
-0.641405
 31
0.0
  0
LINE
  5
174
330
F2
100
AcDbEntity
  8
AM_4
100
AcDbLine
 10
27.84289
 20
-0.524785
 30
0.0
 11
27.9538905
 21
-0.602535
 31
0.0
  0
LINE
  5
175
330
F2
100
AcDbEntity
  8
AM_4
100
AcDbLine
 10
27.768885
 20
-0.408168
 30
0.0
 11
27.84289
 21
-0.524785
 31
0.0
  0
LINE
  5
176
330
F2
100
AcDbEntity
  8
AM_4
100
AcDbLine
 10
27.73188500000001
 20
-0.2526755000000006
 30
0.0
 11
27.768885
 21
-0.408168
 31
0.0
  0
LINE
  5
177
330
F2
100
AcDbEntity
  8
AM_4
100
AcDbLine
 10
27.73188500000001
 20
0.447041
 30
0.0
 11
27.73188500000001
 21
-0.2526755000000006
 31
0.0
  0
LINE
  5
178
330
F2
100
AcDbEntity
  8
AM_4
100
AcDbLine
 10
28.850115
 20
-2.31295
 30
0.0
 11
28.77611
 21
-2.42957
 31
0.0
  0
LINE
  5
179
330
F2
100
AcDbEntity
  8
AM_4
100
AcDbLine
 10
28.887115
 20
-2.15746
 30
0.0
 11
28.850115
 21
-2.31295
 31
0.0
  0
LINE
  5
17A
330
F2
100
AcDbEntity
  8
AM_4
100
AcDbLine
 10
27.40708
 20
-2.351825
 30
0.0
 11
27.48108500000001
 21
-2.50732
 31
0.0
  0
LINE
  5
17B
330
F2
100
AcDbEntity
  8
AM_4
100
AcDbLine
 10
27.48108500000001
 20
-2.50732
 30
0.0
 11
27.629085
 21
-2.66281
 31
0.0
  0
LINE
  5
17C
330
F2
100
AcDbEntity
  8
AM_4
100
AcDbLine
 10
27.629085
 20
-2.66281
 30
0.0
 11
27.77709
 21
-2.701685
 31
0.0
  0
LINE
  5
17D
330
F2
100
AcDbEntity
  8
AM_4
100
AcDbLine
 10
27.77709
 20
-2.701685
 30
0.0
 11
28.33210200000001
 21
-2.701685
 31
0.0
  0
LINE
  5
17E
330
F2
100
AcDbEntity
  8
AM_4
100
AcDbLine
 10
28.33210200000001
 20
-2.701685
 30
0.0
 11
28.33210200000001
 21
-2.118585
 31
0.0
  0
LINE
  5
17F
330
F2
100
AcDbEntity
  8
AM_4
100
AcDbLine
 10
28.33210200000001
 20
-2.118585
 30
0.0
 11
28.110097
 21
-2.118585
 31
0.0
  0
LINE
  5
180
330
F2
100
AcDbEntity
  8
AM_4
100
AcDbLine
 10
27.629085
 20
-2.31295
 30
0.0
 11
27.592085
 21
-2.15746
 31
0.0
  0
LINE
  5
181
330
F2
100
AcDbEntity
  8
AM_4
100
AcDbLine
 10
27.592085
 20
-2.15746
 30
0.0
 11
27.592085
 21
-1.8076
 31
0.0
  0
LINE
  5
182
330
F2
100
AcDbEntity
  8
AM_4
100
AcDbLine
 10
27.8140905
 20
-2.468445
 30
0.0
 11
27.70309
 21
-2.42957
 31
0.0
  0
LINE
  5
183
330
F2
100
AcDbEntity
  8
AM_4
100
AcDbLine
 10
28.110097
 20
-2.118585
 30
0.0
 11
28.110097
 21
-2.468445
 31
0.0
  0
LINE
  5
184
330
F2
100
AcDbEntity
  8
AM_4
100
AcDbLine
 10
28.110097
 20
-2.468445
 30
0.0
 11
27.8140905
 21
-2.468445
 31
0.0
  0
LINE
  5
185
330
F2
100
AcDbEntity
  8
AM_4
100
AcDbLine
 10
27.37008
 20
-2.15746
 30
0.0
 11
27.40708
 21
-2.351825
 31
0.0
  0
LINE
  5
186
330
F2
100
AcDbEntity
  8
AM_4
100
AcDbLine
 10
29.10912
 20
3.479145000000003
 30
0.0
 11
29.10912
 21
4.4121
 31
0.0
  0
LINE
  5
187
330
F2
100
AcDbEntity
  8
AM_4
100
AcDbLine
 10
29.07212
 20
3.28478
 30
0.0
 11
29.10912
 21
3.479145000000003
 31
0.0
  0
LINE
  5
188
330
F2
100
AcDbEntity
  8
AM_4
100
AcDbLine
 10
27.37008
 20
-1.8076
 30
0.0
 11
27.37008
 21
-2.15746
 31
0.0
  0
LINE
  5
189
330
F2
100
AcDbEntity
  8
AM_4
100
AcDbLine
 10
27.40708
 20
1.41887
 30
0.0
 11
27.48108500000001
 21
1.263375
 31
0.0
  0
LINE
  5
18A
330
F2
100
AcDbEntity
  8
AM_4
100
AcDbLine
 10
27.48108500000001
 20
1.263375
 30
0.0
 11
27.629085
 21
1.107885
 31
0.0
  0
LINE
  5
18B
330
F2
100
AcDbEntity
  8
AM_4
100
AcDbLine
 10
27.629085
 20
1.107885
 30
0.0
 11
27.77709
 21
1.03014
 31
0.0
  0
LINE
  5
18C
330
F2
100
AcDbEntity
  8
AM_4
100
AcDbLine
 10
27.77709
 20
1.03014
 30
0.0
 11
27.962094
 21
0.9912650000000001
 31
0.0
  0
LINE
  5
18D
330
F2
100
AcDbEntity
  8
AM_4
100
AcDbLine
 10
27.962094
 20
0.9912650000000001
 30
0.0
 11
28.51710600000001
 21
0.9912650000000001
 31
0.0
  0
LINE
  5
18E
330
F2
100
AcDbEntity
  8
AM_4
100
AcDbLine
 10
28.51710600000001
 20
0.9912650000000001
 30
0.0
 11
28.70211
 21
1.03014
 31
0.0
  0
LINE
  5
18F
330
F2
100
AcDbEntity
  8
AM_4
100
AcDbLine
 10
28.70211
 20
1.03014
 30
0.0
 11
28.850115
 21
1.107885
 31
0.0
  0
LINE
  5
190
330
F2
100
AcDbEntity
  8
AM_4
100
AcDbLine
 10
28.850115
 20
1.107885
 30
0.0
 11
28.998115
 21
1.263375
 31
0.0
  0
LINE
  5
191
330
F2
100
AcDbEntity
  8
AM_4
100
AcDbLine
 10
28.998115
 20
1.263375
 30
0.0
 11
29.07212
 21
1.41887
 31
0.0
  0
LINE
  5
192
330
F2
100
AcDbEntity
  8
AM_4
100
AcDbLine
 10
29.07212
 20
1.41887
 30
0.0
 11
29.10912
 21
1.613235
 31
0.0
  0
LINE
  5
193
330
F2
100
AcDbEntity
  8
AM_4
100
AcDbLine
 10
29.10912
 20
1.613235
 30
0.0
 11
29.10912
 21
1.92422
 31
0.0
  0
LINE
  5
194
330
F2
100
AcDbEntity
  8
AM_4
100
AcDbLine
 10
29.10912
 20
1.92422
 30
0.0
 11
29.07212
 21
2.118585
 31
0.0
  0
LINE
  5
195
330
F2
100
AcDbEntity
  8
AM_4
100
AcDbLine
 10
29.07212
 20
2.118585
 30
0.0
 11
28.998115
 21
2.27408
 31
0.0
  0
LINE
  5
196
330
F2
100
AcDbEntity
  8
AM_4
100
AcDbLine
 10
27.592085
 20
-1.8076
 30
0.0
 11
27.629085
 21
-1.65211
 31
0.0
  0
LINE
  5
197
330
F2
100
AcDbEntity
  8
AM_4
100
AcDbLine
 10
27.629085
 20
-1.65211
 30
0.0
 11
27.70309
 21
-1.53549
 31
0.0
  0
LINE
  5
198
330
F2
100
AcDbEntity
  8
AM_4
100
AcDbLine
 10
27.70309
 20
-1.53549
 30
0.0
 11
27.8140905
 21
-1.457745
 31
0.0
  0
LINE
  5
199
330
F2
100
AcDbEntity
  8
AM_4
100
AcDbLine
 10
27.8140905
 20
-1.457745
 30
0.0
 11
27.962094
 21
-1.41887
 31
0.0
  0
LINE
  5
19A
330
F2
100
AcDbEntity
  8
AM_4
100
AcDbLine
 10
27.962094
 20
-1.41887
 30
0.0
 11
28.51710600000001
 21
-1.41887
 31
0.0
  0
LINE
  5
19B
330
F2
100
AcDbEntity
  8
AM_4
100
AcDbLine
 10
28.51710600000001
 20
-1.41887
 30
0.0
 11
28.6651095
 21
-1.457745
 31
0.0
  0
LINE
  5
19C
330
F2
100
AcDbEntity
  8
AM_4
100
AcDbLine
 10
28.6651095
 20
-1.457745
 30
0.0
 11
28.77611
 21
-1.53549
 31
0.0
  0
CIRCLE
  5
19D
330
F2
100
AcDbEntity
  8
AM_4
100
AcDbCircle
 10
0.0
 20
0.0
 30
0.0
 40
26.0
  0
LINE
  5
19E
330
F2
100
AcDbEntity
  8
AM_4
100
AcDbLine
 10
27.37008
 20
-3.01267
 30
0.0
 11
27.37008
 21
-4.4121
 31
0.0
  0
LINE
  5
19F
330
F2
100
AcDbEntity
  8
AM_4
100
AcDbLine
 10
29.10912
 20
-3.01267
 30
0.0
 11
27.37008
 21
-3.01267
 31
0.0
  0
LINE
  5
1A0
330
F2
100
AcDbEntity
  8
AM_4
100
AcDbLine
 10
29.10912
 20
-4.412099999999999
 30
0.0
 11
29.10912
 21
-3.01267
 31
0.0
  0
LINE
  5
1A1
330
F2
100
AcDbEntity
  8
AM_4
100
AcDbLine
 10
28.887115
 20
-4.4121
 30
0.0
 11
29.10912
 21
-4.412099999999999
 31
0.0
  0
LINE
  5
1A2
330
F2
100
AcDbEntity
  8
AM_4
100
AcDbLine
 10
28.887115
 20
-3.245905
 30
0.0
 11
28.887115
 21
-4.4121
 31
0.0
  0
LINE
  5
1A3
330
F2
100
AcDbEntity
  8
AM_4
100
AcDbLine
 10
28.4061035
 20
-3.245905
 30
0.0
 11
28.887115
 21
-3.245905
 31
0.0
  0
LINE
  5
1A4
330
F2
100
AcDbEntity
  8
AM_4
100
AcDbLine
 10
28.4061035
 20
-4.25661
 30
0.0
 11
28.4061035
 21
-3.245905
 31
0.0
  0
LINE
  5
1A5
330
F2
100
AcDbEntity
  8
AM_4
100
AcDbLine
 10
28.184099
 20
-4.25661
 30
0.0
 11
28.4061035
 21
-4.25661
 31
0.0
  0
LINE
  5
1A6
330
F2
100
AcDbEntity
  8
AM_4
100
AcDbLine
 10
28.184099
 20
-3.245905
 30
0.0
 11
28.184099
 21
-4.25661
 31
0.0
  0
LINE
  5
1A7
330
F2
100
AcDbEntity
  8
AM_4
100
AcDbLine
 10
27.592085
 20
-3.245905
 30
0.0
 11
28.184099
 21
-3.245905
 31
0.0
  0
LINE
  5
1A8
330
F2
100
AcDbEntity
  8
AM_4
100
AcDbLine
 10
27.592085
 20
-4.4121
 30
0.0
 11
27.592085
 21
-3.245905
 31
0.0
  0
LINE
  5
1A9
330
F2
100
AcDbEntity
  8
AM_4
100
AcDbLine
 10
27.37008
 20
-4.4121
 30
0.0
 11
27.592085
 21
-4.4121
 31
0.0
  0
LINE
  5
1AA
330
F2
100
AcDbEntity
  8
AM_4
100
AcDbLine
 10
27.40708
 20
-1.613235000000004
 30
0.0
 11
27.37008
 21
-1.8076
 31
0.0
  0
LINE
  5
1AB
330
F2
100
AcDbEntity
  8
AM_4
100
AcDbLine
 10
27.48108500000001
 20
-1.457745
 30
0.0
 11
27.40708
 21
-1.613235000000004
 31
0.0
  0
LINE
  5
1AC
330
F2
100
AcDbEntity
  8
AM_4
100
AcDbLine
 10
27.629085
 20
-1.30225
 30
0.0
 11
27.48108500000001
 21
-1.457745
 31
0.0
  0
LINE
  5
1AD
330
F2
100
AcDbEntity
  8
AM_4
100
AcDbLine
 10
27.77709
 20
-1.224505
 30
0.0
 11
27.629085
 21
-1.30225
 31
0.0
  0
LINE
  5
1AE
330
F2
100
AcDbEntity
  8
AM_4
100
AcDbLine
 10
27.962094
 20
-1.18563
 30
0.0
 11
27.77709
 21
-1.224505
 31
0.0
  0
LINE
  5
1AF
330
F2
100
AcDbEntity
  8
AM_4
100
AcDbLine
 10
28.51710600000001
 20
-1.18563
 30
0.0
 11
27.962094
 21
-1.18563
 31
0.0
  0
LINE
  5
1B0
330
F2
100
AcDbEntity
  8
AM_4
100
AcDbLine
 10
28.70211
 20
-1.224505
 30
0.0
 11
28.51710600000001
 21
-1.18563
 31
0.0
  0
LINE
  5
1B1
330
F2
100
AcDbEntity
  8
AM_4
100
AcDbLine
 10
28.850115
 20
-1.30225
 30
0.0
 11
28.70211
 21
-1.224505
 31
0.0
  0
LINE
  5
1B2
330
F2
100
AcDbEntity
  8
AM_4
100
AcDbLine
 10
28.998115
 20
-1.457745
 30
0.0
 11
28.850115
 21
-1.30225
 31
0.0
  0
LINE
  5
1B3
330
F2
100
AcDbEntity
  8
AM_4
100
AcDbLine
 10
29.07212
 20
-1.613235
 30
0.0
 11
28.998115
 21
-1.457745
 31
0.0
  0
LINE
  5
1B4
330
F2
100
AcDbEntity
  8
AM_4
100
AcDbLine
 10
29.10912
 20
-1.8076
 30
0.0
 11
29.07212
 21
-1.613235
 31
0.0
  0
LINE
  5
1B5
330
F2
100
AcDbEntity
  8
AM_4
100
AcDbLine
 10
29.10912
 20
-2.15746
 30
0.0
 11
29.10912
 21
-1.8076
 31
0.0
  0
LINE
  5
1B6
330
F2
100
AcDbEntity
  8
AM_4
100
AcDbLine
 10
29.07212
 20
-2.351825
 30
0.0
 11
29.10912
 21
-2.15746
 31
0.0
  0
LINE
  5
1B7
330
F2
100
AcDbEntity
  8
AM_4
100
AcDbLine
 10
28.998115
 20
-2.50732
 30
0.0
 11
29.07212
 21
-2.351825
 31
0.0
  0
LINE
  5
1B8
330
F2
100
AcDbEntity
  8
AM_4
100
AcDbLine
 10
28.850115
 20
-2.66281
 30
0.0
 11
28.998115
 21
-2.50732
 31
0.0
  0
LINE
  5
1B9
330
F2
100
AcDbEntity
  8
AM_4
100
AcDbLine
 10
28.6651095
 20
-2.701685
 30
0.0
 11
28.850115
 21
-2.66281
 31
0.0
  0
LINE
  5
1BA
330
F2
100
AcDbEntity
  8
AM_4
100
AcDbLine
 10
28.6651095
 20
-2.468445
 30
0.0
 11
28.6651095
 21
-2.701685
 31
0.0
  0
LINE
  5
1BB
330
F2
100
AcDbEntity
  8
AM_4
100
AcDbLine
 10
28.77611
 20
-2.42957
 30
0.0
 11
28.6651095
 21
-2.468445
 31
0.0
  0
LINE
  5
1BC
330
F2
100
AcDbEntity
  8
AM_4
100
AcDbLine
 10
28.887115
 20
-1.8076
 30
0.0
 11
28.887115
 21
-2.15746
 31
0.0
  0
LINE
  5
1BD
330
F2
100
AcDbEntity
  8
AM_4
100
AcDbLine
 10
28.850115
 20
-1.65211
 30
0.0
 11
28.887115
 21
-1.8076
 31
0.0
  0
LINE
  5
1BE
330
F2
100
AcDbEntity
  8
AM_4
100
AcDbLine
 10
28.77611
 20
-1.53549
 30
0.0
 11
28.850115
 21
-1.65211
 31
0.0
  0
LINE
  5
1BF
330
F2
100
AcDbEntity
  8
AM_4
100
AcDbLine
 10
27.70309
 20
-2.42957
 30
0.0
 11
27.629085
 21
-2.31295
 31
0.0
  0
LINE
  5
1C0
330
F2
100
AcDbEntity
  8
AM_4
100
AcDbLine
 10
27.50988
 20
-0.2526755000000001
 30
0.0
 11
27.54688000000001
 21
-0.4470410000000001
 31
0.0
  0
LINE
  5
1C1
330
F2
100
AcDbEntity
  8
AM_4
100
AcDbLine
 10
27.50988
 20
0.68028
 30
0.0
 11
27.50988
 21
-0.2526755000000001
 31
0.0
  0
LINE
  5
1C2
330
F2
100
AcDbEntity
  8
AM_4
100
AcDbLine
 10
29.24892000000001
 20
0.6802799999999984
 30
0.0
 11
27.50988
 21
0.68028
 31
0.0
  0
LINE
  5
1C3
330
F2
100
AcDbEntity
  8
AM_4
100
AcDbLine
 10
29.24892000000001
 20
-0.2526754999999999
 30
0.0
 11
29.24892000000001
 21
0.6802799999999984
 31
0.0
  0
LINE
  5
1C4
330
F2
100
AcDbEntity
  8
AM_4
100
AcDbLine
 10
29.21192
 20
-0.447041
 30
0.0
 11
29.24892000000001
 21
-0.2526754999999999
 31
0.0
  0
LINE
  5
1C5
330
F2
100
AcDbEntity
  8
AM_4
100
AcDbLine
 10
29.137915
 20
-0.602535
 30
0.0
 11
29.21192
 21
-0.447041
 31
0.0
  0
LINE
  5
1C6
330
F2
100
AcDbEntity
  8
AM_4
100
AcDbLine
 10
28.989915
 20
-0.758025
 30
0.0
 11
29.137915
 21
-0.602535
 31
0.0
  0
LINE
  5
1C7
330
F2
100
AcDbEntity
  8
AM_4
100
AcDbLine
 10
28.84191000000001
 20
-0.835775
 30
0.0
 11
28.989915
 21
-0.758025
 31
0.0
  0
LINE
  5
1C8
330
F2
100
AcDbEntity
  8
AM_4
100
AcDbLine
 10
28.656906
 20
-0.8746450000000001
 30
0.0
 11
28.84191000000001
 21
-0.835775
 31
0.0
  0
LINE
  5
1C9
330
F2
100
AcDbEntity
  8
AM_4
100
AcDbLine
 10
28.10189400000001
 20
-0.8746450000000001
 30
0.0
 11
28.656906
 21
-0.8746450000000001
 31
0.0
  0
LINE
  5
1CA
330
F2
100
AcDbEntity
  8
AM_4
100
AcDbLine
 10
27.91689000000001
 20
-0.835775
 30
0.0
 11
28.10189400000001
 21
-0.8746450000000001
 31
0.0
  0
LINE
  5
1CB
330
F2
100
AcDbEntity
  8
AM_4
100
AcDbLine
 10
27.768885
 20
-0.758025
 30
0.0
 11
27.91689000000001
 21
-0.835775
 31
0.0
  0
LINE
  5
1CC
330
F2
100
AcDbEntity
  8
AM_4
100
AcDbLine
 10
27.620885
 20
-0.602535
 30
0.0
 11
27.768885
 21
-0.758025
 31
0.0
  0
LINE
  5
1CD
330
F2
100
AcDbEntity
  8
AM_4
100
AcDbLine
 10
27.54688000000001
 20
-0.4470410000000001
 30
0.0
 11
27.620885
 21
-0.602535
 31
0.0
  0
LINE
  5
1CE
330
F2
100
AcDbEntity
  8
AM_4
100
AcDbLine
 10
27.37008
 20
1.92422
 30
0.0
 11
27.37008
 21
1.613235
 31
0.0
  0
LINE
  5
1CF
330
F2
100
AcDbEntity
  8
AM_4
100
AcDbLine
 10
27.40708
 20
2.118585
 30
0.0
 11
27.37008
 21
1.92422
 31
0.0
  0
LINE
  5
1D0
330
F2
100
AcDbEntity
  8
AM_4
100
AcDbLine
 10
27.481085
 20
2.274079999999998
 30
0.0
 11
27.40708
 21
2.118585
 31
0.0
  0
LINE
  5
1D1
330
F2
100
AcDbEntity
  8
AM_4
100
AcDbLine
 10
27.629085
 20
2.42957
 30
0.0
 11
27.481085
 21
2.274079999999998
 31
0.0
  0
LINE
  5
1D2
330
F2
100
AcDbEntity
  8
AM_4
100
AcDbLine
 10
27.77709
 20
2.50732
 30
0.0
 11
27.629085
 21
2.42957
 31
0.0
  0
LINE
  5
1D3
330
F2
100
AcDbEntity
  8
AM_4
100
AcDbLine
 10
27.962094
 20
2.54619
 30
0.0
 11
27.77709
 21
2.50732
 31
0.0
  0
LINE
  5
1D4
330
F2
100
AcDbEntity
  8
AM_4
100
AcDbLine
 10
28.51710600000001
 20
2.54619
 30
0.0
 11
27.962094
 21
2.54619
 31
0.0
  0
LINE
  5
1D5
330
F2
100
AcDbEntity
  8
AM_4
100
AcDbLine
 10
28.70211
 20
2.50732
 30
0.0
 11
28.51710600000001
 21
2.54619
 31
0.0
  0
LINE
  5
1D6
330
F2
100
AcDbEntity
  8
AM_4
100
AcDbLine
 10
28.850115
 20
2.42957
 30
0.0
 11
28.70211
 21
2.50732
 31
0.0
  0
LINE
  5
1D7
330
F2
100
AcDbEntity
  8
AM_4
100
AcDbLine
 10
28.998115
 20
2.27408
 30
0.0
 11
28.850115
 21
2.42957
 31
0.0
  0
LINE
  5
1D8
330
F2
100
AcDbEntity
  8
AM_4
100
AcDbLine
 10
27.37008
 20
1.613235
 30
0.0
 11
27.40708
 21
1.41887
 31
0.0
  0
LINE
  5
1D9
330
F2
100
AcDbEntity
  8
AM_4
100
AcDbLine
 10
27.37008
 20
4.4121
 30
0.0
 11
27.37008
 21
3.479145
 31
0.0
  0
LINE
  5
1DA
330
F2
100
AcDbEntity
  8
AM_4
100
AcDbLine
 10
29.10912
 20
4.4121
 30
0.0
 11
27.37008
 21
4.4121
 31
0.0
  0
LINE
  5
1DB
330
F2
100
AcDbEntity
  8
AM_4
100
AcDbLine
 10
28.998115
 20
3.12929
 30
0.0
 11
29.07212
 21
3.28478
 31
0.0
  0
LINE
  5
1DC
330
F2
100
AcDbEntity
  8
AM_4
100
AcDbLine
 10
28.850115
 20
2.973795
 30
0.0
 11
28.998115
 21
3.12929
 31
0.0
  0
LINE
  5
1DD
330
F2
100
AcDbEntity
  8
AM_4
100
AcDbLine
 10
28.70211
 20
2.89605
 30
0.0
 11
28.850115
 21
2.973795
 31
0.0
  0
LINE
  5
1DE
330
F2
100
AcDbEntity
  8
AM_4
100
AcDbLine
 10
28.51710600000001
 20
2.857175
 30
0.0
 11
28.70211
 21
2.89605
 31
0.0
  0
LINE
  5
1DF
330
F2
100
AcDbEntity
  8
AM_4
100
AcDbLine
 10
27.962094
 20
2.857175
 30
0.0
 11
28.51710600000001
 21
2.857175
 31
0.0
  0
LINE
  5
1E0
330
F2
100
AcDbEntity
  8
AM_4
100
AcDbLine
 10
27.77709
 20
2.89605
 30
0.0
 11
27.962094
 21
2.857175
 31
0.0
  0
LINE
  5
1E1
330
F2
100
AcDbEntity
  8
AM_4
100
AcDbLine
 10
27.629085
 20
2.973795
 30
0.0
 11
27.77709
 21
2.89605
 31
0.0
  0
LINE
  5
1E2
330
F2
100
AcDbEntity
  8
AM_4
100
AcDbLine
 10
27.48108500000001
 20
3.12929
 30
0.0
 11
27.629085
 21
2.973795
 31
0.0
  0
LINE
  5
1E3
330
F2
100
AcDbEntity
  8
AM_4
100
AcDbLine
 10
27.40708
 20
3.28478
 30
0.0
 11
27.48108500000001
 21
3.12929
 31
0.0
  0
LINE
  5
1E4
330
F2
100
AcDbEntity
  8
AM_4
100
AcDbLine
 10
27.37008
 20
3.479145
 30
0.0
 11
27.40708
 21
3.28478
 31
0.0
  0
LINE
  5
1E5
330
F2
100
AcDbEntity
  8
AM_4
100
AcDbLine
 10
25.65087223941859
 20
19.09406390477969
 30
0.0
 11
32.00022957426743
 21
25.44342123962853
 31
0.0
  0
ARC
  5
1E6
330
F2
100
AcDbEntity
  8
AM_4
100
AcDbCircle
 10
30.58601601189433
 20
26.85763480200163
 30
0.0
 40
2.000000000000001
100
AcDbArc
 50
315.0000000000002
 51
44.99999999999977
  0
LINE
  5
1E7
330
F2
100
AcDbEntity
  8
AM_4
100
AcDbLine
 10
32.00022957426743
 20
28.27184836437472
 30
0.0
 11
25.44342123962853
 21
34.82865669901361
 31
0.0
  0
ARC
  5
1E8
330
F2
100
AcDbEntity
  8
AM_4
100
AcDbCircle
 10
24.02920767725544
 20
33.41444313664051
 30
0.0
 40
2.000000000000004
100
AcDbArc
 50
45.00000000000008
 51
134.9999999999999
  0
LINE
  5
1E9
330
F2
100
AcDbEntity
  8
AM_4
100
AcDbLine
 10
22.61499411488234
 20
34.82865669901361
 30
0.0
 11
15.66429346279351
 21
27.87795604692478
 31
0.0
  0
ARC
  5
1EA
330
F2
100
AcDbEntity
  8
AM_4
100
AcDbCircle
 10
0.000000000000016
 20
-0.0000000000000087
 30
0.0
 40
32.96215165526251
100
AcDbArc
 50
60.18927237053313
 51
36.91412321170235
  0
ARC
  5
1EB
330
F2
100
AcDbEntity
  8
AM_4
100
AcDbCircle
 10
0.0000000000000098
 20
-0.0000000000000058
 30
0.0
 40
31.97734390225032
100
AcDbArc
 50
60.6688833275148
 51
36.66335685197484
  0
ENDBLK
  5
F5
330
F2
100
AcDbEntity
  8
0
100
AcDbBlockEnd
  0
ENDSEC
  0
SECTION
  2
ENTITIES
  0
INSERT
  5
6F
330
1F
100
AcDbEntity
  8
0
100
AcDbBlockReference
  2
1_129323_0
 10
0.0
 20
0.0
 30
0.0
  0
POINT
  5
1ED
330
1F
100
AcDbEntity
  8
ConnectionPoints
100
AcDbPoint
 10
0.0000000000000016
 20
0.0
 30
15.1
  0
POINT
  5
1EE
330
1F
100
AcDbEntity
  8
ConnectionPoints
100
AcDbPoint
 10
0.0000000000000016
 20
0.0
 30
2.399999999999999
  0
POINT
  5
1EF
330
1F
100
AcDbEntity
  8
ConnectionPoints
100
AcDbPoint
 10
0.0
 20
0.0
 30
2.399999999999999
  0
ENDSEC
  0
SECTION
  2
OBJECTS
  0
DICTIONARY
  5
C
330
0
100
AcDbDictionary
281
     1
  3
ACAD_DETAILVIEWSTYLE
350
1F7
  3
ACAD_GROUP
350
D
  3
ACAD_LAYOUT
350
1A
  3
ACAD_MATERIAL
350
43
  3
ACAD_MLEADERSTYLE
350
6B
  3
ACAD_MLINESTYLE
350
17
  3
ACAD_PLOTSETTINGS
350
19
  3
ACAD_PLOTSTYLENAME
350
E
  3
ACAD_SCALELIST
350
47
  3
ACAD_SECTIONVIEWSTYLE
350
1F8
  3
ACAD_TABLESTYLE
350
69
  3
ACAD_VISUALSTYLE
350
2A
  3
ACDB_RECOMPOSE_DATA
350
1F4
  3
AcDbVariableDictionary
350
1F0
  0
SUN
  5
6D
330
29
100
AcDbSun
 90
        1
290
     0
 63
     7
421
 16777215
 40
1.0
291
     1
 91
  2455826
 92
 54000000
292
     0
 70
     2
 71
   256
280
     1
  0
DICTIONARY
  5
1F7
102
{ACAD_REACTORS
330
C
102
}
330
C
100
AcDbDictionary
281
     1
  0
DICTIONARY
  5
D
102
{ACAD_REACTORS
330
C
102
}
330
C
100
AcDbDictionary
281
     1
  0
DICTIONARY
  5
1A
102
{ACAD_REACTORS
330
C
102
}
330
C
100
AcDbDictionary
281
     1
  3
Layout1
350
1E
  3
Layout2
350
26
  3
Model
350
22
  0
DICTIONARY
  5
43
102
{ACAD_REACTORS
330
C
102
}
330
C
100
AcDbDictionary
281
     1
  3
ByBlock
350
45
  3
ByLayer
350
44
  3
Global
350
46
  0
DICTIONARY
  5
6B
102
{ACAD_REACTORS
330
C
102
}
330
C
100
AcDbDictionary
281
     1
  3
Standard
350
6C
  0
DICTIONARY
  5
17
102
{ACAD_REACTORS
330
C
102
}
330
C
100
AcDbDictionary
281
     1
  3
Standard
350
18
  0
DICTIONARY
  5
19
102
{ACAD_REACTORS
330
C
102
}
330
C
100
AcDbDictionary
281
     1
  0
ACDBDICTIONARYWDFLT
  5
E
102
{ACAD_REACTORS
330
C
102
}
330
C
100
AcDbDictionary
281
     1
  3
Normal
350
F
100
AcDbDictionaryWithDefault
340
F
  0
DICTIONARY
  5
47
102
{ACAD_REACTORS
330
C
102
}
330
C
100
AcDbDictionary
281
     1
  3
A0
350
48
  3
A1
350
49
  3
A2
350
4A
  3
A3
350
4B
  3
A4
350
4C
  3
A5
350
4D
  3
A6
350
4E
  3
A7
350
4F
  3
A8
350
50
  3
A9
350
51
  3
B0
350
52
  3
B1
350
53
  3
B2
350
54
  3
B3
350
55
  3
B4
350
56
  3
B5
350
57
  3
B6
350
58
  3
B7
350
59
  3
B8
350
5A
  3
B9
350
5B
  3
C0
350
5C
  3
C1
350
5D
  3
C2
350
5E
  3
C3
350
5F
  3
C4
350
60
  3
C5
350
61
  3
C6
350
62
  3
C7
350
63
  3
C8
350
64
  3
C9
350
65
  3
D0
350
66
  3
D1
350
67
  3
D2
350
68
  0
DICTIONARY
  5
1F8
102
{ACAD_REACTORS
330
C
102
}
330
C
100
AcDbDictionary
281
     1
  0
DICTIONARY
  5
69
102
{ACAD_REACTORS
330
C
102
}
330
C
100
AcDbDictionary
281
     1
  3
Standard
350
6A
  0
DICTIONARY
  5
2A
102
{ACAD_REACTORS
330
C
102
}
330
C
100
AcDbDictionary
281
     1
  3
2dWireframe
350
2F
  3
Basic
350
32
  3
Brighten
350
36
  3
ColorChange
350
3A
  3
Conceptual
350
34
  3
Dim
350
35
  3
EdgeColorOff
350
3D
  3
Facepattern
350
39
  3
Flat
350
2B
  3
FlatWithEdges
350
2C
  3
Gouraud
350
2D
  3
GouraudWithEdges
350
2E
  3
Hidden
350
31
  3
JitterOff
350
3B
  3
Linepattern
350
38
  3
OverhangOff
350
3C
  3
Realistic
350
33
  3
Shaded
350
42
  3
Shaded with edges
350
41
  3
Shades of Gray
350
3E
  3
Sketchy
350
3F
  3
Thicken
350
37
  3
Wireframe
350
30
  3
X-Ray
350
40
  0
XRECORD
  5
1F4
102
{ACAD_REACTORS
330
C
102
}
330
C
100
AcDbXrecord
280
     1
 90
        1
330
6A
  0
DICTIONARY
  5
1F0
102
{ACAD_REACTORS
330
C
102
}
330
C
100
AcDbDictionary
281
     1
  3
CANNOSCALE
350
1F1
  3
CMLEADERSTYLE
350
1F6
  3
CTABLESTYLE
350
1F5
  0
LAYOUT
  5
1E
102
{ACAD_REACTORS
330
1A
102
}
330
1A
100
AcDbPlotSettings
  1

  2
none_device
  4

  6

 40
0.0
 41
0.0
 42
0.0
 43
0.0
 44
0.0
 45
0.0
 46
0.0
 47
0.0
 48
0.0
 49
0.0
140
0.0
141
0.0
142
1.0
143
1.0
 70
   688
 72
     1
 73
     0
 74
     5
  7

 75
    16
 76
     0
 77
     2
 78
   300
147
1.0
148
0.0
149
0.0
100
AcDbLayout
  1
Layout1
 70
     1
 71
     1
 10
0.0
 20
0.0
 11
420.0
 21
297.0
 12
0.0
 22
0.0
 32
0.0
 14
1.000000000000000E+20
 24
1.000000000000000E+20
 34
1.000000000000000E+20
 15
-1.000000000000000E+20
 25
-1.000000000000000E+20
 35
-1.000000000000000E+20
146
0.0
 13
0.0
 23
0.0
 33
0.0
 16
1.0
 26
0.0
 36
0.0
 17
0.0
 27
1.0
 37
0.0
 76
     0
330
1B
  0
LAYOUT
  5
26
102
{ACAD_REACTORS
330
1A
102
}
330
1A
100
AcDbPlotSettings
  1

  2
none_device
  4

  6

 40
0.0
 41
0.0
 42
0.0
 43
0.0
 44
0.0
 45
0.0
 46
0.0
 47
0.0
 48
0.0
 49
0.0
140
0.0
141
0.0
142
1.0
143
1.0
 70
   688
 72
     1
 73
     0
 74
     5
  7

 75
    16
 76
     0
 77
     2
 78
   300
147
1.0
148
0.0
149
0.0
100
AcDbLayout
  1
Layout2
 70
     1
 71
     2
 10
0.0
 20
0.0
 11
0.0
 21
0.0
 12
0.0
 22
0.0
 32
0.0
 14
0.0
 24
0.0
 34
0.0
 15
0.0
 25
0.0
 35
0.0
146
0.0
 13
0.0
 23
0.0
 33
0.0
 16
1.0
 26
0.0
 36
0.0
 17
0.0
 27
1.0
 37
0.0
 76
     0
330
23
  0
LAYOUT
  5
22
102
{ACAD_REACTORS
330
1A
102
}
330
1A
100
AcDbPlotSettings
  1

  2
none_device
  4
Letter_(8.50_x_11.00_Inches)
  6

 40
6.35
 41
6.35
 42
6.35000508
 43
6.35000508
 44
215.9
 45
279.4
 46
0.0
 47
0.0
 48
0.0
 49
0.0
140
0.0
141
0.0
142
1.0
143
1.0
 70
  1712
 72
     1
 73
     0
 74
     0
  7

 75
     0
 76
     0
 77
     2
 78
   300
147
1.0
148
0.0
149
0.0
100
AcDbLayout
  1
Model
 70
     1
 71
     0
 10
0.0
 20
0.0
 11
420.0
 21
297.0
 12
0.0
 22
0.0
 32
0.0
 14
1.000000000000000E+20
 24
1.000000000000000E+20
 34
1.000000000000000E+20
 15
-1.000000000000000E+20
 25
-1.000000000000000E+20
 35
-1.000000000000000E+20
146
0.0
 13
0.0
 23
0.0
 33
0.0
 16
1.0
 26
0.0
 36
0.0
 17
0.0
 27
1.0
 37
0.0
 76
     0
330
1F
331
29
  0
MATERIAL
  5
45
102
{ACAD_REACTORS
330
43
102
}
330
43
100
AcDbMaterial
  1
ByBlock
 72
     1
 94
      127
  0
MATERIAL
  5
44
102
{ACAD_REACTORS
330
43
102
}
330
43
100
AcDbMaterial
  1
ByLayer
 72
     1
 94
      127
  0
MATERIAL
  5
46
102
{ACAD_REACTORS
330
43
102
}
330
43
100
AcDbMaterial
  1
Global
 72
     1
 94
      127
  0
MLEADERSTYLE
  5
6C
102
{ACAD_REACTORS
330
6B
102
}
330
6B
100
AcDbMLeaderStyle
179
     2
170
     2
171
     1
172
     0
 90
        2
 40
0.0
 41
0.0
173
     1
 91
-1056964608
340
14
 92
       -2
290
     1
 42
2.0
291
     1
 43
8.0
  3
Standard
341
0
 44
4.0
300

342
11
174
     1
178
     6
175
     1
176
     0
 93
-1056964608
 45
4.0
292
     0
297
     0
 46
4.0
343
0
 94
-1056964608
 47
1.0
 49
1.0
140
1.0
293
     1
141
0.0
294
     1
177
     0
142
1.0
295
     0
296
     0
143
3.75
271
     0
272
     9
273
     9
298
     0
  0
MLINESTYLE
  5
18
102
{ACAD_REACTORS
330
17
102
}
330
17
100
AcDbMlineStyle
  2
Standard
 70
     0
  3

 62
   256
 51
90.0
 52
90.0
 71
     2
 49
0.5
 62
   256
  6
BYLAYER
 49
-0.5
 62
   256
  6
BYLAYER
  0
ACDBPLACEHOLDER
  5
F
102
{ACAD_REACTORS
330
E
102
}
330
E
  0
SCALE
  5
48
102
{ACAD_REACTORS
330
47
102
}
330
47
100
AcDbScale
 70
     0
300
1:1
140
1.0
141
1.0
290
     1
  0
SCALE
  5
49
102
{ACAD_REACTORS
330
47
102
}
330
47
100
AcDbScale
 70
     0
300
1:2
140
1.0
141
2.0
290
     0
  0
SCALE
  5
4A
102
{ACAD_REACTORS
330
47
102
}
330
47
100
AcDbScale
 70
     0
300
1:4
140
1.0
141
4.0
290
     0
  0
SCALE
  5
4B
102
{ACAD_REACTORS
330
47
102
}
330
47
100
AcDbScale
 70
     0
300
1:5
140
1.0
141
5.0
290
     0
  0
SCALE
  5
4C
102
{ACAD_REACTORS
330
47
102
}
330
47
100
AcDbScale
 70
     0
300
1:8
140
1.0
141
8.0
290
     0
  0
SCALE
  5
4D
102
{ACAD_REACTORS
330
47
102
}
330
47
100
AcDbScale
 70
     0
300
1:10
140
1.0
141
10.0
290
     0
  0
SCALE
  5
4E
102
{ACAD_REACTORS
330
47
102
}
330
47
100
AcDbScale
 70
     0
300
1:16
140
1.0
141
16.0
290
     0
  0
SCALE
  5
4F
102
{ACAD_REACTORS
330
47
102
}
330
47
100
AcDbScale
 70
     0
300
1:20
140
1.0
141
20.0
290
     0
  0
SCALE
  5
50
102
{ACAD_REACTORS
330
47
102
}
330
47
100
AcDbScale
 70
     0
300
1:30
140
1.0
141
30.0
290
     0
  0
SCALE
  5
51
102
{ACAD_REACTORS
330
47
102
}
330
47
100
AcDbScale
 70
     0
300
1:40
140
1.0
141
40.0
290
     0
  0
SCALE
  5
52
102
{ACAD_REACTORS
330
47
102
}
330
47
100
AcDbScale
 70
     0
300
1:50
140
1.0
141
50.0
290
     0
  0
SCALE
  5
53
102
{ACAD_REACTORS
330
47
102
}
330
47
100
AcDbScale
 70
     0
300
1:100
140
1.0
141
100.0
290
     0
  0
SCALE
  5
54
102
{ACAD_REACTORS
330
47
102
}
330
47
100
AcDbScale
 70
     0
300
2:1
140
2.0
141
1.0
290
     0
  0
SCALE
  5
55
102
{ACAD_REACTORS
330
47
102
}
330
47
100
AcDbScale
 70
     0
300
4:1
140
4.0
141
1.0
290
     0
  0
SCALE
  5
56
102
{ACAD_REACTORS
330
47
102
}
330
47
100
AcDbScale
 70
     0
300
8:1
140
8.0
141
1.0
290
     0
  0
SCALE
  5
57
102
{ACAD_REACTORS
330
47
102
}
330
47
100
AcDbScale
 70
     0
300
10:1
140
10.0
141
1.0
290
     0
  0
SCALE
  5
58
102
{ACAD_REACTORS
330
47
102
}
330
47
100
AcDbScale
 70
     0
300
100:1
140
100.0
141
1.0
290
     0
  0
SCALE
  5
59
102
{ACAD_REACTORS
330
47
102
}
330
47
100
AcDbScale
 70
     0
300
1/128" = 1'-0"
140
0.0078125
141
12.0
290
     0
  0
SCALE
  5
5A
102
{ACAD_REACTORS
330
47
102
}
330
47
100
AcDbScale
 70
     0
300
1/64" = 1'-0"
140
0.015625
141
12.0
290
     0
  0
SCALE
  5
5B
102
{ACAD_REACTORS
330
47
102
}
330
47
100
AcDbScale
 70
     0
300
1/32" = 1'-0"
140
0.03125
141
12.0
290
     0
  0
SCALE
  5
5C
102
{ACAD_REACTORS
330
47
102
}
330
47
100
AcDbScale
 70
     0
300
1/16" = 1'-0"
140
0.0625
141
12.0
290
     0
  0
SCALE
  5
5D
102
{ACAD_REACTORS
330
47
102
}
330
47
100
AcDbScale
 70
     0
300
3/32" = 1'-0"
140
0.09375
141
12.0
290
     0
  0
SCALE
  5
5E
102
{ACAD_REACTORS
330
47
102
}
330
47
100
AcDbScale
 70
     0
300
1/8" = 1'-0"
140
0.125
141
12.0
290
     0
  0
SCALE
  5
5F
102
{ACAD_REACTORS
330
47
102
}
330
47
100
AcDbScale
 70
     0
300
3/16" = 1'-0"
140
0.1875
141
12.0
290
     0
  0
SCALE
  5
60
102
{ACAD_REACTORS
330
47
102
}
330
47
100
AcDbScale
 70
     0
300
1/4" = 1'-0"
140
0.25
141
12.0
290
     0
  0
SCALE
  5
61
102
{ACAD_REACTORS
330
47
102
}
330
47
100
AcDbScale
 70
     0
300
3/8" = 1'-0"
140
0.375
141
12.0
290
     0
  0
SCALE
  5
62
102
{ACAD_REACTORS
330
47
102
}
330
47
100
AcDbScale
 70
     0
300
1/2" = 1'-0"
140
0.5
141
12.0
290
     0
  0
SCALE
  5
63
102
{ACAD_REACTORS
330
47
102
}
330
47
100
AcDbScale
 70
     0
300
3/4" = 1'-0"
140
0.75
141
12.0
290
     0
  0
SCALE
  5
64
102
{ACAD_REACTORS
330
47
102
}
330
47
100
AcDbScale
 70
     0
300
1" = 1'-0"
140
1.0
141
12.0
290
     0
  0
SCALE
  5
65
102
{ACAD_REACTORS
330
47
102
}
330
47
100
AcDbScale
 70
     0
300
1-1/2" = 1'-0"
140
1.5
141
12.0
290
     0
  0
SCALE
  5
66
102
{ACAD_REACTORS
330
47
102
}
330
47
100
AcDbScale
 70
     0
300
3" = 1'-0"
140
3.0
141
12.0
290
     0
  0
SCALE
  5
67
102
{ACAD_REACTORS
330
47
102
}
330
47
100
AcDbScale
 70
     0
300
6" = 1'-0"
140
6.0
141
12.0
290
     0
  0
SCALE
  5
68
102
{ACAD_REACTORS
330
47
102
}
330
47
100
AcDbScale
 70
     0
300
1'-0" = 1'-0"
140
12.0
141
12.0
290
     0
  0
TABLESTYLE
  5
6A
102
{ACAD_REACTORS
330
69
102
}
102
{ACAD_XDICTIONARY
360
1F2
102
}
330
69
100
AcDbTableStyle
  3
Standard
 70
     0
 71
     0
 40
0.06
 41
0.06
280
     0
281
     0
  7
Standard
140
4.5
170
     2
 62
     0
 63
   257
283
     0
 90
        4
 91
        0
  1

274
    -2
284
     1
 64
     0
275
    -2
285
     1
 65
     0
276
    -2
286
     1
 66
     0
277
    -2
287
     1
 67
     0
278
    -2
288
     1
 68
     0
279
    -2
289
     1
 69
     0
  7
Standard
140
6.0
170
     5
 62
     0
 63
   257
283
     0
 90
        4
 91
        0
  1

274
    -2
284
     1
 64
     0
275
    -2
285
     1
 65
     0
276
    -2
286
     1
 66
     0
277
    -2
287
     1
 67
     0
278
    -2
288
     1
 68
     0
279
    -2
289
     1
 69
     0
  7
Standard
140
4.5
170
     5
 62
     0
 63
   257
283
     0
 90
        4
 91
        0
  1

274
    -2
284
     1
 64
     0
275
    -2
285
     1
 65
     0
276
    -2
286
     1
 66
     0
277
    -2
287
     1
 67
     0
278
    -2
288
     1
 68
     0
279
    -2
289
     1
 69
     0
  0
VISUALSTYLE
  5
2F
102
{ACAD_REACTORS
330
2A
102
}
330
2A
100
AcDbVisualStyle
  2
2dWireframe
 70
     4
177
     3
291
     0
 70
    58
 90
        0
176
     1
 90
        2
176
     1
 90
        0
176
     1
 90
        0
176
     1
 40
0.6
176
     1
 40
30.0
176
     1
 62
     7
420
 16777215
176
     1
 90
        1
176
     1
 90
        4
176
     1
 62
     7
176
     1
 62
   257
176
     1
 90
        1
176
     1
 90
        1
176
     1
 40
1.0
176
     1
 90
        0
176
     1
 62
   257
176
     1
 40
1.0
176
     1
 90
        1
176
     1
 90
        6
176
     1
 90
        2
176
     1
 62
     7
176
     1
 90
        5
176
     1
 90
        0
176
     1
 90
        0
176
     1
290
     0
176
     1
 90
        1
176
     1
 40
0.0
176
     1
 90
        0
176
     1
290
     1
176
     1
290
     1
176
     1
290
     0
176
     1
290
     0
176
     1
290
     0
176
     1
290
     0
176
     1
290
     0
176
     1
290
     0
176
     1
290
     0
176
     1
 90
       50
176
     1
 40
0.0
176
     1
 40
1.0
176
     1
 90
        0
176
     1
 62
    18
420
        0
176
     1
 90
       50
176
     1
 90
        3
176
     1
 62
     5
420
      255
176
     1
290
     0
176
     1
 90
       50
176
     1
 90
       50
176
     1
 90
       50
176
     1
290
     0
176
     1
 90
       50
176
     1
 62
   256
176
     0
 40
1.0
176
     0
 90
        2
176
     1
  1
strokes_ogs.tif
176
     1
290
     0
176
     1
 40
1.0
176
     1
 40
1.0
176
     1
  0
VISUALSTYLE
  5
32
102
{ACAD_REACTORS
330
2A
102
}
330
2A
100
AcDbVisualStyle
  2
Basic
 70
     7
177
     3
291
     1
 70
    58
 90
        1
176
     1
 90
        0
176
     1
 90
        1
176
     1
 90
        0
176
     1
 40
0.6
176
     1
 40
30.0
176
     1
 62
     7
420
 16777215
176
     1
 90
        0
176
     1
 90
        4
176
     1
 62
     7
176
     1
 62
   257
176
     1
 90
        1
176
     1
 90
        1
176
     1
 40
1.0
176
     1
 90
        8
176
     1
 62
     7
176
     1
 40
1.0
176
     1
 90
        1
176
     1
 90
        6
176
     1
 90
        2
176
     1
 62
     7
176
     1
 90
        5
176
     1
 90
        0
176
     1
 90
        0
176
     1
290
     0
176
     1
 90
        1
176
     1
 40
0.0
176
     1
 90
        0
176
     1
290
     0
176
     1
290
     1
176
     1
290
     1
176
     1
290
     0
176
     1
290
     0
176
     1
290
     0
176
     1
290
     0
176
     1
290
     0
176
     1
290
     0
176
     1
 90
       50
176
     1
 40
0.0
176
     1
 40
1.0
176
     1
 90
        0
176
     1
 62
    18
420
        0
176
     1
 90
       50
176
     1
 90
        3
176
     1
 62
     5
420
      255
176
     1
290
     0
176
     1
 90
       50
176
     1
 90
       50
176
     1
 90
       50
176
     1
290
     0
176
     1
 90
       50
176
     1
 62
   256
176
     0
 40
1.0
176
     0
 90
        2
176
     1
  1
strokes_ogs.tif
176
     1
290
     0
176
     1
 40
1.0
176
     1
 40
1.0
176
     1
  0
VISUALSTYLE
  5
36
102
{ACAD_REACTORS
330
2A
102
}
330
2A
100
AcDbVisualStyle
  2
Brighten
 70
    12
177
     3
291
     1
 70
    58
 90
        2
176
     1
 90
        2
176
     1
 90
        0
176
     1
 90
        0
176
     1
 40
0.6
176
     1
 40
30.0
176
     1
 62
     7
420
 16777215
176
     1
 90
        1
176
     1
 90
        4
176
     1
 62
     7
176
     1
 62
   257
176
     1
 90
        1
176
     1
 90
        1
176
     1
 40
1.0
176
     1
 90
        8
176
     1
 62
     7
176
     1
 40
1.0
176
     1
 90
        1
176
     1
 90
        6
176
     1
 90
        2
176
     1
 62
     7
176
     1
 90
        5
176
     1
 90
        0
176
     1
 90
        0
176
     1
290
     0
176
     1
 90
        1
176
     1
 40
50.0
176
     1
 90
        0
176
     1
290
     0
176
     1
290
     1
176
     1
290
     1
176
     1
290
     0
176
     1
290
     0
176
     1
290
     0
176
     1
290
     0
176
     1
290
     0
176
     1
290
     0
176
     1
 90
       50
176
     1
 40
0.0
176
     1
 40
1.0
176
     1
 90
        0
176
     1
 62
    18
420
        0
176
     1
 90
       50
176
     1
 90
        3
176
     1
 62
     5
420
      255
176
     1
290
     0
176
     1
 90
       50
176
     1
 90
       50
176
     1
 90
       50
176
     1
290
     0
176
     1
 90
       50
176
     1
 62
   256
176
     0
 40
1.0
176
     0
 90
        2
176
     1
  1
strokes_ogs.tif
176
     1
290
     0
176
     1
 40
1.0
176
     1
 40
1.0
176
     1
  0
VISUALSTYLE
  5
3A
102
{ACAD_REACTORS
330
2A
102
}
330
2A
100
AcDbVisualStyle
  2
ColorChange
 70
    16
177
     3
291
     1
 70
    58
 90
        2
176
     1
 90
        2
176
     1
 90
        3
176
     1
 90
        0
176
     1
 40
0.6
176
     1
 40
30.0
176
     1
 62
     8
420
  8421504
176
     1
 90
        1
176
     1
 90
        4
176
     1
 62
     7
176
     1
 62
   257
176
     1
 90
        1
176
     1
 90
        1
176
     1
 40
1.0
176
     1
 90
        8
176
     1
 62
     8
420
  8421504
176
     1
 40
1.0
176
     1
 90
        1
176
     1
 90
        6
176
     1
 90
        2
176
     1
 62
     7
176
     1
 90
        5
176
     1
 90
        0
176
     1
 90
        0
176
     1
290
     0
176
     1
 90
        1
176
     1
 40
0.0
176
     1
 90
        0
176
     1
290
     0
176
     1
290
     1
176
     1
290
     1
176
     1
290
     0
176
     1
290
     0
176
     1
290
     0
176
     1
290
     0
176
     1
290
     0
176
     1
290
     0
176
     1
 90
       50
176
     1
 40
0.0
176
     1
 40
1.0
176
     1
 90
        0
176
     1
 62
    18
420
        0
176
     1
 90
       50
176
     1
 90
        3
176
     1
 62
     5
420
      255
176
     1
290
     0
176
     1
 90
       50
176
     1
 90
       50
176
     1
 90
       50
176
     1
290
     0
176
     1
 90
       50
176
     1
 62
   256
176
     0
 40
1.0
176
     0
 90
        2
176
     1
  1
strokes_ogs.tif
176
     1
290
     0
176
     1
 40
1.0
176
     1
 40
1.0
176
     1
  0
VISUALSTYLE
  5
34
102
{ACAD_REACTORS
330
2A
102
}
330
2A
100
AcDbVisualStyle
  2
Conceptual
 70
     9
177
     3
291
     0
 70
    58
 90
        3
176
     1
 90
        2
176
     1
 90
        0
176
     1
 90
        0
176
     1
 40
0.6
176
     1
 40
30.0
176
     1
 62
     7
420
 16777215
176
     1
 90
        2
176
     1
 90
        2
176
     1
 62
     7
176
     1
 62
   257
176
     1
 90
        1
176
     1
 90
        1
176
     1
 40
179.0
176
     1
 90
        8
176
     1
 62
     7
176
     1
 40
1.0
176
     1
 90
        1
176
     1
 90
        6
176
     1
 90
        2
176
     1
 62
     7
176
     1
 90
        3
176
     1
 90
        0
176
     1
 90
        0
176
     1
290
     0
176
     1
 90
        1
176
     1
 40
0.0
176
     1
 90
        0
176
     1
290
     0
176
     1
290
     1
176
     1
290
     1
176
     1
290
     0
176
     1
290
     0
176
     1
290
     0
176
     1
290
     0
176
     1
290
     0
176
     1
290
     0
176
     1
 90
       50
176
     1
 40
0.0
176
     1
 40
1.0
176
     1
 90
        0
176
     1
 62
    18
420
        0
176
     1
 90
       50
176
     1
 90
        3
176
     1
 62
     5
420
      255
176
     1
290
     0
176
     1
 90
       50
176
     1
 90
       50
176
     1
 90
       50
176
     1
290
     0
176
     1
 90
       50
176
     1
 62
   256
176
     0
 40
1.0
176
     0
 90
        2
176
     1
  1
strokes_ogs.tif
176
     1
290
     0
176
     1
 40
1.0
176
     1
 40
1.0
176
     1
  0
VISUALSTYLE
  5
35
102
{ACAD_REACTORS
330
2A
102
}
330
2A
100
AcDbVisualStyle
  2
Dim
 70
    11
177
     3
291
     1
 70
    58
 90
        2
176
     1
 90
        2
176
     1
 90
        0
176
     1
 90
        0
176
     1
 40
0.6
176
     1
 40
30.0
176
     1
 62
     7
420
 16777215
176
     1
 90
        1
176
     1
 90
        4
176
     1
 62
     7
176
     1
 62
   257
176
     1
 90
        1
176
     1
 90
        1
176
     1
 40
1.0
176
     1
 90
        8
176
     1
 62
     7
176
     1
 40
1.0
176
     1
 90
        1
176
     1
 90
        6
176
     1
 90
        2
176
     1
 62
     7
176
     1
 90
        5
176
     1
 90
        0
176
     1
 90
        0
176
     1
290
     0
176
     1
 90
        1
176
     1
 40
-50.0
176
     1
 90
        0
176
     1
290
     0
176
     1
290
     1
176
     1
290
     1
176
     1
290
     0
176
     1
290
     0
176
     1
290
     0
176
     1
290
     0
176
     1
290
     0
176
     1
290
     0
176
     1
 90
       50
176
     1
 40
0.0
176
     1
 40
1.0
176
     1
 90
        0
176
     1
 62
    18
420
        0
176
     1
 90
       50
176
     1
 90
        3
176
     1
 62
     5
420
      255
176
     1
290
     0
176
     1
 90
       50
176
     1
 90
       50
176
     1
 90
       50
176
     1
290
     0
176
     1
 90
       50
176
     1
 62
   256
176
     0
 40
1.0
176
     0
 90
        2
176
     1
  1
strokes_ogs.tif
176
     1
290
     0
176
     1
 40
1.0
176
     1
 40
1.0
176
     1
  0
VISUALSTYLE
  5
3D
102
{ACAD_REACTORS
330
2A
102
}
330
2A
100
AcDbVisualStyle
  2
EdgeColorOff
 70
    22
177
     3
291
     1
 70
    58
 90
        2
176
     0
 90
        2
176
     0
 90
        0
176
     0
 90
        0
176
     0
 40
0.6
176
     0
 40
30.0
176
     0
 62
     7
420
 16777215
176
     0
 90
        1
176
     0
 90
        4
176
     0
 62
     7
176
     0
 62
   257
176
     0
 90
        1
176
     0
 90
        1
176
     0
 40
1.0
176
     0
 90
        8
176
     2
 62
     7
176
     0
 40
1.0
176
     0
 90
        1
176
     0
 90
        6
176
     0
 90
        2
176
     0
 62
     7
176
     0
 90
        5
176
     0
 90
        0
176
     0
 90
        0
176
     0
290
     0
176
     0
 90
        1
176
     0
 40
0.0
176
     0
 90
        0
176
     0
290
     0
176
     0
290
     1
176
     0
290
     1
176
     0
290
     0
176
     0
290
     0
176
     0
290
     0
176
     0
290
     0
176
     0
290
     0
176
     0
290
     0
176
     0
 90
       50
176
     0
 40
0.0
176
     0
 40
1.0
176
     0
 90
        0
176
     0
 62
    18
420
        0
176
     0
 90
       50
176
     0
 90
        3
176
     0
 62
     5
420
      255
176
     0
290
     0
176
     0
 90
       50
176
     0
 90
       50
176
     0
 90
       50
176
     0
290
     0
176
     0
 90
       50
176
     0
 62
   256
176
     0
 40
1.0
176
     0
 90
        2
176
     0
  1
strokes_ogs.tif
176
     0
290
     0
176
     0
 40
1.0
176
     0
 40
1.0
176
     0
  0
VISUALSTYLE
  5
39
102
{ACAD_REACTORS
330
2A
102
}
330
2A
100
AcDbVisualStyle
  2
Facepattern
 70
    15
177
     3
291
     1
 70
    58
 90
        2
176
     1
 90
        2
176
     1
 90
        0
176
     1
 90
        0
176
     1
 40
0.6
176
     1
 40
30.0
176
     1
 62
     7
420
 16777215
176
     1
 90
        1
176
     1
 90
        4
176
     1
 62
     7
176
     1
 62
   257
176
     1
 90
        1
176
     1
 90
        1
176
     1
 40
1.0
176
     1
 90
        8
176
     1
 62
     7
176
     1
 40
1.0
176
     1
 90
        1
176
     1
 90
        6
176
     1
 90
        2
176
     1
 62
     7
176
     1
 90
        5
176
     1
 90
        0
176
     1
 90
        0
176
     1
290
     0
176
     1
 90
        1
176
     1
 40
0.0
176
     1
 90
        0
176
     1
290
     0
176
     1
290
     1
176
     1
290
     1
176
     1
290
     0
176
     1
290
     0
176
     1
290
     0
176
     1
290
     0
176
     1
290
     0
176
     1
290
     0
176
     1
 90
       50
176
     1
 40
0.0
176
     1
 40
1.0
176
     1
 90
        0
176
     1
 62
    18
420
        0
176
     1
 90
       50
176
     1
 90
        3
176
     1
 62
     5
420
      255
176
     1
290
     0
176
     1
 90
       50
176
     1
 90
       50
176
     1
 90
       50
176
     1
290
     0
176
     1
 90
       50
176
     1
 62
   256
176
     0
 40
1.0
176
     0
 90
        2
176
     1
  1
strokes_ogs.tif
176
     1
290
     0
176
     1
 40
1.0
176
     1
 40
1.0
176
     1
  0
VISUALSTYLE
  5
2B
102
{ACAD_REACTORS
330
2A
102
}
330
2A
100
AcDbVisualStyle
  2
Flat
 70
     0
177
     3
291
     1
 70
    58
 90
        2
176
     1
 90
        1
176
     1
 90
        1
176
     1
 90
        2
176
     1
 40
0.6
176
     1
 40
30.0
176
     1
 62
     7
420
 16777215
176
     1
 90
        0
176
     1
 90
        0
176
     1
 62
     7
176
     1
 62
   257
176
     1
 90
        1
176
     1
 90
        1
176
     1
 40
1.0
176
     1
 90
        8
176
     1
 62
     7
176
     1
 40
1.0
176
     1
 90
        1
176
     1
 90
        6
176
     1
 90
        2
176
     1
 62
     7
176
     1
 90
        5
176
     1
 90
        0
176
     1
 90
        0
176
     1
290
     0
176
     1
 90
       13
176
     1
 40
0.0
176
     1
 90
        0
176
     1
290
     0
176
     1
290
     1
176
     1
290
     1
176
     1
290
     0
176
     1
290
     0
176
     1
290
     0
176
     1
290
     0
176
     1
290
     0
176
     1
290
     0
176
     1
 90
       50
176
     1
 40
0.0
176
     1
 40
1.0
176
     1
 90
        0
176
     1
 62
    18
420
        0
176
     1
 90
       50
176
     1
 90
        3
176
     1
 62
     5
420
      255
176
     1
290
     0
176
     1
 90
       50
176
     1
 90
       50
176
     1
 90
       50
176
     1
290
     0
176
     1
 90
       50
176
     1
 62
   256
176
     0
 40
1.0
176
     0
 90
        2
176
     1
  1
strokes_ogs.tif
176
     1
290
     0
176
     1
 40
1.0
176
     1
 40
1.0
176
     1
  0
VISUALSTYLE
  5
2C
102
{ACAD_REACTORS
330
2A
102
}
330
2A
100
AcDbVisualStyle
  2
FlatWithEdges
 70
     1
177
     3
291
     1
 70
    58
 90
        2
176
     1
 90
        1
176
     1
 90
        1
176
     1
 90
        2
176
     1
 40
0.6
176
     1
 40
30.0
176
     1
 62
     7
420
 16777215
176
     1
 90
        1
176
     1
 90
        0
176
     1
 62
     7
176
     1
 62
   257
176
     1
 90
        1
176
     1
 90
        1
176
     1
 40
1.0
176
     1
 90
        0
176
     1
 62
   257
176
     1
 40
1.0
176
     1
 90
        1
176
     1
 90
        6
176
     1
 90
        2
176
     1
 62
     7
176
     1
 90
        5
176
     1
 90
        0
176
     1
 90
        0
176
     1
290
     0
176
     1
 90
       13
176
     1
 40
0.0
176
     1
 90
        0
176
     1
290
     0
176
     1
290
     1
176
     1
290
     1
176
     1
290
     0
176
     1
290
     0
176
     1
290
     0
176
     1
290
     0
176
     1
290
     0
176
     1
290
     0
176
     1
 90
       50
176
     1
 40
0.0
176
     1
 40
1.0
176
     1
 90
        0
176
     1
 62
    18
420
        0
176
     1
 90
       50
176
     1
 90
        3
176
     1
 62
     5
420
      255
176
     1
290
     0
176
     1
 90
       50
176
     1
 90
       50
176
     1
 90
       50
176
     1
290
     0
176
     1
 90
       50
176
     1
 62
   256
176
     0
 40
1.0
176
     0
 90
        2
176
     1
  1
strokes_ogs.tif
176
     1
290
     0
176
     1
 40
1.0
176
     1
 40
1.0
176
     1
  0
VISUALSTYLE
  5
2D
102
{ACAD_REACTORS
330
2A
102
}
330
2A
100
AcDbVisualStyle
  2
Gouraud
 70
     2
177
     3
291
     1
 70
    58
 90
        2
176
     1
 90
        2
176
     1
 90
        1
176
     1
 90
        2
176
     1
 40
0.6
176
     1
 40
30.0
176
     1
 62
     7
420
 16777215
176
     1
 90
        0
176
     1
 90
        0
176
     1
 62
     7
176
     1
 62
   257
176
     1
 90
        1
176
     1
 90
        1
176
     1
 40
1.0
176
     1
 90
        0
176
     1
 62
     7
176
     1
 40
1.0
176
     1
 90
        1
176
     1
 90
        6
176
     1
 90
        2
176
     1
 62
     7
176
     1
 90
        5
176
     1
 90
        0
176
     1
 90
        0
176
     1
290
     0
176
     1
 90
       13
176
     1
 40
0.0
176
     1
 90
        0
176
     1
290
     0
176
     1
290
     1
176
     1
290
     1
176
     1
290
     0
176
     1
290
     0
176
     1
290
     0
176
     1
290
     0
176
     1
290
     0
176
     1
290
     0
176
     1
 90
       50
176
     1
 40
0.0
176
     1
 40
1.0
176
     1
 90
        0
176
     1
 62
    18
420
        0
176
     1
 90
       50
176
     1
 90
        3
176
     1
 62
     5
420
      255
176
     1
290
     0
176
     1
 90
       50
176
     1
 90
       50
176
     1
 90
       50
176
     1
290
     0
176
     1
 90
       50
176
     1
 62
   256
176
     0
 40
1.0
176
     0
 90
        2
176
     1
  1
strokes_ogs.tif
176
     1
290
     0
176
     1
 40
1.0
176
     1
 40
1.0
176
     1
  0
VISUALSTYLE
  5
2E
102
{ACAD_REACTORS
330
2A
102
}
330
2A
100
AcDbVisualStyle
  2
GouraudWithEdges
 70
     3
177
     3
291
     1
 70
    58
 90
        2
176
     1
 90
        2
176
     1
 90
        1
176
     1
 90
        2
176
     1
 40
0.6
176
     1
 40
30.0
176
     1
 62
     7
420
 16777215
176
     1
 90
        1
176
     1
 90
        0
176
     1
 62
     7
176
     1
 62
   257
176
     1
 90
        1
176
     1
 90
        1
176
     1
 40
1.0
176
     1
 90
        0
176
     1
 62
   257
176
     1
 40
1.0
176
     1
 90
        1
176
     1
 90
        6
176
     1
 90
        2
176
     1
 62
     7
176
     1
 90
        5
176
     1
 90
        0
176
     1
 90
        0
176
     1
290
     0
176
     1
 90
       13
176
     1
 40
0.0
176
     1
 90
        0
176
     1
290
     0
176
     1
290
     1
176
     1
290
     1
176
     1
290
     0
176
     1
290
     0
176
     1
290
     0
176
     1
290
     0
176
     1
290
     0
176
     1
290
     0
176
     1
 90
       50
176
     1
 40
0.0
176
     1
 40
1.0
176
     1
 90
        0
176
     1
 62
    18
420
        0
176
     1
 90
       50
176
     1
 90
        3
176
     1
 62
     5
420
      255
176
     1
290
     0
176
     1
 90
       50
176
     1
 90
       50
176
     1
 90
       50
176
     1
290
     0
176
     1
 90
       50
176
     1
 62
   256
176
     0
 40
1.0
176
     0
 90
        2
176
     1
  1
strokes_ogs.tif
176
     1
290
     0
176
     1
 40
1.0
176
     1
 40
1.0
176
     1
  0
VISUALSTYLE
  5
31
102
{ACAD_REACTORS
330
2A
102
}
330
2A
100
AcDbVisualStyle
  2
Hidden
 70
     6
177
     3
291
     0
 70
    58
 90
        1
176
     1
 90
        2
176
     1
 90
        2
176
     1
 90
        0
176
     1
 40
0.6
176
     1
 40
30.0
176
     1
 62
     7
420
 16777215
176
     1
 90
        2
176
     1
 90
        2
176
     1
 62
     7
176
     1
 62
   257
176
     1
 90
        2
176
     1
 90
        1
176
     1
 40
40.0
176
     1
 90
        0
176
     1
 62
   257
176
     1
 40
1.0
176
     1
 90
        1
176
     1
 90
        6
176
     1
 90
        2
176
     1
 62
     7
176
     1
 90
        3
176
     1
 90
        0
176
     1
 90
        0
176
     1
290
     0
176
     1
 90
        1
176
     1
 40
0.0
176
     1
 90
        0
176
     1
290
     0
176
     1
290
     1
176
     1
290
     1
176
     1
290
     0
176
     1
290
     0
176
     1
290
     0
176
     1
290
     0
176
     1
290
     0
176
     1
290
     0
176
     1
 90
       50
176
     1
 40
0.0
176
     1
 40
1.0
176
     1
 90
        0
176
     1
 62
    18
420
        0
176
     1
 90
       50
176
     1
 90
        3
176
     1
 62
     5
420
      255
176
     1
290
     0
176
     1
 90
       50
176
     1
 90
       50
176
     1
 90
       50
176
     1
290
     0
176
     1
 90
       50
176
     1
 62
   256
176
     0
 40
1.0
176
     0
 90
        2
176
     1
  1
strokes_ogs.tif
176
     1
290
     0
176
     1
 40
1.0
176
     1
 40
1.0
176
     1
  0
VISUALSTYLE
  5
3B
102
{ACAD_REACTORS
330
2A
102
}
330
2A
100
AcDbVisualStyle
  2
JitterOff
 70
    20
177
     3
291
     1
 70
    58
 90
        2
176
     0
 90
        2
176
     0
 90
        0
176
     0
 90
        0
176
     0
 40
0.6
176
     0
 40
30.0
176
     0
 62
     7
420
 16777215
176
     0
 90
        1
176
     0
 90
        4
176
     0
 62
     7
176
     0
 62
   257
176
     0
 90
        1
176
     0
 90
        1
176
     0
 40
1.0
176
     0
 90
       10
176
     2
 62
     7
176
     0
 40
1.0
176
     0
 90
        1
176
     0
 90
        6
176
     0
 90
        2
176
     0
 62
     7
176
     0
 90
        5
176
     0
 90
        0
176
     0
 90
        0
176
     0
290
     0
176
     0
 90
        1
176
     0
 40
0.0
176
     0
 90
        0
176
     0
290
     0
176
     0
290
     1
176
     0
290
     1
176
     0
290
     0
176
     0
290
     0
176
     0
290
     0
176
     0
290
     0
176
     0
290
     0
176
     0
290
     0
176
     0
 90
       50
176
     0
 40
0.0
176
     0
 40
1.0
176
     0
 90
        0
176
     0
 62
    18
420
        0
176
     0
 90
       50
176
     0
 90
        3
176
     0
 62
     5
420
      255
176
     0
290
     0
176
     0
 90
       50
176
     0
 90
       50
176
     0
 90
       50
176
     0
290
     0
176
     0
 90
       50
176
     0
 62
   256
176
     0
 40
1.0
176
     0
 90
        2
176
     0
  1
strokes_ogs.tif
176
     0
290
     0
176
     0
 40
1.0
176
     0
 40
1.0
176
     0
  0
VISUALSTYLE
  5
38
102
{ACAD_REACTORS
330
2A
102
}
330
2A
100
AcDbVisualStyle
  2
Linepattern
 70
    14
177
     3
291
     1
 70
    58
 90
        2
176
     1
 90
        2
176
     1
 90
        0
176
     1
 90
        0
176
     1
 40
0.6
176
     1
 40
30.0
176
     1
 62
     7
420
 16777215
176
     1
 90
        1
176
     1
 90
        4
176
     1
 62
     7
176
     1
 62
   257
176
     1
 90
        7
176
     1
 90
        7
176
     1
 40
1.0
176
     1
 90
        8
176
     1
 62
     7
176
     1
 40
1.0
176
     1
 90
        1
176
     1
 90
        6
176
     1
 90
        2
176
     1
 62
     7
176
     1
 90
        5
176
     1
 90
        0
176
     1
 90
        0
176
     1
290
     0
176
     1
 90
        1
176
     1
 40
0.0
176
     1
 90
        0
176
     1
290
     0
176
     1
290
     1
176
     1
290
     1
176
     1
290
     0
176
     1
290
     0
176
     1
290
     0
176
     1
290
     0
176
     1
290
     0
176
     1
290
     0
176
     1
 90
       50
176
     1
 40
0.0
176
     1
 40
1.0
176
     1
 90
        0
176
     1
 62
    18
420
        0
176
     1
 90
       50
176
     1
 90
        3
176
     1
 62
     5
420
      255
176
     1
290
     0
176
     1
 90
       50
176
     1
 90
       50
176
     1
 90
       50
176
     1
290
     0
176
     1
 90
       50
176
     1
 62
   256
176
     0
 40
1.0
176
     0
 90
        2
176
     1
  1
strokes_ogs.tif
176
     1
290
     0
176
     1
 40
1.0
176
     1
 40
1.0
176
     1
  0
VISUALSTYLE
  5
3C
102
{ACAD_REACTORS
330
2A
102
}
330
2A
100
AcDbVisualStyle
  2
OverhangOff
 70
    21
177
     3
291
     1
 70
    58
 90
        2
176
     0
 90
        2
176
     0
 90
        0
176
     0
 90
        0
176
     0
 40
0.6
176
     0
 40
30.0
176
     0
 62
     7
420
 16777215
176
     0
 90
        1
176
     0
 90
        4
176
     0
 62
     7
176
     0
 62
   257
176
     0
 90
        1
176
     0
 90
        1
176
     0
 40
1.0
176
     0
 90
        9
176
     2
 62
     7
176
     0
 40
1.0
176
     0
 90
        1
176
     0
 90
        6
176
     0
 90
        2
176
     0
 62
     7
176
     0
 90
        5
176
     0
 90
        0
176
     0
 90
        0
176
     0
290
     0
176
     0
 90
        1
176
     0
 40
0.0
176
     0
 90
        0
176
     0
290
     0
176
     0
290
     1
176
     0
290
     1
176
     0
290
     0
176
     0
290
     0
176
     0
290
     0
176
     0
290
     0
176
     0
290
     0
176
     0
290
     0
176
     0
 90
       50
176
     0
 40
0.0
176
     0
 40
1.0
176
     0
 90
        0
176
     0
 62
    18
420
        0
176
     0
 90
       50
176
     0
 90
        3
176
     0
 62
     5
420
      255
176
     0
290
     0
176
     0
 90
       50
176
     0
 90
       50
176
     0
 90
       50
176
     0
290
     0
176
     0
 90
       50
176
     0
 62
   256
176
     0
 40
1.0
176
     0
 90
        2
176
     0
  1
strokes_ogs.tif
176
     0
290
     0
176
     0
 40
1.0
176
     0
 40
1.0
176
     0
  0
VISUALSTYLE
  5
33
102
{ACAD_REACTORS
330
2A
102
}
330
2A
100
AcDbVisualStyle
  2
Realistic
 70
     8
177
     3
291
     0
 70
    58
 90
        2
176
     1
 90
        3
176
     1
 90
        0
176
     1
 90
        2
176
     1
 40
0.6
176
     1
 40
30.0
176
     1
 62
     7
420
 16777215
176
     1
 90
        0
176
     1
 90
        0
176
     1
 62
     7
176
     1
 62
   257
176
     1
 90
        1
176
     1
 90
        1
176
     1
 40
1.0
176
     1
 90
        8
176
     1
 62
   257
176
     1
 40
1.0
176
     1
 90
        1
176
     1
 90
        6
176
     1
 90
        2
176
     1
 62
     7
176
     1
 90
        3
176
     1
 90
        0
176
     1
 90
        0
176
     1
290
     0
176
     1
 90
       13
176
     1
 40
0.0
176
     1
 90
        0
176
     1
290
     0
176
     1
290
     1
176
     1
290
     1
176
     1
290
     0
176
     1
290
     0
176
     1
290
     0
176
     1
290
     0
176
     1
290
     0
176
     1
290
     0
176
     1
 90
       50
176
     1
 40
0.0
176
     1
 40
1.0
176
     1
 90
        0
176
     1
 62
    18
420
        0
176
     1
 90
       50
176
     1
 90
        3
176
     1
 62
     5
420
      255
176
     1
290
     0
176
     1
 90
       50
176
     1
 90
       50
176
     1
 90
       50
176
     1
290
     0
176
     1
 90
       50
176
     1
 62
   256
176
     0
 40
1.0
176
     0
 90
        2
176
     1
  1
strokes_ogs.tif
176
     1
290
     0
176
     1
 40
1.0
176
     1
 40
1.0
176
     1
  0
VISUALSTYLE
  5
42
102
{ACAD_REACTORS
330
2A
102
}
330
2A
100
AcDbVisualStyle
  2
Shaded
 70
    27
177
     3
291
     0
 70
    58
 90
        2
176
     1
 90
        2
176
     1
 90
        1
176
     1
 90
        2
176
     1
 40
0.6
176
     1
 40
30.0
176
     1
 62
     7
420
 16777215
176
     1
 90
        0
176
     1
 90
        4
176
     1
 62
     7
176
     1
 62
   257
176
     1
 90
        1
176
     1
 90
        1
176
     1
 40
1.0
176
     1
 90
        8
176
     1
 62
   257
176
     1
 40
1.0
176
     1
 90
        1
176
     1
 90
        6
176
     1
 90
        2
176
     1
 62
     8
420
  7895160
176
     1
 90
        3
176
     1
 90
        0
176
     1
 90
        0
176
     1
290
     0
176
     1
 90
        5
176
     1
 40
0.0
176
     1
 90
        0
176
     1
290
     0
176
     1
290
     1
176
     1
290
     1
176
     1
290
     0
176
     1
290
     0
176
     1
290
     0
176
     1
290
     0
176
     1
290
     0
176
     1
290
     0
176
     1
 90
       50
176
     1
 40
0.0
176
     1
 40
1.0
176
     1
 90
        0
176
     1
 62
    18
420
        0
176
     1
 90
       50
176
     1
 90
        3
176
     1
 62
     5
420
      255
176
     1
290
     0
176
     1
 90
       50
176
     1
 90
       50
176
     1
 90
       50
176
     1
290
     0
176
     1
 90
       50
176
     1
 62
   256
176
     0
 40
1.0
176
     0
 90
        2
176
     1
  1
strokes_ogs.tif
176
     1
290
     0
176
     1
 40
1.0
176
     1
 40
1.0
176
     1
  0
VISUALSTYLE
  5
41
102
{ACAD_REACTORS
330
2A
102
}
330
2A
100
AcDbVisualStyle
  2
Shaded with edges
 70
    26
177
     3
291
     0
 70
    58
 90
        2
176
     1
 90
        2
176
     1
 90
        1
176
     1
 90
        2
176
     1
 40
0.6
176
     1
 40
30.0
176
     1
 62
     7
420
 16777215
176
     1
 90
        1
176
     1
 90
       10
176
     1
 62
     7
176
     1
 62
   257
176
     1
 90
        2
176
     1
 90
        1
176
     1
 40
1.0
176
     1
 90
        8
176
     1
 62
   257
176
     1
 40
1.0
176
     1
 90
        1
176
     1
 90
        6
176
     1
 90
        2
176
     1
 62
     7
176
     1
 90
        3
176
     1
 90
        0
176
     1
 90
        0
176
     1
290
     0
176
     1
 90
        5
176
     1
 40
0.0
176
     1
 90
        0
176
     1
290
     0
176
     1
290
     1
176
     1
290
     1
176
     1
290
     0
176
     1
290
     0
176
     1
290
     0
176
     1
290
     0
176
     1
290
     0
176
     1
290
     0
176
     1
 90
       50
176
     1
 40
0.0
176
     1
 40
1.0
176
     1
 90
        0
176
     1
 62
    18
420
        0
176
     1
 90
       50
176
     1
 90
        3
176
     1
 62
     5
420
      255
176
     1
290
     0
176
     1
 90
       50
176
     1
 90
       50
176
     1
 90
       50
176
     1
290
     0
176
     1
 90
       50
176
     1
 62
   256
176
     0
 40
1.0
176
     0
 90
        2
176
     1
  1
strokes_ogs.tif
176
     1
290
     0
176
     1
 40
1.0
176
     1
 40
1.0
176
     1
  0
VISUALSTYLE
  5
3E
102
{ACAD_REACTORS
330
2A
102
}
330
2A
100
AcDbVisualStyle
  2
Shades of Gray
 70
    23
177
     3
291
     0
 70
    58
 90
        2
176
     1
 90
        2
176
     1
 90
        3
176
     1
 90
        0
176
     1
 40
0.6
176
     1
 40
30.0
176
     1
 62
     7
420
 16777215
176
     1
 90
        2
176
     1
 90
        2
176
     1
 62
     7
176
     1
 62
     7
176
     1
 90
        1
176
     1
 90
        1
176
     1
 40
40.0
176
     1
 90
        8
176
     1
 62
     7
176
     1
 40
1.0
176
     1
 90
        1
176
     1
 90
        6
176
     1
 90
        2
176
     1
 62
     7
176
     1
 90
        3
176
     1
 90
        0
176
     1
 90
        0
176
     1
290
     0
176
     1
 90
        1
176
     1
 40
0.0
176
     1
 90
        0
176
     1
290
     0
176
     1
290
     1
176
     1
290
     1
176
     1
290
     0
176
     1
290
     0
176
     1
290
     0
176
     1
290
     0
176
     1
290
     0
176
     1
290
     0
176
     1
 90
       50
176
     1
 40
0.0
176
     1
 40
1.0
176
     1
 90
        0
176
     1
 62
    18
420
        0
176
     1
 90
       50
176
     1
 90
        3
176
     1
 62
     5
420
      255
176
     1
290
     0
176
     1
 90
       50
176
     1
 90
       50
176
     1
 90
       50
176
     1
290
     0
176
     1
 90
       50
176
     1
 62
   256
176
     0
 40
1.0
176
     0
 90
        2
176
     1
  1
strokes_ogs.tif
176
     1
290
     0
176
     1
 40
1.0
176
     1
 40
1.0
176
     1
  0
VISUALSTYLE
  5
3F
102
{ACAD_REACTORS
330
2A
102
}
330
2A
100
AcDbVisualStyle
  2
Sketchy
 70
    24
177
     3
291
     0
 70
    58
 90
        1
176
     1
 90
        2
176
     1
 90
        2
176
     1
 90
        0
176
     1
 40
0.6
176
     1
 40
30.0
176
     1
 62
     7
420
 16777215
176
     1
 90
        2
176
     1
 90
        2
176
     1
 62
     7
176
     1
 62
     7
176
     1
 90
        1
176
     1
 90
        1
176
     1
 40
40.0
176
     1
 90
       11
176
     1
 62
     7
176
     1
 40
1.0
176
     1
 90
        1
176
     1
 90
        6
176
     1
 90
        2
176
     1
 62
     7
176
     1
 90
        6
176
     1
 90
        0
176
     1
 90
        0
176
     1
290
     0
176
     1
 90
        1
176
     1
 40
0.0
176
     1
 90
        0
176
     1
290
     0
176
     1
290
     1
176
     1
290
     1
176
     1
290
     0
176
     1
290
     0
176
     1
290
     0
176
     1
290
     0
176
     1
290
     0
176
     1
290
     0
176
     1
 90
       50
176
     1
 40
0.0
176
     1
 40
1.0
176
     1
 90
        0
176
     1
 62
    18
420
        0
176
     1
 90
       50
176
     1
 90
        3
176
     1
 62
     5
420
      255
176
     1
290
     0
176
     1
 90
       50
176
     1
 90
       50
176
     1
 90
       50
176
     1
290
     0
176
     1
 90
       50
176
     1
 62
   256
176
     0
 40
1.0
176
     0
 90
        2
176
     1
  1
strokes_ogs.tif
176
     1
290
     0
176
     1
 40
1.0
176
     1
 40
1.0
176
     1
  0
VISUALSTYLE
  5
37
102
{ACAD_REACTORS
330
2A
102
}
330
2A
100
AcDbVisualStyle
  2
Thicken
 70
    13
177
     3
291
     1
 70
    58
 90
        2
176
     1
 90
        2
176
     1
 90
        0
176
     1
 90
        0
176
     1
 40
0.6
176
     1
 40
30.0
176
     1
 62
     7
420
 16777215
176
     1
 90
        1
176
     1
 90
        4
176
     1
 62
     7
176
     1
 62
   257
176
     1
 90
        1
176
     1
 90
        1
176
     1
 40
1.0
176
     1
 90
       12
176
     1
 62
     7
176
     1
 40
1.0
176
     1
 90
        1
176
     1
 90
        6
176
     1
 90
        2
176
     1
 62
     7
176
     1
 90
        5
176
     1
 90
        0
176
     1
 90
        0
176
     1
290
     0
176
     1
 90
        1
176
     1
 40
0.0
176
     1
 90
        0
176
     1
290
     0
176
     1
290
     1
176
     1
290
     1
176
     1
290
     0
176
     1
290
     0
176
     1
290
     0
176
     1
290
     0
176
     1
290
     0
176
     1
290
     0
176
     1
 90
       50
176
     1
 40
0.0
176
     1
 40
1.0
176
     1
 90
        0
176
     1
 62
    18
420
        0
176
     1
 90
       50
176
     1
 90
        3
176
     1
 62
     5
420
      255
176
     1
290
     0
176
     1
 90
       50
176
     1
 90
       50
176
     1
 90
       50
176
     1
290
     0
176
     1
 90
       50
176
     1
 62
   256
176
     0
 40
1.0
176
     0
 90
        2
176
     1
  1
strokes_ogs.tif
176
     1
290
     0
176
     1
 40
1.0
176
     1
 40
1.0
176
     1
  0
VISUALSTYLE
  5
30
102
{ACAD_REACTORS
330
2A
102
}
330
2A
100
AcDbVisualStyle
  2
Wireframe
 70
     5
177
     3
291
     0
 70
    58
 90
        0
176
     1
 90
        2
176
     1
 90
        0
176
     1
 90
        0
176
     1
 40
0.6
176
     1
 40
30.0
176
     1
 62
     7
420
 16777215
176
     1
 90
        1
176
     1
 90
        4
176
     1
 62
     7
176
     1
 62
   257
176
     1
 90
        1
176
     1
 90
        1
176
     1
 40
1.0
176
     1
 90
        0
176
     1
 62
   257
176
     1
 40
1.0
176
     1
 90
        1
176
     1
 90
        6
176
     1
 90
        2
176
     1
 62
     7
176
     1
 90
        3
176
     1
 90
        0
176
     1
 90
        0
176
     1
290
     0
176
     1
 90
        1
176
     1
 40
0.0
176
     1
 90
        0
176
     1
290
     0
176
     1
290
     1
176
     1
290
     1
176
     1
290
     0
176
     1
290
     0
176
     1
290
     0
176
     1
290
     0
176
     1
290
     0
176
     1
290
     0
176
     1
 90
       50
176
     1
 40
0.0
176
     1
 40
1.0
176
     1
 90
        0
176
     1
 62
    18
420
        0
176
     1
 90
       50
176
     1
 90
        3
176
     1
 62
     5
420
      255
176
     1
290
     0
176
     1
 90
       50
176
     1
 90
       50
176
     1
 90
       50
176
     1
290
     0
176
     1
 90
       50
176
     1
 62
   256
176
     0
 40
1.0
176
     0
 90
        2
176
     1
  1
strokes_ogs.tif
176
     1
290
     0
176
     1
 40
1.0
176
     1
 40
1.0
176
     1
  0
VISUALSTYLE
  5
40
102
{ACAD_REACTORS
330
2A
102
}
330
2A
100
AcDbVisualStyle
  2
X-Ray
 70
    25
177
     3
291
     0
 70
    58
 90
        2
176
     1
 90
        2
176
     1
 90
        1
176
     1
 90
        1
176
     1
 40
0.5
176
     1
 40
30.0
176
     1
 62
     7
420
 16777215
176
     1
 90
        1
176
     1
 90
        0
176
     1
 62
     7
176
     1
 62
   257
176
     1
 90
        1
176
     1
 90
        1
176
     1
 40
1.0
176
     1
 90
        8
176
     1
 62
     7
176
     1
 40
1.0
176
     1
 90
        1
176
     1
 90
        6
176
     1
 90
        2
176
     1
 62
     7
176
     1
 90
        3
176
     1
 90
        0
176
     1
 90
        0
176
     1
290
     0
176
     1
 90
       13
176
     1
 40
0.0
176
     1
 90
        0
176
     1
290
     0
176
     1
290
     1
176
     1
290
     1
176
     1
290
     0
176
     1
290
     0
176
     1
290
     0
176
     1
290
     0
176
     1
290
     0
176
     1
290
     0
176
     1
 90
       50
176
     1
 40
0.0
176
     1
 40
1.0
176
     1
 90
        0
176
     1
 62
    18
420
        0
176
     1
 90
       50
176
     1
 90
        3
176
     1
 62
     5
420
      255
176
     1
290
     0
176
     1
 90
       50
176
     1
 90
       50
176
     1
 90
       50
176
     1
290
     0
176
     1
 90
       50
176
     1
 62
   256
176
     0
 40
1.0
176
     0
 90
        2
176
     1
  1
strokes_ogs.tif
176
     1
290
     0
176
     1
 40
1.0
176
     1
 40
1.0
176
     1
  0
DICTIONARYVAR
  5
1F1
102
{ACAD_REACTORS
330
1F0
102
}
330
1F0
100
DictionaryVariables
280
     0
  1
1:1
  0
DICTIONARYVAR
  5
1F6
102
{ACAD_REACTORS
330
1F0
102
}
330
1F0
100
DictionaryVariables
280
     0
  1
Standard
  0
DICTIONARYVAR
  5
1F5
102
{ACAD_REACTORS
330
1F0
102
}
330
1F0
100
DictionaryVariables
280
     0
  1
Standard
  0
DICTIONARY
  5
1F2
330
6A
100
AcDbDictionary
280
     1
281
     1
  3
ACAD_ROUNDTRIP_2008_TABLESTYLE_CELLSTYLEMAP
360
1F3
  0
CELLSTYLEMAP
  5
1F3
102
{ACAD_REACTORS
330
1F2
102
}
330
1F2
100
AcDbCellStyleMap
 90
        3
300
CELLSTYLE
  1
TABLEFORMAT_BEGIN
 90
        5
170
     1
 91
        0
 92
    32768
 62
   257
 93
        1
300
CONTENTFORMAT
  1
CONTENTFORMAT_BEGIN
 90
        0
 91
        0
 92
        4
 93
        0
300

 40
0.0
140
1.0
 94
        5
 62
     0
340
11
144
6.0
309
CONTENTFORMAT_END
171
     1
301
MARGIN
  1
CELLMARGIN_BEGIN
 40
1.5
 40
1.5
 40
1.5
 40
1.5
 40
1.5
 40
1.5
309
CELLMARGIN_END
 94
        6
 95
        1
302
GRIDFORMAT
  1
GRIDFORMAT_BEGIN
 90
        0
 91
        1
 62
     0
 92
       -2
340
14
 93
        0
 40
0.045
309
GRIDFORMAT_END
 95
        2
302
GRIDFORMAT
  1
GRIDFORMAT_BEGIN
 90
        0
 91
        1
 62
     0
 92
       -2
340
14
 93
        0
 40
0.045
309
GRIDFORMAT_END
 95
        4
302
GRIDFORMAT
  1
GRIDFORMAT_BEGIN
 90
        0
 91
        1
 62
     0
 92
       -2
340
14
 93
        0
 40
0.045
309
GRIDFORMAT_END
 95
        8
302
GRIDFORMAT
  1
GRIDFORMAT_BEGIN
 90
        0
 91
        1
 62
     0
 92
       -2
340
14
 93
        0
 40
0.045
309
GRIDFORMAT_END
 95
       16
302
GRIDFORMAT
  1
GRIDFORMAT_BEGIN
 90
        0
 91
        1
 62
     0
 92
       -2
340
14
 93
        0
 40
0.045
309
GRIDFORMAT_END
 95
       32
302
GRIDFORMAT
  1
GRIDFORMAT_BEGIN
 90
        0
 91
        1
 62
     0
 92
       -2
340
14
 93
        0
 40
0.045
309
GRIDFORMAT_END
309
TABLEFORMAT_END
  1
CELLSTYLE_BEGIN
 90
        1
 91
        1
300
_TITLE
309
CELLSTYLE_END
300
CELLSTYLE
  1
TABLEFORMAT_BEGIN
 90
        5
170
     1
 91
        0
 92
        0
 62
   257
 93
        1
300
CONTENTFORMAT
  1
CONTENTFORMAT_BEGIN
 90
        0
 91
        0
 92
        4
 93
        0
300

 40
0.0
140
1.0
 94
        5
 62
     0
340
11
144
4.5
309
CONTENTFORMAT_END
171
     1
301
MARGIN
  1
CELLMARGIN_BEGIN
 40
1.5
 40
1.5
 40
1.5
 40
1.5
 40
1.5
 40
1.5
309
CELLMARGIN_END
 94
        6
 95
        1
302
GRIDFORMAT
  1
GRIDFORMAT_BEGIN
 90
        0
 91
        1
 62
     0
 92
       -2
340
14
 93
        0
 40
0.045
309
GRIDFORMAT_END
 95
        2
302
GRIDFORMAT
  1
GRIDFORMAT_BEGIN
 90
        0
 91
        1
 62
     0
 92
       -2
340
14
 93
        0
 40
0.045
309
GRIDFORMAT_END
 95
        4
302
GRIDFORMAT
  1
GRIDFORMAT_BEGIN
 90
        0
 91
        1
 62
     0
 92
       -2
340
14
 93
        0
 40
0.045
309
GRIDFORMAT_END
 95
        8
302
GRIDFORMAT
  1
GRIDFORMAT_BEGIN
 90
        0
 91
        1
 62
     0
 92
       -2
340
14
 93
        0
 40
0.045
309
GRIDFORMAT_END
 95
       16
302
GRIDFORMAT
  1
GRIDFORMAT_BEGIN
 90
        0
 91
        1
 62
     0
 92
       -2
340
14
 93
        0
 40
0.045
309
GRIDFORMAT_END
 95
       32
302
GRIDFORMAT
  1
GRIDFORMAT_BEGIN
 90
        0
 91
        1
 62
     0
 92
       -2
340
14
 93
        0
 40
0.045
309
GRIDFORMAT_END
309
TABLEFORMAT_END
  1
CELLSTYLE_BEGIN
 90
        2
 91
        1
300
_HEADER
309
CELLSTYLE_END
300
CELLSTYLE
  1
TABLEFORMAT_BEGIN
 90
        5
170
     1
 91
        0
 92
        0
 62
   257
 93
        1
300
CONTENTFORMAT
  1
CONTENTFORMAT_BEGIN
 90
        0
 91
        0
 92
        4
 93
        0
300

 40
0.0
140
1.0
 94
        2
 62
     0
340
11
144
4.5
309
CONTENTFORMAT_END
171
     1
301
MARGIN
  1
CELLMARGIN_BEGIN
 40
1.5
 40
1.5
 40
1.5
 40
1.5
 40
1.5
 40
1.5
309
CELLMARGIN_END
 94
        6
 95
        1
302
GRIDFORMAT
  1
GRIDFORMAT_BEGIN
 90
        0
 91
        1
 62
     0
 92
       -2
340
14
 93
        0
 40
0.045
309
GRIDFORMAT_END
 95
        2
302
GRIDFORMAT
  1
GRIDFORMAT_BEGIN
 90
        0
 91
        1
 62
     0
 92
       -2
340
14
 93
        0
 40
0.045
309
GRIDFORMAT_END
 95
        4
302
GRIDFORMAT
  1
GRIDFORMAT_BEGIN
 90
        0
 91
        1
 62
     0
 92
       -2
340
14
 93
        0
 40
0.045
309
GRIDFORMAT_END
 95
        8
302
GRIDFORMAT
  1
GRIDFORMAT_BEGIN
 90
        0
 91
        1
 62
     0
 92
       -2
340
14
 93
        0
 40
0.045
309
GRIDFORMAT_END
 95
       16
302
GRIDFORMAT
  1
GRIDFORMAT_BEGIN
 90
        0
 91
        1
 62
     0
 92
       -2
340
14
 93
        0
 40
0.045
309
GRIDFORMAT_END
 95
       32
302
GRIDFORMAT
  1
GRIDFORMAT_BEGIN
 90
        0
 91
        1
 62
     0
 92
       -2
340
14
 93
        0
 40
0.045
309
GRIDFORMAT_END
309
TABLEFORMAT_END
  1
CELLSTYLE_BEGIN
 90
        3
 91
        2
300
_DATA
309
CELLSTYLE_END
  0
ENDSEC
  0
EOF