0
SECTION
  2
HEADER
  9
$ACADVER
  1
AC1027
  9
$ACADMAINTVER
 70
     8
  9
$DWGCODEPAGE
  3
ANSI_1252
  9
$REQUIREDVERSIONS
160
                 0
  9
$COMMENTS
  1
File was created by Cadenas
  9
$CUSTOMPROPERTYTAG
  1
NN
  9
$CUSTOMPROPERTY
  1
Grip Tight Two-Bolt Flange Metric Bore
  9
$CUSTOMPROPERTYTAG
  1
NT
  9
$CUSTOMPROPERTY
  1
GT Normal Duty 2 Bolt Flange Bearings
  9
$CUSTOMPROPERTYTAG
  1
NB
  9
$CUSTOMPROPERTY
  1
129322
  9
$CUSTOMPROPERTYTAG
  1
NBSYN
  9
$CUSTOMPROPERTY
  1
$PN.$LUBE.
  9
$CUSTOMPROPERTYTAG
  1
LINA
  9
$CUSTOMPROPERTY
  1
129322
  9
$CUSTOMPROPERTYTAG
  1
SERIES
  9
$CUSTOMPROPERTY
  1
204
  9
$CUSTOMPROPERTYTAG
  1
SS
  9
$CUSTOMPROPERTY
  1
20
  9
$CUSTOMPROPERTYTAG
  1
PN
  9
$CUSTOMPROPERTY
  1
129322
  9
$CUSTOMPROPERTYTAG
  1
DESCRIPTION
  9
$CUSTOMPROPERTY
  1
F2B-GT-20M
  9
$CUSTOMPROPERTYTAG
  1
A
  9
$CUSTOMPROPERTY
  1
37.3
  9
$CUSTOMPROPERTYTAG
  1
B
  9
$CUSTOMPROPERTY
  1
111.9
  9
$CUSTOMPROPERTYTAG
  1
C
  9
$CUSTOMPROPERTY
  1
40.9
  9
$CUSTOMPROPERTYTAG
  1
D
  9
$CUSTOMPROPERTY
  1
89.7
  9
$CUSTOMPROPERTYTAG
  1
F
  9
$CUSTOMPROPERTY
  1
M10
  9
$CUSTOMPROPERTYTAG
  1
H
  9
$CUSTOMPROPERTY
  1
12.7
  9
$CUSTOMPROPERTYTAG
  1
J
  9
$CUSTOMPROPERTY
  1
15.9
  9
$CUSTOMPROPERTYTAG
  1
L
  9
$CUSTOMPROPERTY
  1
38.1
  9
$CUSTOMPROPERTYTAG
  1
M
  9
$CUSTOMPROPERTY
  1
60.3
  9
$CUSTOMPROPERTYTAG
  1
N
  9
$CUSTOMPROPERTY
  1
38.1
  9
$CUSTOMPROPERTYTAG
  1
Z
  9
$CUSTOMPROPERTY
  1
40.9
  9
$CUSTOMPROPERTYTAG
  1
COMPANY
  9
$CUSTOMPROPERTY
  1
baldor
  9
$INSBASE
 10
0.0
 20
0.0
 30
0.0
  9
$EXTMIN
 10
1.000000000000000E+20
 20
1.000000000000000E+20
 30
1.000000000000000E+20
  9
$EXTMAX
 10
-1.000000000000000E+20
 20
-1.000000000000000E+20
 30
-1.000000000000000E+20
  9
$LIMMIN
 10
0.0
 20
0.0
  9
$LIMMAX
 10
420.0
 20
297.0
  9
$ORTHOMODE
 70
     0
  9
$REGENMODE
 70
     1
  9
$FILLMODE
 70
     1
  9
$QTEXTMODE
 70
     0
  9
$MIRRTEXT
 70
     1
  9
$LTSCALE
 40
1.0
  9
$ATTMODE
 70
     1
  9
$TEXTSIZE
 40
2.5
  9
$TRACEWID
 40
1.0
  9
$TEXTSTYLE
  7
Standard
  9
$CLAYER
  8
0
  9
$CELTYPE
  6
ByLayer
  9
$CECOLOR
 62
   256
  9
$CELTSCALE
 40
1.0
  9
$DISPSILH
 70
     0
  9
$DIMSCALE
 40
1.0
  9
$DIMASZ
 40
2.5
  9
$DIMEXO
 40
0.625
  9
$DIMDLI
 40
3.75
  9
$DIMRND
 40
0.0
  9
$DIMDLE
 40
0.0
  9
$DIMEXE
 40
1.25
  9
$DIMTP
 40
0.0
  9
$DIMTM
 40
0.0
  9
$DIMTXT
 40
2.5
  9
$DIMCEN
 40
2.5
  9
$DIMTSZ
 40
0.0
  9
$DIMTOL
 70
     0
  9
$DIMLIM
 70
     0
  9
$DIMTIH
 70
     0
  9
$DIMTOH
 70
     0
  9
$DIMSE1
 70
     0
  9
$DIMSE2
 70
     0
  9
$DIMTAD
 70
     1
  9
$DIMZIN
 70
     8
  9
$DIMBLK
  1

  9
$DIMASO
 70
     1
  9
$DIMSHO
 70
     1
  9
$DIMPOST
  1

  9
$DIMAPOST
  1

  9
$DIMALT
 70
     0
  9
$DIMALTD
 70
     3
  9
$DIMALTF
 40
0.03937007874016
  9
$DIMLFAC
 40
1.0
  9
$DIMTOFL
 70
     1
  9
$DIMTVP
 40
0.0
  9
$DIMTIX
 70
     0
  9
$DIMSOXD
 70
     0
  9
$DIMSAH
 70
     0
  9
$DIMBLK1
  1

  9
$DIMBLK2
  1

  9
$DIMSTYLE
  2
ISO-25
  9
$DIMCLRD
 70
     0
  9
$DIMCLRE
 70
     0
  9
$DIMCLRT
 70
     0
  9
$DIMTFAC
 40
1.0
  9
$DIMGAP
 40
0.625
  9
$DIMJUST
 70
     0
  9
$DIMSD1
 70
     0
  9
$DIMSD2
 70
     0
  9
$DIMTOLJ
 70
     0
  9
$DIMTZIN
 70
     8
  9
$DIMALTZ
 70
     0
  9
$DIMALTTZ
 70
     0
  9
$DIMUPT
 70
     0
  9
$DIMDEC
 70
     2
  9
$DIMTDEC
 70
     2
  9
$DIMALTU
 70
     2
  9
$DIMALTTD
 70
     3
  9
$DIMTXSTY
  7
Standard
  9
$DIMAUNIT
 70
     0
  9
$DIMADEC
 70
     0
  9
$DIMALTRND
 40
0.0
  9
$DIMAZIN
 70
     0
  9
$DIMDSEP
 70
    44
  9
$DIMATFIT
 70
     3
  9
$DIMFRAC
 70
     0
  9
$DIMLDRBLK
  1

  9
$DIMLUNIT
 70
     2
  9
$DIMLWD
 70
    -2
  9
$DIMLWE
 70
    -2
  9
$DIMTMOVE
 70
     0
  9
$DIMFXL
 40
1.0
  9
$DIMFXLON
 70
     0
  9
$DIMJOGANG
 40
0.7853981633974483
  9
$DIMTFILL
 70
     0
  9
$DIMTFILLCLR
 70
     0
  9
$DIMARCSYM
 70
     0
  9
$DIMLTYPE
  6

  9
$DIMLTEX1
  6

  9
$DIMLTEX2
  6

  9
$DIMTXTDIRECTION
 70
     0
  9
$LUNITS
 70
     2
  9
$LUPREC
 70
     4
  9
$SKETCHINC
 40
1.0
  9
$FILLETRAD
 40
10.0
  9
$AUNITS
 70
     0
  9
$AUPREC
 70
     0
  9
$MENU
  1
.
  9
$ELEVATION
 40
0.0
  9
$PELEVATION
 40
0.0
  9
$THICKNESS
 40
0.0
  9
$LIMCHECK
 70
     0
  9
$CHAMFERA
 40
0.0
  9
$CHAMFERB
 40
0.0
  9
$CHAMFERC
 40
0.0
  9
$CHAMFERD
 40
0.0
  9
$SKPOLY
 70
     0
  9
$TDCREATE
 40
2458168.995110544
  9
$TDUCREATE
 40
2458168.953443877
  9
$TDUPDATE
 40
2458168.995110718
  9
$TDUUPDATE
 40
2458168.953444051
  9
$TDINDWG
 40
0.0000000116
  9
$TDUSRTIMER
 40
0.0000000116
  9
$USRTIMER
 70
     1
  9
$ANGBASE
 50
0.0
  9
$ANGDIR
 70
     0
  9
$PDMODE
 70
     0
  9
$PDSIZE
 40
0.0
  9
$PLINEWID
 40
0.0
  9
$SPLFRAME
 70
     0
  9
$SPLINETYPE
 70
     6
  9
$SPLINESEGS
 70
     8
  9
$HANDSEED
  5
1F0
  9
$SURFTAB1
 70
     6
  9
$SURFTAB2
 70
     6
  9
$SURFTYPE
 70
     6
  9
$SURFU
 70
     6
  9
$SURFV
 70
     6
  9
$UCSBASE
  2

  9
$UCSNAME
  2

  9
$UCSORG
 10
0.0
 20
0.0
 30
0.0
  9
$UCSXDIR
 10
1.0
 20
0.0
 30
0.0
  9
$UCSYDIR
 10
0.0
 20
1.0
 30
0.0
  9
$UCSORTHOREF
  2

  9
$UCSORTHOVIEW
 70
     0
  9
$UCSORGTOP
 10
0.0
 20
0.0
 30
0.0
  9
$UCSORGBOTTOM
 10
0.0
 20
0.0
 30
0.0
  9
$UCSORGLEFT
 10
0.0
 20
0.0
 30
0.0
  9
$UCSORGRIGHT
 10
0.0
 20
0.0
 30
0.0
  9
$UCSORGFRONT
 10
0.0
 20
0.0
 30
0.0
  9
$UCSORGBACK
 10
0.0
 20
0.0
 30
0.0
  9
$PUCSBASE
  2

  9
$PUCSNAME
  2

  9
$PUCSORG
 10
0.0
 20
0.0
 30
0.0
  9
$PUCSXDIR
 10
1.0
 20
0.0
 30
0.0
  9
$PUCSYDIR
 10
0.0
 20
1.0
 30
0.0
  9
$PUCSORTHOREF
  2

  9
$PUCSORTHOVIEW
 70
     0
  9
$PUCSORGTOP
 10
0.0
 20
0.0
 30
0.0
  9
$PUCSORGBOTTOM
 10
0.0
 20
0.0
 30
0.0
  9
$PUCSORGLEFT
 10
0.0
 20
0.0
 30
0.0
  9
$PUCSORGRIGHT
 10
0.0
 20
0.0
 30
0.0
  9
$PUCSORGFRONT
 10
0.0
 20
0.0
 30
0.0
  9
$PUCSORGBACK
 10
0.0
 20
0.0
 30
0.0
  9
$USERI1
 70
     0
  9
$USERI2
 70
     0
  9
$USERI3
 70
     0
  9
$USERI4
 70
     0
  9
$USERI5
 70
     0
  9
$USERR1
 40
0.0
  9
$USERR2
 40
0.0
  9
$USERR3
 40
0.0
  9
$USERR4
 40
0.0
  9
$USERR5
 40
0.0
  9
$WORLDVIEW
 70
     1
  9
$SHADEDGE
 70
     3
  9
$SHADEDIF
 70
    70
  9
$TILEMODE
 70
     1
  9
$MAXACTVP
 70
    64
  9
$PINSBASE
 10
0.0
 20
0.0
 30
0.0
  9
$PLIMCHECK
 70
     0
  9
$PEXTMIN
 10
1.000000000000000E+20
 20
1.000000000000000E+20
 30
1.000000000000000E+20
  9
$PEXTMAX
 10
-1.000000000000000E+20
 20
-1.000000000000000E+20
 30
-1.000000000000000E+20
  9
$PLIMMIN
 10
0.0
 20
0.0
  9
$PLIMMAX
 10
420.0
 20
297.0
  9
$UNITMODE
 70
     0
  9
$VISRETAIN
 70
     1
  9
$PLINEGEN
 70
     0
  9
$PSLTSCALE
 70
     1
  9
$TREEDEPTH
 70
  3020
  9
$CMLSTYLE
  2
Standard
  9
$CMLJUST
 70
     0
  9
$CMLSCALE
 40
20.0
  9
$PROXYGRAPHICS
 70
     1
  9
$MEASUREMENT
 70
     1
  9
$CELWEIGHT
370
    -1
  9
$ENDCAPS
280
     0
  9
$JOINSTYLE
280
     0
  9
$LWDISPLAY
290
     0
  9
$INSUNITS
 70
     4
  9
$HYPERLINKBASE
  1

  9
$STYLESHEET
  1

  9
$XEDIT
290
     1
  9
$CEPSNTYPE
380
     0
  9
$PSTYLEMODE
290
     1
  9
$FINGERPRINTGUID
  2
{5A34EC4F-6E63-48D4-8D3F-4CF3C671DBD8}
  9
$VERSIONGUID
  2
{FAEB1C32-E019-11D5-929B-00C0DF256EC4}
  9
$EXTNAMES
290
     1
  9
$PSVPSCALE
 40
0.0
  9
$OLESTARTUP
290
     0
  9
$SORTENTS
280
   127
  9
$INDEXCTL
280
     0
  9
$HIDETEXT
280
     1
  9
$XCLIPFRAME
280
     2
  9
$HALOGAP
280
     0
  9
$OBSCOLOR
 70
   257
  9
$OBSLTYPE
280
     0
  9
$INTERSECTIONDISPLAY
280
     0
  9
$INTERSECTIONCOLOR
 70
   257
  9
$DIMASSOC
280
     2
  9
$PROJECTNAME
  1

  9
$CAMERADISPLAY
290
     0
  9
$LENSLENGTH
 40
50.0
  9
$CAMERAHEIGHT
 40
0.0
  9
$STEPSPERSEC
 40
2.0
  9
$STEPSIZE
 40
6.0
  9
$3DDWFPREC
 40
2.0
  9
$PSOLWIDTH
 40
5.0
  9
$PSOLHEIGHT
 40
80.0
  9
$LOFTANG1
 40
1.570796326794897
  9
$LOFTANG2
 40
1.570796326794897
  9
$LOFTMAG1
 40
0.0
  9
$LOFTMAG2
 40
0.0
  9
$LOFTPARAM
 70
     7
  9
$LOFTNORMALS
280
     1
  9
$LATITUDE
 40
37.795
  9
$LONGITUDE
 40
-122.394
  9
$NORTHDIRECTION
 40
0.0
  9
$TIMEZONE
 70
 -8000
  9
$LIGHTGLYPHDISPLAY
280
     1
  9
$TILEMODELIGHTSYNCH
280
     1
  9
$CMATERIAL
347
44
  9
$SOLIDHIST
280
     0
  9
$SHOWHIST
280
     1
  9
$DWFFRAME
280
     2
  9
$DGNFRAME
280
     2
  9
$REALWORLDSCALE
290
     1
  9
$INTERFERECOLOR
 62
   256
  9
$CSHADOW
280
     0
  9
$SHADOWPLANELOCATION
 40
0.0
  0
ENDSEC
  0
SECTION
  2
CLASSES
  0
CLASS
  1
ACDBDICTIONARYWDFLT
  2
AcDbDictionaryWithDefault
  3
ObjectDBX Classes
 90
        0
 91
        4
280
     0
281
     0
  0
CLASS
  1
VISUALSTYLE
  2
AcDbVisualStyle
  3
ObjectDBX Classes
 90
     4095
 91
        4
280
     0
281
     0
  0
CLASS
  1
MATERIAL
  2
AcDbMaterial
  3
ObjectDBX Classes
 90
     1153
 91
        4
280
     0
281
     0
  0
CLASS
  1
SCALE
  2
AcDbScale
  3
ObjectDBX Classes
 90
     1153
 91
        4
280
     0
281
     0
  0
CLASS
  1
TABLESTYLE
  2
AcDbTableStyle
  3
ObjectDBX Classes
 90
     4095
 91
        4
280
     0
281
     0
  0
CLASS
  1
MLEADERSTYLE
  2
AcDbMLeaderStyle
  3
ACDB_MLEADERSTYLE_CLASS
 90
     4095
 91
        4
280
     0
281
     0
  0
CLASS
  1
SUN
  2
AcDbSun
  3
SCENEOE
 90
     1153
 91
        4
280
     0
281
     0
  0
CLASS
  1
DICTIONARYVAR
  2
AcDbDictionaryVar
  3
ObjectDBX Classes
 90
        0
 91
        4
280
     0
281
     0
  0
CLASS
  1
CELLSTYLEMAP
  2
AcDbCellStyleMap
  3
ObjectDBX Classes
 90
     1152
 91
        4
280
     0
281
     0
  0
ENDSEC
  0
SECTION
  2
TABLES
  0
TABLE
  2
VPORT
  5
8
330
0
100
AcDbSymbolTable
 70
     1
  0
VPORT
  5
29
330
8
100
AcDbSymbolTableRecord
100
AcDbViewportTableRecord
  2
*Active
 70
     0
 10
0.0
 20
0.0
 11
1.0
 21
1.0
 12
3.975000000000023
 22
-20.75749999999999
 13
0.0
 23
0.0
 14
10.0
 24
10.0
 15
10.0
 25
10.0
 16
0.0
 26
0.0
 36
1.0
 17
0.0
 27
0.0
 37
0.0
 40
44.89529999999998
 41
1.550607747358855
 42
50.0
 43
0.0
 44
0.0
 50
0.0
 51
0.0
 71
     0
 72
   100
 73
     1
 74
     3
 75
     0
 76
     0
 77
     0
 78
     0
281
     0
 65
     1
110
0.0
120
0.0
130
0.0
111
1.0
121
0.0
131
0.0
112
0.0
122
1.0
132
0.0
 79
     0
146
0.0
348
2F
 60
     3
 61
     5
292
     1
282
     1
141
0.0
142
0.0
 63
   250
361
6D
  0
ENDTAB
  0
TABLE
  2
LTYPE
  5
5
330
0
100
AcDbSymbolTable
 70
     3
  0
LTYPE
  5
14
330
5
100
AcDbSymbolTableRecord
100
AcDbLinetypeTableRecord
  2
ByBlock
 70
     0
  3

 72
    65
 73
     0
 40
0.0
  0
LTYPE
  5
15
330
5
100
AcDbSymbolTableRecord
100
AcDbLinetypeTableRecord
  2
ByLayer
 70
     0
  3

 72
    65
 73
     0
 40
0.0
  0
LTYPE
  5
16
330
5
100
AcDbSymbolTableRecord
100
AcDbLinetypeTableRecord
  2
Continuous
 70
     0
  3
Solid line
 72
    65
 73
     0
 40
0.0
  0
LTYPE
  5
9E
330
5
100
AcDbSymbolTableRecord
100
AcDbLinetypeTableRecord
  2
Dashed
 70
     0
  3

 72
    65
 73
     2
 40
2.0
 49
1.0
 74
     0
 49
-1.0
 74
     0
  0
LTYPE
  5
107
330
5
100
AcDbSymbolTableRecord
100
AcDbLinetypeTableRecord
  2
Center
 70
     0
  3

 72
    65
 73
     4
 40
1.5
 49
0.45
 74
     0
 49
-0.5
 74
     0
 49
0.05
 74
     0
 49
-0.5
 74
     0
  0
ENDTAB
  0
TABLE
  2
LAYER
  5
2
330
0
100
AcDbSymbolTable
 70
     7
  0
LAYER
  5
10
330
2
100
AcDbSymbolTableRecord
100
AcDbLayerTableRecord
  2
0
 70
     0
 62
     7
  6
Continuous
370
    -3
390
F
347
46
348
0
  0
LAYER
  5
72
330
2
100
AcDbSymbolTableRecord
100
AcDbLayerTableRecord
  2
AM_6
 70
     0
 62
    -2
  6
Continuous
370
    35
390
F
347
46
348
0
  0
LAYER
  5
9F
330
2
100
AcDbSymbolTableRecord
100
AcDbLayerTableRecord
  2
AM_9
 70
     0
 62
     6
  6
Dashed
370
    25
390
F
347
46
348
0
  0
LAYER
  5
CF
330
2
100
AcDbSymbolTableRecord
100
AcDbLayerTableRecord
  2
AM_4
 70
     0
 62
     7
  6
Continuous
370
    50
390
F
347
46
348
0
  0
LAYER
  5
105
330
2
100
AcDbSymbolTableRecord
100
AcDbLayerTableRecord
  2
AM_5
 70
     0
 62
     3
  6
Continuous
370
    25
390
F
347
46
348
0
  0
LAYER
  5
108
330
2
100
AcDbSymbolTableRecord
100
AcDbLayerTableRecord
  2
AM_7
 70
     0
 62
     7
  6
Center
370
    25
390
F
347
46
348
0
  0
LAYER
  5
1E3
330
2
100
AcDbSymbolTableRecord
100
AcDbLayerTableRecord
  2
ConnectionPoints
 70
     0
 62
     7
  6
Continuous
370
    50
390
F
347
46
348
0
  0
ENDTAB
  0
TABLE
  2
STYLE
  5
3
330
0
100
AcDbSymbolTable
 70
     1
  0
STYLE
  5
11
330
3
100
AcDbSymbolTableRecord
100
AcDbTextStyleTableRecord
  2
Standard
 70
     0
 40
0.0
 41
1.0
 50
0.0
 71
     0
 42
2.5
  3
txt
  4

  0
ENDTAB
  0
TABLE
  2
VIEW
  5
6
330
0
100
AcDbSymbolTable
 70
     0
  0
ENDTAB
  0
TABLE
  2
UCS
  5
7
330
0
100
AcDbSymbolTable
 70
     0
  0
ENDTAB
  0
TABLE
  2
APPID
  5
9
330
0
100
AcDbSymbolTable
 70
     1
  0
APPID
  5
12
330
9
100
AcDbSymbolTableRecord
100
AcDbRegAppTableRecord
  2
ACAD
 70
     0
  0
ENDTAB
  0
TABLE
  2
DIMSTYLE
  5
A
330
0
100
AcDbSymbolTable
 70
     1
100
AcDbDimStyleTable
  0
DIMSTYLE
105
27
330
A
100
AcDbSymbolTableRecord
100
AcDbDimStyleTableRecord
  2
ISO-25
 70
     0
 41
2.5
 42
0.625
 43
3.75
 44
1.25
 73
     0
 74
     0
 77
     1
 78
     8
140
2.5
141
2.5
143
0.03937007874016
147
0.625
171
     3
172
     1
178
     0
271
     2
272
     2
274
     3
278
    44
283
     0
284
     8
340
11
  0
ENDTAB
  0
TABLE
  2
BLOCK_RECORD
  5
1
330
0
100
AcDbSymbolTable
 70
     5
  0
BLOCK_RECORD
  5
1F
330
1
100
AcDbSymbolTableRecord
100
AcDbBlockTableRecord
  2
*Model_Space
340
22
 70
     0
280
     1
281
     0
  0
BLOCK_RECORD
  5
1B
330
1
100
AcDbSymbolTableRecord
100
AcDbBlockTableRecord
  2
*Paper_Space
340
1E
 70
     0
280
     1
281
     0
  0
BLOCK_RECORD
  5
23
330
1
100
AcDbSymbolTableRecord
100
AcDbBlockTableRecord
  2
*Paper_Space0
340
26
 70
     0
280
     1
281
     0
  0
BLOCK_RECORD
  5
6E
330
1
100
AcDbSymbolTableRecord
100
AcDbBlockTableRecord
  2
1_129322_4
340
0
102
{BLKREFS
331
6F
102
}
 70
     0
280
     1
281
     0
  0
BLOCK_RECORD
  5
88
330
1
100
AcDbSymbolTableRecord
100
AcDbBlockTableRecord
  2
2_129517_0_in_129322_4
340
0
102
{BLKREFS
331
89
102
}
 70
     0
280
     1
281
     0
  0
BLOCK_RECORD
  5
D2
330
1
100
AcDbSymbolTableRecord
100
AcDbBlockTableRecord
  2
3_129943_0_in_129322_4
340
0
102
{BLKREFS
331
D3
102
}
 70
     0
280
     1
281
     0
  0
BLOCK_RECORD
  5
120
330
1
100
AcDbSymbolTableRecord
100
AcDbBlockTableRecord
  2
4_129491_0_in_129322_4
340
0
102
{BLKREFS
331
121
102
}
 70
     0
280
     1
281
     0
  0
ENDTAB
  0
ENDSEC
  0
SECTION
  2
BLOCKS
  0
BLOCK
  5
20
330
1F
100
AcDbEntity
  8
0
100
AcDbBlockBegin
  2
*Model_Space
 70
     0
 10
0.0
 20
0.0
 30
0.0
  3
*Model_Space
  1

  0
ENDBLK
  5
21
330
1F
100
AcDbEntity
  8
0
100
AcDbBlockEnd
  0
BLOCK
  5
1C
330
1B
100
AcDbEntity
 67
     1
  8
0
100
AcDbBlockBegin
  2
*Paper_Space
 70
     0
 10
0.0
 20
0.0
 30
0.0
  3
*Paper_Space
  1

  0
ENDBLK
  5
1D
330
1B
100
AcDbEntity
 67
     1
  8
0
100
AcDbBlockEnd
  0
BLOCK
  5
24
330
23
100
AcDbEntity
  8
0
100
AcDbBlockBegin
  2
*Paper_Space0
 70
     0
 10
0.0
 20
0.0
 30
0.0
  3
*Paper_Space0
  1

  0
ENDBLK
  5
25
330
23
100
AcDbEntity
  8
0
100
AcDbBlockEnd
  0
BLOCK
  5
70
330
6E
100
AcDbEntity
  8
0
100
AcDbBlockBegin
  2
1_129322_4
 70
     2
 10
0.0
 20
0.0
 30
0.0
  3
1_129322_4
  1

  0
ATTDEF
  5
73
330
6E
100
AcDbEntity
  8
AM_6
100
AcDbText
 10
43.10000000000002
 20
1.249999999999997
 30
0.0
 40
0.5
  1
Grip Tight Two-Bolt Flange Metric Bore
100
AcDbAttributeDefinition
  3

  2
NN
 70
     8
280
     0
  0
ATTDEF
  5
74
330
6E
100
AcDbEntity
  8
AM_6
100
AcDbText
 10
43.10000000000002
 20
0.7499999999999973
 30
0.0
 40
0.5
  1
GT Normal Duty 2 Bolt Flange Bearings
100
AcDbAttributeDefinition
  3

  2
NT
 70
     8
280
     0
  0
ATTDEF
  5
75
330
6E
100
AcDbEntity
  8
AM_6
100
AcDbText
 10
43.10000000000002
 20
0.2499999999999973
 30
0.0
 40
0.5
  1
129322
100
AcDbAttributeDefinition
  3

  2
NB
 70
     8
280
     0
  0
ATTDEF
  5
76
330
6E
100
AcDbEntity
  8
AM_6
100
AcDbText
 10
43.10000000000002
 20
-0.2500000000000027
 30
0.0
 40
0.5
  1
$PN.$LUBE.
100
AcDbAttributeDefinition
  3

  2
NBSYN
 70
     8
280
     0
  0
ATTDEF
  5
77
330
6E
100
AcDbEntity
  8
AM_6
100
AcDbText
 10
43.10000000000002
 20
-0.7500000000000027
 30
0.0
 40
0.5
  1
129322
100
AcDbAttributeDefinition
  3

  2
LINA
 70
     8
280
     0
  0
ATTDEF
  5
78
330
6E
100
AcDbEntity
  8
AM_6
100
AcDbText
 10
43.10000000000002
 20
-1.250000000000003
 30
0.0
 40
0.5
  1
204
100
AcDbAttributeDefinition
  3

  2
SERIES
 70
     8
280
     0
  0
ATTDEF
  5
79
330
6E
100
AcDbEntity
  8
AM_6
100
AcDbText
 10
43.10000000000002
 20
-1.750000000000003
 30
0.0
 40
0.5
  1
20
100
AcDbAttributeDefinition
  3

  2
SS
 70
     8
280
     0
  0
ATTDEF
  5
7A
330
6E
100
AcDbEntity
  8
AM_6
100
AcDbText
 10
43.10000000000002
 20
-2.250000000000003
 30
0.0
 40
0.5
  1
129322
100
AcDbAttributeDefinition
  3

  2
PN
 70
     8
280
     0
  0
ATTDEF
  5
7B
330
6E
100
AcDbEntity
  8
AM_6
100
AcDbText
 10
43.10000000000002
 20
-2.750000000000003
 30
0.0
 40
0.5
  1
F2B-GT-20M
100
AcDbAttributeDefinition
  3

  2
DESCRIPTION
 70
     8
280
     0
  0
ATTDEF
  5
7C
330
6E
100
AcDbEntity
  8
AM_6
100
AcDbText
 10
43.10000000000002
 20
-3.250000000000003
 30
0.0
 40
0.5
  1
37.3
100
AcDbAttributeDefinition
  3

  2
A
 70
     8
280
     0
  0
ATTDEF
  5
7D
330
6E
100
AcDbEntity
  8
AM_6
100
AcDbText
 10
43.10000000000002
 20
-3.750000000000003
 30
0.0
 40
0.5
  1
111.9
100
AcDbAttributeDefinition
  3

  2
B
 70
     8
280
     0
  0
ATTDEF
  5
7E
330
6E
100
AcDbEntity
  8
AM_6
100
AcDbText
 10
43.10000000000002
 20
-4.250000000000003
 30
0.0
 40
0.5
  1
40.9
100
AcDbAttributeDefinition
  3

  2
C
 70
     8
280
     0
  0
ATTDEF
  5
7F
330
6E
100
AcDbEntity
  8
AM_6
100
AcDbText
 10
43.10000000000002
 20
-4.750000000000003
 30
0.0
 40
0.5
  1
89.7
100
AcDbAttributeDefinition
  3

  2
D
 70
     8
280
     0
  0
ATTDEF
  5
80
330
6E
100
AcDbEntity
  8
AM_6
100
AcDbText
 10
43.10000000000002
 20
-5.250000000000003
 30
0.0
 40
0.5
  1
M10
100
AcDbAttributeDefinition
  3

  2
F
 70
     8
280
     0
  0
ATTDEF
  5
81
330
6E
100
AcDbEntity
  8
AM_6
100
AcDbText
 10
43.10000000000002
 20
-5.750000000000003
 30
0.0
 40
0.5
  1
12.7
100
AcDbAttributeDefinition
  3

  2
H
 70
     8
280
     0
  0
ATTDEF
  5
82
330
6E
100
AcDbEntity
  8
AM_6
100
AcDbText
 10
43.10000000000002
 20
-6.250000000000003
 30
0.0
 40
0.5
  1
15.9
100
AcDbAttributeDefinition
  3

  2
J
 70
     8
280
     0
  0
ATTDEF
  5
83
330
6E
100
AcDbEntity
  8
AM_6
100
AcDbText
 10
43.10000000000002
 20
-6.750000000000003
 30
0.0
 40
0.5
  1
38.1
100
AcDbAttributeDefinition
  3

  2
L
 70
     8
280
     0
  0
ATTDEF
  5
84
330
6E
100
AcDbEntity
  8
AM_6
100
AcDbText
 10
43.10000000000002
 20
-7.250000000000003
 30
0.0
 40
0.5
  1
60.3
100
AcDbAttributeDefinition
  3

  2
M
 70
     8
280
     0
  0
ATTDEF
  5
85
330
6E
100
AcDbEntity
  8
AM_6
100
AcDbText
 10
43.10000000000002
 20
-7.750000000000003
 30
0.0
 40
0.5
  1
38.1
100
AcDbAttributeDefinition
  3

  2
N
 70
     8
280
     0
  0
ATTDEF
  5
86
330
6E
100
AcDbEntity
  8
AM_6
100
AcDbText
 10
43.10000000000002
 20
-8.250000000000004
 30
0.0
 40
0.5
  1
40.9
100
AcDbAttributeDefinition
  3

  2
Z
 70
     8
280
     0
  0
ATTDEF
  5
87
330
6E
100
AcDbEntity
  8
AM_6
100
AcDbText
 10
43.10000000000002
 20
-8.750000000000004
 30
0.0
 40
0.5
  1
baldor
100
AcDbAttributeDefinition
  3

  2
COMPANY
 70
     8
280
     0
  0
INSERT
  5
89
330
6E
100
AcDbEntity
  8
0
100
AcDbBlockReference
  2
2_129517_0_in_129322_4
 10
0.0
 20
0.0
 30
0.0
  0
INSERT
  5
D3
330
6E
100
AcDbEntity
  8
0
100
AcDbBlockReference
  2
3_129943_0_in_129322_4
 10
0.0
 20
0.0
 30
0.0
  0
INSERT
  5
121
330
6E
100
AcDbEntity
  8
0
100
AcDbBlockReference
  2
4_129491_0_in_129322_4
 10
0.0
 20
0.0
 30
0.0
  0
ENDBLK
  5
71
330
6E
100
AcDbEntity
  8
0
100
AcDbBlockEnd
  0
BLOCK
  5
8A
330
88
100
AcDbEntity
  8
0
100
AcDbBlockBegin
  2
2_129517_0_in_129322_4
 70
     2
 10
0.0
 20
0.0
 30
0.0
  3
2_129517_0_in_129322_4
  1

  0
ATTDEF
  5
8C
330
88
100
AcDbEntity
  8
AM_6
100
AcDbText
 10
28.49993429942504
 20
-5.370000000000002
 30
0.0
 40
0.5
  1
INS-GT-M B
100
AcDbAttributeDefinition
  3

  2
NN
 70
     8
280
     0
  0
ATTDEF
  5
8D
330
88
100
AcDbEntity
  8
AM_6
100
AcDbText
 10
28.49993429942504
 20
-5.870000000000002
 30
0.0
 40
0.5
  1
GT Normal Duty Bearing Inserts
100
AcDbAttributeDefinition
  3

  2
NT
 70
     8
280
     0
  0
ATTDEF
  5
8E
330
88
100
AcDbEntity
  8
AM_6
100
AcDbText
 10
28.49993429942504
 20
-6.370000000000002
 30
0.0
 40
0.5
  1
129517
100
AcDbAttributeDefinition
  3

  2
NB
 70
     8
280
     0
  0
ATTDEF
  5
8F
330
88
100
AcDbEntity
  8
AM_6
100
AcDbText
 10
28.49993429942504
 20
-6.870000000000002
 30
0.0
 40
0.5
  1
$PN.
100
AcDbAttributeDefinition
  3

  2
NBSYN
 70
     8
280
     0
  0
ATTDEF
  5
90
330
88
100
AcDbEntity
  8
AM_6
100
AcDbText
 10
28.49993429942504
 20
-7.370000000000002
 30
0.0
 40
0.5
  1
129517
100
AcDbAttributeDefinition
  3

  2
LINA
 70
     8
280
     0
  0
ATTDEF
  5
91
330
88
100
AcDbEntity
  8
AM_6
100
AcDbText
 10
28.49993429942504
 20
-7.870000000000002
 30
0.0
 40
0.5
  1
204
100
AcDbAttributeDefinition
  3

  2
SERIES
 70
     8
280
     0
  0
ATTDEF
  5
92
330
88
100
AcDbEntity
  8
AM_6
100
AcDbText
 10
28.49993429942504
 20
-8.370000000000001
 30
0.0
 40
0.5
  1
129517
100
AcDbAttributeDefinition
  3

  2
PN
 70
     8
280
     0
  0
ATTDEF
  5
93
330
88
100
AcDbEntity
  8
AM_6
100
AcDbText
 10
28.49993429942504
 20
-8.870000000000001
 30
0.0
 40
0.5
  1
INS-GT-04
100
AcDbAttributeDefinition
  3

  2
DESCRIPTION
 70
     8
280
     0
  0
ATTDEF
  5
94
330
88
100
AcDbEntity
  8
AM_6
100
AcDbText
 10
28.49993429942504
 20
-9.370000000000001
 30
0.0
 40
0.5
  1
37.6
100
AcDbAttributeDefinition
  3

  2
A
 70
     8
280
     0
  0
ATTDEF
  5
95
330
88
100
AcDbEntity
  8
AM_6
100
AcDbText
 10
28.49993429942504
 20
-9.870000000000001
 30
0.0
 40
0.5
  1
14.7
100
AcDbAttributeDefinition
  3

  2
C
 70
     8
280
     0
  0
ATTDEF
  5
96
330
88
100
AcDbEntity
  8
AM_6
100
AcDbText
 10
28.49993429942504
 20
-10.37
 30
0.0
 40
0.5
  1
47.0
100
AcDbAttributeDefinition
  3

  2
D
 70
     8
280
     0
  0
ATTDEF
  5
97
330
88
100
AcDbEntity
  8
AM_6
100
AcDbText
 10
28.49993429942504
 20
-10.87
 30
0.0
 40
0.5
  1
3.8
100
AcDbAttributeDefinition
  3

  2
J
 70
     8
280
     0
  0
ATTDEF
  5
98
330
88
100
AcDbEntity
  8
AM_6
100
AcDbText
 10
28.49993429942504
 20
-11.37
 30
0.0
 40
0.5
  1
38.1
100
AcDbAttributeDefinition
  3

  2
L
 70
     8
280
     0
  0
ATTDEF
  5
99
330
88
100
AcDbEntity
  8
AM_6
100
AcDbText
 10
28.49993429942504
 20
-11.87
 30
0.0
 40
0.5
  1
#10 - 32 x 1/4
100
AcDbAttributeDefinition
  3

  2
N
 70
     8
280
     0
  0
ATTDEF
  5
9A
330
88
100
AcDbEntity
  8
AM_6
100
AcDbText
 10
28.49993429942504
 20
-12.37
 30
0.0
 40
0.5
  1
11.7
100
AcDbAttributeDefinition
  3

  2
W
 70
     8
280
     0
  0
ATTDEF
  5
9B
330
88
100
AcDbEntity
  8
AM_6
100
AcDbText
 10
28.49993429942504
 20
-12.87
 30
0.0
 40
0.5
  1
26.2
100
AcDbAttributeDefinition
  3

  2
X
 70
     8
280
     0
  0
ATTDEF
  5
9C
330
88
100
AcDbEntity
  8
AM_6
100
AcDbText
 10
28.49993429942504
 20
-13.37
 30
0.0
 40
0.5
  1
25.9
100
AcDbAttributeDefinition
  3

  2
Y
 70
     8
280
     0
  0
ATTDEF
  5
9D
330
88
100
AcDbEntity
  8
AM_6
100
AcDbText
 10
28.49993429942504
 20
-13.87
 30
0.0
 40
0.5
  1
baldor
100
AcDbAttributeDefinition
  3

  2
COMPANY
 70
     8
280
     0
  0
LINE
  5
A0
330
88
100
AcDbEntity
  8
AM_9
100
AcDbLine
 10
14.21190476190476
 20
-35.55
 30
0.0
 11
14.21190476190476
 21
-25.725
 31
0.0
  0
LINE
  5
A1
330
88
100
AcDbEntity
  8
AM_9
100
AcDbLine
 10
-14.21190476190476
 20
-25.725
 30
0.0
 11
-14.21190476190476
 21
-35.55
 31
0.0
  0
LINE
  5
A2
330
88
100
AcDbEntity
  8
AM_9
100
AcDbLine
 10
-14.21190476190476
 20
-25.725
 30
0.0
 11
14.21190476190476
 21
-25.725
 31
0.0
  0
LINE
  5
A3
330
88
100
AcDbEntity
  8
AM_9
100
AcDbLine
 10
14.21190476190476
 20
-25.725
 30
0.0
 11
14.92271702490929
 21
-5.370000000000004
 31
0.0
  0
LINE
  5
A4
330
88
100
AcDbEntity
  8
AM_9
100
AcDbLine
 10
-14.92271702490929
 20
-5.370000000000004
 30
0.0
 11
-14.21190476190476
 21
-25.725
 31
0.0
  0
LINE
  5
A5
330
88
100
AcDbEntity
  8
AM_9
100
AcDbLine
 10
15.57261904761905
 20
-32.275
 30
0.0
 11
15.57261904761905
 21
-29.0
 31
0.0
  0
LINE
  5
A6
330
88
100
AcDbEntity
  8
AM_9
100
AcDbLine
 10
-15.57261904761905
 20
-29.0
 30
0.0
 11
-15.57261904761905
 21
-32.275
 31
0.0
  0
LINE
  5
A7
330
88
100
AcDbEntity
  8
AM_9
100
AcDbLine
 10
16.93333333333333
 20
-34.96200000000001
 30
0.0
 11
16.93333333333333
 21
-32.275
 31
0.0
  0
LINE
  5
A8
330
88
100
AcDbEntity
  8
AM_9
100
AcDbLine
 10
-16.93333333333333
 20
-32.275
 30
0.0
 11
-16.93333333333333
 21
-34.96200000000001
 31
0.0
  0
LINE
  5
A9
330
88
100
AcDbEntity
  8
AM_9
100
AcDbLine
 10
-16.93333333333333
 20
-32.275
 30
0.0
 11
16.93333333333333
 21
-32.275
 31
0.0
  0
LINE
  5
AA
330
88
100
AcDbEntity
  8
AM_9
100
AcDbLine
 10
16.34533333333333
 20
-35.55
 30
0.0
 11
16.93333333333333
 21
-34.96200000000001
 31
0.0
  0
LINE
  5
AB
330
88
100
AcDbEntity
  8
AM_9
100
AcDbLine
 10
-16.93333333333333
 20
-34.96200000000001
 30
0.0
 11
-16.34533333333333
 21
-35.55
 31
0.0
  0
LINE
  5
AC
330
88
100
AcDbEntity
  8
AM_9
100
AcDbLine
 10
-16.34533333333333
 20
-35.55
 30
0.0
 11
16.34533333333333
 21
-35.55
 31
0.0
  0
LINE
  5
AD
330
88
100
AcDbEntity
  8
AM_9
100
AcDbLine
 10
-16.93333333333333
 20
-34.96200000000001
 30
0.0
 11
16.93333333333333
 21
-34.96200000000001
 31
0.0
  0
LINE
  5
AE
330
88
100
AcDbEntity
  8
AM_9
100
AcDbLine
 10
-16.34533333333333
 20
-5.370000000000002
 30
0.0
 11
16.34533333333333
 21
-5.370000000000002
 31
0.0
  0
LINE
  5
AF
330
88
100
AcDbEntity
  8
AM_9
100
AcDbLine
 10
-16.34533333333333
 20
-5.370000000000002
 30
0.0
 11
-16.93333333333333
 21
-5.958
 31
0.0
  0
LINE
  5
B0
330
88
100
AcDbEntity
  8
AM_9
100
AcDbLine
 10
16.93333333333333
 20
-5.958
 30
0.0
 11
16.34533333333333
 21
-5.370000000000002
 31
0.0
  0
LINE
  5
B1
330
88
100
AcDbEntity
  8
AM_9
100
AcDbLine
 10
16.93333333333333
 20
-25.0
 30
0.0
 11
16.93333333333333
 21
-23.25
 31
0.0
  0
LINE
  5
B2
330
88
100
AcDbEntity
  8
AM_9
100
AcDbLine
 10
16.93333333333333
 20
-29.0
 30
0.0
 11
16.93333333333333
 21
-28.4
 31
0.0
  0
LINE
  5
B3
330
88
100
AcDbEntity
  8
AM_9
100
AcDbLine
 10
-16.93333333333333
 20
-28.4
 30
0.0
 11
-16.93333333333333
 21
-29.0
 31
0.0
  0
LINE
  5
B4
330
88
100
AcDbEntity
  8
AM_9
100
AcDbLine
 10
-16.93333333333333
 20
-23.25
 30
0.0
 11
-16.93333333333333
 21
-25.0
 31
0.0
  0
LINE
  5
B5
330
88
100
AcDbEntity
  8
AM_9
100
AcDbLine
 10
-11.16371655579191
 20
-29.0
 30
0.0
 11
-7.786217481032605
 21
-29.0
 31
0.0
  0
LINE
  5
B6
330
88
100
AcDbEntity
  8
AM_9
100
AcDbLine
 10
-16.93333333333333
 20
-5.958
 30
0.0
 11
16.93333333333333
 21
-5.958
 31
0.0
  0
LINE
  5
B7
330
88
100
AcDbEntity
  8
AM_9
100
AcDbLine
 10
16.93333333333333
 20
-8.550000000000002
 30
0.0
 11
16.93333333333333
 21
-5.958
 31
0.0
  0
LINE
  5
B8
330
88
100
AcDbEntity
  8
AM_9
100
AcDbLine
 10
-16.93333333333333
 20
-5.958
 30
0.0
 11
-16.93333333333333
 21
-8.550000000000002
 31
0.0
  0
LINE
  5
B9
330
88
100
AcDbEntity
  8
AM_9
100
AcDbLine
 10
22.03
 20
-20.46
 30
0.0
 11
22.03
 21
-18.94
 31
0.0
  0
LINE
  5
BA
330
88
100
AcDbEntity
  8
AM_9
100
AcDbLine
 10
-22.03
 20
-18.94
 30
0.0
 11
-22.03
 21
-20.46
 31
0.0
  0
LINE
  5
BB
330
88
100
AcDbEntity
  8
AM_9
100
AcDbLine
 10
-21.63354487917146
 20
-8.550000000000002
 30
0.0
 11
21.63354487917146
 21
-8.550000000000002
 31
0.0
  0
ARC
  5
BC
330
88
100
AcDbEntity
  8
AM_9
100
AcDbCircle
 10
21.63354487917147
 20
-9.137999999999986
 30
0.0
 40
0.5879999999999848
100
AcDbArc
 50
21.41247271710854
 51
90.0
  0
ARC
  5
BD
330
88
100
AcDbEntity
  8
AM_9
100
AcDbCircle
 10
-21.63354487917147
 20
-9.137999999999986
 30
0.0
 40
0.5879999999999832
100
AcDbArc
 50
90.0
 51
158.5875272828915
  0
LINE
  5
BE
330
88
100
AcDbEntity
  8
AM_9
100
AcDbLine
 10
-21.63354487917145
 20
-23.25
 30
0.0
 11
21.63354487917145
 21
-23.25
 31
0.0
  0
ARC
  5
BF
330
88
100
AcDbEntity
  8
AM_9
100
AcDbCircle
 10
21.63354487917144
 20
-22.66199999999998
 30
0.0
 40
0.5880000000000187
100
AcDbArc
 50
270.0
 51
338.5875329531152
  0
ARC
  5
C0
330
88
100
AcDbEntity
  8
AM_9
100
AcDbCircle
 10
-21.63354487917144
 20
-22.66199999999998
 30
0.0
 40
0.5880000000000185
100
AcDbArc
 50
201.4124670468848
 51
270.0
  0
LINE
  5
C1
330
88
100
AcDbEntity
  8
AM_9
100
AcDbLine
 10
-22.18095900231976
 20
-22.87666666666666
 30
0.0
 11
22.18095900231976
 21
-22.87666666666666
 31
0.0
  0
ARC
  5
C2
330
88
100
AcDbEntity
  8
AM_9
100
AcDbCircle
 10
4.389999999999997
 20
-15.9
 30
0.0
 40
19.11000000000001
100
AcDbArc
 50
338.587532953116
 51
345.6277810442452
  0
ARC
  5
C3
330
88
100
AcDbEntity
  8
AM_9
100
AcDbCircle
 10
-4.389999999997176
 20
-15.8999999999991
 30
0.0
 40
19.11000000000296
100
AcDbArc
 50
194.3722189557553
 51
201.4124670468835
  0
LINE
  5
C4
330
88
100
AcDbEntity
  8
AM_9
100
AcDbLine
 10
-22.90192636365818
 20
-20.64348841112711
 30
0.0
 11
22.90192636365818
 21
-20.64348841112711
 31
0.0
  0
LINE
  5
C5
330
88
100
AcDbEntity
  8
AM_9
100
AcDbLine
 10
-22.75952694001672
 20
-20.46
 30
0.0
 11
22.75952694001672
 21
-20.46
 31
0.0
  0
ARC
  5
C6
330
88
100
AcDbEntity
  8
AM_9
100
AcDbCircle
 10
22.75952694001671
 20
-20.60700000000001
 30
0.0
 40
0.1470000000000117
100
AcDbArc
 50
345.6277654593241
 51
90.0
  0
ARC
  5
C7
330
88
100
AcDbEntity
  8
AM_9
100
AcDbCircle
 10
-22.75952694001671
 20
-20.60700000000001
 30
0.0
 40
0.1470000000000091
100
AcDbArc
 50
90.0
 51
194.3722345406759
  0
LINE
  5
C8
330
88
100
AcDbEntity
  8
AM_9
100
AcDbLine
 10
-23.13102238406432
 20
-18.94
 30
0.0
 11
23.13102238406432
 21
-18.94
 31
0.0
  0
ARC
  5
C9
330
88
100
AcDbEntity
  8
AM_9
100
AcDbCircle
 10
23.13102238406431
 20
-18.79299999999999
 30
0.0
 40
0.1470000000000127
100
AcDbArc
 50
270.0
 51
351.2246740014858
  0
ARC
  5
CA
330
88
100
AcDbEntity
  8
AM_9
100
AcDbCircle
 10
-23.13102238406431
 20
-18.79299999999999
 30
0.0
 40
0.1470000000000143
100
AcDbArc
 50
188.7753259985141
 51
270.0
  0
LINE
  5
CB
330
88
100
AcDbEntity
  8
AM_9
100
AcDbLine
 10
-23.27630162735165
 20
-18.81542635658914
 30
0.0
 11
23.27630162735165
 21
-18.81542635658914
 31
0.0
  0
LINE
  5
CC
330
88
100
AcDbEntity
  8
AM_9
100
AcDbLine
 10
-22.18095898107546
 20
-8.923333279158987
 30
0.0
 11
22.18095898107546
 21
-8.923333279158987
 31
0.0
  0
ARC
  5
CD
330
88
100
AcDbEntity
  8
AM_9
100
AcDbCircle
 10
4.389999999999919
 20
-15.9
 30
0.0
 40
19.11000000000008
100
AcDbArc
 50
351.2246740014877
 51
21.41246722135244
  0
ARC
  5
CE
330
88
100
AcDbEntity
  8
AM_9
100
AcDbCircle
 10
-4.38999999999988
 20
-15.90000000000001
 30
0.0
 40
19.11000000000012
100
AcDbArc
 50
158.5875327786476
 51
188.7753259985123
  0
LINE
  5
D0
330
88
100
AcDbEntity
  8
AM_4
100
AcDbLine
 10
16.93333333333333
 20
-28.4
 30
0.0
 11
16.93333333333333
 21
-25.0
 31
0.0
  0
LINE
  5
D1
330
88
100
AcDbEntity
  8
AM_4
100
AcDbLine
 10
-16.93333333333333
 20
-25.0
 30
0.0
 11
-16.93333333333333
 21
-28.4
 31
0.0
  0
ENDBLK
  5
8B
330
88
100
AcDbEntity
  8
0
100
AcDbBlockEnd
  0
BLOCK
  5
D4
330
D2
100
AcDbEntity
  8
0
100
AcDbBlockBegin
  2
3_129943_0_in_129322_4
 70
     2
 10
0.0
 20
0.0
 30
0.0
  3
3_129943_0_in_129322_4
  1

  0
ATTDEF
  5
D6
330
D2
100
AcDbEntity
  8
AM_6
100
AcDbText
 10
23.94993403682451
 20
-3.599999999999999
 30
0.0
 40
0.5
  1
Grip Tight Normal Duty Adapter and Nut Metric Bore
100
AcDbAttributeDefinition
  3

  2
NN
 70
     8
280
     0
  0
ATTDEF
  5
D7
330
D2
100
AcDbEntity
  8
AM_6
100
AcDbText
 10
23.94993403682451
 20
-4.1
 30
0.0
 40
0.5
  1
GT and GTM Adapter & Lock Nut Assemblies
100
AcDbAttributeDefinition
  3

  2
NT
 70
     8
280
     0
  0
ATTDEF
  5
D8
330
D2
100
AcDbEntity
  8
AM_6
100
AcDbText
 10
23.94993403682451
 20
-4.6
 30
0.0
 40
0.5
  1
129943
100
AcDbAttributeDefinition
  3

  2
NB
 70
     8
280
     0
  0
ATTDEF
  5
D9
330
D2
100
AcDbEntity
  8
AM_6
100
AcDbText
 10
23.94993403682451
 20
-5.1
 30
0.0
 40
0.5
  1
$PN.
100
AcDbAttributeDefinition
  3

  2
NBSYN
 70
     8
280
     0
  0
ATTDEF
  5
DA
330
D2
100
AcDbEntity
  8
AM_6
100
AcDbText
 10
23.94993403682451
 20
-5.6
 30
0.0
 40
0.5
  1
129943
100
AcDbAttributeDefinition
  3

  2
LINA
 70
     8
280
     0
  0
ATTDEF
  5
DB
330
D2
100
AcDbEntity
  8
AM_6
100
AcDbText
 10
23.94993403682451
 20
-6.1
 30
0.0
 40
0.5
  1
204
100
AcDbAttributeDefinition
  3

  2
SERIES
 70
     8
280
     0
  0
ATTDEF
  5
DC
330
D2
100
AcDbEntity
  8
AM_6
100
AcDbText
 10
23.94993403682451
 20
-6.6
 30
0.0
 40
0.5
  1
20
100
AcDbAttributeDefinition
  3

  2
SS
 70
     8
280
     0
  0
ATTDEF
  5
DD
330
D2
100
AcDbEntity
  8
AM_6
100
AcDbText
 10
23.94993403682451
 20
-7.1
 30
0.0
 40
0.5
  1
129943
100
AcDbAttributeDefinition
  3

  2
PN
 70
     8
280
     0
  0
ATTDEF
  5
DE
330
D2
100
AcDbEntity
  8
AM_6
100
AcDbText
 10
23.94993403682451
 20
-7.6
 30
0.0
 40
0.5
  1
AN-GT-04-20M
100
AcDbAttributeDefinition
  3

  2
DESCRIPTION
 70
     8
280
     0
  0
ATTDEF
  5
DF
330
D2
100
AcDbEntity
  8
AM_6
100
AcDbText
 10
23.94993403682451
 20
-8.1
 30
0.0
 40
0.5
  1
37.3
100
AcDbAttributeDefinition
  3

  2
A
 70
     8
280
     0
  0
ATTDEF
  5
E0
330
D2
100
AcDbEntity
  8
AM_6
100
AcDbText
 10
23.94993403682451
 20
-8.6
 30
0.0
 40
0.5
  1
15.0
100
AcDbAttributeDefinition
  3

  2
C
 70
     8
280
     0
  0
ATTDEF
  5
E1
330
D2
100
AcDbEntity
  8
AM_6
100
AcDbText
 10
23.94993403682451
 20
-9.1
 30
0.0
 40
0.5
  1
47.0
100
AcDbAttributeDefinition
  3

  2
D
 70
     8
280
     0
  0
ATTDEF
  5
E2
330
D2
100
AcDbEntity
  8
AM_6
100
AcDbText
 10
23.94993403682451
 20
-9.6
 30
0.0
 40
0.5
  1
3.9
100
AcDbAttributeDefinition
  3

  2
J
 70
     8
280
     0
  0
ATTDEF
  5
E3
330
D2
100
AcDbEntity
  8
AM_6
100
AcDbText
 10
23.94993403682451
 20
-10.1
 30
0.0
 40
0.5
  1
38.1
100
AcDbAttributeDefinition
  3

  2
L
 70
     8
280
     0
  0
ATTDEF
  5
E4
330
D2
100
AcDbEntity
  8
AM_6
100
AcDbText
 10
23.94993403682451
 20
-10.6
 30
0.0
 40
0.5
  1
10 - 32 x 1/4
100
AcDbAttributeDefinition
  3

  2
N
 70
     8
280
     0
  0
ATTDEF
  5
E5
330
D2
100
AcDbEntity
  8
AM_6
100
AcDbText
 10
23.94993403682451
 20
-11.1
 30
0.0
 40
0.5
  1
12.3
100
AcDbAttributeDefinition
  3

  2
W
 70
     8
280
     0
  0
ATTDEF
  5
E6
330
D2
100
AcDbEntity
  8
AM_6
100
AcDbText
 10
23.94993403682451
 20
-11.6
 30
0.0
 40
0.5
  1
25.0
100
AcDbAttributeDefinition
  3

  2
X
 70
     8
280
     0
  0
ATTDEF
  5
E7
330
D2
100
AcDbEntity
  8
AM_6
100
AcDbText
 10
23.94993403682451
 20
-12.1
 30
0.0
 40
0.5
  1
25.0
100
AcDbAttributeDefinition
  3

  2
Y
 70
     8
280
     0
  0
ATTDEF
  5
E8
330
D2
100
AcDbEntity
  8
AM_6
100
AcDbText
 10
23.94993403682451
 20
-12.6
 30
0.0
 40
0.5
  1
baldor
100
AcDbAttributeDefinition
  3

  2
COMPANY
 70
     8
280
     0
  0
LINE
  5
E9
330
D2
100
AcDbEntity
  8
AM_9
100
AcDbLine
 10
17.77999576665255
 20
-28.4
 30
0.0
 11
17.77999576665255
 21
-40.90000000000001
 31
0.0
  0
LINE
  5
EA
330
D2
100
AcDbEntity
  8
AM_9
100
AcDbLine
 10
-18.6182
 20
-39.75620000000001
 30
0.0
 11
-14.7193
 21
-39.75620000000001
 31
0.0
  0
LINE
  5
EB
330
D2
100
AcDbEntity
  8
AM_9
100
AcDbLine
 10
-14.7193
 20
-35.7938
 30
0.0
 11
-18.6182
 21
-35.7938
 31
0.0
  0
LINE
  5
EC
330
D2
100
AcDbEntity
  8
AM_9
100
AcDbLine
 10
-18.6182
 20
-35.7938
 30
0.0
 11
-19.05
 21
-35.362
 31
0.0
  0
LINE
  5
ED
330
D2
100
AcDbEntity
  8
AM_9
100
AcDbLine
 10
-19.05
 20
-40.188
 30
0.0
 11
-18.6182
 21
-39.75620000000001
 31
0.0
  0
LINE
  5
EE
330
D2
100
AcDbEntity
  8
AM_9
100
AcDbLine
 10
-18.6182
 20
-35.7938
 30
0.0
 11
-18.6182
 21
-39.75620000000001
 31
0.0
  0
LINE
  5
EF
330
D2
100
AcDbEntity
  8
AM_9
100
AcDbLine
 10
-14.7193
 20
-39.75620000000001
 30
0.0
 11
-14.2875
 21
-40.188
 31
0.0
  0
LINE
  5
F0
330
D2
100
AcDbEntity
  8
AM_9
100
AcDbLine
 10
-14.2875
 20
-35.362
 30
0.0
 11
-14.7193
 21
-35.7938
 31
0.0
  0
LINE
  5
F1
330
D2
100
AcDbEntity
  8
AM_9
100
AcDbLine
 10
-14.2875
 20
-35.362
 30
0.0
 11
-14.2875
 21
-40.188
 31
0.0
  0
LINE
  5
F2
330
D2
100
AcDbEntity
  8
AM_9
100
AcDbLine
 10
-14.7193
 20
-35.7938
 30
0.0
 11
-14.7193
 21
-39.75620000000001
 31
0.0
  0
LINE
  5
F3
330
D2
100
AcDbEntity
  8
AM_9
100
AcDbLine
 10
10.0
 20
-40.90000000000001
 30
0.0
 11
10.0
 21
-3.599999999999999
 31
0.0
  0
LINE
  5
F4
330
D2
100
AcDbEntity
  8
AM_9
100
AcDbLine
 10
-10.0
 20
-3.599999999999999
 30
0.0
 11
-10.0
 21
-40.90000000000001
 31
0.0
  0
LINE
  5
F5
330
D2
100
AcDbEntity
  8
AM_9
100
AcDbLine
 10
14.21190476190476
 20
-34.65
 30
0.0
 11
14.21190476190476
 21
-25.275
 31
0.0
  0
LINE
  5
F6
330
D2
100
AcDbEntity
  8
AM_9
100
AcDbLine
 10
-14.21190476190476
 20
-25.275
 30
0.0
 11
-14.21190476190476
 21
-34.65
 31
0.0
  0
LINE
  5
F7
330
D2
100
AcDbEntity
  8
AM_9
100
AcDbLine
 10
-1.249999999999998
 20
-3.599999999999999
 30
0.0
 11
-1.249999999999998
 21
-40.9
 31
0.0
  0
LINE
  5
F8
330
D2
100
AcDbEntity
  8
AM_9
100
AcDbLine
 10
1.250000000000002
 20
-3.599999999999999
 30
0.0
 11
1.250000000000002
 21
-40.9
 31
0.0
  0
LINE
  5
F9
330
D2
100
AcDbEntity
  8
AM_9
100
AcDbLine
 10
-14.21190476190476
 20
-25.275
 30
0.0
 11
14.21190476190476
 21
-25.275
 31
0.0
  0
LINE
  5
FA
330
D2
100
AcDbEntity
  8
AM_9
100
AcDbLine
 10
14.21190476190476
 20
-25.275
 30
0.0
 11
14.9688124406384
 21
-3.600000000000001
 31
0.0
  0
LINE
  5
FB
330
D2
100
AcDbEntity
  8
AM_9
100
AcDbLine
 10
-14.96881244063839
 20
-3.600000000000001
 30
0.0
 11
-14.21190476190476
 21
-25.275
 31
0.0
  0
LINE
  5
FC
330
D2
100
AcDbEntity
  8
AM_9
100
AcDbLine
 10
-14.96881244063839
 20
-3.600000000000001
 30
0.0
 11
14.9688124406384
 21
-3.600000000000001
 31
0.0
  0
LINE
  5
FD
330
D2
100
AcDbEntity
  8
AM_9
100
AcDbLine
 10
-18.98080935966633
 20
-39.46676424553094
 30
0.0
 11
-18.96776703494876
 21
-39.29360503860922
 31
0.0
  0
LINE
  5
FE
330
D2
100
AcDbEntity
  8
AM_9
100
AcDbLine
 10
15.57261904761905
 20
-31.525
 30
0.0
 11
15.57261904761905
 21
-28.4
 31
0.0
  0
LINE
  5
FF
330
D2
100
AcDbEntity
  8
AM_9
100
AcDbLine
 10
-15.57261904761905
 20
-28.4
 30
0.0
 11
-15.57261904761905
 21
-31.525
 31
0.0
  0
LINE
  5
100
330
D2
100
AcDbEntity
  8
AM_9
100
AcDbLine
 10
-7.201248345946627
 20
-28.4
 30
0.0
 11
-7.201248345946627
 21
-40.90000000000001
 31
0.0
  0
LINE
  5
101
330
D2
100
AcDbEntity
  8
AM_9
100
AcDbLine
 10
-17.12383333333334
 20
-31.525
 30
0.0
 11
17.12383333333334
 21
-31.525
 31
0.0
  0
LINE
  5
102
330
D2
100
AcDbEntity
  8
AM_9
100
AcDbLine
 10
-17.12383333333334
 20
-34.65
 30
0.0
 11
17.12383333333334
 21
-34.65
 31
0.0
  0
LINE
  5
103
330
D2
100
AcDbEntity
  8
AM_9
100
AcDbLine
 10
17.12383333333334
 20
-34.65
 30
0.0
 11
17.12383333333334
 21
-31.525
 31
0.0
  0
LINE
  5
104
330
D2
100
AcDbEntity
  8
AM_9
100
AcDbLine
 10
-17.12383333333334
 20
-31.525
 30
0.0
 11
-17.12383333333334
 21
-34.65
 31
0.0
  0
LINE
  5
106
330
D2
100
AcDbEntity
  8
AM_5
100
AcDbLine
 10
-19.05
 20
-40.188
 30
0.0
 11
-14.2875
 21
-40.188
 31
0.0
  0
LINE
  5
109
330
D2
100
AcDbEntity
  8
AM_7
100
AcDbLine
 10
-14.049375
 20
-37.77500000000001
 30
0.0
 11
-19.288125
 21
-37.77500000000001
 31
0.0
  0
LINE
  5
10A
330
D2
100
AcDbEntity
  8
AM_4
100
AcDbLine
 10
-18.45
 20
-28.4
 30
0.0
 11
-19.05
 21
-29.0
 31
0.0
  0
LINE
  5
10B
330
D2
100
AcDbEntity
  8
AM_4
100
AcDbLine
 10
-10.86208044823205
 20
-28.4
 30
0.0
 11
-11.16371655579191
 21
-29.0
 31
0.0
  0
LINE
  5
10C
330
D2
100
AcDbEntity
  8
AM_4
100
AcDbLine
 10
-11.16371655579191
 20
-29.0
 30
0.0
 11
-11.16371655579191
 21
-40.3
 31
0.0
  0
LWPOLYLINE
  5
10D
330
D2
100
AcDbEntity
  8
AM_4
100
AcDbPolyline
 90
        7
 70
     0
 43
0.0
 10
-18.97822038601039
 20
-39.43381340597763
 10
-18.998091545055
 20
-39.67229692942895
 10
-19.01710071255718
 20
-39.87559489513286
 10
-19.03426148359227
 20
-40.04380427681177
 10
-19.04594922743756
 20
-40.1517032533536
 10
-19.04997506382357
 20
-40.18777818933575
 10
-19.04999999999986
 20
-40.18799999999879
  0
LINE
  5
10E
330
D2
100
AcDbEntity
  8
AM_4
100
AcDbLine
 10
-19.05
 20
-29.0
 30
0.0
 11
-19.05
 21
-35.36888999965636
 31
0.0
  0
LINE
  5
10F
330
D2
100
AcDbEntity
  8
AM_4
100
AcDbLine
 10
-19.05
 20
-40.18551792389284
 30
0.0
 11
-19.05
 21
-40.3
 31
0.0
  0
LINE
  5
110
330
D2
100
AcDbEntity
  8
AM_4
100
AcDbLine
 10
-19.05
 20
-29.0
 30
0.0
 11
-11.16371655579191
 21
-29.0
 31
0.0
  0
LWPOLYLINE
  5
111
330
D2
100
AcDbEntity
  8
AM_4
100
AcDbPolyline
 90
       16
 70
     0
 43
0.0
 10
-19.04999999999969
 20
-35.36200000000271
 10
-19.04969831203477
 20
-35.36468489104934
 10
-19.04445767205933
 20
-35.41179868279974
 10
-19.03282766997314
 20
-35.51977953647448
 10
-19.01657338103338
 20
-35.67978339259398
 10
-18.99661588192411
 20
-35.89438784551409
 10
-18.97497464330803
 20
-36.15843322224725
 10
-18.95366609858509
 20
-36.4688987830236
 10
-18.93490375929839
 20
-36.82187773035664
 10
-18.92104620415933
 20
-37.20899953828039
 10
-18.9140760338841
 20
-37.6173691666005
 10
-18.91516481837764
 20
-38.04144895587148
 10
-18.92436027629127
 20
-38.453917447431
 10
-18.94116287489319
 20
-38.85865935942439
 10
-18.95845993602502
 20
-39.15698385679245
 10
-18.97822038601039
 20
-39.43381340597763
  0
LINE
  5
112
330
D2
100
AcDbEntity
  8
AM_4
100
AcDbLine
 10
-11.16371655579191
 20
-40.3
 30
0.0
 11
-10.86208044823205
 21
-40.90000000000001
 31
0.0
  0
LINE
  5
113
330
D2
100
AcDbEntity
  8
AM_4
100
AcDbLine
 10
-19.05
 20
-40.3
 30
0.0
 11
-18.45
 21
-40.90000000000001
 31
0.0
  0
LINE
  5
114
330
D2
100
AcDbEntity
  8
AM_4
100
AcDbLine
 10
-19.05
 20
-40.3
 30
0.0
 11
-11.16371655579191
 21
-40.3
 31
0.0
  0
LINE
  5
115
330
D2
100
AcDbEntity
  8
AM_4
100
AcDbLine
 10
-10.57874742070594
 20
-28.4
 30
0.0
 11
-10.57874742070594
 21
-40.90000000000001
 31
0.0
  0
LINE
  5
116
330
D2
100
AcDbEntity
  8
AM_4
100
AcDbLine
 10
18.34666182170479
 20
-28.4
 30
0.0
 11
18.94993403682451
 21
-29.0
 31
0.0
  0
LINE
  5
117
330
D2
100
AcDbEntity
  8
AM_4
100
AcDbLine
 10
-18.45
 20
-28.4
 30
0.0
 11
18.34666182170479
 21
-28.4
 31
0.0
  0
LINE
  5
118
330
D2
100
AcDbEntity
  8
AM_4
100
AcDbLine
 10
-7.786217481032605
 20
-29.0
 30
0.0
 11
-7.484581373472744
 21
-28.4
 31
0.0
  0
LINE
  5
119
330
D2
100
AcDbEntity
  8
AM_4
100
AcDbLine
 10
18.94993403682451
 20
-29.0
 30
0.0
 11
18.94993403682451
 21
-40.3
 31
0.0
  0
LINE
  5
11A
330
D2
100
AcDbEntity
  8
AM_4
100
AcDbLine
 10
-7.786217481032605
 20
-29.0
 30
0.0
 11
18.94993403682451
 21
-29.0
 31
0.0
  0
LINE
  5
11B
330
D2
100
AcDbEntity
  8
AM_4
100
AcDbLine
 10
-7.786217481032605
 20
-40.3
 30
0.0
 11
-7.786217481032605
 21
-29.0
 31
0.0
  0
LINE
  5
11C
330
D2
100
AcDbEntity
  8
AM_4
100
AcDbLine
 10
18.94993403682451
 20
-40.3
 30
0.0
 11
18.34666182170479
 21
-40.90000000000001
 31
0.0
  0
LINE
  5
11D
330
D2
100
AcDbEntity
  8
AM_4
100
AcDbLine
 10
-7.786217481032605
 20
-40.3
 30
0.0
 11
18.94993403682451
 21
-40.3
 31
0.0
  0
LINE
  5
11E
330
D2
100
AcDbEntity
  8
AM_4
100
AcDbLine
 10
-7.484581373472745
 20
-40.90000000000001
 30
0.0
 11
-7.786217481032605
 21
-40.3
 31
0.0
  0
LINE
  5
11F
330
D2
100
AcDbEntity
  8
AM_4
100
AcDbLine
 10
-18.45
 20
-40.90000000000001
 30
0.0
 11
18.34666182170479
 21
-40.90000000000001
 31
0.0
  0
ENDBLK
  5
D5
330
D2
100
AcDbEntity
  8
0
100
AcDbBlockEnd
  0
BLOCK
  5
122
330
120
100
AcDbEntity
  8
0
100
AcDbBlockBegin
  2
4_129491_0_in_129322_4
 70
     2
 10
0.0
 20
0.0
 30
0.0
  3
4_129491_0_in_129322_4
  1

  0
ATTDEF
  5
124
330
120
100
AcDbEntity
  8
AM_6
100
AcDbText
 10
43.10000000000002
 20
1.249999999999997
 30
0.0
 40
0.5
  1
F2B-GT-M-B
100
AcDbAttributeDefinition
  3

  2
NN
 70
     8
280
     0
  0
ATTDEF
  5
125
330
120
100
AcDbEntity
  8
AM_6
100
AcDbText
 10
43.10000000000002
 20
0.7499999999999973
 30
0.0
 40
0.5
  1
GT Normal Duty 2 Bolt Flange Bearings
100
AcDbAttributeDefinition
  3

  2
NT
 70
     8
280
     0
  0
ATTDEF
  5
126
330
120
100
AcDbEntity
  8
AM_6
100
AcDbText
 10
43.10000000000002
 20
0.2499999999999973
 30
0.0
 40
0.5
  1
129491
100
AcDbAttributeDefinition
  3

  2
NB
 70
     8
280
     0
  0
ATTDEF
  5
127
330
120
100
AcDbEntity
  8
AM_6
100
AcDbText
 10
43.10000000000002
 20
-0.2500000000000027
 30
0.0
 40
0.5
  1
$PN.$LUBE.
100
AcDbAttributeDefinition
  3

  2
NBSYN
 70
     8
280
     0
  0
ATTDEF
  5
128
330
120
100
AcDbEntity
  8
AM_6
100
AcDbText
 10
43.10000000000002
 20
-0.7500000000000027
 30
0.0
 40
0.5
  1
129491
100
AcDbAttributeDefinition
  3

  2
LINA
 70
     8
280
     0
  0
ATTDEF
  5
129
330
120
100
AcDbEntity
  8
AM_6
100
AcDbText
 10
43.10000000000002
 20
-1.250000000000003
 30
0.0
 40
0.5
  1
204
100
AcDbAttributeDefinition
  3

  2
SERIES
 70
     8
280
     0
  0
ATTDEF
  5
12A
330
120
100
AcDbEntity
  8
AM_6
100
AcDbText
 10
43.10000000000002
 20
-1.750000000000003
 30
0.0
 40
0.5
  1
47
100
AcDbAttributeDefinition
  3

  2
BOD
 70
     8
280
     0
  0
ATTDEF
  5
12B
330
120
100
AcDbEntity
  8
AM_6
100
AcDbText
 10
43.10000000000002
 20
-2.250000000000003
 30
0.0
 40
0.5
  1
20
100
AcDbAttributeDefinition
  3

  2
SS
 70
     8
280
     0
  0
ATTDEF
  5
12C
330
120
100
AcDbEntity
  8
AM_6
100
AcDbText
 10
43.10000000000002
 20
-2.750000000000003
 30
0.0
 40
0.5
  1
129491
100
AcDbAttributeDefinition
  3

  2
PN
 70
     8
280
     0
  0
ATTDEF
  5
12D
330
120
100
AcDbEntity
  8
AM_6
100
AcDbText
 10
43.10000000000002
 20
-3.250000000000003
 30
0.0
 40
0.5
  1
F2B-GT-04
100
AcDbAttributeDefinition
  3

  2
DESCRIPTION
 70
     8
280
     0
  0
ATTDEF
  5
12E
330
120
100
AcDbEntity
  8
AM_6
100
AcDbText
 10
43.10000000000002
 20
-3.750000000000003
 30
0.0
 40
0.5
  1
With Lube
100
AcDbAttributeDefinition
  3

  2
LUBE
 70
     8
280
     0
  0
ATTDEF
  5
12F
330
120
100
AcDbEntity
  8
AM_6
100
AcDbText
 10
43.10000000000002
 20
-4.250000000000003
 30
0.0
 40
0.5
  1
0.6
100
AcDbAttributeDefinition
  3

  2
WEIGHT
 70
     8
280
     0
  0
ATTDEF
  5
130
330
120
100
AcDbEntity
  8
AM_6
100
AcDbText
 10
43.10000000000002
 20
-4.750000000000003
 30
0.0
 40
0.5
  1
37.3
100
AcDbAttributeDefinition
  3

  2
A
 70
     8
280
     0
  0
ATTDEF
  5
131
330
120
100
AcDbEntity
  8
AM_6
100
AcDbText
 10
43.10000000000002
 20
-5.250000000000003
 30
0.0
 40
0.5
  1
111.9
100
AcDbAttributeDefinition
  3

  2
B
 70
     8
280
     0
  0
ATTDEF
  5
132
330
120
100
AcDbEntity
  8
AM_6
100
AcDbText
 10
43.10000000000002
 20
-5.750000000000003
 30
0.0
 40
0.5
  1
40.9
100
AcDbAttributeDefinition
  3

  2
C
 70
     8
280
     0
  0
ATTDEF
  5
133
330
120
100
AcDbEntity
  8
AM_6
100
AcDbText
 10
43.10000000000002
 20
-6.250000000000003
 30
0.0
 40
0.5
  1
89.7
100
AcDbAttributeDefinition
  3

  2
D
 70
     8
280
     0
  0
ATTDEF
  5
134
330
120
100
AcDbEntity
  8
AM_6
100
AcDbText
 10
43.10000000000002
 20
-6.750000000000003
 30
0.0
 40
0.5
  1
M10
100
AcDbAttributeDefinition
  3

  2
F
 70
     8
280
     0
  0
ATTDEF
  5
135
330
120
100
AcDbEntity
  8
AM_6
100
AcDbText
 10
43.10000000000002
 20
-7.250000000000003
 30
0.0
 40
0.5
  1
12.7
100
AcDbAttributeDefinition
  3

  2
H
 70
     8
280
     0
  0
ATTDEF
  5
136
330
120
100
AcDbEntity
  8
AM_6
100
AcDbText
 10
43.10000000000002
 20
-7.750000000000003
 30
0.0
 40
0.5
  1
15.9
100
AcDbAttributeDefinition
  3

  2
J
 70
     8
280
     0
  0
ATTDEF
  5
137
330
120
100
AcDbEntity
  8
AM_6
100
AcDbText
 10
43.10000000000002
 20
-8.250000000000004
 30
0.0
 40
0.5
  1
38.1
100
AcDbAttributeDefinition
  3

  2
L
 70
     8
280
     0
  0
ATTDEF
  5
138
330
120
100
AcDbEntity
  8
AM_6
100
AcDbText
 10
43.10000000000002
 20
-8.750000000000004
 30
0.0
 40
0.5
  1
60.3
100
AcDbAttributeDefinition
  3

  2
M
 70
     8
280
     0
  0
ATTDEF
  5
139
330
120
100
AcDbEntity
  8
AM_6
100
AcDbText
 10
43.10000000000002
 20
-9.250000000000004
 30
0.0
 40
0.5
  1
38.1
100
AcDbAttributeDefinition
  3

  2
N
 70
     8
280
     0
  0
ATTDEF
  5
13A
330
120
100
AcDbEntity
  8
AM_6
100
AcDbText
 10
43.10000000000002
 20
-9.750000000000004
 30
0.0
 40
0.5
  1
40.9
100
AcDbAttributeDefinition
  3

  2
Z
 70
     8
280
     0
  0
ATTDEF
  5
13B
330
120
100
AcDbEntity
  8
AM_6
100
AcDbText
 10
43.10000000000002
 20
-10.25
 30
0.0
 40
0.5
  1
10.8
100
AcDbAttributeDefinition
  3

  2
F1
 70
     8
280
     0
  0
ATTDEF
  5
13C
330
120
100
AcDbEntity
  8
AM_6
100
AcDbText
 10
43.10000000000002
 20
-10.75
 30
0.0
 40
0.5
  1
baldor
100
AcDbAttributeDefinition
  3

  2
COMPANY
 70
     8
280
     0
  0
LINE
  5
13D
330
120
100
AcDbEntity
  8
AM_9
100
AcDbLine
 10
24.5277035
 20
-23.0
 30
0.0
 11
24.5277035
 21
-25.0
 31
0.0
  0
LINE
  5
13E
330
120
100
AcDbEntity
  8
AM_9
100
AcDbLine
 10
24.305699
 20
-23.0
 30
0.0
 11
24.305699
 21
-25.0
 31
0.0
  0
LINE
  5
13F
330
120
100
AcDbEntity
  8
AM_9
100
AcDbLine
 10
24.453702
 20
-23.0
 30
0.0
 11
24.453702
 21
-25.0
 31
0.0
  0
LINE
  5
140
330
120
100
AcDbEntity
  8
AM_9
100
AcDbLine
 10
24.231697
 20
-23.0
 30
0.0
 11
24.231697
 21
-25.0
 31
0.0
  0
LINE
  5
141
330
120
100
AcDbEntity
  8
AM_9
100
AcDbLine
 10
24.94431
 20
-23.0
 30
0.0
 11
24.94431
 21
-25.0
 31
0.0
  0
LINE
  5
142
330
120
100
AcDbEntity
  8
AM_9
100
AcDbLine
 10
24.01929
 20
-23.0
 30
0.0
 11
24.01929
 21
-25.0
 31
0.0
  0
LINE
  5
143
330
120
100
AcDbEntity
  8
AM_9
100
AcDbLine
 10
24.204294
 20
-23.0
 30
0.0
 11
24.204294
 21
-25.0
 31
0.0
  0
LINE
  5
144
330
120
100
AcDbEntity
  8
AM_9
100
AcDbLine
 10
24.759306
 20
-23.0
 30
0.0
 11
24.759306
 21
-25.0
 31
0.0
  0
LINE
  5
145
330
120
100
AcDbEntity
  8
AM_9
100
AcDbLine
 10
24.9073095
 20
-23.0
 30
0.0
 11
24.9073095
 21
-25.0
 31
0.0
  0
LINE
  5
146
330
120
100
AcDbEntity
  8
AM_9
100
AcDbLine
 10
24.0562905
 20
-23.0
 30
0.0
 11
24.0562905
 21
-25.0
 31
0.0
  0
LINE
  5
147
330
120
100
AcDbEntity
  8
AM_9
100
AcDbLine
 10
23.94529
 20
-23.0
 30
0.0
 11
23.94529
 21
-25.0
 31
0.0
  0
LINE
  5
148
330
120
100
AcDbEntity
  8
AM_9
100
AcDbLine
 10
25.01831
 20
-23.0
 30
0.0
 11
25.01831
 21
-25.0
 31
0.0
  0
LINE
  5
149
330
120
100
AcDbEntity
  8
AM_9
100
AcDbLine
 10
23.723285
 20
-23.0
 30
0.0
 11
23.723285
 21
-25.0
 31
0.0
  0
LINE
  5
14A
330
120
100
AcDbEntity
  8
AM_9
100
AcDbLine
 10
25.240315
 20
-23.0
 30
0.0
 11
25.240315
 21
-25.0
 31
0.0
  0
LINE
  5
14B
330
120
100
AcDbEntity
  8
AM_9
100
AcDbLine
 10
23.871285
 20
-23.0
 30
0.0
 11
23.871285
 21
-25.0
 31
0.0
  0
LINE
  5
14C
330
120
100
AcDbEntity
  8
AM_9
100
AcDbLine
 10
25.092315
 20
-23.0
 30
0.0
 11
25.092315
 21
-25.0
 31
0.0
  0
LINE
  5
14D
330
120
100
AcDbEntity
  8
AM_9
100
AcDbLine
 10
23.64928
 20
-23.0
 30
0.0
 11
23.64928
 21
-25.0
 31
0.0
  0
LINE
  5
14E
330
120
100
AcDbEntity
  8
AM_9
100
AcDbLine
 10
25.31432
 20
-23.0
 30
0.0
 11
25.31432
 21
-25.0
 31
0.0
  0
LINE
  5
14F
330
120
100
AcDbEntity
  8
AM_9
100
AcDbLine
 10
25.129315
 20
-23.0
 30
0.0
 11
25.129315
 21
-25.0
 31
0.0
  0
LINE
  5
150
330
120
100
AcDbEntity
  8
AM_9
100
AcDbLine
 10
23.834285
 20
-23.0
 30
0.0
 11
23.834285
 21
-25.0
 31
0.0
  0
LINE
  5
151
330
120
100
AcDbEntity
  8
AM_9
100
AcDbLine
 10
23.61228
 20
-23.0
 30
0.0
 11
23.61228
 21
-25.0
 31
0.0
  0
LINE
  5
152
330
120
100
AcDbEntity
  8
AM_9
100
AcDbLine
 10
25.35132
 20
-23.0
 30
0.0
 11
23.49168
 21
-23.0
 31
0.0
  0
LINE
  5
153
330
120
100
AcDbEntity
  8
AM_9
100
AcDbLine
 10
25.35132
 20
-23.0
 30
0.0
 11
25.35132
 21
-25.0
 31
0.0
  0
LINE
  5
154
330
120
100
AcDbEntity
  8
AM_9
100
AcDbLine
 10
24.82371
 20
-23.0
 30
0.0
 11
24.82371
 21
-25.0
 31
0.0
  0
LINE
  5
155
330
120
100
AcDbEntity
  8
AM_9
100
AcDbLine
 10
23.89869
 20
-23.0
 30
0.0
 11
23.89869
 21
-25.0
 31
0.0
  0
LINE
  5
156
330
120
100
AcDbEntity
  8
AM_9
100
AcDbLine
 10
24.638706
 20
-23.0
 30
0.0
 11
24.638706
 21
-25.0
 31
0.0
  0
LINE
  5
157
330
120
100
AcDbEntity
  8
AM_9
100
AcDbLine
 10
24.083694
 20
-23.0
 30
0.0
 11
24.083694
 21
-25.0
 31
0.0
  0
LINE
  5
158
330
120
100
AcDbEntity
  8
AM_9
100
AcDbLine
 10
23.9356905
 20
-23.0
 30
0.0
 11
23.9356905
 21
-25.0
 31
0.0
  0
LINE
  5
159
330
120
100
AcDbEntity
  8
AM_9
100
AcDbLine
 10
24.7867095
 20
-23.0
 30
0.0
 11
24.7867095
 21
-25.0
 31
0.0
  0
LINE
  5
15A
330
120
100
AcDbEntity
  8
AM_9
100
AcDbLine
 10
24.89771
 20
-23.0
 30
0.0
 11
24.89771
 21
-25.0
 31
0.0
  0
LINE
  5
15B
330
120
100
AcDbEntity
  8
AM_9
100
AcDbLine
 10
23.82469
 20
-23.0
 30
0.0
 11
23.82469
 21
-25.0
 31
0.0
  0
LINE
  5
15C
330
120
100
AcDbEntity
  8
AM_9
100
AcDbLine
 10
25.119715
 20
-23.0
 30
0.0
 11
25.119715
 21
-25.0
 31
0.0
  0
LINE
  5
15D
330
120
100
AcDbEntity
  8
AM_9
100
AcDbLine
 10
23.602685
 20
-23.0
 30
0.0
 11
23.602685
 21
-25.0
 31
0.0
  0
LINE
  5
15E
330
120
100
AcDbEntity
  8
AM_9
100
AcDbLine
 10
23.750685
 20
-23.0
 30
0.0
 11
23.750685
 21
-25.0
 31
0.0
  0
LINE
  5
15F
330
120
100
AcDbEntity
  8
AM_9
100
AcDbLine
 10
24.971715
 20
-23.0
 30
0.0
 11
24.971715
 21
-25.0
 31
0.0
  0
LINE
  5
160
330
120
100
AcDbEntity
  8
AM_9
100
AcDbLine
 10
23.52868
 20
-23.0
 30
0.0
 11
23.52868
 21
-25.0
 31
0.0
  0
LINE
  5
161
330
120
100
AcDbEntity
  8
AM_9
100
AcDbLine
 10
25.19372
 20
-23.0
 30
0.0
 11
25.19372
 21
-25.0
 31
0.0
  0
LINE
  5
162
330
120
100
AcDbEntity
  8
AM_9
100
AcDbLine
 10
25.008715
 20
-23.0
 30
0.0
 11
25.008715
 21
-25.0
 31
0.0
  0
LINE
  5
163
330
120
100
AcDbEntity
  8
AM_9
100
AcDbLine
 10
23.713685
 20
-23.0
 30
0.0
 11
23.713685
 21
-25.0
 31
0.0
  0
LINE
  5
164
330
120
100
AcDbEntity
  8
AM_9
100
AcDbLine
 10
23.49168
 20
-23.0
 30
0.0
 11
23.49168
 21
-25.0
 31
0.0
  0
LINE
  5
165
330
120
100
AcDbEntity
  8
AM_9
100
AcDbLine
 10
25.23072
 20
-23.0
 30
0.0
 11
25.23072
 21
-25.0
 31
0.0
  0
LINE
  5
166
330
120
100
AcDbEntity
  8
AM_9
100
AcDbLine
 10
24.5167550035902
 20
-10.88571428571428
 30
0.0
 11
24.51675500359021
 21
-13.10514663774611
 31
0.0
  0
LINE
  5
167
330
120
100
AcDbEntity
  8
AM_9
100
AcDbLine
 10
14.0883857384542
 20
-10.88571428571429
 30
0.0
 11
14.0883857384542
 21
-13.1051466377312
 31
0.0
  0
LINE
  5
168
330
120
100
AcDbEntity
  8
AM_9
100
AcDbLine
 10
30.15
 20
-13.10514663774612
 30
0.0
 11
30.15
 21
-3.175
 31
0.0
  0
LINE
  5
169
330
120
100
AcDbEntity
  8
AM_9
100
AcDbLine
 10
24.89341673706733
 20
-3.174999999999999
 30
0.0
 11
24.89341673706733
 21
-10.88571428571428
 31
0.0
  0
LINE
  5
16A
330
120
100
AcDbEntity
  8
AM_9
100
AcDbLine
 10
18.63638294291577
 20
-10.88571428571428
 30
0.0
 11
27.29512899893682
 21
-10.88571428571428
 31
0.0
  0
LINE
  5
16B
330
120
100
AcDbEntity
  8
AM_9
100
AcDbLine
 10
27.29512899893682
 20
-3.174999999999999
 30
0.0
 11
27.29512899893682
 21
-10.88571428571428
 31
0.0
  0
LINE
  5
16C
330
120
100
AcDbEntity
  8
AM_9
100
AcDbLine
 10
23.5
 20
-25.0
 30
0.0
 11
23.5
 21
-3.175000000000001
 31
0.0
  0
LINE
  5
16D
330
120
100
AcDbEntity
  8
AM_9
100
AcDbLine
 10
-23.5
 20
-3.175000000000001
 30
0.0
 11
-23.5
 21
-25.0
 31
0.0
  0
LWPOLYLINE
  5
16E
330
120
100
AcDbEntity
  8
AM_9
100
AcDbPolyline
 90
        6
 70
     0
 43
0.0
 10
23.03994015963323
 20
-24.17364817766694
 10
22.95986957954483
 20
-24.48712297746332
 10
22.81109653594778
 20
-24.74572915280809
 10
22.60883792155922
 20
-24.92300136223121
 10
22.37312253924209
 20
-24.99837941019405
 10
22.33220203227692
 20
-25.0
  0
ARC
  5
16F
330
120
100
AcDbEntity
  8
AM_9
100
AcDbCircle
 10
27.10681310996689
 20
-23.99999999999999
 30
0.0
 40
1.000000000000011
100
AcDbArc
 50
270.0
 51
349.9999999999993
  0
LINE
  5
170
330
120
100
AcDbEntity
  8
AM_9
100
AcDbLine
 10
34.39171980278496
 20
-19.97635277264378
 30
0.0
 11
34.39171980278496
 21
-13.3569500390699
 31
0.0
  0
LINE
  5
171
330
120
100
AcDbEntity
  8
AM_9
100
AcDbLine
 10
23.03994015963323
 20
-24.17364817766694
 30
0.0
 11
24.38703277450425
 21
-13.52635182233307
 31
0.0
  0
LINE
  5
172
330
120
100
AcDbEntity
  8
AM_9
100
AcDbLine
 10
28.09162086297911
 20
-24.17364817766694
 30
0.0
 11
29.96902648202338
 21
-13.52635182233307
 31
0.0
  0
LINE
  5
173
330
120
100
AcDbEntity
  8
AM_9
100
AcDbLine
 10
12.52151605271627
 20
-24.17364817766694
 30
0.0
 11
28.09162086297911
 21
-24.17364817766694
 31
0.0
  0
LWPOLYLINE
  5
174
330
120
100
AcDbEntity
  8
AM_9
100
AcDbPolyline
 90
        3
 70
     0
 43
0.0
 10
24.38703277450425
 20
-13.52635182233307
 10
24.46710590485961
 20
-13.21246329554371
 10
24.51675500359021
 20
-13.10514663774611
  0
LINE
  5
175
330
120
100
AcDbEntity
  8
AM_9
100
AcDbLine
 10
14.0883857384542
 20
-13.1051466377312
 30
0.0
 11
14.07284099375585
 21
-13.01988555885448
 31
0.0
  0
LINE
  5
176
330
120
100
AcDbEntity
  8
AM_9
100
AcDbLine
 10
14.0883857384542
 20
-13.1051466377312
 30
0.0
 11
30.14999999999999
 21
-13.10514663774612
 31
0.0
  0
ARC
  5
177
330
120
100
AcDbEntity
  8
AM_9
100
AcDbCircle
 10
30.95383423503563
 20
-13.70000000000002
 30
0.0
 40
1.000000000000046
100
AcDbArc
 50
143.4978206668486
 51
169.9999999999994
  0
LINE
  5
178
330
120
100
AcDbEntity
  8
AM_9
100
AcDbLine
 10
29.96902648202338
 20
-13.52635182233307
 30
0.0
 11
13.91673022665287
 21
-13.52635182233307
 31
0.0
  0
LWPOLYLINE
  5
179
330
120
100
AcDbEntity
  8
AM_9
100
AcDbPolyline
 90
        3
 70
     0
 43
0.0
 10
33.62104955629083
 20
-14.35726558990816
 10
32.83109817667196
 20
-13.78251124299348
 10
32.08959235991435
 20
-13.20256505152891
  0
LWPOLYLINE
  5
17A
330
120
100
AcDbEntity
  8
AM_9
100
AcDbPolyline
 90
        3
 70
     0
 43
0.0
 10
33.50380592228743
 20
-16.66666666666666
 10
33.53475222232052
 20
-15.51196612828741
 10
33.62104955629083
 20
-14.35726558990816
  0
LWPOLYLINE
  5
17B
330
120
100
AcDbEntity
  8
AM_9
100
AcDbPolyline
 90
        3
 70
     0
 43
0.0
 10
32.08959235991435
 20
-20.13076828180441
 10
32.82764544113398
 20
-19.55341801261478
 10
33.62104955629083
 20
-18.97606774342517
  0
LWPOLYLINE
  5
17C
330
120
100
AcDbEntity
  8
AM_9
100
AcDbPolyline
 90
        3
 70
     0
 43
0.0
 10
33.62104955629083
 20
-18.97606774342517
 10
33.53502561536574
 20
-17.82655904959579
 10
33.50380592228743
 20
-16.66666666666666
  0
LINE
  5
17D
330
120
100
AcDbEntity
  8
AM_9
100
AcDbLine
 10
33.62104955629083
 20
-18.97606774342517
 30
0.0
 11
35.50788263184367
 21
-18.97606774342517
 31
0.0
  0
LINE
  5
17E
330
120
100
AcDbEntity
  8
AM_9
100
AcDbLine
 10
33.62104955629083
 20
-14.35726558990816
 30
0.0
 11
35.50788263184367
 21
-14.35726558990816
 31
0.0
  0
LINE
  5
17F
330
120
100
AcDbEntity
  8
AM_9
100
AcDbLine
 10
35.12191638904645
 20
-13.99296747611493
 30
0.0
 11
35.50788263184367
 21
-14.35726558990816
 31
0.0
  0
LWPOLYLINE
  5
180
330
120
100
AcDbEntity
  8
AM_9
100
AcDbPolyline
 90
        3
 70
     0
 43
0.0
 10
35.50788263184367
 20
-14.35726558990816
 10
35.59390657276877
 20
-15.50677428373753
 10
35.62512626584708
 20
-16.66666666666666
  0
LINE
  5
181
330
120
100
AcDbEntity
  8
AM_9
100
AcDbLine
 10
35.50788263184367
 20
-18.97606774342517
 30
0.0
 11
35.12195382761753
 21
-19.34033136648544
 31
0.0
  0
LWPOLYLINE
  5
182
330
120
100
AcDbEntity
  8
AM_9
100
AcDbPolyline
 90
        3
 70
     0
 43
0.0
 10
35.62512626584708
 20
-16.66666666666666
 10
35.59417996581399
 20
-17.82136720504591
 10
35.50788263184367
 20
-18.97606774342517
  0
LWPOLYLINE
  5
183
330
120
100
AcDbEntity
  8
AM_9
100
AcDbPolyline
 90
        3
 70
     0
 43
0.0
 10
30.79262243154465
 20
-21.28546882018367
 10
31.41052592931335
 20
-20.71071447326898
 10
32.08959235991435
 20
-20.13076828180441
  0
LWPOLYLINE
  5
184
330
120
100
AcDbEntity
  8
AM_9
100
AcDbPolyline
 90
        3
 70
     0
 43
0.0
 10
32.08959235991435
 20
-13.20256505152891
 10
31.41343187876088
 20
-12.62521478233928
 10
30.79262243154465
 20
-12.04786451314965
  0
LINE
  5
185
330
120
100
AcDbEntity
  8
AM_9
100
AcDbLine
 10
-7.556436466056365
 20
-3.174999999999998
 30
0.0
 11
-7.556436466056365
 21
0.0000000000000016
 31
0.0
  0
LINE
  5
186
330
120
100
AcDbEntity
  8
AM_9
100
AcDbLine
 10
-16.78198684173997
 20
-3.174999999999998
 30
0.0
 11
16.78198684173996
 21
-3.174999999999998
 31
0.0
  0
LINE
  5
187
330
120
100
AcDbEntity
  8
AM_9
100
AcDbLine
 10
7.556436223390844
 20
-3.174999999999998
 30
0.0
 11
7.556436223390844
 21
0.0000000000000016
 31
0.0
  0
LINE
  5
188
330
120
100
AcDbEntity
  8
AM_9
100
AcDbLine
 10
30.67537879754125
 20
-13.86666666666666
 30
0.0
 11
30.32182540694798
 21
-13.86666666666666
 31
0.0
  0
LINE
  5
189
330
120
100
AcDbEntity
  8
AM_9
100
AcDbLine
 10
30.32182540694798
 20
-19.46666666666666
 30
0.0
 11
30.67537879754125
 21
-19.46666666666666
 31
0.0
  0
LINE
  5
18A
330
120
100
AcDbEntity
  8
AM_9
100
AcDbLine
 10
33.80593336515806
 20
-20.44756789411219
 30
0.0
 11
33.80593336515806
 21
-12.88582279601274
 31
0.0
  0
ELLIPSE
  5
18B
330
120
100
AcDbEntity
  8
AM_9
100
AcDbEllipse
 10
32.7966991411009
 20
-16.66666666666665
 30
0.0
 11
1.714505518806286E-16
 21
2.799999999999986
 31
0.0
210
0.0
220
0.0
230
1.0
 40
0.707106781186547
 41
3.141592653589793
 42
6.283185307179586
  0
ELLIPSE
  5
18C
330
120
100
AcDbEntity
  8
AM_9
100
AcDbEllipse
 10
33.15025253169419
 20
-16.66666666666665
 30
0.0
 11
1.714505518806282E-16
 21
2.799999999999979
 31
0.0
210
0.0
220
0.0
230
1.0
 40
0.7071067811865437
 41
3.75205772623281
 42
5.672755475951992
  0
ELLIPSE
  5
18D
330
120
100
AcDbEntity
  8
AM_9
100
AcDbEllipse
 10
32.79669914110098
 20
-16.66666666666671
 30
0.0
 11
2.449293598294628E-16
 21
3.999999999999872
 31
0.0
210
0.0
220
0.0
230
1.0
 40
0.7071067811865475
 41
3.994157888950353
 42
5.431796889730599
  0
LINE
  5
18E
330
120
100
AcDbEntity
  8
AM_9
100
AcDbLine
 10
33.32700057967847
 20
-16.5716354087931
 30
0.0
 11
33.33789482445241
 21
-16.37239972970783
 31
0.0
  0
LWPOLYLINE
  5
18F
330
120
100
AcDbEntity
  8
AM_9
100
AcDbPolyline
 90
        3
 70
     0
 43
0.0
 10
33.50920532557431
 20
-17.77418903296991
 10
33.49410406544079
 20
-17.73073153657753
 10
33.46740542367355
 20
-17.64771198591042
  0
LWPOLYLINE
  5
190
330
120
100
AcDbEntity
  8
AM_9
100
AcDbPolyline
 90
       27
 70
     0
 43
0.0
 10
35.09608788936528
 20
-16.66666666666666
 10
35.09417152451446
 20
-16.78370914362377
 10
35.07817985930934
 20
-17.02345112326091
 10
35.04643320198748
 20
-17.2574177836241
 10
34.99999018109411
 20
-17.48157412146464
 10
34.94043670716917
 20
-17.69225914172874
 10
34.86986608229351
 20
-17.88617832176179
 10
34.79083800527354
 20
-18.06052637837285
 10
34.70631474989844
 20
-18.21311316721517
 10
34.61956939272864
 20
-18.34248546503032
 10
34.53416611575444
 20
-18.44791891034658
 10
34.45372289204357
 20
-18.52968076875537
 10
34.3815914996343
 20
-18.58917182460763
 10
34.32064947516401
 20
-18.62882325513682
 10
34.27293471909682
 20
-18.65203788360741
 10
34.23897925150313
 20
-18.66305833143065
 10
34.21600726322771
 20
-18.6665335040219
 10
34.18911189096693
 20
-18.66440731780888
 10
34.15811065754168
 20
-18.65556364031103
 10
34.11293852340452
 20
-18.63524765196743
 10
34.05544156519892
 20
-18.60001575596898
 10
33.98773067325908
 20
-18.54716494017248
 10
33.9054770088042
 20
-18.4674467455121
 10
33.819017211151
 20
-18.36478464663978
 10
33.73156880183791
 20
-18.23894803550138
 10
33.6462576539175
 20
-18.09036079115496
 10
33.61497093488411
 20
-18.02801822442576
  0
LWPOLYLINE
  5
191
330
120
100
AcDbEntity
  8
AM_9
100
AcDbPolyline
 90
       26
 70
     0
 43
0.0
 10
33.63551469316936
 20
-15.26384697371289
 10
33.70033646436977
 20
-15.14549199560127
 10
33.78693765372741
 20
-15.01195337336856
 10
33.87284903674869
 20
-14.90227587501587
 10
33.95442012836951
 20
-14.81640885860902
 10
34.0282447992858
 20
-14.75313557547008
 10
34.09133935988149
 20
-14.71020388545715
 10
34.14148269819128
 20
-14.68437573219694
 10
34.17779979139788
 20
-14.67154060812187
 10
34.20222464013543
 20
-14.66704982168836
 10
34.22572215896796
 20
-14.66775023235115
 10
34.25704869532048
 20
-14.67544991358363
 10
34.29977729361227
 20
-14.69341048471546
 10
34.35519069004739
 20
-14.72572937030345
 10
34.42123769545737
 20
-14.77523752467078
 10
34.50252171513038
 20
-14.85129485468253
 10
34.58852297355565
 20
-14.95018054212539
 10
34.67602433257354
 20
-15.07223744659817
 10
34.76189611543737
 20
-15.21716612073707
 10
34.84307231759255
 20
-15.38388966618007
 10
34.91660861400019
 20
-15.57040137570326
 10
34.98001575422071
 20
-15.77437549887001
 10
35.03114870955548
 20
-15.99294654155782
 10
35.0682739624795
 20
-16.22280177423455
 10
35.0901208384339
 20
-16.46028286175235
 10
35.09608788936528
 20
-16.66666666666666
  0
LWPOLYLINE
  5
192
330
120
100
AcDbEntity
  8
AM_9
100
AcDbPolyline
 90
        4
 70
     0
 43
0.0
 10
33.39435639265967
 20
-15.97458406757956
 10
33.41263456165087
 20
-15.8904385056574
 10
33.4700124436076
 20
-15.6771247326835
 10
33.51106216428557
 20
-15.55395540381812
  0
LWPOLYLINE
  5
193
330
120
100
AcDbEntity
  8
AM_9
100
AcDbPolyline
 90
        4
 70
     0
 43
0.0
 10
33.33789482445241
 20
-16.37239972970783
 10
33.33965646408031
 20
-16.35189829762082
 10
33.36868474674961
 20
-16.11660075443776
 10
33.38101157610163
 20
-16.04401421309979
  0
ELLIPSE
  5
194
330
120
100
AcDbEntity
  8
AM_9
100
AcDbEllipse
 10
35.12722600596091
 20
-16.66666666666596
 30
0.0
 11
1.560179129827934E-16
 21
2.547965880308006
 31
0.0
210
0.0
220
0.0
230
1.0
 40
0.70710678118633
 41
1.999307908057651
 42
7.516331092168656
  0
LINE
  5
195
330
120
100
AcDbEntity
  8
AM_9
100
AcDbLine
 10
36.28072596690361
 20
-19.09875544830739
 30
0.0
 11
36.29452997343266
 21
-19.08997022188886
 31
0.0
  0
ELLIPSE
  5
196
330
120
100
AcDbEntity
  8
AM_9
100
AcDbEllipse
 10
35.51218316745745
 20
-16.66666666663621
 30
0.0
 11
1.631162342887674E-16
 21
2.663890264561754
 31
0.0
210
0.0
220
0.0
230
1.0
 40
0.7071067812064615
 41
3.553109499710583
 42
4.71238898038469
  0
LINE
  5
197
330
120
100
AcDbEntity
  8
AM_9
100
AcDbLine
 10
5.4
 20
-12.7
 30
0.0
 11
5.4
 21
0.0000000000000027
 31
0.0
  0
LINE
  5
198
330
120
100
AcDbEntity
  8
AM_9
100
AcDbLine
 10
-5.4
 20
0.0000000000000027
 30
0.0
 11
-5.4
 21
-12.7
 31
0.0
  0
ELLIPSE
  5
199
330
120
100
AcDbEntity
  8
AM_9
100
AcDbEllipse
 10
30.6753787975413
 20
-16.66666666666671
 30
0.0
 11
2.449293598294758E-16
 21
4.000000000000083
 31
0.0
210
0.0
220
0.0
230
1.0
 40
0.7071067811865447
 41
0.0
 42
6.283185307179586
  0
ELLIPSE
  5
19A
330
120
100
AcDbEntity
  8
AM_9
100
AcDbEllipse
 10
30.67537879754125
 20
-16.66666666666666
 30
0.0
 11
1.714505518806292E-16
 21
2.799999999999995
 31
0.0
210
0.0
220
0.0
230
1.0
 40
0.7071067811865511
 41
0.0
 42
6.283185307179586
  0
ELLIPSE
  5
19B
330
120
100
AcDbEntity
  8
AM_9
100
AcDbEllipse
 10
30.32182540694798
 20
-16.66666666666666
 30
0.0
 11
-5.143516556418885E-16
 21
-2.800000000000001
 31
0.0
210
0.0
220
0.0
230
1.0
 40
0.7071067811865472
 41
0.0
 42
6.283185307179586
  0
LINE
  5
19C
330
120
100
AcDbEntity
  8
AM_7
100
AcDbLine
 10
0.0
 20
1.249999999999997
 30
0.0
 11
0.0000000000000015
 21
-42.76500000000001
 31
0.0
  0
LINE
  5
19D
330
120
100
AcDbEntity
  8
AM_4
100
AcDbLine
 10
-30.15
 20
-3.175
 30
0.0
 11
-30.15
 21
-13.10514663774614
 31
0.0
  0
LINE
  5
19E
330
120
100
AcDbEntity
  8
AM_4
100
AcDbLine
 10
-30.15
 20
-3.175
 30
0.0
 11
-16.78198684173997
 21
-3.174999999999998
 31
0.0
  0
LINE
  5
19F
330
120
100
AcDbEntity
  8
AM_4
100
AcDbLine
 10
34.39171980278496
 20
-25.0
 30
0.0
 11
-27.10681310996689
 21
-25.0
 31
0.0
  0
ARC
  5
1A0
330
120
100
AcDbEntity
  8
AM_4
100
AcDbCircle
 10
-27.10681310996689
 20
-23.99999999999999
 30
0.0
 40
1.00000000000001
100
AcDbArc
 50
190.0000000000007
 51
270.0
  0
LINE
  5
1A1
330
120
100
AcDbEntity
  8
AM_4
100
AcDbLine
 10
34.39171980278496
 20
-13.3569500390699
 30
0.0
 11
34.39171980278496
 21
-3.174999999999999
 31
0.0
  0
LINE
  5
1A2
330
120
100
AcDbEntity
  8
AM_4
100
AcDbLine
 10
34.39171980278496
 20
-25.0
 30
0.0
 11
34.39171980278496
 21
-19.97635277264378
 31
0.0
  0
LINE
  5
1A3
330
120
100
AcDbEntity
  8
AM_4
100
AcDbLine
 10
12.52151605271627
 20
-24.17364817766694
 30
0.0
 11
-28.09162086297911
 21
-24.17364817766694
 31
0.0
  0
LINE
  5
1A4
330
120
100
AcDbEntity
  8
AM_4
100
AcDbLine
 10
-29.96902648202338
 20
-13.52635182233307
 30
0.0
 11
-28.09162086297911
 21
-24.17364817766694
 31
0.0
  0
LINE
  5
1A5
330
120
100
AcDbEntity
  8
AM_4
100
AcDbLine
 10
13.91673022665287
 20
-13.52635182233307
 30
0.0
 11
-29.96902648202338
 21
-13.52635182233307
 31
0.0
  0
ARC
  5
1A6
330
120
100
AcDbEntity
  8
AM_4
100
AcDbCircle
 10
-30.95383423503556
 20
-13.69999999999999
 30
0.0
 40
0.999999999999978
100
AcDbArc
 50
9.999999999999574
 51
36.50217933315096
  0
LINE
  5
1A7
330
120
100
AcDbEntity
  8
AM_4
100
AcDbLine
 10
-30.14999999999998
 20
-13.10514663774614
 30
0.0
 11
-14.0883857384542
 21
-13.10514663774612
 31
0.0
  0
LWPOLYLINE
  5
1A8
330
120
100
AcDbEntity
  8
AM_4
100
AcDbPolyline
 90
        3
 70
     0
 43
0.0
 10
34.21091270347397
 20
-13.20256505152888
 10
34.88707318462743
 20
-13.77991532071852
 10
35.12191638904645
 20
-13.99296747611493
  0
LWPOLYLINE
  5
1A9
330
120
100
AcDbEntity
  8
AM_4
100
AcDbPolyline
 90
        3
 70
     0
 43
0.0
 10
35.12195382761753
 20
-19.34033136648544
 10
34.88997913407497
 20
-19.55082209033986
 10
34.21091270347397
 20
-20.13076828180445
  0
LINE
  5
1AA
330
120
100
AcDbEntity
  8
AM_4
100
AcDbLine
 10
17.13457731588512
 20
0.000000000000002
 30
0.0
 11
-17.13457731588512
 21
0.000000000000002
 31
0.0
  0
LINE
  5
1AB
330
120
100
AcDbEntity
  8
AM_4
100
AcDbLine
 10
-17.13457731588512
 20
0.000000000000002
 30
0.0
 11
-17.13457731588512
 21
-3.174999999999998
 31
0.0
  0
LINE
  5
1AC
330
120
100
AcDbEntity
  8
AM_4
100
AcDbLine
 10
17.13457731588512
 20
-3.174999999999998
 30
0.0
 11
17.13457731588512
 21
0.000000000000002
 31
0.0
  0
LINE
  5
1AD
330
120
100
AcDbEntity
  8
AM_4
100
AcDbLine
 10
33.80593336515806
 20
-12.88582279601274
 30
0.0
 11
33.80593336515806
 21
-3.174999999999999
 31
0.0
  0
LINE
  5
1AE
330
120
100
AcDbEntity
  8
AM_4
100
AcDbLine
 10
33.80593336515806
 20
-25.0
 30
0.0
 11
33.80593336515806
 21
-20.44756789411219
 31
0.0
  0
LWPOLYLINE
  5
1AF
330
120
100
AcDbEntity
  8
AM_4
100
AcDbPolyline
 90
        4
 70
     0
 43
0.0
 10
14.07976642993913
 20
-13.0555291433214
 10
14.02954434174335
 20
-13.14592973900682
 10
13.92749033379647
 20
-13.45801961718476
 10
13.91673022665287
 20
-13.52635182233307
  0
LINE
  5
1B0
330
120
100
AcDbEntity
  8
AM_4
100
AcDbLine
 10
13.91673022665287
 20
-13.52635182233307
 30
0.0
 11
12.52151605271627
 21
-24.17364817766694
 31
0.0
  0
LWPOLYLINE
  5
1B1
330
120
100
AcDbEntity
  8
AM_4
100
AcDbPolyline
 90
        8
 70
     0
 43
0.0
 10
11.78557419165535
 20
-25.0
 10
11.98814440157608
 20
-24.96267549928428
 10
12.11161202071749
 20
-24.90005184374626
 10
12.22903305899864
 20
-24.80525495935839
 10
12.32658651348284
 20
-24.69025699629587
 10
12.41078455194589
 20
-24.54816225781675
 10
12.51197147526193
 20
-24.23494055497708
 10
12.52151605271627
 20
-24.17364817766694
  0
LWPOLYLINE
  5
1B2
330
120
100
AcDbEntity
  8
AM_4
100
AcDbPolyline
 90
        3
 70
     0
 43
0.0
 10
34.21091270347397
 20
-20.13076828180445
 10
33.47285962225433
 20
-20.70811855099405
 10
32.67945550709749
 20
-21.28546882018367
  0
LWPOLYLINE
  5
1B3
330
120
100
AcDbEntity
  8
AM_4
100
AcDbPolyline
 90
        3
 70
     0
 43
0.0
 10
32.67945550709749
 20
-12.04786451314965
 10
33.46940688671635
 20
-12.62261886006433
 10
34.21091270347397
 20
-13.20256505152888
  0
LINE
  5
1B4
330
120
100
AcDbEntity
  8
AM_4
100
AcDbLine
 10
26.83771744873791
 20
-25.0
 30
0.0
 11
26.83771744873791
 21
-3.174999999999998
 31
0.0
  0
LINE
  5
1B5
330
120
100
AcDbEntity
  8
AM_4
100
AcDbLine
 10
24.00929032399171
 20
-25.0
 30
0.0
 11
24.00929032399171
 21
-3.174999999999998
 31
0.0
  0
LINE
  5
1B6
330
120
100
AcDbEntity
  8
AM_4
100
AcDbLine
 10
33.15025253169416
 20
-13.86666666666667
 30
0.0
 11
32.7966991411009
 21
-13.86666666666667
 31
0.0
  0
LINE
  5
1B7
330
120
100
AcDbEntity
  8
AM_4
100
AcDbLine
 10
32.7966991411009
 20
-19.46666666666665
 30
0.0
 11
33.15025253169416
 21
-19.46666666666665
 31
0.0
  0
ELLIPSE
  5
1B8
330
120
100
AcDbEntity
  8
AM_4
100
AcDbEllipse
 10
32.7966991411009
 20
-16.66666666666666
 30
0.0
 11
1.714505518806291E-16
 21
2.799999999999994
 31
0.0
210
0.0
220
0.0
230
1.0
 40
0.7071067811865477
 41
0.0
 42
3.141592653589793
  0
ELLIPSE
  5
1B9
330
120
100
AcDbEntity
  8
AM_4
100
AcDbEllipse
 10
33.15025253169416
 20
-16.66666666666666
 30
0.0
 11
1.714505518806289E-16
 21
2.799999999999992
 31
0.0
210
0.0
220
0.0
230
1.0
 40
0.7071067811865481
 41
5.672755475951984
 42
10.03524303341241
  0
LWPOLYLINE
  5
1BA
330
120
100
AcDbEntity
  8
AM_4
100
AcDbPolyline
 90
        3
 70
     0
 43
0.0
 10
32.67945550709749
 20
-21.28546882018367
 10
32.06155200932878
 20
-20.71071447326896
 10
31.38248557872776
 20
-20.13076828180439
  0
LWPOLYLINE
  5
1BB
330
120
100
AcDbEntity
  8
AM_4
100
AcDbPolyline
 90
        3
 70
     0
 43
0.0
 10
27.96419530679847
 20
-18.97606774342517
 10
28.58209880456716
 20
-19.55082209033985
 10
29.26116523516815
 20
-20.13076828180442
  0
LWPOLYLINE
  5
1BC
330
120
100
AcDbEntity
  8
AM_4
100
AcDbPolyline
 90
        3
 70
     0
 43
0.0
 10
29.26116523516815
 20
-20.13076828180442
 10
29.99921831638779
 20
-20.70811855099404
 10
30.79262243154465
 20
-21.28546882018367
  0
LINE
  5
1BD
330
120
100
AcDbEntity
  8
AM_4
100
AcDbLine
 10
30.79262243154465
 20
-21.28546882018367
 30
0.0
 11
32.67945550709749
 21
-21.28546882018367
 31
0.0
  0
LWPOLYLINE
  5
1BE
330
120
100
AcDbEntity
  8
AM_4
100
AcDbPolyline
 90
        3
 70
     0
 43
0.0
 10
31.38248557872778
 20
-13.20256505152894
 10
32.05864605988124
 20
-12.6252147823393
 10
32.67945550709749
 20
-12.04786451314965
  0
LINE
  5
1BF
330
120
100
AcDbEntity
  8
AM_4
100
AcDbLine
 10
30.79262243154465
 20
-12.04786451314965
 30
0.0
 11
32.67945550709749
 21
-12.04786451314965
 31
0.0
  0
LWPOLYLINE
  5
1C0
330
120
100
AcDbEntity
  8
AM_4
100
AcDbPolyline
 90
        3
 70
     0
 43
0.0
 10
30.79262243154465
 20
-12.04786451314965
 10
30.00267105192578
 20
-12.62261886006434
 10
29.26116523516816
 20
-13.2025650515289
  0
LWPOLYLINE
  5
1C1
330
120
100
AcDbEntity
  8
AM_4
100
AcDbPolyline
 90
        3
 70
     0
 43
0.0
 10
29.26116523516816
 20
-13.2025650515289
 10
28.58500475401469
 20
-13.77991532071853
 10
27.96419530679847
 20
-14.35726558990816
  0
LINE
  5
1C2
330
120
100
AcDbEntity
  8
AM_4
100
AcDbLine
 10
27.96419530679847
 20
-14.35726558990816
 30
0.0
 11
29.8510283823513
 21
-14.35726558990816
 31
0.0
  0
LWPOLYLINE
  5
1C3
330
120
100
AcDbEntity
  8
AM_4
100
AcDbPolyline
 90
        3
 70
     0
 43
0.0
 10
27.96419530679847
 20
-14.35726558990816
 10
27.87817136587338
 20
-15.50677428373753
 10
27.84695167279506
 20
-16.66666666666666
  0
LWPOLYLINE
  5
1C4
330
120
100
AcDbEntity
  8
AM_4
100
AcDbPolyline
 90
        3
 70
     0
 43
0.0
 10
27.84695167279506
 20
-16.66666666666666
 10
27.87789797282815
 20
-17.82136720504591
 10
27.96419530679847
 20
-18.97606774342517
  0
LINE
  5
1C5
330
120
100
AcDbEntity
  8
AM_4
100
AcDbLine
 10
27.96419530679847
 20
-18.97606774342517
 30
0.0
 11
29.8510283823513
 21
-18.97606774342517
 31
0.0
  0
LWPOLYLINE
  5
1C6
330
120
100
AcDbEntity
  8
AM_4
100
AcDbPolyline
 90
        3
 70
     0
 43
0.0
 10
29.96827201635474
 20
-16.66666666666666
 10
29.93732571632162
 20
-15.51196612828741
 10
29.8510283823513
 20
-14.35726558990816
  0
ELLIPSE
  5
1C7
330
120
100
AcDbEntity
  8
AM_4
100
AcDbEllipse
 10
32.79669914110089
 20
-16.66666666666664
 30
0.0
 11
2.449293598294691E-16
 21
3.999999999999975
 31
0.0
210
0.0
220
0.0
230
1.0
 40
0.7071067811865451
 41
5.431796889730563
 42
10.27734319612995
  0
LWPOLYLINE
  5
1C8
330
120
100
AcDbEntity
  8
AM_4
100
AcDbPolyline
 90
        3
 70
     0
 43
0.0
 10
29.8510283823513
 20
-14.35726558990816
 10
30.64097976197015
 20
-13.78251124299349
 10
31.38248557872778
 20
-13.20256505152894
  0
LWPOLYLINE
  5
1C9
330
120
100
AcDbEntity
  8
AM_4
100
AcDbPolyline
 90
        3
 70
     0
 43
0.0
 10
29.8510283823513
 20
-18.97606774342517
 10
29.93705232327639
 20
-17.82655904959579
 10
29.96827201635474
 20
-16.66666666666666
  0
LWPOLYLINE
  5
1CA
330
120
100
AcDbEntity
  8
AM_4
100
AcDbPolyline
 90
        3
 70
     0
 43
0.0
 10
31.38248557872776
 20
-20.13076828180439
 10
30.64443249750815
 20
-19.55341801261477
 10
29.8510283823513
 20
-18.97606774342517
  0
ELLIPSE
  5
1CB
330
120
100
AcDbEntity
  8
AM_4
100
AcDbEllipse
 10
35.12722600596368
 20
-16.66666666666683
 30
0.0
 11
1.560179129829404E-16
 21
2.547965880310407
 31
0.0
210
0.0
220
0.0
230
1.0
 40
0.7071067811867705
 41
1.233145784989066
 42
1.999307908056939
  0
LWPOLYLINE
  5
1CC
330
120
100
AcDbEntity
  8
AM_4
100
AcDbPolyline
 90
       18
 70
     0
 43
0.0
 10
36.20525338951196
 20
-14.18945075884332
 10
36.0640999302943
 20
-14.11751497363015
 10
35.8507597148863
 20
-14.03702078685061
 10
35.6334032470498
 20
-13.98702698687167
 10
35.41480787754902
 20
-13.96737460154733
 10
35.19740479893215
 20
-13.97755803920429
 10
34.98343729826789
 20
-14.01689096838007
 10
34.77499182764996
 20
-14.08456237478111
 10
34.57372266644857
 20
-14.17982265895018
 10
34.38127714466606
 20
-14.30194380153966
 10
34.19941588516787
 20
-14.45007567830326
 10
34.030050844671
 20
-14.62305485551503
 10
33.87517886008727
 20
-14.81924785180543
 10
33.7367370122159
 20
-15.03650429918974
 10
33.61644859312769
 20
-15.27223624642918
 10
33.51572483943681
 20
-15.52356999098741
 10
33.43564946173517
 20
-15.78746728509508
 10
33.42817652479968
 20
-15.81697392037555
  0
LINE
  5
1CD
330
120
100
AcDbEntity
  8
AM_4
100
AcDbLine
 10
36.27213102509993
 20
-14.22919234599844
 30
0.0
 11
36.23850735024668
 21
-14.20873769643459
 31
0.0
  0
LWPOLYLINE
  5
1CE
330
120
100
AcDbEntity
  8
AM_4
100
AcDbPolyline
 90
       17
 70
     0
 43
0.0
 10
33.49324401154093
 20
-17.74334280483543
 10
33.58602178339453
 20
-17.99169684157823
 10
33.70250169062128
 20
-18.23506560026995
 10
33.83894398108522
 20
-18.4616334275191
 10
33.99412904248307
 20
-18.66839984690002
 10
34.16641821752226
 20
-18.85245521249243
 10
34.35365136896895
 20
-19.01108343501918
 10
34.55315915824424
 20
-19.14198656354633
 10
34.7619148956982
 20
-19.24350786236754
 10
34.97678899759399
 20
-19.31474168239941
 10
35.19480050386033
 20
-19.35547318325462
 10
35.41327459908731
 20
-19.36599052124055
 10
35.62988408150176
 20
-19.34686245798001
 10
35.8423545510917
 20
-19.29882975941013
 10
36.04878988821561
 20
-19.22269373355256
 10
36.24755401347873
 20
-19.11918746921409
 10
36.28072596690361
 20
-19.09875544830739
  0
LINE
  5
1CF
330
120
100
AcDbEntity
  8
AM_4
100
AcDbLine
 10
37.25147186257615
 20
-14.83363638868433
 30
0.0
 11
36.26564511575154
 21
-14.22517091061525
 31
0.0
  0
LINE
  5
1D0
330
120
100
AcDbEntity
  8
AM_4
100
AcDbLine
 10
36.26564511575154
 20
-19.10816242271807
 30
0.0
 11
37.25147186257615
 21
-18.499696944649
 31
0.0
  0
ELLIPSE
  5
1D1
330
120
100
AcDbEntity
  8
AM_4
100
AcDbEllipse
 10
35.51218316759761
 20
-16.66666666666666
 30
0.0
 11
1.631162342867209E-16
 21
2.663890264528332
 31
0.0
210
0.0
220
0.0
230
1.0
 40
0.7071067811865476
 41
5.871668461112092
 42
9.836294806836873
  0
LINE
  5
1D2
330
120
100
AcDbEntity
  8
AM_4
100
AcDbLine
 10
-14.0883857384542
 20
-10.88571428571428
 30
0.0
 11
-14.0883857384542
 21
-13.10514663774612
 31
0.0
  0
LWPOLYLINE
  5
1D3
330
120
100
AcDbEntity
  8
AM_4
100
AcDbPolyline
 90
        5
 70
     0
 43
0.0
 10
-14.0883857384542
 20
-13.10514663774612
 10
-14.06186331711836
 20
-12.96967311130896
 10
-14.0307428457
 20
-12.85901799210804
 10
-13.96311462908189
 20
-12.7270618005412
 10
-13.9129589975619
 20
-12.7
  0
LINE
  5
1D4
330
120
100
AcDbEntity
  8
AM_4
100
AcDbLine
 10
10.0489529647827
 20
-10.88571428571428
 30
0.0
 11
18.63638294291577
 21
-10.88571428571428
 31
0.0
  0
LINE
  5
1D5
330
120
100
AcDbEntity
  8
AM_4
100
AcDbLine
 10
16.78198684173997
 20
0.0000000000000022
 30
0.0
 11
16.78198684173996
 21
-3.174999999999998
 31
0.0
  0
LINE
  5
1D6
330
120
100
AcDbEntity
  8
AM_4
100
AcDbLine
 10
18.63638294291577
 20
-10.88571428571428
 30
0.0
 11
18.63638294291577
 21
-3.174999999999999
 31
0.0
  0
LINE
  5
1D7
330
120
100
AcDbEntity
  8
AM_4
100
AcDbLine
 10
16.78198684173996
 20
-3.174999999999998
 30
0.0
 11
34.39171980278496
 21
-3.174999999999999
 31
0.0
  0
LINE
  5
1D8
330
120
100
AcDbEntity
  8
AM_4
100
AcDbLine
 10
-16.78198684173997
 20
-3.174999999999998
 30
0.0
 11
-16.78198684173997
 21
0.0000000000000022
 31
0.0
  0
LINE
  5
1D9
330
120
100
AcDbEntity
  8
AM_4
100
AcDbLine
 10
-27.29512899893681
 20
-3.174999999999999
 30
0.0
 11
-27.29512899893682
 21
-10.88571428571428
 31
0.0
  0
LINE
  5
1DA
330
120
100
AcDbEntity
  8
AM_4
100
AcDbLine
 10
-27.29512899893682
 20
-10.88571428571428
 30
0.0
 11
-10.04895296478271
 21
-10.88571428571428
 31
0.0
  0
LINE
  5
1DB
330
120
100
AcDbEntity
  8
AM_4
100
AcDbLine
 10
-13.9129589975619
 20
-12.7
 30
0.0
 11
13.91295899756191
 21
-12.7
 31
0.0
  0
LWPOLYLINE
  5
1DC
330
120
100
AcDbEntity
  8
AM_4
100
AcDbPolyline
 90
        5
 70
     0
 43
0.0
 10
13.91295899756191
 20
-12.7
 10
13.96095662061798
 20
-12.7247587726369
 10
14.00403432364441
 20
-12.7919458054258
 10
14.04561293815135
 20
-12.90681421267112
 10
14.07976642993913
 20
-13.0555291433214
  0
LINE
  5
1DD
330
120
100
AcDbEntity
  8
AM_4
100
AcDbLine
 10
14.07976642993913
 20
-13.0555291433214
 30
0.0
 11
14.07976642993913
 21
-10.88571428571428
 31
0.0
  0
LINE
  5
1DE
330
120
100
AcDbEntity
  8
AM_4
100
AcDbLine
 10
10.0489529647827
 20
-10.88571428571428
 30
0.0
 11
10.0489529647827
 21
-12.7
 31
0.0
  0
LINE
  5
1DF
330
120
100
AcDbEntity
  8
AM_4
100
AcDbLine
 10
10.04895296478271
 20
0.000000000000003
 30
0.0
 11
10.0489529647827
 21
-10.88571428571428
 31
0.0
  0
LINE
  5
1E0
330
120
100
AcDbEntity
  8
AM_4
100
AcDbLine
 10
-10.04895296478271
 20
0.000000000000003
 30
0.0
 11
-10.04895296478271
 21
-10.88571428571428
 31
0.0
  0
LINE
  5
1E1
330
120
100
AcDbEntity
  8
AM_4
100
AcDbLine
 10
-10.04895296478271
 20
-10.88571428571428
 30
0.0
 11
-10.04895296478271
 21
-12.7
 31
0.0
  0
ELLIPSE
  5
1E2
330
120
100
AcDbEntity
  8
AM_4
100
AcDbEllipse
 10
36.68578643762692
 20
-16.66666666666666
 30
0.0
 11
1.224646799147356E-16
 21
2.000000000000005
 31
0.0
210
0.0
220
0.0
230
1.0
 40
0.7071067811865478
 41
0.0
 42
6.283185307179586
  0
ENDBLK
  5
123
330
120
100
AcDbEntity
  8
0
100
AcDbBlockEnd
  0
ENDSEC
  0
SECTION
  2
ENTITIES
  0
INSERT
  5
6F
330
1F
100
AcDbEntity
  8
0
100
AcDbBlockReference
  2
1_129322_4
 10
0.0
 20
0.0
 30
0.0
  0
POINT
  5
1E4
330
1F
100
AcDbEntity
  8
ConnectionPoints
100
AcDbPoint
 10
0.0000000000000015
 20
-15.9
 30
0.000000000000001
  0
POINT
  5
1E5
330
1F
100
AcDbEntity
  8
ConnectionPoints
100
AcDbPoint
 10
0.0000000000000015
 20
-3.600000000000001
 30
0.0000000000000002
  0
POINT
  5
1E6
330
1F
100
AcDbEntity
  8
ConnectionPoints
100
AcDbPoint
 10
0.0
 20
-3.600000000000001
 30
0.0000000000000002
  0
ENDSEC
  0
SECTION
  2
OBJECTS
  0
DICTIONARY
  5
C
330
0
100
AcDbDictionary
281
     1
  3
ACAD_DETAILVIEWSTYLE
350
1EE
  3
ACAD_GROUP
350
D
  3
ACAD_LAYOUT
350
1A
  3
ACAD_MATERIAL
350
43
  3
ACAD_MLEADERSTYLE
350
6B
  3
ACAD_MLINESTYLE
350
17
  3
ACAD_PLOTSETTINGS
350
19
  3
ACAD_PLOTSTYLENAME
350
E
  3
ACAD_SCALELIST
350
47
  3
ACAD_SECTIONVIEWSTYLE
350
1EF
  3
ACAD_TABLESTYLE
350
69
  3
ACAD_VISUALSTYLE
350
2A
  3
ACDB_RECOMPOSE_DATA
350
1EB
  3
AcDbVariableDictionary
350
1E7
  0
SUN
  5
6D
330
29
100
AcDbSun
 90
        1
290
     0
 63
     7
421
 16777215
 40
1.0
291
     1
 91
  2455826
 92
 54000000
292
     0
 70
     2
 71
   256
280
     1
  0
DICTIONARY
  5
1EE
102
{ACAD_REACTORS
330
C
102
}
330
C
100
AcDbDictionary
281
     1
  0
DICTIONARY
  5
D
102
{ACAD_REACTORS
330
C
102
}
330
C
100
AcDbDictionary
281
     1
  0
DICTIONARY
  5
1A
102
{ACAD_REACTORS
330
C
102
}
330
C
100
AcDbDictionary
281
     1
  3
Layout1
350
1E
  3
Layout2
350
26
  3
Model
350
22
  0
DICTIONARY
  5
43
102
{ACAD_REACTORS
330
C
102
}
330
C
100
AcDbDictionary
281
     1
  3
ByBlock
350
45
  3
ByLayer
350
44
  3
Global
350
46
  0
DICTIONARY
  5
6B
102
{ACAD_REACTORS
330
C
102
}
330
C
100
AcDbDictionary
281
     1
  3
Standard
350
6C
  0
DICTIONARY
  5
17
102
{ACAD_REACTORS
330
C
102
}
330
C
100
AcDbDictionary
281
     1
  3
Standard
350
18
  0
DICTIONARY
  5
19
102
{ACAD_REACTORS
330
C
102
}
330
C
100
AcDbDictionary
281
     1
  0
ACDBDICTIONARYWDFLT
  5
E
102
{ACAD_REACTORS
330
C
102
}
330
C
100
AcDbDictionary
281
     1
  3
Normal
350
F
100
AcDbDictionaryWithDefault
340
F
  0
DICTIONARY
  5
47
102
{ACAD_REACTORS
330
C
102
}
330
C
100
AcDbDictionary
281
     1
  3
A0
350
48
  3
A1
350
49
  3
A2
350
4A
  3
A3
350
4B
  3
A4
350
4C
  3
A5
350
4D
  3
A6
350
4E
  3
A7
350
4F
  3
A8
350
50
  3
A9
350
51
  3
B0
350
52
  3
B1
350
53
  3
B2
350
54
  3
B3
350
55
  3
B4
350
56
  3
B5
350
57
  3
B6
350
58
  3
B7
350
59
  3
B8
350
5A
  3
B9
350
5B
  3
C0
350
5C
  3
C1
350
5D
  3
C2
350
5E
  3
C3
350
5F
  3
C4
350
60
  3
C5
350
61
  3
C6
350
62
  3
C7
350
63
  3
C8
350
64
  3
C9
350
65
  3
D0
350
66
  3
D1
350
67
  3
D2
350
68
  0
DICTIONARY
  5
1EF
102
{ACAD_REACTORS
330
C
102
}
330
C
100
AcDbDictionary
281
     1
  0
DICTIONARY
  5
69
102
{ACAD_REACTORS
330
C
102
}
330
C
100
AcDbDictionary
281
     1
  3
Standard
350
6A
  0
DICTIONARY
  5
2A
102
{ACAD_REACTORS
330
C
102
}
330
C
100
AcDbDictionary
281
     1
  3
2dWireframe
350
2F
  3
Basic
350
32
  3
Brighten
350
36
  3
ColorChange
350
3A
  3
Conceptual
350
34
  3
Dim
350
35
  3
EdgeColorOff
350
3D
  3
Facepattern
350
39
  3
Flat
350
2B
  3
FlatWithEdges
350
2C
  3
Gouraud
350
2D
  3
GouraudWithEdges
350
2E
  3
Hidden
350
31
  3
JitterOff
350
3B
  3
Linepattern
350
38
  3
OverhangOff
350
3C
  3
Realistic
350
33
  3
Shaded
350
42
  3
Shaded with edges
350
41
  3
Shades of Gray
350
3E
  3
Sketchy
350
3F
  3
Thicken
350
37
  3
Wireframe
350
30
  3
X-Ray
350
40
  0
XRECORD
  5
1EB
102
{ACAD_REACTORS
330
C
102
}
330
C
100
AcDbXrecord
280
     1
 90
        1
330
6A
  0
DICTIONARY
  5
1E7
102
{ACAD_REACTORS
330
C
102
}
330
C
100
AcDbDictionary
281
     1
  3
CANNOSCALE
350
1E8
  3
CMLEADERSTYLE
350
1ED
  3
CTABLESTYLE
350
1EC
  0
LAYOUT
  5
1E
102
{ACAD_REACTORS
330
1A
102
}
330
1A
100
AcDbPlotSettings
  1

  2
none_device
  4

  6

 40
0.0
 41
0.0
 42
0.0
 43
0.0
 44
0.0
 45
0.0
 46
0.0
 47
0.0
 48
0.0
 49
0.0
140
0.0
141
0.0
142
1.0
143
1.0
 70
   688
 72
     1
 73
     0
 74
     5
  7

 75
    16
 76
     0
 77
     2
 78
   300
147
1.0
148
0.0
149
0.0
100
AcDbLayout
  1
Layout1
 70
     1
 71
     1
 10
0.0
 20
0.0
 11
420.0
 21
297.0
 12
0.0
 22
0.0
 32
0.0
 14
1.000000000000000E+20
 24
1.000000000000000E+20
 34
1.000000000000000E+20
 15
-1.000000000000000E+20
 25
-1.000000000000000E+20
 35
-1.000000000000000E+20
146
0.0
 13
0.0
 23
0.0
 33
0.0
 16
1.0
 26
0.0
 36
0.0
 17
0.0
 27
1.0
 37
0.0
 76
     0
330
1B
  0
LAYOUT
  5
26
102
{ACAD_REACTORS
330
1A
102
}
330
1A
100
AcDbPlotSettings
  1

  2
none_device
  4

  6

 40
0.0
 41
0.0
 42
0.0
 43
0.0
 44
0.0
 45
0.0
 46
0.0
 47
0.0
 48
0.0
 49
0.0
140
0.0
141
0.0
142
1.0
143
1.0
 70
   688
 72
     1
 73
     0
 74
     5
  7

 75
    16
 76
     0
 77
     2
 78
   300
147
1.0
148
0.0
149
0.0
100
AcDbLayout
  1
Layout2
 70
     1
 71
     2
 10
0.0
 20
0.0
 11
0.0
 21
0.0
 12
0.0
 22
0.0
 32
0.0
 14
0.0
 24
0.0
 34
0.0
 15
0.0
 25
0.0
 35
0.0
146
0.0
 13
0.0
 23
0.0
 33
0.0
 16
1.0
 26
0.0
 36
0.0
 17
0.0
 27
1.0
 37
0.0
 76
     0
330
23
  0
LAYOUT
  5
22
102
{ACAD_REACTORS
330
1A
102
}
330
1A
100
AcDbPlotSettings
  1

  2
none_device
  4
Letter_(8.50_x_11.00_Inches)
  6

 40
6.35
 41
6.35
 42
6.35000508
 43
6.35000508
 44
215.9
 45
279.4
 46
0.0
 47
0.0
 48
0.0
 49
0.0
140
0.0
141
0.0
142
1.0
143
1.0
 70
  1712
 72
     1
 73
     0
 74
     0
  7

 75
     0
 76
     0
 77
     2
 78
   300
147
1.0
148
0.0
149
0.0
100
AcDbLayout
  1
Model
 70
     1
 71
     0
 10
0.0
 20
0.0
 11
420.0
 21
297.0
 12
0.0
 22
0.0
 32
0.0
 14
1.000000000000000E+20
 24
1.000000000000000E+20
 34
1.000000000000000E+20
 15
-1.000000000000000E+20
 25
-1.000000000000000E+20
 35
-1.000000000000000E+20
146
0.0
 13
0.0
 23
0.0
 33
0.0
 16
1.0
 26
0.0
 36
0.0
 17
0.0
 27
1.0
 37
0.0
 76
     0
330
1F
331
29
  0
MATERIAL
  5
45
102
{ACAD_REACTORS
330
43
102
}
330
43
100
AcDbMaterial
  1
ByBlock
 72
     1
 94
      127
  0
MATERIAL
  5
44
102
{ACAD_REACTORS
330
43
102
}
330
43
100
AcDbMaterial
  1
ByLayer
 72
     1
 94
      127
  0
MATERIAL
  5
46
102
{ACAD_REACTORS
330
43
102
}
330
43
100
AcDbMaterial
  1
Global
 72
     1
 94
      127
  0
MLEADERSTYLE
  5
6C
102
{ACAD_REACTORS
330
6B
102
}
330
6B
100
AcDbMLeaderStyle
179
     2
170
     2
171
     1
172
     0
 90
        2
 40
0.0
 41
0.0
173
     1
 91
-1056964608
340
14
 92
       -2
290
     1
 42
2.0
291
     1
 43
8.0
  3
Standard
341
0
 44
4.0
300

342
11
174
     1
178
     6
175
     1
176
     0
 93
-1056964608
 45
4.0
292
     0
297
     0
 46
4.0
343
0
 94
-1056964608
 47
1.0
 49
1.0
140
1.0
293
     1
141
0.0
294
     1
177
     0
142
1.0
295
     0
296
     0
143
3.75
271
     0
272
     9
273
     9
298
     0
  0
MLINESTYLE
  5
18
102
{ACAD_REACTORS
330
17
102
}
330
17
100
AcDbMlineStyle
  2
Standard
 70
     0
  3

 62
   256
 51
90.0
 52
90.0
 71
     2
 49
0.5
 62
   256
  6
BYLAYER
 49
-0.5
 62
   256
  6
BYLAYER
  0
ACDBPLACEHOLDER
  5
F
102
{ACAD_REACTORS
330
E
102
}
330
E
  0
SCALE
  5
48
102
{ACAD_REACTORS
330
47
102
}
330
47
100
AcDbScale
 70
     0
300
1:1
140
1.0
141
1.0
290
     1
  0
SCALE
  5
49
102
{ACAD_REACTORS
330
47
102
}
330
47
100
AcDbScale
 70
     0
300
1:2
140
1.0
141
2.0
290
     0
  0
SCALE
  5
4A
102
{ACAD_REACTORS
330
47
102
}
330
47
100
AcDbScale
 70
     0
300
1:4
140
1.0
141
4.0
290
     0
  0
SCALE
  5
4B
102
{ACAD_REACTORS
330
47
102
}
330
47
100
AcDbScale
 70
     0
300
1:5
140
1.0
141
5.0
290
     0
  0
SCALE
  5
4C
102
{ACAD_REACTORS
330
47
102
}
330
47
100
AcDbScale
 70
     0
300
1:8
140
1.0
141
8.0
290
     0
  0
SCALE
  5
4D
102
{ACAD_REACTORS
330
47
102
}
330
47
100
AcDbScale
 70
     0
300
1:10
140
1.0
141
10.0
290
     0
  0
SCALE
  5
4E
102
{ACAD_REACTORS
330
47
102
}
330
47
100
AcDbScale
 70
     0
300
1:16
140
1.0
141
16.0
290
     0
  0
SCALE
  5
4F
102
{ACAD_REACTORS
330
47
102
}
330
47
100
AcDbScale
 70
     0
300
1:20
140
1.0
141
20.0
290
     0
  0
SCALE
  5
50
102
{ACAD_REACTORS
330
47
102
}
330
47
100
AcDbScale
 70
     0
300
1:30
140
1.0
141
30.0
290
     0
  0
SCALE
  5
51
102
{ACAD_REACTORS
330
47
102
}
330
47
100
AcDbScale
 70
     0
300
1:40
140
1.0
141
40.0
290
     0
  0
SCALE
  5
52
102
{ACAD_REACTORS
330
47
102
}
330
47
100
AcDbScale
 70
     0
300
1:50
140
1.0
141
50.0
290
     0
  0
SCALE
  5
53
102
{ACAD_REACTORS
330
47
102
}
330
47
100
AcDbScale
 70
     0
300
1:100
140
1.0
141
100.0
290
     0
  0
SCALE
  5
54
102
{ACAD_REACTORS
330
47
102
}
330
47
100
AcDbScale
 70
     0
300
2:1
140
2.0
141
1.0
290
     0
  0
SCALE
  5
55
102
{ACAD_REACTORS
330
47
102
}
330
47
100
AcDbScale
 70
     0
300
4:1
140
4.0
141
1.0
290
     0
  0
SCALE
  5
56
102
{ACAD_REACTORS
330
47
102
}
330
47
100
AcDbScale
 70
     0
300
8:1
140
8.0
141
1.0
290
     0
  0
SCALE
  5
57
102
{ACAD_REACTORS
330
47
102
}
330
47
100
AcDbScale
 70
     0
300
10:1
140
10.0
141
1.0
290
     0
  0
SCALE
  5
58
102
{ACAD_REACTORS
330
47
102
}
330
47
100
AcDbScale
 70
     0
300
100:1
140
100.0
141
1.0
290
     0
  0
SCALE
  5
59
102
{ACAD_REACTORS
330
47
102
}
330
47
100
AcDbScale
 70
     0
300
1/128" = 1'-0"
140
0.0078125
141
12.0
290
     0
  0
SCALE
  5
5A
102
{ACAD_REACTORS
330
47
102
}
330
47
100
AcDbScale
 70
     0
300
1/64" = 1'-0"
140
0.015625
141
12.0
290
     0
  0
SCALE
  5
5B
102
{ACAD_REACTORS
330
47
102
}
330
47
100
AcDbScale
 70
     0
300
1/32" = 1'-0"
140
0.03125
141
12.0
290
     0
  0
SCALE
  5
5C
102
{ACAD_REACTORS
330
47
102
}
330
47
100
AcDbScale
 70
     0
300
1/16" = 1'-0"
140
0.0625
141
12.0
290
     0
  0
SCALE
  5
5D
102
{ACAD_REACTORS
330
47
102
}
330
47
100
AcDbScale
 70
     0
300
3/32" = 1'-0"
140
0.09375
141
12.0
290
     0
  0
SCALE
  5
5E
102
{ACAD_REACTORS
330
47
102
}
330
47
100
AcDbScale
 70
     0
300
1/8" = 1'-0"
140
0.125
141
12.0
290
     0
  0
SCALE
  5
5F
102
{ACAD_REACTORS
330
47
102
}
330
47
100
AcDbScale
 70
     0
300
3/16" = 1'-0"
140
0.1875
141
12.0
290
     0
  0
SCALE
  5
60
102
{ACAD_REACTORS
330
47
102
}
330
47
100
AcDbScale
 70
     0
300
1/4" = 1'-0"
140
0.25
141
12.0
290
     0
  0
SCALE
  5
61
102
{ACAD_REACTORS
330
47
102
}
330
47
100
AcDbScale
 70
     0
300
3/8" = 1'-0"
140
0.375
141
12.0
290
     0
  0
SCALE
  5
62
102
{ACAD_REACTORS
330
47
102
}
330
47
100
AcDbScale
 70
     0
300
1/2" = 1'-0"
140
0.5
141
12.0
290
     0
  0
SCALE
  5
63
102
{ACAD_REACTORS
330
47
102
}
330
47
100
AcDbScale
 70
     0
300
3/4" = 1'-0"
140
0.75
141
12.0
290
     0
  0
SCALE
  5
64
102
{ACAD_REACTORS
330
47
102
}
330
47
100
AcDbScale
 70
     0
300
1" = 1'-0"
140
1.0
141
12.0
290
     0
  0
SCALE
  5
65
102
{ACAD_REACTORS
330
47
102
}
330
47
100
AcDbScale
 70
     0
300
1-1/2" = 1'-0"
140
1.5
141
12.0
290
     0
  0
SCALE
  5
66
102
{ACAD_REACTORS
330
47
102
}
330
47
100
AcDbScale
 70
     0
300
3" = 1'-0"
140
3.0
141
12.0
290
     0
  0
SCALE
  5
67
102
{ACAD_REACTORS
330
47
102
}
330
47
100
AcDbScale
 70
     0
300
6" = 1'-0"
140
6.0
141
12.0
290
     0
  0
SCALE
  5
68
102
{ACAD_REACTORS
330
47
102
}
330
47
100
AcDbScale
 70
     0
300
1'-0" = 1'-0"
140
12.0
141
12.0
290
     0
  0
TABLESTYLE
  5
6A
102
{ACAD_REACTORS
330
69
102
}
102
{ACAD_XDICTIONARY
360
1E9
102
}
330
69
100
AcDbTableStyle
  3
Standard
 70
     0
 71
     0
 40
0.06
 41
0.06
280
     0
281
     0
  7
Standard
140
4.5
170
     2
 62
     0
 63
   257
283
     0
 90
        4
 91
        0
  1

274
    -2
284
     1
 64
     0
275
    -2
285
     1
 65
     0
276
    -2
286
     1
 66
     0
277
    -2
287
     1
 67
     0
278
    -2
288
     1
 68
     0
279
    -2
289
     1
 69
     0
  7
Standard
140
6.0
170
     5
 62
     0
 63
   257
283
     0
 90
        4
 91
        0
  1

274
    -2
284
     1
 64
     0
275
    -2
285
     1
 65
     0
276
    -2
286
     1
 66
     0
277
    -2
287
     1
 67
     0
278
    -2
288
     1
 68
     0
279
    -2
289
     1
 69
     0
  7
Standard
140
4.5
170
     5
 62
     0
 63
   257
283
     0
 90
        4
 91
        0
  1

274
    -2
284
     1
 64
     0
275
    -2
285
     1
 65
     0
276
    -2
286
     1
 66
     0
277
    -2
287
     1
 67
     0
278
    -2
288
     1
 68
     0
279
    -2
289
     1
 69
     0
  0
VISUALSTYLE
  5
2F
102
{ACAD_REACTORS
330
2A
102
}
330
2A
100
AcDbVisualStyle
  2
2dWireframe
 70
     4
177
     3
291
     0
 70
    58
 90
        0
176
     1
 90
        2
176
     1
 90
        0
176
     1
 90
        0
176
     1
 40
0.6
176
     1
 40
30.0
176
     1
 62
     7
420
 16777215
176
     1
 90
        1
176
     1
 90
        4
176
     1
 62
     7
176
     1
 62
   257
176
     1
 90
        1
176
     1
 90
        1
176
     1
 40
1.0
176
     1
 90
        0
176
     1
 62
   257
176
     1
 40
1.0
176
     1
 90
        1
176
     1
 90
        6
176
     1
 90
        2
176
     1
 62
     7
176
     1
 90
        5
176
     1
 90
        0
176
     1
 90
        0
176
     1
290
     0
176
     1
 90
        1
176
     1
 40
0.0
176
     1
 90
        0
176
     1
290
     1
176
     1
290
     1
176
     1
290
     0
176
     1
290
     0
176
     1
290
     0
176
     1
290
     0
176
     1
290
     0
176
     1
290
     0
176
     1
290
     0
176
     1
 90
       50
176
     1
 40
0.0
176
     1
 40
1.0
176
     1
 90
        0
176
     1
 62
    18
420
        0
176
     1
 90
       50
176
     1
 90
        3
176
     1
 62
     5
420
      255
176
     1
290
     0
176
     1
 90
       50
176
     1
 90
       50
176
     1
 90
       50
176
     1
290
     0
176
     1
 90
       50
176
     1
 62
   256
176
     0
 40
1.0
176
     0
 90
        2
176
     1
  1
strokes_ogs.tif
176
     1
290
     0
176
     1
 40
1.0
176
     1
 40
1.0
176
     1
  0
VISUALSTYLE
  5
32
102
{ACAD_REACTORS
330
2A
102
}
330
2A
100
AcDbVisualStyle
  2
Basic
 70
     7
177
     3
291
     1
 70
    58
 90
        1
176
     1
 90
        0
176
     1
 90
        1
176
     1
 90
        0
176
     1
 40
0.6
176
     1
 40
30.0
176
     1
 62
     7
420
 16777215
176
     1
 90
        0
176
     1
 90
        4
176
     1
 62
     7
176
     1
 62
   257
176
     1
 90
        1
176
     1
 90
        1
176
     1
 40
1.0
176
     1
 90
        8
176
     1
 62
     7
176
     1
 40
1.0
176
     1
 90
        1
176
     1
 90
        6
176
     1
 90
        2
176
     1
 62
     7
176
     1
 90
        5
176
     1
 90
        0
176
     1
 90
        0
176
     1
290
     0
176
     1
 90
        1
176
     1
 40
0.0
176
     1
 90
        0
176
     1
290
     0
176
     1
290
     1
176
     1
290
     1
176
     1
290
     0
176
     1
290
     0
176
     1
290
     0
176
     1
290
     0
176
     1
290
     0
176
     1
290
     0
176
     1
 90
       50
176
     1
 40
0.0
176
     1
 40
1.0
176
     1
 90
        0
176
     1
 62
    18
420
        0
176
     1
 90
       50
176
     1
 90
        3
176
     1
 62
     5
420
      255
176
     1
290
     0
176
     1
 90
       50
176
     1
 90
       50
176
     1
 90
       50
176
     1
290
     0
176
     1
 90
       50
176
     1
 62
   256
176
     0
 40
1.0
176
     0
 90
        2
176
     1
  1
strokes_ogs.tif
176
     1
290
     0
176
     1
 40
1.0
176
     1
 40
1.0
176
     1
  0
VISUALSTYLE
  5
36
102
{ACAD_REACTORS
330
2A
102
}
330
2A
100
AcDbVisualStyle
  2
Brighten
 70
    12
177
     3
291
     1
 70
    58
 90
        2
176
     1
 90
        2
176
     1
 90
        0
176
     1
 90
        0
176
     1
 40
0.6
176
     1
 40
30.0
176
     1
 62
     7
420
 16777215
176
     1
 90
        1
176
     1
 90
        4
176
     1
 62
     7
176
     1
 62
   257
176
     1
 90
        1
176
     1
 90
        1
176
     1
 40
1.0
176
     1
 90
        8
176
     1
 62
     7
176
     1
 40
1.0
176
     1
 90
        1
176
     1
 90
        6
176
     1
 90
        2
176
     1
 62
     7
176
     1
 90
        5
176
     1
 90
        0
176
     1
 90
        0
176
     1
290
     0
176
     1
 90
        1
176
     1
 40
50.0
176
     1
 90
        0
176
     1
290
     0
176
     1
290
     1
176
     1
290
     1
176
     1
290
     0
176
     1
290
     0
176
     1
290
     0
176
     1
290
     0
176
     1
290
     0
176
     1
290
     0
176
     1
 90
       50
176
     1
 40
0.0
176
     1
 40
1.0
176
     1
 90
        0
176
     1
 62
    18
420
        0
176
     1
 90
       50
176
     1
 90
        3
176
     1
 62
     5
420
      255
176
     1
290
     0
176
     1
 90
       50
176
     1
 90
       50
176
     1
 90
       50
176
     1
290
     0
176
     1
 90
       50
176
     1
 62
   256
176
     0
 40
1.0
176
     0
 90
        2
176
     1
  1
strokes_ogs.tif
176
     1
290
     0
176
     1
 40
1.0
176
     1
 40
1.0
176
     1
  0
VISUALSTYLE
  5
3A
102
{ACAD_REACTORS
330
2A
102
}
330
2A
100
AcDbVisualStyle
  2
ColorChange
 70
    16
177
     3
291
     1
 70
    58
 90
        2
176
     1
 90
        2
176
     1
 90
        3
176
     1
 90
        0
176
     1
 40
0.6
176
     1
 40
30.0
176
     1
 62
     8
420
  8421504
176
     1
 90
        1
176
     1
 90
        4
176
     1
 62
     7
176
     1
 62
   257
176
     1
 90
        1
176
     1
 90
        1
176
     1
 40
1.0
176
     1
 90
        8
176
     1
 62
     8
420
  8421504
176
     1
 40
1.0
176
     1
 90
        1
176
     1
 90
        6
176
     1
 90
        2
176
     1
 62
     7
176
     1
 90
        5
176
     1
 90
        0
176
     1
 90
        0
176
     1
290
     0
176
     1
 90
        1
176
     1
 40
0.0
176
     1
 90
        0
176
     1
290
     0
176
     1
290
     1
176
     1
290
     1
176
     1
290
     0
176
     1
290
     0
176
     1
290
     0
176
     1
290
     0
176
     1
290
     0
176
     1
290
     0
176
     1
 90
       50
176
     1
 40
0.0
176
     1
 40
1.0
176
     1
 90
        0
176
     1
 62
    18
420
        0
176
     1
 90
       50
176
     1
 90
        3
176
     1
 62
     5
420
      255
176
     1
290
     0
176
     1
 90
       50
176
     1
 90
       50
176
     1
 90
       50
176
     1
290
     0
176
     1
 90
       50
176
     1
 62
   256
176
     0
 40
1.0
176
     0
 90
        2
176
     1
  1
strokes_ogs.tif
176
     1
290
     0
176
     1
 40
1.0
176
     1
 40
1.0
176
     1
  0
VISUALSTYLE
  5
34
102
{ACAD_REACTORS
330
2A
102
}
330
2A
100
AcDbVisualStyle
  2
Conceptual
 70
     9
177
     3
291
     0
 70
    58
 90
        3
176
     1
 90
        2
176
     1
 90
        0
176
     1
 90
        0
176
     1
 40
0.6
176
     1
 40
30.0
176
     1
 62
     7
420
 16777215
176
     1
 90
        2
176
     1
 90
        2
176
     1
 62
     7
176
     1
 62
   257
176
     1
 90
        1
176
     1
 90
        1
176
     1
 40
179.0
176
     1
 90
        8
176
     1
 62
     7
176
     1
 40
1.0
176
     1
 90
        1
176
     1
 90
        6
176
     1
 90
        2
176
     1
 62
     7
176
     1
 90
        3
176
     1
 90
        0
176
     1
 90
        0
176
     1
290
     0
176
     1
 90
        1
176
     1
 40
0.0
176
     1
 90
        0
176
     1
290
     0
176
     1
290
     1
176
     1
290
     1
176
     1
290
     0
176
     1
290
     0
176
     1
290
     0
176
     1
290
     0
176
     1
290
     0
176
     1
290
     0
176
     1
 90
       50
176
     1
 40
0.0
176
     1
 40
1.0
176
     1
 90
        0
176
     1
 62
    18
420
        0
176
     1
 90
       50
176
     1
 90
        3
176
     1
 62
     5
420
      255
176
     1
290
     0
176
     1
 90
       50
176
     1
 90
       50
176
     1
 90
       50
176
     1
290
     0
176
     1
 90
       50
176
     1
 62
   256
176
     0
 40
1.0
176
     0
 90
        2
176
     1
  1
strokes_ogs.tif
176
     1
290
     0
176
     1
 40
1.0
176
     1
 40
1.0
176
     1
  0
VISUALSTYLE
  5
35
102
{ACAD_REACTORS
330
2A
102
}
330
2A
100
AcDbVisualStyle
  2
Dim
 70
    11
177
     3
291
     1
 70
    58
 90
        2
176
     1
 90
        2
176
     1
 90
        0
176
     1
 90
        0
176
     1
 40
0.6
176
     1
 40
30.0
176
     1
 62
     7
420
 16777215
176
     1
 90
        1
176
     1
 90
        4
176
     1
 62
     7
176
     1
 62
   257
176
     1
 90
        1
176
     1
 90
        1
176
     1
 40
1.0
176
     1
 90
        8
176
     1
 62
     7
176
     1
 40
1.0
176
     1
 90
        1
176
     1
 90
        6
176
     1
 90
        2
176
     1
 62
     7
176
     1
 90
        5
176
     1
 90
        0
176
     1
 90
        0
176
     1
290
     0
176
     1
 90
        1
176
     1
 40
-50.0
176
     1
 90
        0
176
     1
290
     0
176
     1
290
     1
176
     1
290
     1
176
     1
290
     0
176
     1
290
     0
176
     1
290
     0
176
     1
290
     0
176
     1
290
     0
176
     1
290
     0
176
     1
 90
       50
176
     1
 40
0.0
176
     1
 40
1.0
176
     1
 90
        0
176
     1
 62
    18
420
        0
176
     1
 90
       50
176
     1
 90
        3
176
     1
 62
     5
420
      255
176
     1
290
     0
176
     1
 90
       50
176
     1
 90
       50
176
     1
 90
       50
176
     1
290
     0
176
     1
 90
       50
176
     1
 62
   256
176
     0
 40
1.0
176
     0
 90
        2
176
     1
  1
strokes_ogs.tif
176
     1
290
     0
176
     1
 40
1.0
176
     1
 40
1.0
176
     1
  0
VISUALSTYLE
  5
3D
102
{ACAD_REACTORS
330
2A
102
}
330
2A
100
AcDbVisualStyle
  2
EdgeColorOff
 70
    22
177
     3
291
     1
 70
    58
 90
        2
176
     0
 90
        2
176
     0
 90
        0
176
     0
 90
        0
176
     0
 40
0.6
176
     0
 40
30.0
176
     0
 62
     7
420
 16777215
176
     0
 90
        1
176
     0
 90
        4
176
     0
 62
     7
176
     0
 62
   257
176
     0
 90
        1
176
     0
 90
        1
176
     0
 40
1.0
176
     0
 90
        8
176
     2
 62
     7
176
     0
 40
1.0
176
     0
 90
        1
176
     0
 90
        6
176
     0
 90
        2
176
     0
 62
     7
176
     0
 90
        5
176
     0
 90
        0
176
     0
 90
        0
176
     0
290
     0
176
     0
 90
        1
176
     0
 40
0.0
176
     0
 90
        0
176
     0
290
     0
176
     0
290
     1
176
     0
290
     1
176
     0
290
     0
176
     0
290
     0
176
     0
290
     0
176
     0
290
     0
176
     0
290
     0
176
     0
290
     0
176
     0
 90
       50
176
     0
 40
0.0
176
     0
 40
1.0
176
     0
 90
        0
176
     0
 62
    18
420
        0
176
     0
 90
       50
176
     0
 90
        3
176
     0
 62
     5
420
      255
176
     0
290
     0
176
     0
 90
       50
176
     0
 90
       50
176
     0
 90
       50
176
     0
290
     0
176
     0
 90
       50
176
     0
 62
   256
176
     0
 40
1.0
176
     0
 90
        2
176
     0
  1
strokes_ogs.tif
176
     0
290
     0
176
     0
 40
1.0
176
     0
 40
1.0
176
     0
  0
VISUALSTYLE
  5
39
102
{ACAD_REACTORS
330
2A
102
}
330
2A
100
AcDbVisualStyle
  2
Facepattern
 70
    15
177
     3
291
     1
 70
    58
 90
        2
176
     1
 90
        2
176
     1
 90
        0
176
     1
 90
        0
176
     1
 40
0.6
176
     1
 40
30.0
176
     1
 62
     7
420
 16777215
176
     1
 90
        1
176
     1
 90
        4
176
     1
 62
     7
176
     1
 62
   257
176
     1
 90
        1
176
     1
 90
        1
176
     1
 40
1.0
176
     1
 90
        8
176
     1
 62
     7
176
     1
 40
1.0
176
     1
 90
        1
176
     1
 90
        6
176
     1
 90
        2
176
     1
 62
     7
176
     1
 90
        5
176
     1
 90
        0
176
     1
 90
        0
176
     1
290
     0
176
     1
 90
        1
176
     1
 40
0.0
176
     1
 90
        0
176
     1
290
     0
176
     1
290
     1
176
     1
290
     1
176
     1
290
     0
176
     1
290
     0
176
     1
290
     0
176
     1
290
     0
176
     1
290
     0
176
     1
290
     0
176
     1
 90
       50
176
     1
 40
0.0
176
     1
 40
1.0
176
     1
 90
        0
176
     1
 62
    18
420
        0
176
     1
 90
       50
176
     1
 90
        3
176
     1
 62
     5
420
      255
176
     1
290
     0
176
     1
 90
       50
176
     1
 90
       50
176
     1
 90
       50
176
     1
290
     0
176
     1
 90
       50
176
     1
 62
   256
176
     0
 40
1.0
176
     0
 90
        2
176
     1
  1
strokes_ogs.tif
176
     1
290
     0
176
     1
 40
1.0
176
     1
 40
1.0
176
     1
  0
VISUALSTYLE
  5
2B
102
{ACAD_REACTORS
330
2A
102
}
330
2A
100
AcDbVisualStyle
  2
Flat
 70
     0
177
     3
291
     1
 70
    58
 90
        2
176
     1
 90
        1
176
     1
 90
        1
176
     1
 90
        2
176
     1
 40
0.6
176
     1
 40
30.0
176
     1
 62
     7
420
 16777215
176
     1
 90
        0
176
     1
 90
        0
176
     1
 62
     7
176
     1
 62
   257
176
     1
 90
        1
176
     1
 90
        1
176
     1
 40
1.0
176
     1
 90
        8
176
     1
 62
     7
176
     1
 40
1.0
176
     1
 90
        1
176
     1
 90
        6
176
     1
 90
        2
176
     1
 62
     7
176
     1
 90
        5
176
     1
 90
        0
176
     1
 90
        0
176
     1
290
     0
176
     1
 90
       13
176
     1
 40
0.0
176
     1
 90
        0
176
     1
290
     0
176
     1
290
     1
176
     1
290
     1
176
     1
290
     0
176
     1
290
     0
176
     1
290
     0
176
     1
290
     0
176
     1
290
     0
176
     1
290
     0
176
     1
 90
       50
176
     1
 40
0.0
176
     1
 40
1.0
176
     1
 90
        0
176
     1
 62
    18
420
        0
176
     1
 90
       50
176
     1
 90
        3
176
     1
 62
     5
420
      255
176
     1
290
     0
176
     1
 90
       50
176
     1
 90
       50
176
     1
 90
       50
176
     1
290
     0
176
     1
 90
       50
176
     1
 62
   256
176
     0
 40
1.0
176
     0
 90
        2
176
     1
  1
strokes_ogs.tif
176
     1
290
     0
176
     1
 40
1.0
176
     1
 40
1.0
176
     1
  0
VISUALSTYLE
  5
2C
102
{ACAD_REACTORS
330
2A
102
}
330
2A
100
AcDbVisualStyle
  2
FlatWithEdges
 70
     1
177
     3
291
     1
 70
    58
 90
        2
176
     1
 90
        1
176
     1
 90
        1
176
     1
 90
        2
176
     1
 40
0.6
176
     1
 40
30.0
176
     1
 62
     7
420
 16777215
176
     1
 90
        1
176
     1
 90
        0
176
     1
 62
     7
176
     1
 62
   257
176
     1
 90
        1
176
     1
 90
        1
176
     1
 40
1.0
176
     1
 90
        0
176
     1
 62
   257
176
     1
 40
1.0
176
     1
 90
        1
176
     1
 90
        6
176
     1
 90
        2
176
     1
 62
     7
176
     1
 90
        5
176
     1
 90
        0
176
     1
 90
        0
176
     1
290
     0
176
     1
 90
       13
176
     1
 40
0.0
176
     1
 90
        0
176
     1
290
     0
176
     1
290
     1
176
     1
290
     1
176
     1
290
     0
176
     1
290
     0
176
     1
290
     0
176
     1
290
     0
176
     1
290
     0
176
     1
290
     0
176
     1
 90
       50
176
     1
 40
0.0
176
     1
 40
1.0
176
     1
 90
        0
176
     1
 62
    18
420
        0
176
     1
 90
       50
176
     1
 90
        3
176
     1
 62
     5
420
      255
176
     1
290
     0
176
     1
 90
       50
176
     1
 90
       50
176
     1
 90
       50
176
     1
290
     0
176
     1
 90
       50
176
     1
 62
   256
176
     0
 40
1.0
176
     0
 90
        2
176
     1
  1
strokes_ogs.tif
176
     1
290
     0
176
     1
 40
1.0
176
     1
 40
1.0
176
     1
  0
VISUALSTYLE
  5
2D
102
{ACAD_REACTORS
330
2A
102
}
330
2A
100
AcDbVisualStyle
  2
Gouraud
 70
     2
177
     3
291
     1
 70
    58
 90
        2
176
     1
 90
        2
176
     1
 90
        1
176
     1
 90
        2
176
     1
 40
0.6
176
     1
 40
30.0
176
     1
 62
     7
420
 16777215
176
     1
 90
        0
176
     1
 90
        0
176
     1
 62
     7
176
     1
 62
   257
176
     1
 90
        1
176
     1
 90
        1
176
     1
 40
1.0
176
     1
 90
        0
176
     1
 62
     7
176
     1
 40
1.0
176
     1
 90
        1
176
     1
 90
        6
176
     1
 90
        2
176
     1
 62
     7
176
     1
 90
        5
176
     1
 90
        0
176
     1
 90
        0
176
     1
290
     0
176
     1
 90
       13
176
     1
 40
0.0
176
     1
 90
        0
176
     1
290
     0
176
     1
290
     1
176
     1
290
     1
176
     1
290
     0
176
     1
290
     0
176
     1
290
     0
176
     1
290
     0
176
     1
290
     0
176
     1
290
     0
176
     1
 90
       50
176
     1
 40
0.0
176
     1
 40
1.0
176
     1
 90
        0
176
     1
 62
    18
420
        0
176
     1
 90
       50
176
     1
 90
        3
176
     1
 62
     5
420
      255
176
     1
290
     0
176
     1
 90
       50
176
     1
 90
       50
176
     1
 90
       50
176
     1
290
     0
176
     1
 90
       50
176
     1
 62
   256
176
     0
 40
1.0
176
     0
 90
        2
176
     1
  1
strokes_ogs.tif
176
     1
290
     0
176
     1
 40
1.0
176
     1
 40
1.0
176
     1
  0
VISUALSTYLE
  5
2E
102
{ACAD_REACTORS
330
2A
102
}
330
2A
100
AcDbVisualStyle
  2
GouraudWithEdges
 70
     3
177
     3
291
     1
 70
    58
 90
        2
176
     1
 90
        2
176
     1
 90
        1
176
     1
 90
        2
176
     1
 40
0.6
176
     1
 40
30.0
176
     1
 62
     7
420
 16777215
176
     1
 90
        1
176
     1
 90
        0
176
     1
 62
     7
176
     1
 62
   257
176
     1
 90
        1
176
     1
 90
        1
176
     1
 40
1.0
176
     1
 90
        0
176
     1
 62
   257
176
     1
 40
1.0
176
     1
 90
        1
176
     1
 90
        6
176
     1
 90
        2
176
     1
 62
     7
176
     1
 90
        5
176
     1
 90
        0
176
     1
 90
        0
176
     1
290
     0
176
     1
 90
       13
176
     1
 40
0.0
176
     1
 90
        0
176
     1
290
     0
176
     1
290
     1
176
     1
290
     1
176
     1
290
     0
176
     1
290
     0
176
     1
290
     0
176
     1
290
     0
176
     1
290
     0
176
     1
290
     0
176
     1
 90
       50
176
     1
 40
0.0
176
     1
 40
1.0
176
     1
 90
        0
176
     1
 62
    18
420
        0
176
     1
 90
       50
176
     1
 90
        3
176
     1
 62
     5
420
      255
176
     1
290
     0
176
     1
 90
       50
176
     1
 90
       50
176
     1
 90
       50
176
     1
290
     0
176
     1
 90
       50
176
     1
 62
   256
176
     0
 40
1.0
176
     0
 90
        2
176
     1
  1
strokes_ogs.tif
176
     1
290
     0
176
     1
 40
1.0
176
     1
 40
1.0
176
     1
  0
VISUALSTYLE
  5
31
102
{ACAD_REACTORS
330
2A
102
}
330
2A
100
AcDbVisualStyle
  2
Hidden
 70
     6
177
     3
291
     0
 70
    58
 90
        1
176
     1
 90
        2
176
     1
 90
        2
176
     1
 90
        0
176
     1
 40
0.6
176
     1
 40
30.0
176
     1
 62
     7
420
 16777215
176
     1
 90
        2
176
     1
 90
        2
176
     1
 62
     7
176
     1
 62
   257
176
     1
 90
        2
176
     1
 90
        1
176
     1
 40
40.0
176
     1
 90
        0
176
     1
 62
   257
176
     1
 40
1.0
176
     1
 90
        1
176
     1
 90
        6
176
     1
 90
        2
176
     1
 62
     7
176
     1
 90
        3
176
     1
 90
        0
176
     1
 90
        0
176
     1
290
     0
176
     1
 90
        1
176
     1
 40
0.0
176
     1
 90
        0
176
     1
290
     0
176
     1
290
     1
176
     1
290
     1
176
     1
290
     0
176
     1
290
     0
176
     1
290
     0
176
     1
290
     0
176
     1
290
     0
176
     1
290
     0
176
     1
 90
       50
176
     1
 40
0.0
176
     1
 40
1.0
176
     1
 90
        0
176
     1
 62
    18
420
        0
176
     1
 90
       50
176
     1
 90
        3
176
     1
 62
     5
420
      255
176
     1
290
     0
176
     1
 90
       50
176
     1
 90
       50
176
     1
 90
       50
176
     1
290
     0
176
     1
 90
       50
176
     1
 62
   256
176
     0
 40
1.0
176
     0
 90
        2
176
     1
  1
strokes_ogs.tif
176
     1
290
     0
176
     1
 40
1.0
176
     1
 40
1.0
176
     1
  0
VISUALSTYLE
  5
3B
102
{ACAD_REACTORS
330
2A
102
}
330
2A
100
AcDbVisualStyle
  2
JitterOff
 70
    20
177
     3
291
     1
 70
    58
 90
        2
176
     0
 90
        2
176
     0
 90
        0
176
     0
 90
        0
176
     0
 40
0.6
176
     0
 40
30.0
176
     0
 62
     7
420
 16777215
176
     0
 90
        1
176
     0
 90
        4
176
     0
 62
     7
176
     0
 62
   257
176
     0
 90
        1
176
     0
 90
        1
176
     0
 40
1.0
176
     0
 90
       10
176
     2
 62
     7
176
     0
 40
1.0
176
     0
 90
        1
176
     0
 90
        6
176
     0
 90
        2
176
     0
 62
     7
176
     0
 90
        5
176
     0
 90
        0
176
     0
 90
        0
176
     0
290
     0
176
     0
 90
        1
176
     0
 40
0.0
176
     0
 90
        0
176
     0
290
     0
176
     0
290
     1
176
     0
290
     1
176
     0
290
     0
176
     0
290
     0
176
     0
290
     0
176
     0
290
     0
176
     0
290
     0
176
     0
290
     0
176
     0
 90
       50
176
     0
 40
0.0
176
     0
 40
1.0
176
     0
 90
        0
176
     0
 62
    18
420
        0
176
     0
 90
       50
176
     0
 90
        3
176
     0
 62
     5
420
      255
176
     0
290
     0
176
     0
 90
       50
176
     0
 90
       50
176
     0
 90
       50
176
     0
290
     0
176
     0
 90
       50
176
     0
 62
   256
176
     0
 40
1.0
176
     0
 90
        2
176
     0
  1
strokes_ogs.tif
176
     0
290
     0
176
     0
 40
1.0
176
     0
 40
1.0
176
     0
  0
VISUALSTYLE
  5
38
102
{ACAD_REACTORS
330
2A
102
}
330
2A
100
AcDbVisualStyle
  2
Linepattern
 70
    14
177
     3
291
     1
 70
    58
 90
        2
176
     1
 90
        2
176
     1
 90
        0
176
     1
 90
        0
176
     1
 40
0.6
176
     1
 40
30.0
176
     1
 62
     7
420
 16777215
176
     1
 90
        1
176
     1
 90
        4
176
     1
 62
     7
176
     1
 62
   257
176
     1
 90
        7
176
     1
 90
        7
176
     1
 40
1.0
176
     1
 90
        8
176
     1
 62
     7
176
     1
 40
1.0
176
     1
 90
        1
176
     1
 90
        6
176
     1
 90
        2
176
     1
 62
     7
176
     1
 90
        5
176
     1
 90
        0
176
     1
 90
        0
176
     1
290
     0
176
     1
 90
        1
176
     1
 40
0.0
176
     1
 90
        0
176
     1
290
     0
176
     1
290
     1
176
     1
290
     1
176
     1
290
     0
176
     1
290
     0
176
     1
290
     0
176
     1
290
     0
176
     1
290
     0
176
     1
290
     0
176
     1
 90
       50
176
     1
 40
0.0
176
     1
 40
1.0
176
     1
 90
        0
176
     1
 62
    18
420
        0
176
     1
 90
       50
176
     1
 90
        3
176
     1
 62
     5
420
      255
176
     1
290
     0
176
     1
 90
       50
176
     1
 90
       50
176
     1
 90
       50
176
     1
290
     0
176
     1
 90
       50
176
     1
 62
   256
176
     0
 40
1.0
176
     0
 90
        2
176
     1
  1
strokes_ogs.tif
176
     1
290
     0
176
     1
 40
1.0
176
     1
 40
1.0
176
     1
  0
VISUALSTYLE
  5
3C
102
{ACAD_REACTORS
330
2A
102
}
330
2A
100
AcDbVisualStyle
  2
OverhangOff
 70
    21
177
     3
291
     1
 70
    58
 90
        2
176
     0
 90
        2
176
     0
 90
        0
176
     0
 90
        0
176
     0
 40
0.6
176
     0
 40
30.0
176
     0
 62
     7
420
 16777215
176
     0
 90
        1
176
     0
 90
        4
176
     0
 62
     7
176
     0
 62
   257
176
     0
 90
        1
176
     0
 90
        1
176
     0
 40
1.0
176
     0
 90
        9
176
     2
 62
     7
176
     0
 40
1.0
176
     0
 90
        1
176
     0
 90
        6
176
     0
 90
        2
176
     0
 62
     7
176
     0
 90
        5
176
     0
 90
        0
176
     0
 90
        0
176
     0
290
     0
176
     0
 90
        1
176
     0
 40
0.0
176
     0
 90
        0
176
     0
290
     0
176
     0
290
     1
176
     0
290
     1
176
     0
290
     0
176
     0
290
     0
176
     0
290
     0
176
     0
290
     0
176
     0
290
     0
176
     0
290
     0
176
     0
 90
       50
176
     0
 40
0.0
176
     0
 40
1.0
176
     0
 90
        0
176
     0
 62
    18
420
        0
176
     0
 90
       50
176
     0
 90
        3
176
     0
 62
     5
420
      255
176
     0
290
     0
176
     0
 90
       50
176
     0
 90
       50
176
     0
 90
       50
176
     0
290
     0
176
     0
 90
       50
176
     0
 62
   256
176
     0
 40
1.0
176
     0
 90
        2
176
     0
  1
strokes_ogs.tif
176
     0
290
     0
176
     0
 40
1.0
176
     0
 40
1.0
176
     0
  0
VISUALSTYLE
  5
33
102
{ACAD_REACTORS
330
2A
102
}
330
2A
100
AcDbVisualStyle
  2
Realistic
 70
     8
177
     3
291
     0
 70
    58
 90
        2
176
     1
 90
        3
176
     1
 90
        0
176
     1
 90
        2
176
     1
 40
0.6
176
     1
 40
30.0
176
     1
 62
     7
420
 16777215
176
     1
 90
        0
176
     1
 90
        0
176
     1
 62
     7
176
     1
 62
   257
176
     1
 90
        1
176
     1
 90
        1
176
     1
 40
1.0
176
     1
 90
        8
176
     1
 62
   257
176
     1
 40
1.0
176
     1
 90
        1
176
     1
 90
        6
176
     1
 90
        2
176
     1
 62
     7
176
     1
 90
        3
176
     1
 90
        0
176
     1
 90
        0
176
     1
290
     0
176
     1
 90
       13
176
     1
 40
0.0
176
     1
 90
        0
176
     1
290
     0
176
     1
290
     1
176
     1
290
     1
176
     1
290
     0
176
     1
290
     0
176
     1
290
     0
176
     1
290
     0
176
     1
290
     0
176
     1
290
     0
176
     1
 90
       50
176
     1
 40
0.0
176
     1
 40
1.0
176
     1
 90
        0
176
     1
 62
    18
420
        0
176
     1
 90
       50
176
     1
 90
        3
176
     1
 62
     5
420
      255
176
     1
290
     0
176
     1
 90
       50
176
     1
 90
       50
176
     1
 90
       50
176
     1
290
     0
176
     1
 90
       50
176
     1
 62
   256
176
     0
 40
1.0
176
     0
 90
        2
176
     1
  1
strokes_ogs.tif
176
     1
290
     0
176
     1
 40
1.0
176
     1
 40
1.0
176
     1
  0
VISUALSTYLE
  5
42
102
{ACAD_REACTORS
330
2A
102
}
330
2A
100
AcDbVisualStyle
  2
Shaded
 70
    27
177
     3
291
     0
 70
    58
 90
        2
176
     1
 90
        2
176
     1
 90
        1
176
     1
 90
        2
176
     1
 40
0.6
176
     1
 40
30.0
176
     1
 62
     7
420
 16777215
176
     1
 90
        0
176
     1
 90
        4
176
     1
 62
     7
176
     1
 62
   257
176
     1
 90
        1
176
     1
 90
        1
176
     1
 40
1.0
176
     1
 90
        8
176
     1
 62
   257
176
     1
 40
1.0
176
     1
 90
        1
176
     1
 90
        6
176
     1
 90
        2
176
     1
 62
     8
420
  7895160
176
     1
 90
        3
176
     1
 90
        0
176
     1
 90
        0
176
     1
290
     0
176
     1
 90
        5
176
     1
 40
0.0
176
     1
 90
        0
176
     1
290
     0
176
     1
290
     1
176
     1
290
     1
176
     1
290
     0
176
     1
290
     0
176
     1
290
     0
176
     1
290
     0
176
     1
290
     0
176
     1
290
     0
176
     1
 90
       50
176
     1
 40
0.0
176
     1
 40
1.0
176
     1
 90
        0
176
     1
 62
    18
420
        0
176
     1
 90
       50
176
     1
 90
        3
176
     1
 62
     5
420
      255
176
     1
290
     0
176
     1
 90
       50
176
     1
 90
       50
176
     1
 90
       50
176
     1
290
     0
176
     1
 90
       50
176
     1
 62
   256
176
     0
 40
1.0
176
     0
 90
        2
176
     1
  1
strokes_ogs.tif
176
     1
290
     0
176
     1
 40
1.0
176
     1
 40
1.0
176
     1
  0
VISUALSTYLE
  5
41
102
{ACAD_REACTORS
330
2A
102
}
330
2A
100
AcDbVisualStyle
  2
Shaded with edges
 70
    26
177
     3
291
     0
 70
    58
 90
        2
176
     1
 90
        2
176
     1
 90
        1
176
     1
 90
        2
176
     1
 40
0.6
176
     1
 40
30.0
176
     1
 62
     7
420
 16777215
176
     1
 90
        1
176
     1
 90
       10
176
     1
 62
     7
176
     1
 62
   257
176
     1
 90
        2
176
     1
 90
        1
176
     1
 40
1.0
176
     1
 90
        8
176
     1
 62
   257
176
     1
 40
1.0
176
     1
 90
        1
176
     1
 90
        6
176
     1
 90
        2
176
     1
 62
     7
176
     1
 90
        3
176
     1
 90
        0
176
     1
 90
        0
176
     1
290
     0
176
     1
 90
        5
176
     1
 40
0.0
176
     1
 90
        0
176
     1
290
     0
176
     1
290
     1
176
     1
290
     1
176
     1
290
     0
176
     1
290
     0
176
     1
290
     0
176
     1
290
     0
176
     1
290
     0
176
     1
290
     0
176
     1
 90
       50
176
     1
 40
0.0
176
     1
 40
1.0
176
     1
 90
        0
176
     1
 62
    18
420
        0
176
     1
 90
       50
176
     1
 90
        3
176
     1
 62
     5
420
      255
176
     1
290
     0
176
     1
 90
       50
176
     1
 90
       50
176
     1
 90
       50
176
     1
290
     0
176
     1
 90
       50
176
     1
 62
   256
176
     0
 40
1.0
176
     0
 90
        2
176
     1
  1
strokes_ogs.tif
176
     1
290
     0
176
     1
 40
1.0
176
     1
 40
1.0
176
     1
  0
VISUALSTYLE
  5
3E
102
{ACAD_REACTORS
330
2A
102
}
330
2A
100
AcDbVisualStyle
  2
Shades of Gray
 70
    23
177
     3
291
     0
 70
    58
 90
        2
176
     1
 90
        2
176
     1
 90
        3
176
     1
 90
        0
176
     1
 40
0.6
176
     1
 40
30.0
176
     1
 62
     7
420
 16777215
176
     1
 90
        2
176
     1
 90
        2
176
     1
 62
     7
176
     1
 62
     7
176
     1
 90
        1
176
     1
 90
        1
176
     1
 40
40.0
176
     1
 90
        8
176
     1
 62
     7
176
     1
 40
1.0
176
     1
 90
        1
176
     1
 90
        6
176
     1
 90
        2
176
     1
 62
     7
176
     1
 90
        3
176
     1
 90
        0
176
     1
 90
        0
176
     1
290
     0
176
     1
 90
        1
176
     1
 40
0.0
176
     1
 90
        0
176
     1
290
     0
176
     1
290
     1
176
     1
290
     1
176
     1
290
     0
176
     1
290
     0
176
     1
290
     0
176
     1
290
     0
176
     1
290
     0
176
     1
290
     0
176
     1
 90
       50
176
     1
 40
0.0
176
     1
 40
1.0
176
     1
 90
        0
176
     1
 62
    18
420
        0
176
     1
 90
       50
176
     1
 90
        3
176
     1
 62
     5
420
      255
176
     1
290
     0
176
     1
 90
       50
176
     1
 90
       50
176
     1
 90
       50
176
     1
290
     0
176
     1
 90
       50
176
     1
 62
   256
176
     0
 40
1.0
176
     0
 90
        2
176
     1
  1
strokes_ogs.tif
176
     1
290
     0
176
     1
 40
1.0
176
     1
 40
1.0
176
     1
  0
VISUALSTYLE
  5
3F
102
{ACAD_REACTORS
330
2A
102
}
330
2A
100
AcDbVisualStyle
  2
Sketchy
 70
    24
177
     3
291
     0
 70
    58
 90
        1
176
     1
 90
        2
176
     1
 90
        2
176
     1
 90
        0
176
     1
 40
0.6
176
     1
 40
30.0
176
     1
 62
     7
420
 16777215
176
     1
 90
        2
176
     1
 90
        2
176
     1
 62
     7
176
     1
 62
     7
176
     1
 90
        1
176
     1
 90
        1
176
     1
 40
40.0
176
     1
 90
       11
176
     1
 62
     7
176
     1
 40
1.0
176
     1
 90
        1
176
     1
 90
        6
176
     1
 90
        2
176
     1
 62
     7
176
     1
 90
        6
176
     1
 90
        0
176
     1
 90
        0
176
     1
290
     0
176
     1
 90
        1
176
     1
 40
0.0
176
     1
 90
        0
176
     1
290
     0
176
     1
290
     1
176
     1
290
     1
176
     1
290
     0
176
     1
290
     0
176
     1
290
     0
176
     1
290
     0
176
     1
290
     0
176
     1
290
     0
176
     1
 90
       50
176
     1
 40
0.0
176
     1
 40
1.0
176
     1
 90
        0
176
     1
 62
    18
420
        0
176
     1
 90
       50
176
     1
 90
        3
176
     1
 62
     5
420
      255
176
     1
290
     0
176
     1
 90
       50
176
     1
 90
       50
176
     1
 90
       50
176
     1
290
     0
176
     1
 90
       50
176
     1
 62
   256
176
     0
 40
1.0
176
     0
 90
        2
176
     1
  1
strokes_ogs.tif
176
     1
290
     0
176
     1
 40
1.0
176
     1
 40
1.0
176
     1
  0
VISUALSTYLE
  5
37
102
{ACAD_REACTORS
330
2A
102
}
330
2A
100
AcDbVisualStyle
  2
Thicken
 70
    13
177
     3
291
     1
 70
    58
 90
        2
176
     1
 90
        2
176
     1
 90
        0
176
     1
 90
        0
176
     1
 40
0.6
176
     1
 40
30.0
176
     1
 62
     7
420
 16777215
176
     1
 90
        1
176
     1
 90
        4
176
     1
 62
     7
176
     1
 62
   257
176
     1
 90
        1
176
     1
 90
        1
176
     1
 40
1.0
176
     1
 90
       12
176
     1
 62
     7
176
     1
 40
1.0
176
     1
 90
        1
176
     1
 90
        6
176
     1
 90
        2
176
     1
 62
     7
176
     1
 90
        5
176
     1
 90
        0
176
     1
 90
        0
176
     1
290
     0
176
     1
 90
        1
176
     1
 40
0.0
176
     1
 90
        0
176
     1
290
     0
176
     1
290
     1
176
     1
290
     1
176
     1
290
     0
176
     1
290
     0
176
     1
290
     0
176
     1
290
     0
176
     1
290
     0
176
     1
290
     0
176
     1
 90
       50
176
     1
 40
0.0
176
     1
 40
1.0
176
     1
 90
        0
176
     1
 62
    18
420
        0
176
     1
 90
       50
176
     1
 90
        3
176
     1
 62
     5
420
      255
176
     1
290
     0
176
     1
 90
       50
176
     1
 90
       50
176
     1
 90
       50
176
     1
290
     0
176
     1
 90
       50
176
     1
 62
   256
176
     0
 40
1.0
176
     0
 90
        2
176
     1
  1
strokes_ogs.tif
176
     1
290
     0
176
     1
 40
1.0
176
     1
 40
1.0
176
     1
  0
VISUALSTYLE
  5
30
102
{ACAD_REACTORS
330
2A
102
}
330
2A
100
AcDbVisualStyle
  2
Wireframe
 70
     5
177
     3
291
     0
 70
    58
 90
        0
176
     1
 90
        2
176
     1
 90
        0
176
     1
 90
        0
176
     1
 40
0.6
176
     1
 40
30.0
176
     1
 62
     7
420
 16777215
176
     1
 90
        1
176
     1
 90
        4
176
     1
 62
     7
176
     1
 62
   257
176
     1
 90
        1
176
     1
 90
        1
176
     1
 40
1.0
176
     1
 90
        0
176
     1
 62
   257
176
     1
 40
1.0
176
     1
 90
        1
176
     1
 90
        6
176
     1
 90
        2
176
     1
 62
     7
176
     1
 90
        3
176
     1
 90
        0
176
     1
 90
        0
176
     1
290
     0
176
     1
 90
        1
176
     1
 40
0.0
176
     1
 90
        0
176
     1
290
     0
176
     1
290
     1
176
     1
290
     1
176
     1
290
     0
176
     1
290
     0
176
     1
290
     0
176
     1
290
     0
176
     1
290
     0
176
     1
290
     0
176
     1
 90
       50
176
     1
 40
0.0
176
     1
 40
1.0
176
     1
 90
        0
176
     1
 62
    18
420
        0
176
     1
 90
       50
176
     1
 90
        3
176
     1
 62
     5
420
      255
176
     1
290
     0
176
     1
 90
       50
176
     1
 90
       50
176
     1
 90
       50
176
     1
290
     0
176
     1
 90
       50
176
     1
 62
   256
176
     0
 40
1.0
176
     0
 90
        2
176
     1
  1
strokes_ogs.tif
176
     1
290
     0
176
     1
 40
1.0
176
     1
 40
1.0
176
     1
  0
VISUALSTYLE
  5
40
102
{ACAD_REACTORS
330
2A
102
}
330
2A
100
AcDbVisualStyle
  2
X-Ray
 70
    25
177
     3
291
     0
 70
    58
 90
        2
176
     1
 90
        2
176
     1
 90
        1
176
     1
 90
        1
176
     1
 40
0.5
176
     1
 40
30.0
176
     1
 62
     7
420
 16777215
176
     1
 90
        1
176
     1
 90
        0
176
     1
 62
     7
176
     1
 62
   257
176
     1
 90
        1
176
     1
 90
        1
176
     1
 40
1.0
176
     1
 90
        8
176
     1
 62
     7
176
     1
 40
1.0
176
     1
 90
        1
176
     1
 90
        6
176
     1
 90
        2
176
     1
 62
     7
176
     1
 90
        3
176
     1
 90
        0
176
     1
 90
        0
176
     1
290
     0
176
     1
 90
       13
176
     1
 40
0.0
176
     1
 90
        0
176
     1
290
     0
176
     1
290
     1
176
     1
290
     1
176
     1
290
     0
176
     1
290
     0
176
     1
290
     0
176
     1
290
     0
176
     1
290
     0
176
     1
290
     0
176
     1
 90
       50
176
     1
 40
0.0
176
     1
 40
1.0
176
     1
 90
        0
176
     1
 62
    18
420
        0
176
     1
 90
       50
176
     1
 90
        3
176
     1
 62
     5
420
      255
176
     1
290
     0
176
     1
 90
       50
176
     1
 90
       50
176
     1
 90
       50
176
     1
290
     0
176
     1
 90
       50
176
     1
 62
   256
176
     0
 40
1.0
176
     0
 90
        2
176
     1
  1
strokes_ogs.tif
176
     1
290
     0
176
     1
 40
1.0
176
     1
 40
1.0
176
     1
  0
DICTIONARYVAR
  5
1E8
102
{ACAD_REACTORS
330
1E7
102
}
330
1E7
100
DictionaryVariables
280
     0
  1
1:1
  0
DICTIONARYVAR
  5
1ED
102
{ACAD_REACTORS
330
1E7
102
}
330
1E7
100
DictionaryVariables
280
     0
  1
Standard
  0
DICTIONARYVAR
  5
1EC
102
{ACAD_REACTORS
330
1E7
102
}
330
1E7
100
DictionaryVariables
280
     0
  1
Standard
  0
DICTIONARY
  5
1E9
330
6A
100
AcDbDictionary
280
     1
281
     1
  3
ACAD_ROUNDTRIP_2008_TABLESTYLE_CELLSTYLEMAP
360
1EA
  0
CELLSTYLEMAP
  5
1EA
102
{ACAD_REACTORS
330
1E9
102
}
330
1E9
100
AcDbCellStyleMap
 90
        3
300
CELLSTYLE
  1
TABLEFORMAT_BEGIN
 90
        5
170
     1
 91
        0
 92
    32768
 62
   257
 93
        1
300
CONTENTFORMAT
  1
CONTENTFORMAT_BEGIN
 90
        0
 91
        0
 92
        4
 93
        0
300

 40
0.0
140
1.0
 94
        5
 62
     0
340
11
144
6.0
309
CONTENTFORMAT_END
171
     1
301
MARGIN
  1
CELLMARGIN_BEGIN
 40
1.5
 40
1.5
 40
1.5
 40
1.5
 40
1.5
 40
1.5
309
CELLMARGIN_END
 94
        6
 95
        1
302
GRIDFORMAT
  1
GRIDFORMAT_BEGIN
 90
        0
 91
        1
 62
     0
 92
       -2
340
14
 93
        0
 40
0.045
309
GRIDFORMAT_END
 95
        2
302
GRIDFORMAT
  1
GRIDFORMAT_BEGIN
 90
        0
 91
        1
 62
     0
 92
       -2
340
14
 93
        0
 40
0.045
309
GRIDFORMAT_END
 95
        4
302
GRIDFORMAT
  1
GRIDFORMAT_BEGIN
 90
        0
 91
        1
 62
     0
 92
       -2
340
14
 93
        0
 40
0.045
309
GRIDFORMAT_END
 95
        8
302
GRIDFORMAT
  1
GRIDFORMAT_BEGIN
 90
        0
 91
        1
 62
     0
 92
       -2
340
14
 93
        0
 40
0.045
309
GRIDFORMAT_END
 95
       16
302
GRIDFORMAT
  1
GRIDFORMAT_BEGIN
 90
        0
 91
        1
 62
     0
 92
       -2
340
14
 93
        0
 40
0.045
309
GRIDFORMAT_END
 95
       32
302
GRIDFORMAT
  1
GRIDFORMAT_BEGIN
 90
        0
 91
        1
 62
     0
 92
       -2
340
14
 93
        0
 40
0.045
309
GRIDFORMAT_END
309
TABLEFORMAT_END
  1
CELLSTYLE_BEGIN
 90
        1
 91
        1
300
_TITLE
309
CELLSTYLE_END
300
CELLSTYLE
  1
TABLEFORMAT_BEGIN
 90
        5
170
     1
 91
        0
 92
        0
 62
   257
 93
        1
300
CONTENTFORMAT
  1
CONTENTFORMAT_BEGIN
 90
        0
 91
        0
 92
        4
 93
        0
300

 40
0.0
140
1.0
 94
        5
 62
     0
340
11
144
4.5
309
CONTENTFORMAT_END
171
     1
301
MARGIN
  1
CELLMARGIN_BEGIN
 40
1.5
 40
1.5
 40
1.5
 40
1.5
 40
1.5
 40
1.5
309
CELLMARGIN_END
 94
        6
 95
        1
302
GRIDFORMAT
  1
GRIDFORMAT_BEGIN
 90
        0
 91
        1
 62
     0
 92
       -2
340
14
 93
        0
 40
0.045
309
GRIDFORMAT_END
 95
        2
302
GRIDFORMAT
  1
GRIDFORMAT_BEGIN
 90
        0
 91
        1
 62
     0
 92
       -2
340
14
 93
        0
 40
0.045
309
GRIDFORMAT_END
 95
        4
302
GRIDFORMAT
  1
GRIDFORMAT_BEGIN
 90
        0
 91
        1
 62
     0
 92
       -2
340
14
 93
        0
 40
0.045
309
GRIDFORMAT_END
 95
        8
302
GRIDFORMAT
  1
GRIDFORMAT_BEGIN
 90
        0
 91
        1
 62
     0
 92
       -2
340
14
 93
        0
 40
0.045
309
GRIDFORMAT_END
 95
       16
302
GRIDFORMAT
  1
GRIDFORMAT_BEGIN
 90
        0
 91
        1
 62
     0
 92
       -2
340
14
 93
        0
 40
0.045
309
GRIDFORMAT_END
 95
       32
302
GRIDFORMAT
  1
GRIDFORMAT_BEGIN
 90
        0
 91
        1
 62
     0
 92
       -2
340
14
 93
        0
 40
0.045
309
GRIDFORMAT_END
309
TABLEFORMAT_END
  1
CELLSTYLE_BEGIN
 90
        2
 91
        1
300
_HEADER
309
CELLSTYLE_END
300
CELLSTYLE
  1
TABLEFORMAT_BEGIN
 90
        5
170
     1
 91
        0
 92
        0
 62
   257
 93
        1
300
CONTENTFORMAT
  1
CONTENTFORMAT_BEGIN
 90
        0
 91
        0
 92
        4
 93
        0
300

 40
0.0
140
1.0
 94
        2
 62
     0
340
11
144
4.5
309
CONTENTFORMAT_END
171
     1
301
MARGIN
  1
CELLMARGIN_BEGIN
 40
1.5
 40
1.5
 40
1.5
 40
1.5
 40
1.5
 40
1.5
309
CELLMARGIN_END
 94
        6
 95
        1
302
GRIDFORMAT
  1
GRIDFORMAT_BEGIN
 90
        0
 91
        1
 62
     0
 92
       -2
340
14
 93
        0
 40
0.045
309
GRIDFORMAT_END
 95
        2
302
GRIDFORMAT
  1
GRIDFORMAT_BEGIN
 90
        0
 91
        1
 62
     0
 92
       -2
340
14
 93
        0
 40
0.045
309
GRIDFORMAT_END
 95
        4
302
GRIDFORMAT
  1
GRIDFORMAT_BEGIN
 90
        0
 91
        1
 62
     0
 92
       -2
340
14
 93
        0
 40
0.045
309
GRIDFORMAT_END
 95
        8
302
GRIDFORMAT
  1
GRIDFORMAT_BEGIN
 90
        0
 91
        1
 62
     0
 92
       -2
340
14
 93
        0
 40
0.045
309
GRIDFORMAT_END
 95
       16
302
GRIDFORMAT
  1
GRIDFORMAT_BEGIN
 90
        0
 91
        1
 62
     0
 92
       -2
340
14
 93
        0
 40
0.045
309
GRIDFORMAT_END
 95
       32
302
GRIDFORMAT
  1
GRIDFORMAT_BEGIN
 90
        0
 91
        1
 62
     0
 92
       -2
340
14
 93
        0
 40
0.045
309
GRIDFORMAT_END
309
TABLEFORMAT_END
  1
CELLSTYLE_BEGIN
 90
        3
 91
        2
300
_DATA
309
CELLSTYLE_END
  0
ENDSEC
  0
EOF