0
SECTION
  2
HEADER
  9
$ACADVER
  1
AC1027
  9
$ACADMAINTVER
 70
     8
  9
$DWGCODEPAGE
  3
ANSI_1252
  9
$REQUIREDVERSIONS
160
                 0
  9
$COMMENTS
  1
File was created by Cadenas
  9
$CUSTOMPROPERTYTAG
  1
NN
  9
$CUSTOMPROPERTY
  1
Grip Tight Two-Bolt Flange Metric Bore
  9
$CUSTOMPROPERTYTAG
  1
NT
  9
$CUSTOMPROPERTY
  1
GT Normal Duty 2 Bolt Flange Bearings
  9
$CUSTOMPROPERTYTAG
  1
NB
  9
$CUSTOMPROPERTY
  1
129322
  9
$CUSTOMPROPERTYTAG
  1
NBSYN
  9
$CUSTOMPROPERTY
  1
$PN.$LUBE.
  9
$CUSTOMPROPERTYTAG
  1
LINA
  9
$CUSTOMPROPERTY
  1
129322
  9
$CUSTOMPROPERTYTAG
  1
SERIES
  9
$CUSTOMPROPERTY
  1
204
  9
$CUSTOMPROPERTYTAG
  1
SS
  9
$CUSTOMPROPERTY
  1
20
  9
$CUSTOMPROPERTYTAG
  1
PN
  9
$CUSTOMPROPERTY
  1
129322
  9
$CUSTOMPROPERTYTAG
  1
DESCRIPTION
  9
$CUSTOMPROPERTY
  1
F2B-GT-20M
  9
$CUSTOMPROPERTYTAG
  1
A
  9
$CUSTOMPROPERTY
  1
37.3
  9
$CUSTOMPROPERTYTAG
  1
B
  9
$CUSTOMPROPERTY
  1
111.9
  9
$CUSTOMPROPERTYTAG
  1
C
  9
$CUSTOMPROPERTY
  1
40.9
  9
$CUSTOMPROPERTYTAG
  1
D
  9
$CUSTOMPROPERTY
  1
89.7
  9
$CUSTOMPROPERTYTAG
  1
F
  9
$CUSTOMPROPERTY
  1
M10
  9
$CUSTOMPROPERTYTAG
  1
H
  9
$CUSTOMPROPERTY
  1
12.7
  9
$CUSTOMPROPERTYTAG
  1
J
  9
$CUSTOMPROPERTY
  1
15.9
  9
$CUSTOMPROPERTYTAG
  1
L
  9
$CUSTOMPROPERTY
  1
38.1
  9
$CUSTOMPROPERTYTAG
  1
M
  9
$CUSTOMPROPERTY
  1
60.3
  9
$CUSTOMPROPERTYTAG
  1
N
  9
$CUSTOMPROPERTY
  1
38.1
  9
$CUSTOMPROPERTYTAG
  1
Z
  9
$CUSTOMPROPERTY
  1
40.9
  9
$CUSTOMPROPERTYTAG
  1
COMPANY
  9
$CUSTOMPROPERTY
  1
baldor
  9
$INSBASE
 10
0.0
 20
0.0
 30
0.0
  9
$EXTMIN
 10
1.000000000000000E+20
 20
1.000000000000000E+20
 30
1.000000000000000E+20
  9
$EXTMAX
 10
-1.000000000000000E+20
 20
-1.000000000000000E+20
 30
-1.000000000000000E+20
  9
$LIMMIN
 10
0.0
 20
0.0
  9
$LIMMAX
 10
420.0
 20
297.0
  9
$ORTHOMODE
 70
     0
  9
$REGENMODE
 70
     1
  9
$FILLMODE
 70
     1
  9
$QTEXTMODE
 70
     0
  9
$MIRRTEXT
 70
     1
  9
$LTSCALE
 40
1.0
  9
$ATTMODE
 70
     1
  9
$TEXTSIZE
 40
2.5
  9
$TRACEWID
 40
1.0
  9
$TEXTSTYLE
  7
Standard
  9
$CLAYER
  8
0
  9
$CELTYPE
  6
ByLayer
  9
$CECOLOR
 62
   256
  9
$CELTSCALE
 40
1.0
  9
$DISPSILH
 70
     0
  9
$DIMSCALE
 40
1.0
  9
$DIMASZ
 40
2.5
  9
$DIMEXO
 40
0.625
  9
$DIMDLI
 40
3.75
  9
$DIMRND
 40
0.0
  9
$DIMDLE
 40
0.0
  9
$DIMEXE
 40
1.25
  9
$DIMTP
 40
0.0
  9
$DIMTM
 40
0.0
  9
$DIMTXT
 40
2.5
  9
$DIMCEN
 40
2.5
  9
$DIMTSZ
 40
0.0
  9
$DIMTOL
 70
     0
  9
$DIMLIM
 70
     0
  9
$DIMTIH
 70
     0
  9
$DIMTOH
 70
     0
  9
$DIMSE1
 70
     0
  9
$DIMSE2
 70
     0
  9
$DIMTAD
 70
     1
  9
$DIMZIN
 70
     8
  9
$DIMBLK
  1

  9
$DIMASO
 70
     1
  9
$DIMSHO
 70
     1
  9
$DIMPOST
  1

  9
$DIMAPOST
  1

  9
$DIMALT
 70
     0
  9
$DIMALTD
 70
     3
  9
$DIMALTF
 40
0.03937007874016
  9
$DIMLFAC
 40
1.0
  9
$DIMTOFL
 70
     1
  9
$DIMTVP
 40
0.0
  9
$DIMTIX
 70
     0
  9
$DIMSOXD
 70
     0
  9
$DIMSAH
 70
     0
  9
$DIMBLK1
  1

  9
$DIMBLK2
  1

  9
$DIMSTYLE
  2
ISO-25
  9
$DIMCLRD
 70
     0
  9
$DIMCLRE
 70
     0
  9
$DIMCLRT
 70
     0
  9
$DIMTFAC
 40
1.0
  9
$DIMGAP
 40
0.625
  9
$DIMJUST
 70
     0
  9
$DIMSD1
 70
     0
  9
$DIMSD2
 70
     0
  9
$DIMTOLJ
 70
     0
  9
$DIMTZIN
 70
     8
  9
$DIMALTZ
 70
     0
  9
$DIMALTTZ
 70
     0
  9
$DIMUPT
 70
     0
  9
$DIMDEC
 70
     2
  9
$DIMTDEC
 70
     2
  9
$DIMALTU
 70
     2
  9
$DIMALTTD
 70
     3
  9
$DIMTXSTY
  7
Standard
  9
$DIMAUNIT
 70
     0
  9
$DIMADEC
 70
     0
  9
$DIMALTRND
 40
0.0
  9
$DIMAZIN
 70
     0
  9
$DIMDSEP
 70
    44
  9
$DIMATFIT
 70
     3
  9
$DIMFRAC
 70
     0
  9
$DIMLDRBLK
  1

  9
$DIMLUNIT
 70
     2
  9
$DIMLWD
 70
    -2
  9
$DIMLWE
 70
    -2
  9
$DIMTMOVE
 70
     0
  9
$DIMFXL
 40
1.0
  9
$DIMFXLON
 70
     0
  9
$DIMJOGANG
 40
0.7853981633974483
  9
$DIMTFILL
 70
     0
  9
$DIMTFILLCLR
 70
     0
  9
$DIMARCSYM
 70
     0
  9
$DIMLTYPE
  6

  9
$DIMLTEX1
  6

  9
$DIMLTEX2
  6

  9
$DIMTXTDIRECTION
 70
     0
  9
$LUNITS
 70
     2
  9
$LUPREC
 70
     4
  9
$SKETCHINC
 40
1.0
  9
$FILLETRAD
 40
10.0
  9
$AUNITS
 70
     0
  9
$AUPREC
 70
     0
  9
$MENU
  1
.
  9
$ELEVATION
 40
0.0
  9
$PELEVATION
 40
0.0
  9
$THICKNESS
 40
0.0
  9
$LIMCHECK
 70
     0
  9
$CHAMFERA
 40
0.0
  9
$CHAMFERB
 40
0.0
  9
$CHAMFERC
 40
0.0
  9
$CHAMFERD
 40
0.0
  9
$SKPOLY
 70
     0
  9
$TDCREATE
 40
2458168.995104386
  9
$TDUCREATE
 40
2458168.95343772
  9
$TDUPDATE
 40
2458168.995104572
  9
$TDUUPDATE
 40
2458168.953437905
  9
$TDINDWG
 40
0.0000000116
  9
$TDUSRTIMER
 40
0.0000000116
  9
$USRTIMER
 70
     1
  9
$ANGBASE
 50
0.0
  9
$ANGDIR
 70
     0
  9
$PDMODE
 70
     0
  9
$PDSIZE
 40
0.0
  9
$PLINEWID
 40
0.0
  9
$SPLFRAME
 70
     0
  9
$SPLINETYPE
 70
     6
  9
$SPLINESEGS
 70
     8
  9
$HANDSEED
  5
20C
  9
$SURFTAB1
 70
     6
  9
$SURFTAB2
 70
     6
  9
$SURFTYPE
 70
     6
  9
$SURFU
 70
     6
  9
$SURFV
 70
     6
  9
$UCSBASE
  2

  9
$UCSNAME
  2

  9
$UCSORG
 10
0.0
 20
0.0
 30
0.0
  9
$UCSXDIR
 10
1.0
 20
0.0
 30
0.0
  9
$UCSYDIR
 10
0.0
 20
1.0
 30
0.0
  9
$UCSORTHOREF
  2

  9
$UCSORTHOVIEW
 70
     0
  9
$UCSORGTOP
 10
0.0
 20
0.0
 30
0.0
  9
$UCSORGBOTTOM
 10
0.0
 20
0.0
 30
0.0
  9
$UCSORGLEFT
 10
0.0
 20
0.0
 30
0.0
  9
$UCSORGRIGHT
 10
0.0
 20
0.0
 30
0.0
  9
$UCSORGFRONT
 10
0.0
 20
0.0
 30
0.0
  9
$UCSORGBACK
 10
0.0
 20
0.0
 30
0.0
  9
$PUCSBASE
  2

  9
$PUCSNAME
  2

  9
$PUCSORG
 10
0.0
 20
0.0
 30
0.0
  9
$PUCSXDIR
 10
1.0
 20
0.0
 30
0.0
  9
$PUCSYDIR
 10
0.0
 20
1.0
 30
0.0
  9
$PUCSORTHOREF
  2

  9
$PUCSORTHOVIEW
 70
     0
  9
$PUCSORGTOP
 10
0.0
 20
0.0
 30
0.0
  9
$PUCSORGBOTTOM
 10
0.0
 20
0.0
 30
0.0
  9
$PUCSORGLEFT
 10
0.0
 20
0.0
 30
0.0
  9
$PUCSORGRIGHT
 10
0.0
 20
0.0
 30
0.0
  9
$PUCSORGFRONT
 10
0.0
 20
0.0
 30
0.0
  9
$PUCSORGBACK
 10
0.0
 20
0.0
 30
0.0
  9
$USERI1
 70
     0
  9
$USERI2
 70
     0
  9
$USERI3
 70
     0
  9
$USERI4
 70
     0
  9
$USERI5
 70
     0
  9
$USERR1
 40
0.0
  9
$USERR2
 40
0.0
  9
$USERR3
 40
0.0
  9
$USERR4
 40
0.0
  9
$USERR5
 40
0.0
  9
$WORLDVIEW
 70
     1
  9
$SHADEDGE
 70
     3
  9
$SHADEDIF
 70
    70
  9
$TILEMODE
 70
     1
  9
$MAXACTVP
 70
    64
  9
$PINSBASE
 10
0.0
 20
0.0
 30
0.0
  9
$PLIMCHECK
 70
     0
  9
$PEXTMIN
 10
1.000000000000000E+20
 20
1.000000000000000E+20
 30
1.000000000000000E+20
  9
$PEXTMAX
 10
-1.000000000000000E+20
 20
-1.000000000000000E+20
 30
-1.000000000000000E+20
  9
$PLIMMIN
 10
0.0
 20
0.0
  9
$PLIMMAX
 10
420.0
 20
297.0
  9
$UNITMODE
 70
     0
  9
$VISRETAIN
 70
     1
  9
$PLINEGEN
 70
     0
  9
$PSLTSCALE
 70
     1
  9
$TREEDEPTH
 70
  3020
  9
$CMLSTYLE
  2
Standard
  9
$CMLJUST
 70
     0
  9
$CMLSCALE
 40
20.0
  9
$PROXYGRAPHICS
 70
     1
  9
$MEASUREMENT
 70
     1
  9
$CELWEIGHT
370
    -1
  9
$ENDCAPS
280
     0
  9
$JOINSTYLE
280
     0
  9
$LWDISPLAY
290
     0
  9
$INSUNITS
 70
     4
  9
$HYPERLINKBASE
  1

  9
$STYLESHEET
  1

  9
$XEDIT
290
     1
  9
$CEPSNTYPE
380
     0
  9
$PSTYLEMODE
290
     1
  9
$FINGERPRINTGUID
  2
{1430B96B-7DE1-4BD5-86F2-A08CAD91F33B}
  9
$VERSIONGUID
  2
{FAEB1C32-E019-11D5-929B-00C0DF256EC4}
  9
$EXTNAMES
290
     1
  9
$PSVPSCALE
 40
0.0
  9
$OLESTARTUP
290
     0
  9
$SORTENTS
280
   127
  9
$INDEXCTL
280
     0
  9
$HIDETEXT
280
     1
  9
$XCLIPFRAME
280
     2
  9
$HALOGAP
280
     0
  9
$OBSCOLOR
 70
   257
  9
$OBSLTYPE
280
     0
  9
$INTERSECTIONDISPLAY
280
     0
  9
$INTERSECTIONCOLOR
 70
   257
  9
$DIMASSOC
280
     2
  9
$PROJECTNAME
  1

  9
$CAMERADISPLAY
290
     0
  9
$LENSLENGTH
 40
50.0
  9
$CAMERAHEIGHT
 40
0.0
  9
$STEPSPERSEC
 40
2.0
  9
$STEPSIZE
 40
6.0
  9
$3DDWFPREC
 40
2.0
  9
$PSOLWIDTH
 40
5.0
  9
$PSOLHEIGHT
 40
80.0
  9
$LOFTANG1
 40
1.570796326794897
  9
$LOFTANG2
 40
1.570796326794897
  9
$LOFTMAG1
 40
0.0
  9
$LOFTMAG2
 40
0.0
  9
$LOFTPARAM
 70
     7
  9
$LOFTNORMALS
280
     1
  9
$LATITUDE
 40
37.795
  9
$LONGITUDE
 40
-122.394
  9
$NORTHDIRECTION
 40
0.0
  9
$TIMEZONE
 70
 -8000
  9
$LIGHTGLYPHDISPLAY
280
     1
  9
$TILEMODELIGHTSYNCH
280
     1
  9
$CMATERIAL
347
44
  9
$SOLIDHIST
280
     0
  9
$SHOWHIST
280
     1
  9
$DWFFRAME
280
     2
  9
$DGNFRAME
280
     2
  9
$REALWORLDSCALE
290
     1
  9
$INTERFERECOLOR
 62
   256
  9
$CSHADOW
280
     0
  9
$SHADOWPLANELOCATION
 40
0.0
  0
ENDSEC
  0
SECTION
  2
CLASSES
  0
CLASS
  1
ACDBDICTIONARYWDFLT
  2
AcDbDictionaryWithDefault
  3
ObjectDBX Classes
 90
        0
 91
        4
280
     0
281
     0
  0
CLASS
  1
VISUALSTYLE
  2
AcDbVisualStyle
  3
ObjectDBX Classes
 90
     4095
 91
        4
280
     0
281
     0
  0
CLASS
  1
MATERIAL
  2
AcDbMaterial
  3
ObjectDBX Classes
 90
     1153
 91
        4
280
     0
281
     0
  0
CLASS
  1
SCALE
  2
AcDbScale
  3
ObjectDBX Classes
 90
     1153
 91
        4
280
     0
281
     0
  0
CLASS
  1
TABLESTYLE
  2
AcDbTableStyle
  3
ObjectDBX Classes
 90
     4095
 91
        4
280
     0
281
     0
  0
CLASS
  1
MLEADERSTYLE
  2
AcDbMLeaderStyle
  3
ACDB_MLEADERSTYLE_CLASS
 90
     4095
 91
        4
280
     0
281
     0
  0
CLASS
  1
SUN
  2
AcDbSun
  3
SCENEOE
 90
     1153
 91
        4
280
     0
281
     0
  0
CLASS
  1
DICTIONARYVAR
  2
AcDbDictionaryVar
  3
ObjectDBX Classes
 90
        0
 91
        4
280
     0
281
     0
  0
CLASS
  1
CELLSTYLEMAP
  2
AcDbCellStyleMap
  3
ObjectDBX Classes
 90
     1152
 91
        4
280
     0
281
     0
  0
ENDSEC
  0
SECTION
  2
TABLES
  0
TABLE
  2
VPORT
  5
8
330
0
100
AcDbSymbolTable
 70
     1
  0
VPORT
  5
29
330
8
100
AcDbSymbolTableRecord
100
AcDbViewportTableRecord
  2
*Active
 70
     0
 10
0.0
 20
0.0
 11
1.0
 21
1.0
 12
-20.75749999999999
 22
0.0
 13
0.0
 23
0.0
 14
10.0
 24
10.0
 15
10.0
 25
10.0
 16
0.0
 26
0.0
 36
1.0
 17
0.0
 27
0.0
 37
0.0
 40
114.138
 41
0.3933422698838248
 42
50.0
 43
0.0
 44
0.0
 50
0.0
 51
0.0
 71
     0
 72
   100
 73
     1
 74
     3
 75
     0
 76
     0
 77
     0
 78
     0
281
     0
 65
     1
110
0.0
120
0.0
130
0.0
111
1.0
121
0.0
131
0.0
112
0.0
122
1.0
132
0.0
 79
     0
146
0.0
348
2F
 60
     3
 61
     5
292
     1
282
     1
141
0.0
142
0.0
 63
   250
361
6D
  0
ENDTAB
  0
TABLE
  2
LTYPE
  5
5
330
0
100
AcDbSymbolTable
 70
     3
  0
LTYPE
  5
14
330
5
100
AcDbSymbolTableRecord
100
AcDbLinetypeTableRecord
  2
ByBlock
 70
     0
  3

 72
    65
 73
     0
 40
0.0
  0
LTYPE
  5
15
330
5
100
AcDbSymbolTableRecord
100
AcDbLinetypeTableRecord
  2
ByLayer
 70
     0
  3

 72
    65
 73
     0
 40
0.0
  0
LTYPE
  5
16
330
5
100
AcDbSymbolTableRecord
100
AcDbLinetypeTableRecord
  2
Continuous
 70
     0
  3
Solid line
 72
    65
 73
     0
 40
0.0
  0
LTYPE
  5
9E
330
5
100
AcDbSymbolTableRecord
100
AcDbLinetypeTableRecord
  2
Dashed
 70
     0
  3

 72
    65
 73
     2
 40
2.0
 49
1.0
 74
     0
 49
-1.0
 74
     0
  0
LTYPE
  5
10D
330
5
100
AcDbSymbolTableRecord
100
AcDbLinetypeTableRecord
  2
Center
 70
     0
  3

 72
    65
 73
     4
 40
1.5
 49
0.45
 74
     0
 49
-0.5
 74
     0
 49
0.05
 74
     0
 49
-0.5
 74
     0
  0
ENDTAB
  0
TABLE
  2
LAYER
  5
2
330
0
100
AcDbSymbolTable
 70
     7
  0
LAYER
  5
10
330
2
100
AcDbSymbolTableRecord
100
AcDbLayerTableRecord
  2
0
 70
     0
 62
     7
  6
Continuous
370
    -3
390
F
347
46
348
0
  0
LAYER
  5
72
330
2
100
AcDbSymbolTableRecord
100
AcDbLayerTableRecord
  2
AM_6
 70
     0
 62
    -2
  6
Continuous
370
    35
390
F
347
46
348
0
  0
LAYER
  5
9F
330
2
100
AcDbSymbolTableRecord
100
AcDbLayerTableRecord
  2
AM_9
 70
     0
 62
     6
  6
Dashed
370
    25
390
F
347
46
348
0
  0
LAYER
  5
CF
330
2
100
AcDbSymbolTableRecord
100
AcDbLayerTableRecord
  2
AM_4
 70
     0
 62
     7
  6
Continuous
370
    50
390
F
347
46
348
0
  0
LAYER
  5
10E
330
2
100
AcDbSymbolTableRecord
100
AcDbLayerTableRecord
  2
AM_7
 70
     0
 62
     7
  6
Center
370
    25
390
F
347
46
348
0
  0
LAYER
  5
11E
330
2
100
AcDbSymbolTableRecord
100
AcDbLayerTableRecord
  2
AM_5
 70
     0
 62
     3
  6
Continuous
370
    25
390
F
347
46
348
0
  0
LAYER
  5
1FF
330
2
100
AcDbSymbolTableRecord
100
AcDbLayerTableRecord
  2
ConnectionPoints
 70
     0
 62
     7
  6
Continuous
370
    50
390
F
347
46
348
0
  0
ENDTAB
  0
TABLE
  2
STYLE
  5
3
330
0
100
AcDbSymbolTable
 70
     1
  0
STYLE
  5
11
330
3
100
AcDbSymbolTableRecord
100
AcDbTextStyleTableRecord
  2
Standard
 70
     0
 40
0.0
 41
1.0
 50
0.0
 71
     0
 42
2.5
  3
txt
  4

  0
ENDTAB
  0
TABLE
  2
VIEW
  5
6
330
0
100
AcDbSymbolTable
 70
     0
  0
ENDTAB
  0
TABLE
  2
UCS
  5
7
330
0
100
AcDbSymbolTable
 70
     0
  0
ENDTAB
  0
TABLE
  2
APPID
  5
9
330
0
100
AcDbSymbolTable
 70
     1
  0
APPID
  5
12
330
9
100
AcDbSymbolTableRecord
100
AcDbRegAppTableRecord
  2
ACAD
 70
     0
  0
ENDTAB
  0
TABLE
  2
DIMSTYLE
  5
A
330
0
100
AcDbSymbolTable
 70
     1
100
AcDbDimStyleTable
  0
DIMSTYLE
105
27
330
A
100
AcDbSymbolTableRecord
100
AcDbDimStyleTableRecord
  2
ISO-25
 70
     0
 41
2.5
 42
0.625
 43
3.75
 44
1.25
 73
     0
 74
     0
 77
     1
 78
     8
140
2.5
141
2.5
143
0.03937007874016
147
0.625
171
     3
172
     1
178
     0
271
     2
272
     2
274
     3
278
    44
283
     0
284
     8
340
11
  0
ENDTAB
  0
TABLE
  2
BLOCK_RECORD
  5
1
330
0
100
AcDbSymbolTable
 70
     5
  0
BLOCK_RECORD
  5
1F
330
1
100
AcDbSymbolTableRecord
100
AcDbBlockTableRecord
  2
*Model_Space
340
22
 70
     0
280
     1
281
     0
  0
BLOCK_RECORD
  5
1B
330
1
100
AcDbSymbolTableRecord
100
AcDbBlockTableRecord
  2
*Paper_Space
340
1E
 70
     0
280
     1
281
     0
  0
BLOCK_RECORD
  5
23
330
1
100
AcDbSymbolTableRecord
100
AcDbBlockTableRecord
  2
*Paper_Space0
340
26
 70
     0
280
     1
281
     0
  0
BLOCK_RECORD
  5
6E
330
1
100
AcDbSymbolTableRecord
100
AcDbBlockTableRecord
  2
1_129322_2
340
0
102
{BLKREFS
331
6F
102
}
 70
     0
280
     1
281
     0
  0
BLOCK_RECORD
  5
88
330
1
100
AcDbSymbolTableRecord
100
AcDbBlockTableRecord
  2
2_129517_0_in_129322_2
340
0
102
{BLKREFS
331
89
102
}
 70
     0
280
     1
281
     0
  0
BLOCK_RECORD
  5
D2
330
1
100
AcDbSymbolTableRecord
100
AcDbBlockTableRecord
  2
3_129943_0_in_129322_2
340
0
102
{BLKREFS
331
D3
102
}
 70
     0
280
     1
281
     0
  0
BLOCK_RECORD
  5
120
330
1
100
AcDbSymbolTableRecord
100
AcDbBlockTableRecord
  2
4_129491_0_in_129322_2
340
0
102
{BLKREFS
331
121
102
}
 70
     0
280
     1
281
     0
  0
ENDTAB
  0
ENDSEC
  0
SECTION
  2
BLOCKS
  0
BLOCK
  5
20
330
1F
100
AcDbEntity
  8
0
100
AcDbBlockBegin
  2
*Model_Space
 70
     0
 10
0.0
 20
0.0
 30
0.0
  3
*Model_Space
  1

  0
ENDBLK
  5
21
330
1F
100
AcDbEntity
  8
0
100
AcDbBlockEnd
  0
BLOCK
  5
1C
330
1B
100
AcDbEntity
 67
     1
  8
0
100
AcDbBlockBegin
  2
*Paper_Space
 70
     0
 10
0.0
 20
0.0
 30
0.0
  3
*Paper_Space
  1

  0
ENDBLK
  5
1D
330
1B
100
AcDbEntity
 67
     1
  8
0
100
AcDbBlockEnd
  0
BLOCK
  5
24
330
23
100
AcDbEntity
  8
0
100
AcDbBlockBegin
  2
*Paper_Space0
 70
     0
 10
0.0
 20
0.0
 30
0.0
  3
*Paper_Space0
  1

  0
ENDBLK
  5
25
330
23
100
AcDbEntity
  8
0
100
AcDbBlockEnd
  0
BLOCK
  5
70
330
6E
100
AcDbEntity
  8
0
100
AcDbBlockBegin
  2
1_129322_2
 70
     2
 10
0.0
 20
0.0
 30
0.0
  3
1_129322_2
  1

  0
ATTDEF
  5
73
330
6E
100
AcDbEntity
  8
AM_6
100
AcDbText
 10
6.25
 20
55.95000000000002
 30
0.0
 40
0.5
  1
Grip Tight Two-Bolt Flange Metric Bore
100
AcDbAttributeDefinition
  3

  2
NN
 70
     8
280
     0
  0
ATTDEF
  5
74
330
6E
100
AcDbEntity
  8
AM_6
100
AcDbText
 10
6.25
 20
55.45000000000002
 30
0.0
 40
0.5
  1
GT Normal Duty 2 Bolt Flange Bearings
100
AcDbAttributeDefinition
  3

  2
NT
 70
     8
280
     0
  0
ATTDEF
  5
75
330
6E
100
AcDbEntity
  8
AM_6
100
AcDbText
 10
6.25
 20
54.95000000000002
 30
0.0
 40
0.5
  1
129322
100
AcDbAttributeDefinition
  3

  2
NB
 70
     8
280
     0
  0
ATTDEF
  5
76
330
6E
100
AcDbEntity
  8
AM_6
100
AcDbText
 10
6.25
 20
54.45000000000002
 30
0.0
 40
0.5
  1
$PN.$LUBE.
100
AcDbAttributeDefinition
  3

  2
NBSYN
 70
     8
280
     0
  0
ATTDEF
  5
77
330
6E
100
AcDbEntity
  8
AM_6
100
AcDbText
 10
6.25
 20
53.95000000000002
 30
0.0
 40
0.5
  1
129322
100
AcDbAttributeDefinition
  3

  2
LINA
 70
     8
280
     0
  0
ATTDEF
  5
78
330
6E
100
AcDbEntity
  8
AM_6
100
AcDbText
 10
6.25
 20
53.45000000000002
 30
0.0
 40
0.5
  1
204
100
AcDbAttributeDefinition
  3

  2
SERIES
 70
     8
280
     0
  0
ATTDEF
  5
79
330
6E
100
AcDbEntity
  8
AM_6
100
AcDbText
 10
6.25
 20
52.95000000000002
 30
0.0
 40
0.5
  1
20
100
AcDbAttributeDefinition
  3

  2
SS
 70
     8
280
     0
  0
ATTDEF
  5
7A
330
6E
100
AcDbEntity
  8
AM_6
100
AcDbText
 10
6.25
 20
52.45000000000002
 30
0.0
 40
0.5
  1
129322
100
AcDbAttributeDefinition
  3

  2
PN
 70
     8
280
     0
  0
ATTDEF
  5
7B
330
6E
100
AcDbEntity
  8
AM_6
100
AcDbText
 10
6.25
 20
51.95000000000002
 30
0.0
 40
0.5
  1
F2B-GT-20M
100
AcDbAttributeDefinition
  3

  2
DESCRIPTION
 70
     8
280
     0
  0
ATTDEF
  5
7C
330
6E
100
AcDbEntity
  8
AM_6
100
AcDbText
 10
6.25
 20
51.45000000000002
 30
0.0
 40
0.5
  1
37.3
100
AcDbAttributeDefinition
  3

  2
A
 70
     8
280
     0
  0
ATTDEF
  5
7D
330
6E
100
AcDbEntity
  8
AM_6
100
AcDbText
 10
6.25
 20
50.95000000000002
 30
0.0
 40
0.5
  1
111.9
100
AcDbAttributeDefinition
  3

  2
B
 70
     8
280
     0
  0
ATTDEF
  5
7E
330
6E
100
AcDbEntity
  8
AM_6
100
AcDbText
 10
6.25
 20
50.45000000000002
 30
0.0
 40
0.5
  1
40.9
100
AcDbAttributeDefinition
  3

  2
C
 70
     8
280
     0
  0
ATTDEF
  5
7F
330
6E
100
AcDbEntity
  8
AM_6
100
AcDbText
 10
6.25
 20
49.95000000000002
 30
0.0
 40
0.5
  1
89.7
100
AcDbAttributeDefinition
  3

  2
D
 70
     8
280
     0
  0
ATTDEF
  5
80
330
6E
100
AcDbEntity
  8
AM_6
100
AcDbText
 10
6.25
 20
49.45000000000002
 30
0.0
 40
0.5
  1
M10
100
AcDbAttributeDefinition
  3

  2
F
 70
     8
280
     0
  0
ATTDEF
  5
81
330
6E
100
AcDbEntity
  8
AM_6
100
AcDbText
 10
6.25
 20
48.95000000000002
 30
0.0
 40
0.5
  1
12.7
100
AcDbAttributeDefinition
  3

  2
H
 70
     8
280
     0
  0
ATTDEF
  5
82
330
6E
100
AcDbEntity
  8
AM_6
100
AcDbText
 10
6.25
 20
48.45000000000002
 30
0.0
 40
0.5
  1
15.9
100
AcDbAttributeDefinition
  3

  2
J
 70
     8
280
     0
  0
ATTDEF
  5
83
330
6E
100
AcDbEntity
  8
AM_6
100
AcDbText
 10
6.25
 20
47.95000000000002
 30
0.0
 40
0.5
  1
38.1
100
AcDbAttributeDefinition
  3

  2
L
 70
     8
280
     0
  0
ATTDEF
  5
84
330
6E
100
AcDbEntity
  8
AM_6
100
AcDbText
 10
6.25
 20
47.45000000000002
 30
0.0
 40
0.5
  1
60.3
100
AcDbAttributeDefinition
  3

  2
M
 70
     8
280
     0
  0
ATTDEF
  5
85
330
6E
100
AcDbEntity
  8
AM_6
100
AcDbText
 10
6.25
 20
46.95000000000002
 30
0.0
 40
0.5
  1
38.1
100
AcDbAttributeDefinition
  3

  2
N
 70
     8
280
     0
  0
ATTDEF
  5
86
330
6E
100
AcDbEntity
  8
AM_6
100
AcDbText
 10
6.25
 20
46.45000000000002
 30
0.0
 40
0.5
  1
40.9
100
AcDbAttributeDefinition
  3

  2
Z
 70
     8
280
     0
  0
ATTDEF
  5
87
330
6E
100
AcDbEntity
  8
AM_6
100
AcDbText
 10
6.25
 20
45.95000000000002
 30
0.0
 40
0.5
  1
baldor
100
AcDbAttributeDefinition
  3

  2
COMPANY
 70
     8
280
     0
  0
INSERT
  5
89
330
6E
100
AcDbEntity
  8
0
100
AcDbBlockReference
  2
2_129517_0_in_129322_2
 10
0.0
 20
0.0
 30
0.0
  0
INSERT
  5
D3
330
6E
100
AcDbEntity
  8
0
100
AcDbBlockReference
  2
3_129943_0_in_129322_2
 10
0.0
 20
0.0
 30
0.0
  0
INSERT
  5
121
330
6E
100
AcDbEntity
  8
0
100
AcDbBlockReference
  2
4_129491_0_in_129322_2
 10
0.0
 20
0.0
 30
0.0
  0
ENDBLK
  5
71
330
6E
100
AcDbEntity
  8
0
100
AcDbBlockEnd
  0
BLOCK
  5
8A
330
88
100
AcDbEntity
  8
0
100
AcDbBlockBegin
  2
2_129517_0_in_129322_2
 70
     2
 10
0.0
 20
0.0
 30
0.0
  3
2_129517_0_in_129322_2
  1

  0
ATTDEF
  5
8C
330
88
100
AcDbEntity
  8
AM_6
100
AcDbText
 10
-0.3700000000000019
 20
23.49993429942504
 30
0.0
 40
0.5
  1
INS-GT-M B
100
AcDbAttributeDefinition
  3

  2
NN
 70
     8
280
     0
  0
ATTDEF
  5
8D
330
88
100
AcDbEntity
  8
AM_6
100
AcDbText
 10
-0.3700000000000019
 20
22.99993429942504
 30
0.0
 40
0.5
  1
GT Normal Duty Bearing Inserts
100
AcDbAttributeDefinition
  3

  2
NT
 70
     8
280
     0
  0
ATTDEF
  5
8E
330
88
100
AcDbEntity
  8
AM_6
100
AcDbText
 10
-0.3700000000000019
 20
22.49993429942504
 30
0.0
 40
0.5
  1
129517
100
AcDbAttributeDefinition
  3

  2
NB
 70
     8
280
     0
  0
ATTDEF
  5
8F
330
88
100
AcDbEntity
  8
AM_6
100
AcDbText
 10
-0.3700000000000019
 20
21.99993429942504
 30
0.0
 40
0.5
  1
$PN.
100
AcDbAttributeDefinition
  3

  2
NBSYN
 70
     8
280
     0
  0
ATTDEF
  5
90
330
88
100
AcDbEntity
  8
AM_6
100
AcDbText
 10
-0.3700000000000019
 20
21.49993429942504
 30
0.0
 40
0.5
  1
129517
100
AcDbAttributeDefinition
  3

  2
LINA
 70
     8
280
     0
  0
ATTDEF
  5
91
330
88
100
AcDbEntity
  8
AM_6
100
AcDbText
 10
-0.3700000000000019
 20
20.99993429942504
 30
0.0
 40
0.5
  1
204
100
AcDbAttributeDefinition
  3

  2
SERIES
 70
     8
280
     0
  0
ATTDEF
  5
92
330
88
100
AcDbEntity
  8
AM_6
100
AcDbText
 10
-0.3700000000000019
 20
20.49993429942504
 30
0.0
 40
0.5
  1
129517
100
AcDbAttributeDefinition
  3

  2
PN
 70
     8
280
     0
  0
ATTDEF
  5
93
330
88
100
AcDbEntity
  8
AM_6
100
AcDbText
 10
-0.3700000000000019
 20
19.99993429942504
 30
0.0
 40
0.5
  1
INS-GT-04
100
AcDbAttributeDefinition
  3

  2
DESCRIPTION
 70
     8
280
     0
  0
ATTDEF
  5
94
330
88
100
AcDbEntity
  8
AM_6
100
AcDbText
 10
-0.3700000000000019
 20
19.49993429942504
 30
0.0
 40
0.5
  1
37.6
100
AcDbAttributeDefinition
  3

  2
A
 70
     8
280
     0
  0
ATTDEF
  5
95
330
88
100
AcDbEntity
  8
AM_6
100
AcDbText
 10
-0.3700000000000019
 20
18.99993429942504
 30
0.0
 40
0.5
  1
14.7
100
AcDbAttributeDefinition
  3

  2
C
 70
     8
280
     0
  0
ATTDEF
  5
96
330
88
100
AcDbEntity
  8
AM_6
100
AcDbText
 10
-0.3700000000000019
 20
18.49993429942504
 30
0.0
 40
0.5
  1
47.0
100
AcDbAttributeDefinition
  3

  2
D
 70
     8
280
     0
  0
ATTDEF
  5
97
330
88
100
AcDbEntity
  8
AM_6
100
AcDbText
 10
-0.3700000000000019
 20
17.99993429942504
 30
0.0
 40
0.5
  1
3.8
100
AcDbAttributeDefinition
  3

  2
J
 70
     8
280
     0
  0
ATTDEF
  5
98
330
88
100
AcDbEntity
  8
AM_6
100
AcDbText
 10
-0.3700000000000019
 20
17.49993429942504
 30
0.0
 40
0.5
  1
38.1
100
AcDbAttributeDefinition
  3

  2
L
 70
     8
280
     0
  0
ATTDEF
  5
99
330
88
100
AcDbEntity
  8
AM_6
100
AcDbText
 10
-0.3700000000000019
 20
16.99993429942504
 30
0.0
 40
0.5
  1
#10 - 32 x 1/4
100
AcDbAttributeDefinition
  3

  2
N
 70
     8
280
     0
  0
ATTDEF
  5
9A
330
88
100
AcDbEntity
  8
AM_6
100
AcDbText
 10
-0.3700000000000019
 20
16.49993429942504
 30
0.0
 40
0.5
  1
11.7
100
AcDbAttributeDefinition
  3

  2
W
 70
     8
280
     0
  0
ATTDEF
  5
9B
330
88
100
AcDbEntity
  8
AM_6
100
AcDbText
 10
-0.3700000000000019
 20
15.99993429942504
 30
0.0
 40
0.5
  1
26.2
100
AcDbAttributeDefinition
  3

  2
X
 70
     8
280
     0
  0
ATTDEF
  5
9C
330
88
100
AcDbEntity
  8
AM_6
100
AcDbText
 10
-0.3700000000000019
 20
15.49993429942504
 30
0.0
 40
0.5
  1
25.9
100
AcDbAttributeDefinition
  3

  2
Y
 70
     8
280
     0
  0
ATTDEF
  5
9D
330
88
100
AcDbEntity
  8
AM_6
100
AcDbText
 10
-0.3700000000000019
 20
14.99993429942504
 30
0.0
 40
0.5
  1
baldor
100
AcDbAttributeDefinition
  3

  2
COMPANY
 70
     8
280
     0
  0
LINE
  5
A0
330
88
100
AcDbEntity
  8
AM_9
100
AcDbLine
 10
-35.55
 20
-14.21190476190476
 30
0.0
 11
-25.725
 21
-14.21190476190476
 31
0.0
  0
LINE
  5
A1
330
88
100
AcDbEntity
  8
AM_9
100
AcDbLine
 10
-25.725
 20
14.21190476190476
 30
0.0
 11
-34.65
 21
14.21190476190476
 31
0.0
  0
LINE
  5
A2
330
88
100
AcDbEntity
  8
AM_9
100
AcDbLine
 10
-25.725
 20
14.21190476190476
 30
0.0
 11
-25.725
 21
-14.21190476190476
 31
0.0
  0
LINE
  5
A3
330
88
100
AcDbEntity
  8
AM_9
100
AcDbLine
 10
-25.725
 20
-14.21190476190476
 30
0.0
 11
-5.370000000000004
 21
-14.92271702490929
 31
0.0
  0
LINE
  5
A4
330
88
100
AcDbEntity
  8
AM_9
100
AcDbLine
 10
-5.370000000000004
 20
14.92271702490929
 30
0.0
 11
-25.725
 21
14.21190476190476
 31
0.0
  0
LINE
  5
A5
330
88
100
AcDbEntity
  8
AM_9
100
AcDbLine
 10
-32.275
 20
-15.57261904761905
 30
0.0
 11
-29.0
 21
-15.57261904761905
 31
0.0
  0
LINE
  5
A6
330
88
100
AcDbEntity
  8
AM_9
100
AcDbLine
 10
-29.0
 20
15.57261904761905
 30
0.0
 11
-32.275
 21
15.57261904761905
 31
0.0
  0
LINE
  5
A7
330
88
100
AcDbEntity
  8
AM_9
100
AcDbLine
 10
-5.370000000000002
 20
16.34533333333333
 30
0.0
 11
-5.370000000000002
 21
-16.34533333333333
 31
0.0
  0
LINE
  5
A8
330
88
100
AcDbEntity
  8
AM_9
100
AcDbLine
 10
-5.370000000000002
 20
16.34533333333333
 30
0.0
 11
-5.958
 21
16.93333333333333
 31
0.0
  0
LINE
  5
A9
330
88
100
AcDbEntity
  8
AM_9
100
AcDbLine
 10
-5.958
 20
-16.93333333333333
 30
0.0
 11
-5.370000000000002
 21
-16.34533333333333
 31
0.0
  0
LINE
  5
AA
330
88
100
AcDbEntity
  8
AM_9
100
AcDbLine
 10
-35.55
 20
16.34533333333333
 30
0.0
 11
-35.55
 21
-16.34533333333333
 31
0.0
  0
LINE
  5
AB
330
88
100
AcDbEntity
  8
AM_9
100
AcDbLine
 10
-35.55
 20
-16.34533333333333
 30
0.0
 11
-34.96200000000001
 21
-16.93333333333333
 31
0.0
  0
LINE
  5
AC
330
88
100
AcDbEntity
  8
AM_9
100
AcDbLine
 10
-34.96200000000001
 20
16.93333333333333
 30
0.0
 11
-35.55
 21
16.34533333333333
 31
0.0
  0
LINE
  5
AD
330
88
100
AcDbEntity
  8
AM_9
100
AcDbLine
 10
-29.0
 20
1.95
 30
0.0
 11
-29.0
 21
-1.95
 31
0.0
  0
LINE
  5
AE
330
88
100
AcDbEntity
  8
AM_9
100
AcDbLine
 10
-25.0
 20
-16.93333333333333
 30
0.0
 11
-23.25
 21
-16.93333333333333
 31
0.0
  0
LINE
  5
AF
330
88
100
AcDbEntity
  8
AM_9
100
AcDbLine
 10
-29.0
 20
-16.93333333333333
 30
0.0
 11
-28.4
 21
-16.93333333333333
 31
0.0
  0
LINE
  5
B0
330
88
100
AcDbEntity
  8
AM_9
100
AcDbLine
 10
-28.4
 20
16.93333333333333
 30
0.0
 11
-29.0
 21
16.93333333333333
 31
0.0
  0
LINE
  5
B1
330
88
100
AcDbEntity
  8
AM_9
100
AcDbLine
 10
-23.25
 20
16.93333333333333
 30
0.0
 11
-25.0
 21
16.93333333333333
 31
0.0
  0
LINE
  5
B2
330
88
100
AcDbEntity
  8
AM_9
100
AcDbLine
 10
-34.96200000000001
 20
16.93333333333333
 30
0.0
 11
-34.96200000000001
 21
-16.93333333333333
 31
0.0
  0
LINE
  5
B3
330
88
100
AcDbEntity
  8
AM_9
100
AcDbLine
 10
-32.275
 20
16.93333333333333
 30
0.0
 11
-32.275
 21
-16.93333333333333
 31
0.0
  0
LINE
  5
B4
330
88
100
AcDbEntity
  8
AM_9
100
AcDbLine
 10
-34.96200000000001
 20
-16.93333333333333
 30
0.0
 11
-32.275
 21
-16.93333333333333
 31
0.0
  0
LINE
  5
B5
330
88
100
AcDbEntity
  8
AM_9
100
AcDbLine
 10
-32.275
 20
16.93333333333333
 30
0.0
 11
-34.96200000000001
 21
16.93333333333333
 31
0.0
  0
LINE
  5
B6
330
88
100
AcDbEntity
  8
AM_9
100
AcDbLine
 10
-5.958
 20
16.93333333333333
 30
0.0
 11
-5.958
 21
-16.93333333333333
 31
0.0
  0
LINE
  5
B7
330
88
100
AcDbEntity
  8
AM_9
100
AcDbLine
 10
-8.550000000000002
 20
-16.93333333333333
 30
0.0
 11
-5.958
 21
-16.93333333333333
 31
0.0
  0
LINE
  5
B8
330
88
100
AcDbEntity
  8
AM_9
100
AcDbLine
 10
-5.958
 20
16.93333333333333
 30
0.0
 11
-8.550000000000002
 21
16.93333333333333
 31
0.0
  0
LINE
  5
B9
330
88
100
AcDbEntity
  8
AM_9
100
AcDbLine
 10
-20.46
 20
-22.03
 30
0.0
 11
-18.94
 21
-22.03
 31
0.0
  0
LINE
  5
BA
330
88
100
AcDbEntity
  8
AM_9
100
AcDbLine
 10
-18.94
 20
22.03
 30
0.0
 11
-20.46
 21
22.03
 31
0.0
  0
LINE
  5
BB
330
88
100
AcDbEntity
  8
AM_9
100
AcDbLine
 10
-8.550000000000002
 20
21.63354487917146
 30
0.0
 11
-8.550000000000002
 21
-21.63354487912417
 31
0.0
  0
ARC
  5
BC
330
88
100
AcDbEntity
  8
AM_9
100
AcDbCircle
 10
-9.137999999999986
 20
-21.63354487917147
 30
0.0
 40
0.5879999999999848
100
AcDbArc
 50
291.4124727171086
 51
0.0
  0
ARC
  5
BD
330
88
100
AcDbEntity
  8
AM_9
100
AcDbCircle
 10
-9.137999999999986
 20
21.63354487917147
 30
0.0
 40
0.5879999999999832
100
AcDbArc
 50
0.0
 51
68.58752728289146
  0
LINE
  5
BE
330
88
100
AcDbEntity
  8
AM_9
100
AcDbLine
 10
-23.25
 20
21.63354487917145
 30
0.0
 11
-23.25
 21
-21.63354487912416
 31
0.0
  0
ARC
  5
BF
330
88
100
AcDbEntity
  8
AM_9
100
AcDbCircle
 10
-22.66199999999998
 20
-21.63354487917144
 30
0.0
 40
0.5880000000000187
100
AcDbArc
 50
180.0
 51
248.5875329531152
  0
ARC
  5
C0
330
88
100
AcDbEntity
  8
AM_9
100
AcDbCircle
 10
-22.66199999999998
 20
21.63354487917144
 30
0.0
 40
0.5880000000000185
100
AcDbArc
 50
111.4124670468848
 51
180.0
  0
LINE
  5
C1
330
88
100
AcDbEntity
  8
AM_9
100
AcDbLine
 10
-22.87666666666666
 20
22.18095900231976
 30
0.0
 11
-22.87666666666666
 21
-22.18095900231976
 31
0.0
  0
ARC
  5
C2
330
88
100
AcDbEntity
  8
AM_9
100
AcDbCircle
 10
-15.89999999999965
 20
-4.389999999998896
 30
0.0
 40
19.11000000000116
100
AcDbArc
 50
248.5875329531162
 51
255.627781044245
  0
ARC
  5
C3
330
88
100
AcDbEntity
  8
AM_9
100
AcDbCircle
 10
-15.90000000000021
 20
4.390000000000622
 30
0.0
 40
19.10999999999935
100
AcDbArc
 50
104.3722189557546
 51
111.4124670468842
  0
LINE
  5
C4
330
88
100
AcDbEntity
  8
AM_9
100
AcDbLine
 10
-20.64348841112711
 20
22.90192636365818
 30
0.0
 11
-20.64348841112711
 21
-22.90192636365818
 31
0.0
  0
LINE
  5
C5
330
88
100
AcDbEntity
  8
AM_9
100
AcDbLine
 10
-20.46
 20
22.75952694001672
 30
0.0
 11
-20.46
 21
-22.75952693999682
 31
0.0
  0
ARC
  5
C6
330
88
100
AcDbEntity
  8
AM_9
100
AcDbCircle
 10
-20.60700000000001
 20
-22.75952694001671
 30
0.0
 40
0.1470000000000117
100
AcDbArc
 50
255.6277654593241
 51
0.0
  0
ARC
  5
C7
330
88
100
AcDbEntity
  8
AM_9
100
AcDbCircle
 10
-20.60700000000001
 20
22.75952694001671
 30
0.0
 40
0.1470000000000091
100
AcDbArc
 50
0.0
 51
104.3722345406759
  0
LINE
  5
C8
330
88
100
AcDbEntity
  8
AM_9
100
AcDbLine
 10
-18.94
 20
23.13102238406432
 30
0.0
 11
-18.94
 21
-23.13102238393276
 31
0.0
  0
ARC
  5
C9
330
88
100
AcDbEntity
  8
AM_9
100
AcDbCircle
 10
-18.79299999999999
 20
-23.13102238406431
 30
0.0
 40
0.1470000000000127
100
AcDbArc
 50
180.0
 51
261.2246740014858
  0
ARC
  5
CA
330
88
100
AcDbEntity
  8
AM_9
100
AcDbCircle
 10
-18.79299999999999
 20
23.13102238406431
 30
0.0
 40
0.1470000000000143
100
AcDbArc
 50
98.77532599851419
 51
180.0
  0
LINE
  5
CB
330
88
100
AcDbEntity
  8
AM_9
100
AcDbLine
 10
-18.81542635658914
 20
23.27630162735165
 30
0.0
 11
-18.81542635658914
 21
-23.27630162735165
 31
0.0
  0
LINE
  5
CC
330
88
100
AcDbEntity
  8
AM_9
100
AcDbLine
 10
-8.923333279158987
 20
22.18095898107546
 30
0.0
 11
-8.923333279158987
 21
-22.18095898107546
 31
0.0
  0
ARC
  5
CD
330
88
100
AcDbEntity
  8
AM_9
100
AcDbCircle
 10
-15.90000000000003
 20
-4.389999999999713
 30
0.0
 40
19.11000000000028
100
AcDbArc
 50
261.2246740014879
 51
291.4124672213523
  0
ARC
  5
CE
330
88
100
AcDbEntity
  8
AM_9
100
AcDbCircle
 10
-15.90000000000002
 20
4.389999999999748
 30
0.0
 40
19.11000000000025
100
AcDbArc
 50
68.5875327786477
 51
98.77532599851217
  0
LINE
  5
D0
330
88
100
AcDbEntity
  8
AM_4
100
AcDbLine
 10
-28.4
 20
-16.93333333333333
 30
0.0
 11
-25.0
 21
-16.93333333333333
 31
0.0
  0
LINE
  5
D1
330
88
100
AcDbEntity
  8
AM_4
100
AcDbLine
 10
-25.0
 20
16.93333333333333
 30
0.0
 11
-28.4
 21
16.93333333333333
 31
0.0
  0
ENDBLK
  5
8B
330
88
100
AcDbEntity
  8
0
100
AcDbBlockEnd
  0
BLOCK
  5
D4
330
D2
100
AcDbEntity
  8
0
100
AcDbBlockBegin
  2
3_129943_0_in_129322_2
 70
     2
 10
0.0
 20
0.0
 30
0.0
  3
3_129943_0_in_129322_2
  1

  0
ATTDEF
  5
D6
330
D2
100
AcDbEntity
  8
AM_6
100
AcDbText
 10
1.400000000000001
 20
19.05
 30
0.0
 40
0.5
  1
Grip Tight Normal Duty Adapter and Nut Metric Bore
100
AcDbAttributeDefinition
  3

  2
NN
 70
     8
280
     0
  0
ATTDEF
  5
D7
330
D2
100
AcDbEntity
  8
AM_6
100
AcDbText
 10
1.400000000000001
 20
18.55
 30
0.0
 40
0.5
  1
GT and GTM Adapter & Lock Nut Assemblies
100
AcDbAttributeDefinition
  3

  2
NT
 70
     8
280
     0
  0
ATTDEF
  5
D8
330
D2
100
AcDbEntity
  8
AM_6
100
AcDbText
 10
1.400000000000001
 20
18.05
 30
0.0
 40
0.5
  1
129943
100
AcDbAttributeDefinition
  3

  2
NB
 70
     8
280
     0
  0
ATTDEF
  5
D9
330
D2
100
AcDbEntity
  8
AM_6
100
AcDbText
 10
1.400000000000001
 20
17.55
 30
0.0
 40
0.5
  1
$PN.
100
AcDbAttributeDefinition
  3

  2
NBSYN
 70
     8
280
     0
  0
ATTDEF
  5
DA
330
D2
100
AcDbEntity
  8
AM_6
100
AcDbText
 10
1.400000000000001
 20
17.05
 30
0.0
 40
0.5
  1
129943
100
AcDbAttributeDefinition
  3

  2
LINA
 70
     8
280
     0
  0
ATTDEF
  5
DB
330
D2
100
AcDbEntity
  8
AM_6
100
AcDbText
 10
1.400000000000001
 20
16.55
 30
0.0
 40
0.5
  1
204
100
AcDbAttributeDefinition
  3

  2
SERIES
 70
     8
280
     0
  0
ATTDEF
  5
DC
330
D2
100
AcDbEntity
  8
AM_6
100
AcDbText
 10
1.400000000000001
 20
16.05
 30
0.0
 40
0.5
  1
20
100
AcDbAttributeDefinition
  3

  2
SS
 70
     8
280
     0
  0
ATTDEF
  5
DD
330
D2
100
AcDbEntity
  8
AM_6
100
AcDbText
 10
1.400000000000001
 20
15.55
 30
0.0
 40
0.5
  1
129943
100
AcDbAttributeDefinition
  3

  2
PN
 70
     8
280
     0
  0
ATTDEF
  5
DE
330
D2
100
AcDbEntity
  8
AM_6
100
AcDbText
 10
1.400000000000001
 20
15.05
 30
0.0
 40
0.5
  1
AN-GT-04-20M
100
AcDbAttributeDefinition
  3

  2
DESCRIPTION
 70
     8
280
     0
  0
ATTDEF
  5
DF
330
D2
100
AcDbEntity
  8
AM_6
100
AcDbText
 10
1.400000000000001
 20
14.55
 30
0.0
 40
0.5
  1
37.3
100
AcDbAttributeDefinition
  3

  2
A
 70
     8
280
     0
  0
ATTDEF
  5
E0
330
D2
100
AcDbEntity
  8
AM_6
100
AcDbText
 10
1.400000000000001
 20
14.05
 30
0.0
 40
0.5
  1
15.0
100
AcDbAttributeDefinition
  3

  2
C
 70
     8
280
     0
  0
ATTDEF
  5
E1
330
D2
100
AcDbEntity
  8
AM_6
100
AcDbText
 10
1.400000000000001
 20
13.55
 30
0.0
 40
0.5
  1
47.0
100
AcDbAttributeDefinition
  3

  2
D
 70
     8
280
     0
  0
ATTDEF
  5
E2
330
D2
100
AcDbEntity
  8
AM_6
100
AcDbText
 10
1.400000000000001
 20
13.05
 30
0.0
 40
0.5
  1
3.9
100
AcDbAttributeDefinition
  3

  2
J
 70
     8
280
     0
  0
ATTDEF
  5
E3
330
D2
100
AcDbEntity
  8
AM_6
100
AcDbText
 10
1.400000000000001
 20
12.55
 30
0.0
 40
0.5
  1
38.1
100
AcDbAttributeDefinition
  3

  2
L
 70
     8
280
     0
  0
ATTDEF
  5
E4
330
D2
100
AcDbEntity
  8
AM_6
100
AcDbText
 10
1.400000000000001
 20
12.05
 30
0.0
 40
0.5
  1
10 - 32 x 1/4
100
AcDbAttributeDefinition
  3

  2
N
 70
     8
280
     0
  0
ATTDEF
  5
E5
330
D2
100
AcDbEntity
  8
AM_6
100
AcDbText
 10
1.400000000000001
 20
11.55
 30
0.0
 40
0.5
  1
12.3
100
AcDbAttributeDefinition
  3

  2
W
 70
     8
280
     0
  0
ATTDEF
  5
E6
330
D2
100
AcDbEntity
  8
AM_6
100
AcDbText
 10
1.400000000000001
 20
11.05
 30
0.0
 40
0.5
  1
25.0
100
AcDbAttributeDefinition
  3

  2
X
 70
     8
280
     0
  0
ATTDEF
  5
E7
330
D2
100
AcDbEntity
  8
AM_6
100
AcDbText
 10
1.400000000000001
 20
10.55
 30
0.0
 40
0.5
  1
25.0
100
AcDbAttributeDefinition
  3

  2
Y
 70
     8
280
     0
  0
ATTDEF
  5
E8
330
D2
100
AcDbEntity
  8
AM_6
100
AcDbText
 10
1.400000000000001
 20
10.05
 30
0.0
 40
0.5
  1
baldor
100
AcDbAttributeDefinition
  3

  2
COMPANY
 70
     8
280
     0
  0
LWPOLYLINE
  5
E9
330
D2
100
AcDbEntity
  8
AM_9
100
AcDbPolyline
 90
       14
 70
     0
 43
0.0
 10
-35.43183042236742
 20
0.5429845604894419
 10
-35.51977953647448
 20
0.8086846635770022
 10
-35.67978339259398
 20
1.128023423414876
 10
-35.89438784551409
 20
1.425161406517995
 10
-36.15843322224725
 20
1.689034424106673
 10
-36.4688987830236
 20
1.913384807963678
 10
-36.82187773035664
 20
2.090913586475433
 10
-37.20899953828039
 20
2.212806033087356
 10
-37.6173691666005
 20
2.271613476023397
 10
-38.04144895587148
 20
2.262529534306375
 10
-38.453917447431
 20
2.184282063546057
 10
-38.85865935942439
 20
2.033432798685007
 10
-39.15987824150479
 20
1.863235134713476
 10
-39.43381340471058
 20
1.652165541516441
  0
LWPOLYLINE
  5
EA
330
D2
100
AcDbEntity
  8
AM_9
100
AcDbPolyline
 90
       16
 70
     0
 43
0.0
 10
-40.06361980289165
 20
-0.7205463204724208
 10
-39.93113958196817
 20
-1.020913967954616
 10
-39.73622537538201
 20
-1.325006280894146
 10
-39.48910245190329
 20
-1.601143251516195
 10
-39.19365855635369
 20
-1.84059603925389
 10
-38.85520949720208
 20
-2.035068647011769
 10
-38.47943955968989
 20
-2.177059879162775
 10
-38.07483946677744
 20
-2.258797017354492
 10
-37.65893817979778
 20
-2.273847500380584
 10
-37.23457882902827
 20
-2.218504892183082
 10
-36.83322710938354
 20
-2.095494751433928
 10
-36.4477211093321
 20
-1.900354700920372
 10
-36.11764984570637
 20
-1.653472256133442
 10
-35.82739360630924
 20
-1.342751399584481
 10
-35.61412787844869
 20
-1.011984060764903
 10
-35.47377095296397
 20
-0.6839531882580409
  0
LWPOLYLINE
  5
EB
330
D2
100
AcDbEntity
  8
AM_9
100
AcDbPolyline
 90
        5
 70
     0
 43
0.0
 10
-39.43381340471058
 20
1.652165541516441
 10
-39.67229692942895
 20
1.405353210303268
 10
-39.87559489513286
 20
1.119098069186523
 10
-40.04380427681177
 20
0.7742026700003297
 10
-40.12773143518225
 20
0.5049426576480277
  0
LINE
  5
EC
330
D2
100
AcDbEntity
  8
AM_9
100
AcDbLine
 10
-40.3
 20
-1.95
 30
0.0
 11
-40.3
 21
1.95
 31
0.0
  0
LINE
  5
ED
330
D2
100
AcDbEntity
  8
AM_9
100
AcDbLine
 10
-28.4
 20
14.42292801310088
 30
0.0
 11
-40.90000000000001
 21
14.42292801310088
 31
0.0
  0
LINE
  5
EE
330
D2
100
AcDbEntity
  8
AM_9
100
AcDbLine
 10
-28.40000000000001
 20
14.91367521223843
 30
0.0
 11
-29.0
 21
15.43612427592942
 31
0.0
  0
LINE
  5
EF
330
D2
100
AcDbEntity
  8
AM_9
100
AcDbLine
 10
-29.0
 20
15.43612427592942
 30
0.0
 11
-40.3
 21
15.43612427592942
 31
0.0
  0
LINE
  5
F0
330
D2
100
AcDbEntity
  8
AM_9
100
AcDbLine
 10
-40.3
 20
15.43612427592942
 30
0.0
 11
-40.90000000000001
 21
14.91367521223843
 31
0.0
  0
LINE
  5
F1
330
D2
100
AcDbEntity
  8
AM_9
100
AcDbLine
 10
-28.4
 20
-14.42292801310089
 30
0.0
 11
-40.90000000000001
 21
-14.42292801310089
 31
0.0
  0
LINE
  5
F2
330
D2
100
AcDbEntity
  8
AM_9
100
AcDbLine
 10
-40.90000000000001
 20
-14.91367521223844
 30
0.0
 11
-40.3
 21
-15.43612427592943
 31
0.0
  0
LINE
  5
F3
330
D2
100
AcDbEntity
  8
AM_9
100
AcDbLine
 10
-40.3
 20
-15.43612427592943
 30
0.0
 11
-29.0
 21
-15.43612427592943
 31
0.0
  0
LINE
  5
F4
330
D2
100
AcDbEntity
  8
AM_9
100
AcDbLine
 10
-29.0
 20
-15.43612427592943
 30
0.0
 11
-28.40000000000001
 21
-14.91367521223843
 31
0.0
  0
LINE
  5
F5
330
D2
100
AcDbEntity
  8
AM_9
100
AcDbLine
 10
-28.4
 20
16.37292801310088
 30
0.0
 11
-40.90000000000001
 21
16.37292801310088
 31
0.0
  0
LINE
  5
F6
330
D2
100
AcDbEntity
  8
AM_9
100
AcDbLine
 10
-28.4
 20
-16.37292801310089
 30
0.0
 11
-40.90000000000001
 21
-16.37292801310089
 31
0.0
  0
LINE
  5
F7
330
D2
100
AcDbEntity
  8
AM_9
100
AcDbLine
 10
-34.65
 20
14.21190476190476
 30
0.0
 11
-40.9
 21
14.21190476190476
 31
0.0
  0
LINE
  5
F8
330
D2
100
AcDbEntity
  8
AM_9
100
AcDbLine
 10
-3.600000000000001
 20
9.921567416492215
 30
0.0
 11
-40.9
 21
9.921567416492216
 31
0.0
  0
LINE
  5
F9
330
D2
100
AcDbEntity
  8
AM_9
100
AcDbLine
 10
-40.90000000000001
 20
-10.0
 30
0.0
 11
-3.599999999999999
 21
-10.0
 31
0.0
  0
LINE
  5
FA
330
D2
100
AcDbEntity
  8
AM_9
100
AcDbLine
 10
-34.65
 20
14.15682651449297
 30
0.0
 11
-25.275
 21
14.15682651449297
 31
0.0
  0
LINE
  5
FB
330
D2
100
AcDbEntity
  8
AM_9
100
AcDbLine
 10
-34.65
 20
-14.21190476190476
 30
0.0
 11
-25.275
 21
-14.21190476190476
 31
0.0
  0
LINE
  5
FC
330
D2
100
AcDbEntity
  8
AM_9
100
AcDbLine
 10
-3.600000000000001
 20
14.91652928408652
 30
0.0
 11
-3.600000000000001
 21
-14.96881244063839
 31
0.0
  0
LINE
  5
FD
330
D2
100
AcDbEntity
  8
AM_9
100
AcDbLine
 10
-25.275
 20
14.15682651449297
 30
0.0
 11
-3.600000000000001
 21
14.91652928408652
 31
0.0
  0
LINE
  5
FE
330
D2
100
AcDbEntity
  8
AM_9
100
AcDbLine
 10
-25.275
 20
14.15682651449297
 30
0.0
 11
-25.275
 21
-14.21190476190476
 31
0.0
  0
LINE
  5
FF
330
D2
100
AcDbEntity
  8
AM_9
100
AcDbLine
 10
-25.275
 20
-14.21190476190476
 30
0.0
 11
-3.600000000000001
 21
-14.96881244063839
 31
0.0
  0
LINE
  5
100
330
D2
100
AcDbEntity
  8
AM_9
100
AcDbLine
 10
-31.525
 20
-15.57261904761905
 30
0.0
 11
-28.4
 21
-15.57261904761905
 31
0.0
  0
LINE
  5
101
330
D2
100
AcDbEntity
  8
AM_9
100
AcDbLine
 10
-28.4
 20
15.57261904761905
 30
0.0
 11
-31.525
 21
15.57261904761905
 31
0.0
  0
LINE
  5
102
330
D2
100
AcDbEntity
  8
AM_9
100
AcDbLine
 10
-31.525
 20
17.12383333333334
 30
0.0
 11
-31.525
 21
-17.12383333333334
 31
0.0
  0
LINE
  5
103
330
D2
100
AcDbEntity
  8
AM_9
100
AcDbLine
 10
-34.65
 20
17.12383333333334
 30
0.0
 11
-34.65
 21
-17.12383333333334
 31
0.0
  0
LINE
  5
104
330
D2
100
AcDbEntity
  8
AM_9
100
AcDbLine
 10
-34.65
 20
-17.12383333333334
 30
0.0
 11
-31.525
 21
-17.12383333333334
 31
0.0
  0
LINE
  5
105
330
D2
100
AcDbEntity
  8
AM_9
100
AcDbLine
 10
-31.525
 20
17.12383333333334
 30
0.0
 11
-34.65
 21
17.12383333333334
 31
0.0
  0
LINE
  5
106
330
D2
100
AcDbEntity
  8
AM_9
100
AcDbLine
 10
-40.3
 20
-17.38612427592942
 30
0.0
 11
-40.90000000000001
 21
-16.86367521223844
 31
0.0
  0
LINE
  5
107
330
D2
100
AcDbEntity
  8
AM_9
100
AcDbLine
 10
-29.0
 20
-17.38612427592942
 30
0.0
 11
-40.3
 21
-17.38612427592942
 31
0.0
  0
LINE
  5
108
330
D2
100
AcDbEntity
  8
AM_9
100
AcDbLine
 10
-29.0
 20
17.38612427592942
 30
0.0
 11
-28.4
 21
16.86367521223843
 31
0.0
  0
LINE
  5
109
330
D2
100
AcDbEntity
  8
AM_9
100
AcDbLine
 10
-28.40000000000001
 20
-16.86367521223843
 30
0.0
 11
-29.0
 21
-17.38612427592942
 31
0.0
  0
LINE
  5
10A
330
D2
100
AcDbEntity
  8
AM_9
100
AcDbLine
 10
-40.3
 20
17.38612427592942
 30
0.0
 11
-29.0
 21
17.38612427592942
 31
0.0
  0
LINE
  5
10B
330
D2
100
AcDbEntity
  8
AM_9
100
AcDbLine
 10
-40.90000000000001
 20
16.86367521223843
 30
0.0
 11
-40.3
 21
17.38612427592942
 31
0.0
  0
CIRCLE
  5
10C
330
D2
100
AcDbEntity
  8
AM_9
100
AcDbCircle
 10
-37.77500000000001
 20
-0.0000000000000435
 30
0.0
 40
1.981200000000042
  0
LINE
  5
10F
330
D2
100
AcDbEntity
  8
AM_7
100
AcDbLine
 10
-37.77500000000001
 20
-2.533649999999998
 30
0.0
 11
-37.77500000000001
 21
2.533649999999998
 31
0.0
  0
LINE
  5
110
330
D2
100
AcDbEntity
  8
AM_4
100
AcDbLine
 10
-40.90000000000001
 20
18.45
 30
0.0
 11
-40.90000000000001
 21
-18.45
 31
0.0
  0
LINE
  5
111
330
D2
100
AcDbEntity
  8
AM_4
100
AcDbLine
 10
-40.90000000000001
 20
-18.45
 30
0.0
 11
-40.3
 21
-19.05
 31
0.0
  0
LINE
  5
112
330
D2
100
AcDbEntity
  8
AM_4
100
AcDbLine
 10
-40.3
 20
-1.95
 30
0.0
 11
-40.3
 21
-19.05
 31
0.0
  0
LINE
  5
113
330
D2
100
AcDbEntity
  8
AM_4
100
AcDbLine
 10
-40.3
 20
-19.05
 30
0.0
 11
-29.0
 21
-19.05
 31
0.0
  0
LINE
  5
114
330
D2
100
AcDbEntity
  8
AM_4
100
AcDbLine
 10
-28.4
 20
1.95
 30
0.0
 11
-40.90000000000001
 21
1.95
 31
0.0
  0
LINE
  5
115
330
D2
100
AcDbEntity
  8
AM_4
100
AcDbLine
 10
-28.4
 20
18.45
 30
0.0
 11
-29.0
 21
19.05
 31
0.0
  0
LINE
  5
116
330
D2
100
AcDbEntity
  8
AM_4
100
AcDbLine
 10
-28.4
 20
18.45
 30
0.0
 11
-28.4
 21
-18.45
 31
0.0
  0
LINE
  5
117
330
D2
100
AcDbEntity
  8
AM_4
100
AcDbLine
 10
-40.90000000000001
 20
-1.95
 30
0.0
 11
-28.4
 21
-1.95
 31
0.0
  0
LINE
  5
118
330
D2
100
AcDbEntity
  8
AM_4
100
AcDbLine
 10
-29.0
 20
-1.95
 30
0.0
 11
-29.0
 21
-19.05
 31
0.0
  0
LINE
  5
119
330
D2
100
AcDbEntity
  8
AM_4
100
AcDbLine
 10
-29.0
 20
-19.05
 30
0.0
 11
-28.4
 21
-18.45
 31
0.0
  0
LINE
  5
11A
330
D2
100
AcDbEntity
  8
AM_4
100
AcDbLine
 10
-29.0
 20
19.05
 30
0.0
 11
-40.3
 21
19.05
 31
0.0
  0
LINE
  5
11B
330
D2
100
AcDbEntity
  8
AM_4
100
AcDbLine
 10
-29.0
 20
19.05
 30
0.0
 11
-29.0
 21
1.95
 31
0.0
  0
LINE
  5
11C
330
D2
100
AcDbEntity
  8
AM_4
100
AcDbLine
 10
-40.3
 20
19.05
 30
0.0
 11
-40.90000000000001
 21
18.45
 31
0.0
  0
LINE
  5
11D
330
D2
100
AcDbEntity
  8
AM_4
100
AcDbLine
 10
-40.3
 20
19.05
 30
0.0
 11
-40.3
 21
1.95
 31
0.0
  0
ARC
  5
11F
330
D2
100
AcDbEntity
  8
AM_5
100
AcDbCircle
 10
-37.77500416668055
 20
-0.0000000000000004
 30
0.0
 40
2.413000000000001
100
AcDbArc
 50
74.99999999999996
 51
15.00000000000002
  0
ENDBLK
  5
D5
330
D2
100
AcDbEntity
  8
0
100
AcDbBlockEnd
  0
BLOCK
  5
122
330
120
100
AcDbEntity
  8
0
100
AcDbBlockBegin
  2
4_129491_0_in_129322_2
 70
     2
 10
0.0
 20
0.0
 30
0.0
  3
4_129491_0_in_129322_2
  1

  0
ATTDEF
  5
124
330
120
100
AcDbEntity
  8
AM_6
100
AcDbText
 10
6.25
 20
55.95000000000002
 30
0.0
 40
0.5
  1
F2B-GT-M-B
100
AcDbAttributeDefinition
  3

  2
NN
 70
     8
280
     0
  0
ATTDEF
  5
125
330
120
100
AcDbEntity
  8
AM_6
100
AcDbText
 10
6.25
 20
55.45000000000002
 30
0.0
 40
0.5
  1
GT Normal Duty 2 Bolt Flange Bearings
100
AcDbAttributeDefinition
  3

  2
NT
 70
     8
280
     0
  0
ATTDEF
  5
126
330
120
100
AcDbEntity
  8
AM_6
100
AcDbText
 10
6.25
 20
54.95000000000002
 30
0.0
 40
0.5
  1
129491
100
AcDbAttributeDefinition
  3

  2
NB
 70
     8
280
     0
  0
ATTDEF
  5
127
330
120
100
AcDbEntity
  8
AM_6
100
AcDbText
 10
6.25
 20
54.45000000000002
 30
0.0
 40
0.5
  1
$PN.$LUBE.
100
AcDbAttributeDefinition
  3

  2
NBSYN
 70
     8
280
     0
  0
ATTDEF
  5
128
330
120
100
AcDbEntity
  8
AM_6
100
AcDbText
 10
6.25
 20
53.95000000000002
 30
0.0
 40
0.5
  1
129491
100
AcDbAttributeDefinition
  3

  2
LINA
 70
     8
280
     0
  0
ATTDEF
  5
129
330
120
100
AcDbEntity
  8
AM_6
100
AcDbText
 10
6.25
 20
53.45000000000002
 30
0.0
 40
0.5
  1
204
100
AcDbAttributeDefinition
  3

  2
SERIES
 70
     8
280
     0
  0
ATTDEF
  5
12A
330
120
100
AcDbEntity
  8
AM_6
100
AcDbText
 10
6.25
 20
52.95000000000002
 30
0.0
 40
0.5
  1
47
100
AcDbAttributeDefinition
  3

  2
BOD
 70
     8
280
     0
  0
ATTDEF
  5
12B
330
120
100
AcDbEntity
  8
AM_6
100
AcDbText
 10
6.25
 20
52.45000000000002
 30
0.0
 40
0.5
  1
20
100
AcDbAttributeDefinition
  3

  2
SS
 70
     8
280
     0
  0
ATTDEF
  5
12C
330
120
100
AcDbEntity
  8
AM_6
100
AcDbText
 10
6.25
 20
51.95000000000002
 30
0.0
 40
0.5
  1
129491
100
AcDbAttributeDefinition
  3

  2
PN
 70
     8
280
     0
  0
ATTDEF
  5
12D
330
120
100
AcDbEntity
  8
AM_6
100
AcDbText
 10
6.25
 20
51.45000000000002
 30
0.0
 40
0.5
  1
F2B-GT-04
100
AcDbAttributeDefinition
  3

  2
DESCRIPTION
 70
     8
280
     0
  0
ATTDEF
  5
12E
330
120
100
AcDbEntity
  8
AM_6
100
AcDbText
 10
6.25
 20
50.95000000000002
 30
0.0
 40
0.5
  1
With Lube
100
AcDbAttributeDefinition
  3

  2
LUBE
 70
     8
280
     0
  0
ATTDEF
  5
12F
330
120
100
AcDbEntity
  8
AM_6
100
AcDbText
 10
6.25
 20
50.45000000000002
 30
0.0
 40
0.5
  1
0.6
100
AcDbAttributeDefinition
  3

  2
WEIGHT
 70
     8
280
     0
  0
ATTDEF
  5
130
330
120
100
AcDbEntity
  8
AM_6
100
AcDbText
 10
6.25
 20
49.95000000000002
 30
0.0
 40
0.5
  1
37.3
100
AcDbAttributeDefinition
  3

  2
A
 70
     8
280
     0
  0
ATTDEF
  5
131
330
120
100
AcDbEntity
  8
AM_6
100
AcDbText
 10
6.25
 20
49.45000000000002
 30
0.0
 40
0.5
  1
111.9
100
AcDbAttributeDefinition
  3

  2
B
 70
     8
280
     0
  0
ATTDEF
  5
132
330
120
100
AcDbEntity
  8
AM_6
100
AcDbText
 10
6.25
 20
48.95000000000002
 30
0.0
 40
0.5
  1
40.9
100
AcDbAttributeDefinition
  3

  2
C
 70
     8
280
     0
  0
ATTDEF
  5
133
330
120
100
AcDbEntity
  8
AM_6
100
AcDbText
 10
6.25
 20
48.45000000000002
 30
0.0
 40
0.5
  1
89.7
100
AcDbAttributeDefinition
  3

  2
D
 70
     8
280
     0
  0
ATTDEF
  5
134
330
120
100
AcDbEntity
  8
AM_6
100
AcDbText
 10
6.25
 20
47.95000000000002
 30
0.0
 40
0.5
  1
M10
100
AcDbAttributeDefinition
  3

  2
F
 70
     8
280
     0
  0
ATTDEF
  5
135
330
120
100
AcDbEntity
  8
AM_6
100
AcDbText
 10
6.25
 20
47.45000000000002
 30
0.0
 40
0.5
  1
12.7
100
AcDbAttributeDefinition
  3

  2
H
 70
     8
280
     0
  0
ATTDEF
  5
136
330
120
100
AcDbEntity
  8
AM_6
100
AcDbText
 10
6.25
 20
46.95000000000002
 30
0.0
 40
0.5
  1
15.9
100
AcDbAttributeDefinition
  3

  2
J
 70
     8
280
     0
  0
ATTDEF
  5
137
330
120
100
AcDbEntity
  8
AM_6
100
AcDbText
 10
6.25
 20
46.45000000000002
 30
0.0
 40
0.5
  1
38.1
100
AcDbAttributeDefinition
  3

  2
L
 70
     8
280
     0
  0
ATTDEF
  5
138
330
120
100
AcDbEntity
  8
AM_6
100
AcDbText
 10
6.25
 20
45.95000000000002
 30
0.0
 40
0.5
  1
60.3
100
AcDbAttributeDefinition
  3

  2
M
 70
     8
280
     0
  0
ATTDEF
  5
139
330
120
100
AcDbEntity
  8
AM_6
100
AcDbText
 10
6.25
 20
45.45000000000002
 30
0.0
 40
0.5
  1
38.1
100
AcDbAttributeDefinition
  3

  2
N
 70
     8
280
     0
  0
ATTDEF
  5
13A
330
120
100
AcDbEntity
  8
AM_6
100
AcDbText
 10
6.25
 20
44.95000000000002
 30
0.0
 40
0.5
  1
40.9
100
AcDbAttributeDefinition
  3

  2
Z
 70
     8
280
     0
  0
ATTDEF
  5
13B
330
120
100
AcDbEntity
  8
AM_6
100
AcDbText
 10
6.25
 20
44.45000000000002
 30
0.0
 40
0.5
  1
10.8
100
AcDbAttributeDefinition
  3

  2
F1
 70
     8
280
     0
  0
ATTDEF
  5
13C
330
120
100
AcDbEntity
  8
AM_6
100
AcDbText
 10
6.25
 20
43.95000000000002
 30
0.0
 40
0.5
  1
baldor
100
AcDbAttributeDefinition
  3

  2
COMPANY
 70
     8
280
     0
  0
LINE
  5
13D
330
120
100
AcDbEntity
  8
AM_9
100
AcDbLine
 10
-10.88571428571428
 20
26.65595406817247
 30
0.0
 11
-13.10514663774612
 21
26.65595406817247
 31
0.0
  0
LINE
  5
13E
330
120
100
AcDbEntity
  8
AM_9
100
AcDbLine
 10
-12.7
 20
39.45
 30
0.0
 11
0.0
 21
39.45
 31
0.0
  0
LINE
  5
13F
330
120
100
AcDbEntity
  8
AM_9
100
AcDbLine
 10
0.0
 20
50.25
 30
0.0
 11
-12.7
 21
50.25
 31
0.0
  0
LINE
  5
140
330
120
100
AcDbEntity
  8
AM_9
100
AcDbLine
 10
-12.7
 20
-50.25
 30
0.0
 11
0.0
 21
-50.25
 31
0.0
  0
LINE
  5
141
330
120
100
AcDbEntity
  8
AM_9
100
AcDbLine
 10
0.0
 20
-39.45
 30
0.0
 11
-12.7
 21
-39.45
 31
0.0
  0
LINE
  5
142
330
120
100
AcDbEntity
  8
AM_9
100
AcDbLine
 10
0.0
 20
26.85714285714286
 30
0.0
 11
-3.175
 21
26.85714285714286
 31
0.0
  0
LINE
  5
143
330
120
100
AcDbEntity
  8
AM_9
100
AcDbLine
 10
-3.175
 20
-26.85714285714286
 30
0.0
 11
0.0
 21
-26.85714285714286
 31
0.0
  0
LINE
  5
144
330
120
100
AcDbEntity
  8
AM_9
100
AcDbLine
 10
-13.05552914332141
 20
26.70483659585167
 30
0.0
 11
-10.88571428571428
 21
26.70483659585167
 31
0.0
  0
LINE
  5
145
330
120
100
AcDbEntity
  8
AM_9
100
AcDbLine
 10
-12.7
 20
37.22014692753115
 30
0.0
 11
-12.7
 21
27.65084855446975
 31
0.0
  0
LINE
  5
146
330
120
100
AcDbEntity
  8
AM_9
100
AcDbLine
 10
-3.174999999999999
 20
25.77220196356544
 30
0.0
 11
0.0000000000000005
 21
25.77220196356544
 31
0.0
  0
LINE
  5
147
330
120
100
AcDbEntity
  8
AM_9
100
AcDbLine
 10
-3.174999999999999
 20
-25.77220189241566
 30
0.0
 11
0.0000000000000005
 21
-25.77220189241566
 31
0.0
  0
LINE
  5
148
330
120
100
AcDbEntity
  8
AM_9
100
AcDbLine
 10
-10.88571428571428
 20
31.2614531088283
 30
0.0
 11
-3.174999999999999
 21
31.2614531088283
 31
0.0
  0
LINE
  5
149
330
120
100
AcDbEntity
  8
AM_9
100
AcDbLine
 10
-10.88571428571428
 20
37.22014692753115
 30
0.0
 11
-10.88571428571428
 21
17.92520082064716
 31
0.0
  0
LINE
  5
14A
330
120
100
AcDbEntity
  8
AM_9
100
AcDbLine
 10
-25.0
 20
-23.5
 30
0.0
 11
-3.175000000000001
 21
-23.5
 31
0.0
  0
LINE
  5
14B
330
120
100
AcDbEntity
  8
AM_9
100
AcDbLine
 10
-3.175000000000001
 20
23.5
 30
0.0
 11
-25.0
 21
23.5
 31
0.0
  0
LINE
  5
14C
330
120
100
AcDbEntity
  8
AM_9
100
AcDbLine
 10
-23.0
 20
-2.118585
 30
0.0
 11
-25.0
 21
-2.118585
 31
0.0
  0
LINE
  5
14D
330
120
100
AcDbEntity
  8
AM_9
100
AcDbLine
 10
-23.0
 20
-4.25661
 30
0.0
 11
-25.0
 21
-4.25661
 31
0.0
  0
LINE
  5
14E
330
120
100
AcDbEntity
  8
AM_9
100
AcDbLine
 10
-23.0
 20
-1.18563
 30
0.0
 11
-25.0
 21
-1.18563
 31
0.0
  0
LINE
  5
14F
330
120
100
AcDbEntity
  8
AM_9
100
AcDbLine
 10
-23.0
 20
0.9912650000000001
 30
0.0
 11
-25.0
 21
0.9912650000000001
 31
0.0
  0
LINE
  5
150
330
120
100
AcDbEntity
  8
AM_9
100
AcDbLine
 10
-23.0
 20
2.857175
 30
0.0
 11
-25.0
 21
2.857175
 31
0.0
  0
LINE
  5
151
330
120
100
AcDbEntity
  8
AM_9
100
AcDbLine
 10
-23.0
 20
2.54619
 30
0.0
 11
-25.0
 21
2.54619
 31
0.0
  0
LINE
  5
152
330
120
100
AcDbEntity
  8
AM_9
100
AcDbLine
 10
-23.0
 20
-0.8746450000000001
 30
0.0
 11
-25.0
 21
-0.8746450000000001
 31
0.0
  0
LINE
  5
153
330
120
100
AcDbEntity
  8
AM_9
100
AcDbLine
 10
-23.0
 20
-1.41887
 30
0.0
 11
-25.0
 21
-1.41887
 31
0.0
  0
LINE
  5
154
330
120
100
AcDbEntity
  8
AM_9
100
AcDbLine
 10
-23.0
 20
3.090415
 30
0.0
 11
-25.0
 21
3.090415
 31
0.0
  0
LINE
  5
155
330
120
100
AcDbEntity
  8
AM_9
100
AcDbLine
 10
-23.0
 20
1.224505
 30
0.0
 11
-25.0
 21
1.224505
 31
0.0
  0
LINE
  5
156
330
120
100
AcDbEntity
  8
AM_9
100
AcDbLine
 10
-23.0
 20
2.31295
 30
0.0
 11
-25.0
 21
2.31295
 31
0.0
  0
LINE
  5
157
330
120
100
AcDbEntity
  8
AM_9
100
AcDbLine
 10
-23.0
 20
-2.701685
 30
0.0
 11
-25.0
 21
-2.701685
 31
0.0
  0
LINE
  5
158
330
120
100
AcDbEntity
  8
AM_9
100
AcDbLine
 10
-23.0
 20
1.03014
 30
0.0
 11
-25.0
 21
1.03014
 31
0.0
  0
LINE
  5
159
330
120
100
AcDbEntity
  8
AM_9
100
AcDbLine
 10
-23.0
 20
2.50732
 30
0.0
 11
-25.0
 21
2.50732
 31
0.0
  0
LINE
  5
15A
330
120
100
AcDbEntity
  8
AM_9
100
AcDbLine
 10
-23.0
 20
2.89605
 30
0.0
 11
-25.0
 21
2.89605
 31
0.0
  0
LINE
  5
15B
330
120
100
AcDbEntity
  8
AM_9
100
AcDbLine
 10
-23.0
 20
-1.224505
 30
0.0
 11
-25.0
 21
-1.224505
 31
0.0
  0
LINE
  5
15C
330
120
100
AcDbEntity
  8
AM_9
100
AcDbLine
 10
-23.0
 20
-2.468445
 30
0.0
 11
-25.0
 21
-2.468445
 31
0.0
  0
LINE
  5
15D
330
120
100
AcDbEntity
  8
AM_9
100
AcDbLine
 10
-23.0
 20
-0.641405
 30
0.0
 11
-25.0
 21
-0.641405
 31
0.0
  0
LINE
  5
15E
330
120
100
AcDbEntity
  8
AM_9
100
AcDbLine
 10
-23.0
 20
-0.835775
 30
0.0
 11
-25.0
 21
-0.835775
 31
0.0
  0
LINE
  5
15F
330
120
100
AcDbEntity
  8
AM_9
100
AcDbLine
 10
-23.0
 20
3.207035
 30
0.0
 11
-25.0
 21
3.207035
 31
0.0
  0
LINE
  5
160
330
120
100
AcDbEntity
  8
AM_9
100
AcDbLine
 10
-23.0
 20
-1.53549
 30
0.0
 11
-25.0
 21
-1.53549
 31
0.0
  0
LINE
  5
161
330
120
100
AcDbEntity
  8
AM_9
100
AcDbLine
 10
-23.0
 20
-1.30225
 30
0.0
 11
-25.0
 21
-1.30225
 31
0.0
  0
LINE
  5
162
330
120
100
AcDbEntity
  8
AM_9
100
AcDbLine
 10
-23.0
 20
1.107885
 30
0.0
 11
-25.0
 21
1.107885
 31
0.0
  0
LINE
  5
163
330
120
100
AcDbEntity
  8
AM_9
100
AcDbLine
 10
-23.0
 20
2.973795
 30
0.0
 11
-25.0
 21
2.973795
 31
0.0
  0
LINE
  5
164
330
120
100
AcDbEntity
  8
AM_9
100
AcDbLine
 10
-23.0
 20
1.341125
 30
0.0
 11
-25.0
 21
1.341125
 31
0.0
  0
LINE
  5
165
330
120
100
AcDbEntity
  8
AM_9
100
AcDbLine
 10
-23.0
 20
-2.42957
 30
0.0
 11
-25.0
 21
-2.42957
 31
0.0
  0
LINE
  5
166
330
120
100
AcDbEntity
  8
AM_9
100
AcDbLine
 10
-23.0
 20
2.19633
 30
0.0
 11
-25.0
 21
2.19633
 31
0.0
  0
LINE
  5
167
330
120
100
AcDbEntity
  8
AM_9
100
AcDbLine
 10
-23.0
 20
2.42957
 30
0.0
 11
-25.0
 21
2.42957
 31
0.0
  0
LINE
  5
168
330
120
100
AcDbEntity
  8
AM_9
100
AcDbLine
 10
-23.0
 20
-2.66281
 30
0.0
 11
-25.0
 21
-2.66281
 31
0.0
  0
LINE
  5
169
330
120
100
AcDbEntity
  8
AM_9
100
AcDbLine
 10
-23.0
 20
-3.245905
 30
0.0
 11
-25.0
 21
-3.245905
 31
0.0
  0
LINE
  5
16A
330
120
100
AcDbEntity
  8
AM_9
100
AcDbLine
 10
-23.0
 20
2.079715
 30
0.0
 11
-25.0
 21
2.079715
 31
0.0
  0
LINE
  5
16B
330
120
100
AcDbEntity
  8
AM_9
100
AcDbLine
 10
-23.0
 20
3.323655
 30
0.0
 11
-25.0
 21
3.323655
 31
0.0
  0
LINE
  5
16C
330
120
100
AcDbEntity
  8
AM_9
100
AcDbLine
 10
-23.0
 20
1.457745
 30
0.0
 11
-25.0
 21
1.457745
 31
0.0
  0
LINE
  5
16D
330
120
100
AcDbEntity
  8
AM_9
100
AcDbLine
 10
-23.0
 20
-1.65211
 30
0.0
 11
-25.0
 21
-1.65211
 31
0.0
  0
LINE
  5
16E
330
120
100
AcDbEntity
  8
AM_9
100
AcDbLine
 10
-23.0
 20
4.178865
 30
0.0
 11
-25.0
 21
4.178865
 31
0.0
  0
LINE
  5
16F
330
120
100
AcDbEntity
  8
AM_9
100
AcDbLine
 10
-23.0
 20
-2.31295
 30
0.0
 11
-25.0
 21
-2.31295
 31
0.0
  0
LINE
  5
170
330
120
100
AcDbEntity
  8
AM_9
100
AcDbLine
 10
-23.0
 20
-0.524785
 30
0.0
 11
-25.0
 21
-0.524785
 31
0.0
  0
LINE
  5
171
330
120
100
AcDbEntity
  8
AM_9
100
AcDbLine
 10
-23.0
 20
-0.758025
 30
0.0
 11
-25.0
 21
-0.758025
 31
0.0
  0
LINE
  5
172
330
120
100
AcDbEntity
  8
AM_9
100
AcDbLine
 10
-23.0
 20
1.263375
 30
0.0
 11
-25.0
 21
1.263375
 31
0.0
  0
LINE
  5
173
330
120
100
AcDbEntity
  8
AM_9
100
AcDbLine
 10
-23.0
 20
3.12929
 30
0.0
 11
-25.0
 21
3.12929
 31
0.0
  0
LINE
  5
174
330
120
100
AcDbEntity
  8
AM_9
100
AcDbLine
 10
-23.0
 20
-1.457745
 30
0.0
 11
-25.0
 21
-1.457745
 31
0.0
  0
LINE
  5
175
330
120
100
AcDbEntity
  8
AM_9
100
AcDbLine
 10
-23.0
 20
2.27408
 30
0.0
 11
-25.0
 21
2.27408
 31
0.0
  0
LINE
  5
176
330
120
100
AcDbEntity
  8
AM_9
100
AcDbLine
 10
-23.0
 20
-2.50732
 30
0.0
 11
-25.0
 21
-2.50732
 31
0.0
  0
LINE
  5
177
330
120
100
AcDbEntity
  8
AM_9
100
AcDbLine
 10
-23.0
 20
0.4470410000000002
 30
0.0
 11
-25.0
 21
0.4470410000000002
 31
0.0
  0
LINE
  5
178
330
120
100
AcDbEntity
  8
AM_9
100
AcDbLine
 10
-23.0
 20
-0.4081679999999999
 30
0.0
 11
-25.0
 21
-0.4081679999999999
 31
0.0
  0
LINE
  5
179
330
120
100
AcDbEntity
  8
AM_9
100
AcDbLine
 10
-23.0
 20
-1.613235
 30
0.0
 11
-25.0
 21
-1.613235
 31
0.0
  0
LINE
  5
17A
330
120
100
AcDbEntity
  8
AM_9
100
AcDbLine
 10
-23.0
 20
-2.351825
 30
0.0
 11
-25.0
 21
-2.351825
 31
0.0
  0
LINE
  5
17B
330
120
100
AcDbEntity
  8
AM_9
100
AcDbLine
 10
-23.0
 20
2.118585
 30
0.0
 11
-25.0
 21
2.118585
 31
0.0
  0
LINE
  5
17C
330
120
100
AcDbEntity
  8
AM_9
100
AcDbLine
 10
-23.0
 20
3.28478
 30
0.0
 11
-25.0
 21
3.28478
 31
0.0
  0
LINE
  5
17D
330
120
100
AcDbEntity
  8
AM_9
100
AcDbLine
 10
-23.0
 20
1.41887
 30
0.0
 11
-25.0
 21
1.41887
 31
0.0
  0
LINE
  5
17E
330
120
100
AcDbEntity
  8
AM_9
100
AcDbLine
 10
-23.0
 20
-4.4121
 30
0.0
 11
-25.0
 21
-4.412099999999999
 31
0.0
  0
LINE
  5
17F
330
120
100
AcDbEntity
  8
AM_9
100
AcDbLine
 10
-23.0
 20
3.479145
 30
0.0
 11
-25.0
 21
3.479144999999999
 31
0.0
  0
LINE
  5
180
330
120
100
AcDbEntity
  8
AM_9
100
AcDbLine
 10
-23.0
 20
2.857175
 30
0.0
 11
-23.0
 21
4.4121
 31
0.0
  0
LINE
  5
181
330
120
100
AcDbEntity
  8
AM_9
100
AcDbLine
 10
-23.0
 20
4.4121
 30
0.0
 11
-25.0
 21
4.4121
 31
0.0
  0
LINE
  5
182
330
120
100
AcDbEntity
  8
AM_9
100
AcDbLine
 10
-23.0
 20
-4.4121
 30
0.0
 11
-23.0
 21
-3.01267
 31
0.0
  0
LINE
  5
183
330
120
100
AcDbEntity
  8
AM_9
100
AcDbLine
 10
-23.0
 20
-3.01267
 30
0.0
 11
-25.0
 21
-3.01267
 31
0.0
  0
LINE
  5
184
330
120
100
AcDbEntity
  8
AM_9
100
AcDbLine
 10
-23.0
 20
-2.15746
 30
0.0
 11
-25.0
 21
-2.15746
 31
0.0
  0
LINE
  5
185
330
120
100
AcDbEntity
  8
AM_9
100
AcDbLine
 10
-23.0
 20
1.613235
 30
0.0
 11
-25.0
 21
1.613235
 31
0.0
  0
LINE
  5
186
330
120
100
AcDbEntity
  8
AM_9
100
AcDbLine
 10
-23.0
 20
1.92422
 30
0.0
 11
-25.0
 21
1.92422
 31
0.0
  0
LINE
  5
187
330
120
100
AcDbEntity
  8
AM_9
100
AcDbLine
 10
-23.0
 20
-2.701685
 30
0.0
 11
-23.0
 21
-1.18563
 31
0.0
  0
LINE
  5
188
330
120
100
AcDbEntity
  8
AM_9
100
AcDbLine
 10
-23.0
 20
0.9912650000000001
 30
0.0
 11
-23.0
 21
2.54619
 31
0.0
  0
LINE
  5
189
330
120
100
AcDbEntity
  8
AM_9
100
AcDbLine
 10
-23.0
 20
-1.8076
 30
0.0
 11
-25.0
 21
-1.8076
 31
0.0
  0
LINE
  5
18A
330
120
100
AcDbEntity
  8
AM_9
100
AcDbLine
 10
-23.0
 20
-0.602535
 30
0.0
 11
-25.0
 21
-0.602535
 31
0.0
  0
LINE
  5
18B
330
120
100
AcDbEntity
  8
AM_9
100
AcDbLine
 10
-23.0
 20
-0.447041
 30
0.0
 11
-25.0
 21
-0.447041
 31
0.0
  0
LINE
  5
18C
330
120
100
AcDbEntity
  8
AM_9
100
AcDbLine
 10
-23.0
 20
-0.8746450000000001
 30
0.0
 11
-23.0
 21
0.6802800000000001
 31
0.0
  0
LINE
  5
18D
330
120
100
AcDbEntity
  8
AM_9
100
AcDbLine
 10
-23.0
 20
0.6802800000000001
 30
0.0
 11
-25.0
 21
0.6802799999999984
 31
0.0
  0
LINE
  5
18E
330
120
100
AcDbEntity
  8
AM_9
100
AcDbLine
 10
-23.0
 20
-0.2526754999999999
 30
0.0
 11
-25.0
 21
-0.2526754999999999
 31
0.0
  0
LINE
  5
18F
330
120
100
AcDbEntity
  8
AM_9
100
AcDbLine
 10
-13.35698056068953
 20
37.22014692753115
 30
0.0
 11
-19.97638329426343
 21
37.22014692753115
 31
0.0
  0
LWPOLYLINE
  5
190
330
120
100
AcDbEntity
  8
AM_9
100
AcDbPolyline
 90
        8
 70
     0
 43
0.0
 10
-25.0
 20
24.41064435756788
 10
-24.96267549928428
 20
24.61321456748861
 10
-24.90005184374626
 20
24.73668218663002
 10
-24.80525495935839
 20
24.85410322491117
 10
-24.69025699629587
 20
24.95165667939537
 10
-24.54816225781675
 20
25.03585471785842
 10
-24.23494055497708
 20
25.13704164117446
 10
-24.17364817766694
 20
25.1465862186288
  0
ARC
  5
191
330
120
100
AcDbEntity
  8
AM_9
100
AcDbCircle
 10
-23.99999999999999
 20
27.10681310996689
 30
0.0
 40
1.00000000000001
100
AcDbArc
 50
100.0000000000007
 51
180.0
  0
LWPOLYLINE
  5
192
330
120
100
AcDbEntity
  8
AM_9
100
AcDbPolyline
 90
        3
 70
     0
 43
0.0
 10
-18.97606774342517
 20
36.44947668103705
 10
-19.55082209033985
 20
35.65952530141816
 10
-20.13076828180442
 20
34.91801948466053
  0
LWPOLYLINE
  5
193
330
120
100
AcDbEntity
  8
AM_9
100
AcDbPolyline
 90
        3
 70
     0
 43
0.0
 10
-16.66666666666666
 20
36.33223304703364
 10
-17.82136720504592
 20
36.36317934706673
 10
-18.97606774342517
 20
36.44947668103705
  0
LWPOLYLINE
  5
194
330
120
100
AcDbEntity
  8
AM_9
100
AcDbPolyline
 90
        3
 70
     0
 43
0.0
 10
-13.2025650515289
 20
34.91801948466054
 10
-13.77991532071853
 20
35.65607256588018
 10
-14.35726558990816
 20
36.44947668103705
  0
LWPOLYLINE
  5
195
330
120
100
AcDbEntity
  8
AM_9
100
AcDbPolyline
 90
        3
 70
     0
 43
0.0
 10
-14.35726558990816
 20
36.44947668103705
 10
-15.50677428373753
 20
36.36345274011195
 10
-16.66666666666666
 20
36.33223304703364
  0
LINE
  5
196
330
120
100
AcDbEntity
  8
AM_9
100
AcDbLine
 10
-14.35726558990816
 20
36.44947668103705
 30
0.0
 11
-14.35726558990816
 21
38.33630975658986
 31
0.0
  0
LINE
  5
197
330
120
100
AcDbEntity
  8
AM_9
100
AcDbLine
 10
-18.97606774342517
 20
36.44947668103705
 30
0.0
 11
-18.97606774342517
 21
38.33630975658986
 31
0.0
  0
LINE
  5
198
330
120
100
AcDbEntity
  8
AM_9
100
AcDbLine
 10
-24.17364817766694
 20
16.07172424321307
 30
0.0
 11
-24.17364817766694
 21
28.09162086297911
 31
0.0
  0
LINE
  5
199
330
120
100
AcDbEntity
  8
AM_9
100
AcDbLine
 10
-13.52635182233307
 20
26.5418003925654
 30
0.0
 11
-24.17364817766694
 21
25.1465862186288
 31
0.0
  0
LINE
  5
19A
330
120
100
AcDbEntity
  8
AM_9
100
AcDbLine
 10
-13.52635182233307
 20
29.96902648202338
 30
0.0
 11
-24.17364817766694
 21
28.09162086297911
 31
0.0
  0
LINE
  5
19B
330
120
100
AcDbEntity
  8
AM_9
100
AcDbLine
 10
-13.52635182233307
 20
17.41881685808408
 30
0.0
 11
-13.52635182233307
 21
29.96902648202338
 31
0.0
  0
LWPOLYLINE
  5
19C
330
120
100
AcDbEntity
  8
AM_9
100
AcDbPolyline
 90
        4
 70
     0
 43
0.0
 10
-13.05552914332141
 20
26.70483659585167
 10
-13.14592973900683
 20
26.65461450765588
 10
-13.45801961718476
 20
26.552560499709
 10
-13.52635182233307
 20
26.5418003925654
  0
LWPOLYLINE
  5
19D
330
120
100
AcDbEntity
  8
AM_9
100
AcDbPolyline
 90
        5
 70
     0
 43
0.0
 10
-12.7
 20
27.65084855446975
 10
-12.7247587726369
 20
27.37864050744697
 10
-12.79194580542581
 20
27.13433471344231
 10
-12.90681421267113
 20
26.89853067290419
 10
-13.05552914332141
 20
26.70483659585167
  0
LINE
  5
19E
330
120
100
AcDbEntity
  8
AM_9
100
AcDbLine
 10
-13.10514663774612
 20
26.65595406817247
 30
0.0
 11
-13.01988555882058
 21
26.74411269620995
 31
0.0
  0
LINE
  5
19F
330
120
100
AcDbEntity
  8
AM_9
100
AcDbLine
 10
-13.10514663774614
 20
17.54853908717004
 30
0.0
 11
-13.10514663774612
 21
26.65595406817247
 31
0.0
  0
ARC
  5
1A0
330
120
100
AcDbEntity
  8
AM_9
100
AcDbCircle
 10
-13.70000000000001
 20
30.95383423503559
 30
0.0
 40
1.000000000000009
100
AcDbArc
 50
280.0000000000004
 51
0.0
  0
LINE
  5
1A1
330
120
100
AcDbEntity
  8
AM_9
100
AcDbLine
 10
-14.35726558990816
 20
38.33630975658986
 30
0.0
 11
-13.99082790660512
 21
37.94802072595439
 31
0.0
  0
LWPOLYLINE
  5
1A2
330
120
100
AcDbEntity
  8
AM_9
100
AcDbPolyline
 90
        3
 70
     0
 43
0.0
 10
-16.66666666666666
 20
38.45355339059329
 10
-15.51196612828741
 20
38.42260709056018
 10
-14.35726558990816
 20
38.33630975658986
  0
LINE
  5
1A3
330
120
100
AcDbEntity
  8
AM_9
100
AcDbLine
 10
-19.34234129500654
 20
37.9481989375362
 30
0.0
 11
-18.97606774342517
 21
38.33630975658986
 31
0.0
  0
LWPOLYLINE
  5
1A4
330
120
100
AcDbEntity
  8
AM_9
100
AcDbPolyline
 90
        3
 70
     0
 43
0.0
 10
-18.97606774342517
 20
38.33630975658986
 10
-17.82655904959579
 20
38.42233369751496
 10
-16.66666666666666
 20
38.45355339059329
  0
LWPOLYLINE
  5
1A5
330
120
100
AcDbEntity
  8
AM_9
100
AcDbPolyline
 90
        3
 70
     0
 43
0.0
 10
-12.04786451314965
 20
33.62104955629086
 10
-12.62261886006434
 20
34.23895305405955
 10
-13.2025650515289
 20
34.91801948466054
  0
LWPOLYLINE
  5
1A6
330
120
100
AcDbEntity
  8
AM_9
100
AcDbPolyline
 90
        3
 70
     0
 43
0.0
 10
-20.13076828180442
 20
34.91801948466053
 10
-20.70811855099404
 20
34.24185900350708
 10
-21.28546882018367
 20
33.62104955629086
  0
LINE
  5
1A7
330
120
100
AcDbEntity
  8
AM_9
100
AcDbLine
 10
-19.46666666666666
 20
33.50380592228744
 30
0.0
 11
-19.46666666666666
 21
33.15025253169416
 31
0.0
  0
LINE
  5
1A8
330
120
100
AcDbEntity
  8
AM_9
100
AcDbLine
 10
-13.86666666666666
 20
33.15025253169416
 30
0.0
 11
-13.86666666666666
 21
33.50380592228744
 31
0.0
  0
LINE
  5
1A9
330
120
100
AcDbEntity
  8
AM_9
100
AcDbLine
 10
-20.44751053732058
 20
36.63436048990424
 30
0.0
 11
-12.88576543922112
 21
36.63436048990424
 31
0.0
  0
ELLIPSE
  5
1AA
330
120
100
AcDbEntity
  8
AM_9
100
AcDbEllipse
 10
-16.66666666666666
 20
35.62512626584708
 30
0.0
 11
-2.799999999999994
 21
3.429011037612581E-16
 31
0.0
210
0.0
220
0.0
230
1.0
 40
0.7071067811865477
 41
3.141592653589793
 42
6.283185307179586
  0
ELLIPSE
  5
1AB
330
120
100
AcDbEntity
  8
AM_9
100
AcDbEllipse
 10
-16.66666666666666
 20
35.97867965644034
 30
0.0
 11
-2.800000000000001
 21
3.429011037612590E-16
 31
0.0
210
0.0
220
0.0
230
1.0
 40
0.7071067811865459
 41
3.753170704963487
 42
5.67129917330293
  0
ELLIPSE
  5
1AC
330
120
100
AcDbEntity
  8
AM_9
100
AcDbEllipse
 10
-16.6666666666666
 20
35.62512626584714
 30
0.0
 11
-3.999999999999883
 21
4.898587196589269E-16
 31
0.0
210
0.0
220
0.0
230
1.0
 40
0.707106781186558
 41
3.993623201657524
 42
5.432680275987519
  0
LWPOLYLINE
  5
1AD
330
120
100
AcDbEntity
  8
AM_9
100
AcDbPolyline
 90
       51
 70
     0
 43
0.0
 10
-18.07703492175003
 20
36.46779478641893
 10
-18.21311316721512
 20
36.54393778179569
 10
-18.34248546503029
 20
36.63068313896549
 10
-18.44791891034657
 20
36.71608641593971
 10
-18.52968076875536
 20
36.79652963965058
 10
-18.58917182460763
 20
36.86866103205985
 10
-18.62882325513682
 20
36.92960305653015
 10
-18.65203788360741
 20
36.97731781259736
 10
-18.66305833143065
 20
37.01127328019102
 10
-18.66653350402189
 20
37.03424526846644
 10
-18.66440731780888
 20
37.06114064072722
 10
-18.65556364031104
 20
37.09214187415248
 10
-18.63524765196743
 20
37.13731400828965
 10
-18.60001575596898
 20
37.19481096649524
 10
-18.54716494017247
 20
37.26252185843509
 10
-18.46744674551208
 20
37.34477552288998
 10
-18.36478464663976
 20
37.43123532054318
 10
-18.23894803550134
 20
37.51868372985628
 10
-18.09036079115492
 20
37.60399487777668
 10
-17.9202704030575
 20
37.68410509010643
 10
-17.73073153657745
 20
37.75614846625339
 10
-17.52416377886043
 20
37.81768675152784
 10
-17.30351237954548
 20
37.86663796353007
 10
-17.07215359971003
 20
37.9013411082931
 10
-16.83379234135132
 20
37.92060497402836
 10
-16.59235766820784
 20
37.92374286733877
 10
-16.35189829762069
 20
37.91059606761384
 10
-16.1166007544376
 20
37.88156778494452
 10
-15.89043850565722
 20
37.83761797004325
 10
-15.67712473268335
 20
37.78024008808652
 10
-15.48002738138944
 20
37.71144031684106
 10
-15.30204720558951
 20
37.63369996064232
 10
-15.14549199560116
 20
37.54991606732433
 10
-15.01195337336847
 20
37.46331487796669
 10
-14.9022758750158
 20
37.37740349494541
 10
-14.81640885860896
 20
37.2958324033246
 10
-14.75313557547004
 20
37.2220077324083
 10
-14.71020388545713
 20
37.15891317181261
 10
-14.68437573219692
 20
37.10876983350285
 10
-14.67154060812187
 20
37.07245274029627
 10
-14.66704982168836
 20
37.04802789155872
 10
-14.66775023235115
 20
37.02453037272617
 10
-14.67544991358363
 20
36.99320383637366
 10
-14.69341048471547
 20
36.95047523808189
 10
-14.72572937030345
 20
36.89506184164676
 10
-14.77523752467079
 20
36.82901483623677
 10
-14.85129485468255
 20
36.74773081656376
 10
-14.95018054212543
 20
36.66172955813848
 10
-15.0722374465982
 20
36.5742281991206
 10
-15.21716612073711
 20
36.48835641625676
 10
-15.33967029061627
 20
36.42714224324433
  0
ELLIPSE
  5
1AE
330
120
100
AcDbEntity
  8
AM_9
100
AcDbEllipse
 10
-16.66666666666666
 20
37.95565313070952
 30
0.0
 11
-2.547965880309786
 21
3.120358259658047E-16
 31
0.0
210
0.0
220
0.0
230
1.0
 40
0.7071067811868093
 41
1.353332568089238
 42
1.716455530494872
  0
ELLIPSE
  5
1AF
330
120
100
AcDbEntity
  8
AM_9
100
AcDbEllipse
 10
-16.66666666666666
 20
37.9556531307088
 30
0.0
 11
-2.547965880309707
 21
3.120358259657951E-16
 31
0.0
210
0.0
220
0.0
230
1.0
 40
0.7071067811865492
 41
1.959072269368834
 42
7.395600770153365
  0
LINE
  5
1B0
330
120
100
AcDbEntity
  8
AM_9
100
AcDbLine
 10
-14.23607375881566
 20
39.11152226173891
 30
0.0
 11
-14.24569665398064
 21
39.12657987765554
 31
0.0
  0
ELLIPSE
  5
1B1
330
120
100
AcDbEntity
  8
AM_9
100
AcDbEllipse
 10
-16.66666666655797
 20
38.34061029237817
 30
0.0
 11
-2.663890264409268
 21
3.262324685588607E-16
 31
0.0
210
0.0
220
0.0
230
1.0
 40
0.707106781186547
 41
3.553109499656873
 42
5.871668461145144
  0
ELLIPSE
  5
1B2
330
120
100
AcDbEntity
  8
AM_9
100
AcDbEllipse
 10
-16.66666666666669
 20
33.50380592228739
 30
0.0
 11
-3.999999999999954
 21
4.898587196589357E-16
 31
0.0
210
0.0
220
0.0
230
1.0
 40
0.7071067811865418
 41
0.0
 42
6.283185307179586
  0
ELLIPSE
  5
1B3
330
120
100
AcDbEntity
  8
AM_9
100
AcDbEllipse
 10
-16.66666666666666
 20
33.50380592228742
 30
0.0
 11
-2.799999999999994
 21
3.429011037612581E-16
 31
0.0
210
0.0
220
0.0
230
1.0
 40
0.7071067811865452
 41
0.0
 42
6.283185307179586
  0
ELLIPSE
  5
1B4
330
120
100
AcDbEntity
  8
AM_9
100
AcDbEllipse
 10
-16.66666666666666
 20
33.15025253169416
 30
0.0
 11
2.800000000000002
 21
0.0
 31
0.0
210
0.0
220
0.0
230
1.0
 40
0.707106781186548
 41
0.0
 42
6.283185307179586
  0
LINE
  5
1B5
330
120
100
AcDbEntity
  8
AM_7
100
AcDbLine
 10
-42.76500000000001
 20
0.0
 30
0.0
 11
1.25
 21
0.0
 31
0.0
  0
LINE
  5
1B6
330
120
100
AcDbEntity
  8
AM_7
100
AcDbLine
 10
1.25
 20
44.85
 30
0.0
 11
-26.25
 21
44.85
 31
0.0
  0
LINE
  5
1B7
330
120
100
AcDbEntity
  8
AM_7
100
AcDbLine
 10
1.25
 20
-44.85
 30
0.0
 11
-26.25
 21
-44.85
 31
0.0
  0
LINE
  5
1B8
330
120
100
AcDbEntity
  8
AM_4
100
AcDbLine
 10
0.0
 20
55.95000000000002
 30
0.0
 11
-12.7
 21
55.95000000000002
 31
0.0
  0
LINE
  5
1B9
330
120
100
AcDbEntity
  8
AM_4
100
AcDbLine
 10
-12.7
 20
55.95000000000002
 30
0.0
 11
-12.7
 21
37.22014692753115
 31
0.0
  0
LINE
  5
1BA
330
120
100
AcDbEntity
  8
AM_4
100
AcDbLine
 10
-12.7
 20
-27.65084855446976
 30
0.0
 11
-12.7
 21
-55.95
 31
0.0
  0
LINE
  5
1BB
330
120
100
AcDbEntity
  8
AM_4
100
AcDbLine
 10
-12.7
 20
-55.95
 30
0.0
 11
0.0
 21
-55.95
 31
0.0
  0
LINE
  5
1BC
330
120
100
AcDbEntity
  8
AM_4
100
AcDbLine
 10
-10.88571428571428
 20
-49.56471571906356
 30
0.0
 11
-12.7
 21
-49.56471571906357
 31
0.0
  0
LINE
  5
1BD
330
120
100
AcDbEntity
  8
AM_4
100
AcDbLine
 10
-10.88571428571428
 20
49.56471571906356
 30
0.0
 11
-12.7
 21
49.56471571906356
 31
0.0
  0
LINE
  5
1BE
330
120
100
AcDbEntity
  8
AM_4
100
AcDbLine
 10
-3.174999999999999
 20
25.47023636645673
 30
0.0
 11
0.0000000000000006
 21
25.47023636645673
 31
0.0
  0
LINE
  5
1BF
330
120
100
AcDbEntity
  8
AM_4
100
AcDbLine
 10
0.0000000000000006
 20
25.47023636645673
 30
0.0
 11
0.0
 21
55.95000000000002
 31
0.0
  0
LINE
  5
1C0
330
120
100
AcDbEntity
  8
AM_4
100
AcDbLine
 10
0.0
 20
-55.95
 30
0.0
 11
0.0000000000000006
 21
-25.47023636645673
 31
0.0
  0
LINE
  5
1C1
330
120
100
AcDbEntity
  8
AM_4
100
AcDbLine
 10
0.0000000000000006
 20
-25.47023636645673
 30
0.0
 11
-3.174999999999999
 21
-25.47023636645673
 31
0.0
  0
LINE
  5
1C2
330
120
100
AcDbEntity
  8
AM_4
100
AcDbLine
 10
-10.88571428571428
 20
49.56471571906356
 30
0.0
 11
-10.88571428571428
 21
37.22014692753115
 31
0.0
  0
LINE
  5
1C3
330
120
100
AcDbEntity
  8
AM_4
100
AcDbLine
 10
0.000000000000001
 20
35.21391605870334
 30
0.0
 11
-3.174999999999999
 21
35.21391605870335
 31
0.0
  0
LINE
  5
1C4
330
120
100
AcDbEntity
  8
AM_4
100
AcDbLine
 10
0.0000000000000006
 20
49.56471571906355
 30
0.0
 11
-10.88571428571428
 21
49.56471571906356
 31
0.0
  0
LINE
  5
1C5
330
120
100
AcDbEntity
  8
AM_4
100
AcDbLine
 10
-3.174999999999999
 20
-35.21391605870334
 30
0.0
 11
-3.174999999999999
 21
37.22014692753115
 31
0.0
  0
LINE
  5
1C6
330
120
100
AcDbEntity
  8
AM_4
100
AcDbLine
 10
-25.0
 20
-27.10681310996689
 30
0.0
 11
-25.0
 21
37.22014692753115
 31
0.0
  0
LINE
  5
1C7
330
120
100
AcDbEntity
  8
AM_4
100
AcDbLine
 10
-19.97638329426343
 20
37.22014692753115
 30
0.0
 11
-25.0
 21
37.22014692753115
 31
0.0
  0
LINE
  5
1C8
330
120
100
AcDbEntity
  8
AM_4
100
AcDbLine
 10
-3.174999999999999
 20
37.22014692753115
 30
0.0
 11
-13.35698056068953
 21
37.22014692753115
 31
0.0
  0
LINE
  5
1C9
330
120
100
AcDbEntity
  8
AM_4
100
AcDbLine
 10
-10.88571428571428
 20
-12.8061872909699
 30
0.0
 11
-10.88571428571428
 21
-49.56471571906356
 31
0.0
  0
LINE
  5
1CA
330
120
100
AcDbEntity
  8
AM_4
100
AcDbLine
 10
-3.174999999999999
 20
-35.21391605870334
 30
0.0
 11
0.000000000000001
 21
-35.21391605870334
 31
0.0
  0
LINE
  5
1CB
330
120
100
AcDbEntity
  8
AM_4
100
AcDbLine
 10
0.0000000000000006
 20
-49.56471571906356
 30
0.0
 11
-10.88571428571428
 21
-49.56471571906356
 31
0.0
  0
LINE
  5
1CC
330
120
100
AcDbEntity
  8
AM_4
100
AcDbLine
 10
-10.88571428571428
 20
17.92520082064716
 30
0.0
 11
-10.88571428571428
 21
12.80618729096988
 31
0.0
  0
ARC
  5
1CD
330
120
100
AcDbEntity
  8
AM_4
100
AcDbCircle
 10
-23.99999999999999
 20
-27.10681310996689
 30
0.0
 40
1.000000000000011
100
AcDbArc
 50
180.0
 51
259.9999999999994
  0
LINE
  5
1CE
330
120
100
AcDbEntity
  8
AM_4
100
AcDbLine
 10
-24.17364817766694
 20
-28.09162086297911
 30
0.0
 11
-13.52635182233307
 21
-29.96902648202338
 31
0.0
  0
LINE
  5
1CF
330
120
100
AcDbEntity
  8
AM_4
100
AcDbLine
 10
-24.17364817766694
 20
-28.09162086297911
 30
0.0
 11
-24.17364817766694
 21
16.07172424321307
 31
0.0
  0
LWPOLYLINE
  5
1D0
330
120
100
AcDbEntity
  8
AM_4
100
AcDbPolyline
 90
        5
 70
     0
 43
0.0
 10
-13.1051466377312
 20
-26.65595406817247
 10
-12.96967311130554
 20
-26.80637019411118
 10
-12.85901799210805
 20
-26.98286315787951
 10
-12.7270618005412
 20
-27.36640183327895
 10
-12.7
 20
-27.65084855446976
  0
ARC
  5
1D1
330
120
100
AcDbEntity
  8
AM_4
100
AcDbCircle
 10
-13.70000000000001
 20
-30.95383423503559
 30
0.0
 40
1.000000000000009
100
AcDbArc
 50
0.0
 51
79.99999999999957
  0
LINE
  5
1D2
330
120
100
AcDbEntity
  8
AM_4
100
AcDbLine
 10
-13.52635182233307
 20
-29.96902648202338
 30
0.0
 11
-13.52635182233307
 21
17.41881685808408
 31
0.0
  0
LINE
  5
1D3
330
120
100
AcDbEntity
  8
AM_4
100
AcDbLine
 10
-3.174999999999998
 20
12.80618729096988
 30
0.0
 11
-10.88571428571428
 21
12.80618729096988
 31
0.0
  0
LINE
  5
1D4
330
120
100
AcDbEntity
  8
AM_4
100
AcDbLine
 10
-13.10514663774611
 20
17.54853908717004
 30
0.0
 11
-13.1051466377312
 21
-26.65595406817247
 31
0.0
  0
LINE
  5
1D5
330
120
100
AcDbEntity
  8
AM_4
100
AcDbLine
 10
-10.88571428571428
 20
-26.65595406817247
 30
0.0
 11
-13.1051466377312
 21
-26.65595406817247
 31
0.0
  0
LINE
  5
1D6
330
120
100
AcDbEntity
  8
AM_4
100
AcDbLine
 10
-3.174999999999998
 20
-12.8061872909699
 30
0.0
 11
-10.88571428571428
 21
-12.8061872909699
 31
0.0
  0
LWPOLYLINE
  5
1D7
330
120
100
AcDbEntity
  8
AM_4
100
AcDbPolyline
 90
        3
 70
     0
 43
0.0
 10
-13.99082790660512
 20
37.94802072595439
 10
-13.78251124299349
 20
37.71840625882119
 10
-13.20256505152894
 20
37.03933982822024
  0
LWPOLYLINE
  5
1D8
330
120
100
AcDbEntity
  8
AM_4
100
AcDbPolyline
 90
        3
 70
     0
 43
0.0
 10
-20.13076828180439
 20
37.03933982822021
 10
-19.55341801261477
 20
37.71550030937365
 10
-19.34234129500654
 20
37.9481989375362
  0
LINE
  5
1D9
330
120
100
AcDbEntity
  8
AM_4
100
AcDbLine
 10
-3.174999999999999
 20
17.92520082064716
 30
0.0
 11
-10.88571428571428
 21
17.92520082064716
 31
0.0
  0
LWPOLYLINE
  5
1DA
330
120
100
AcDbEntity
  8
AM_4
100
AcDbPolyline
 90
        6
 70
     0
 43
0.0
 10
-24.17364817766694
 20
16.07172424321307
 10
-24.48712297746332
 20
15.99165366312466
 10
-24.74572915280809
 20
15.84288061952761
 10
-24.92300136223121
 20
15.64062200513906
 10
-24.99837941019405
 20
15.40490662282192
 10
-25.0
 20
15.36398611585676
  0
LINE
  5
1DB
330
120
100
AcDbEntity
  8
AM_4
100
AcDbLine
 10
-24.17364817766694
 20
16.07172424321307
 30
0.0
 11
-13.52635182233307
 21
17.41881685808408
 31
0.0
  0
LWPOLYLINE
  5
1DC
330
120
100
AcDbEntity
  8
AM_4
100
AcDbPolyline
 90
        3
 70
     0
 43
0.0
 10
-13.52635182233307
 20
17.41881685808408
 10
-13.21246329554371
 20
17.49888998843944
 10
-13.10514663774611
 20
17.54853908717004
  0
LINE
  5
1DD
330
120
100
AcDbEntity
  8
AM_4
100
AcDbLine
 10
-10.88571428571428
 20
17.54853908717004
 30
0.0
 11
-13.10514663774611
 21
17.54853908717004
 31
0.0
  0
LINE
  5
1DE
330
120
100
AcDbEntity
  8
AM_4
100
AcDbLine
 10
-12.88576543922112
 20
36.63436048990424
 30
0.0
 11
-3.174999999999999
 21
36.63436048990424
 31
0.0
  0
LINE
  5
1DF
330
120
100
AcDbEntity
  8
AM_4
100
AcDbLine
 10
-25.0
 20
36.63436048990424
 30
0.0
 11
-20.44751053732058
 21
36.63436048990424
 31
0.0
  0
LWPOLYLINE
  5
1E0
330
120
100
AcDbEntity
  8
AM_4
100
AcDbPolyline
 90
        3
 70
     0
 43
0.0
 10
-13.20256505152894
 20
37.03933982822024
 10
-12.6252147823393
 20
36.30128674700056
 10
-12.04786451314965
 20
35.50788263184368
  0
LWPOLYLINE
  5
1E1
330
120
100
AcDbEntity
  8
AM_4
100
AcDbPolyline
 90
        3
 70
     0
 43
0.0
 10
-21.28546882018367
 20
35.50788263184368
 10
-20.71071447326896
 20
36.29783401146257
 10
-20.13076828180439
 20
37.03933982822021
  0
LINE
  5
1E2
330
120
100
AcDbEntity
  8
AM_4
100
AcDbLine
 10
-25.0
 20
26.8377174487379
 30
0.0
 11
-3.174999999999998
 21
26.8377174487379
 31
0.0
  0
LINE
  5
1E3
330
120
100
AcDbEntity
  8
AM_4
100
AcDbLine
 10
-25.0
 20
29.66614457348408
 30
0.0
 11
-3.174999999999998
 21
29.66614457348408
 31
0.0
  0
LINE
  5
1E4
330
120
100
AcDbEntity
  8
AM_4
100
AcDbLine
 10
-19.46666666666665
 20
35.97867965644035
 30
0.0
 11
-19.46666666666665
 21
35.62512626584708
 31
0.0
  0
LINE
  5
1E5
330
120
100
AcDbEntity
  8
AM_4
100
AcDbLine
 10
-13.86666666666667
 20
35.62512626584708
 30
0.0
 11
-13.86666666666667
 21
35.97867965644035
 31
0.0
  0
ELLIPSE
  5
1E6
330
120
100
AcDbEntity
  8
AM_4
100
AcDbEllipse
 10
-16.66666666666665
 20
35.62512626584707
 30
0.0
 11
-2.799999999999986
 21
3.429011037612573E-16
 31
0.0
210
0.0
220
0.0
230
1.0
 40
0.707106781186547
 41
0.0
 42
3.141592653589793
  0
ELLIPSE
  5
1E7
330
120
100
AcDbEntity
  8
AM_4
100
AcDbEllipse
 10
-16.66666666666677
 20
35.97867965644038
 30
0.0
 11
-2.799999999999876
 21
3.429011037612437E-16
 31
0.0
210
0.0
220
0.0
230
1.0
 40
0.7071067811865469
 41
5.671299173302923
 42
10.03635601214303
  0
LWPOLYLINE
  5
1E8
330
120
100
AcDbEntity
  8
AM_4
100
AcDbPolyline
 90
        3
 70
     0
 43
0.0
 10
-20.13076828180445
 20
34.21091270347402
 10
-20.70811855099405
 20
34.88707318462746
 10
-21.28546882018367
 20
35.50788263184368
  0
LINE
  5
1E9
330
120
100
AcDbEntity
  8
AM_4
100
AcDbLine
 10
-21.28546882018367
 20
33.62104955629086
 30
0.0
 11
-21.28546882018367
 21
35.50788263184368
 31
0.0
  0
LWPOLYLINE
  5
1EA
330
120
100
AcDbEntity
  8
AM_4
100
AcDbPolyline
 90
        3
 70
     0
 43
0.0
 10
-21.28546882018367
 20
33.62104955629086
 10
-20.71071447326898
 20
32.83109817667197
 10
-20.13076828180441
 20
32.08959235991435
  0
LWPOLYLINE
  5
1EB
330
120
100
AcDbEntity
  8
AM_4
100
AcDbPolyline
 90
        3
 70
     0
 43
0.0
 10
-20.13076828180441
 20
32.08959235991435
 10
-19.55341801261478
 20
31.41343187876089
 10
-18.97606774342517
 20
30.79262243154466
  0
LWPOLYLINE
  5
1EC
330
120
100
AcDbEntity
  8
AM_4
100
AcDbPolyline
 90
        3
 70
     0
 43
0.0
 10
-12.04786451314965
 20
35.50788263184368
 10
-12.62261886006433
 20
34.889979134075
 10
-13.20256505152888
 20
34.21091270347402
  0
LWPOLYLINE
  5
1ED
330
120
100
AcDbEntity
  8
AM_4
100
AcDbPolyline
 90
        3
 70
     0
 43
0.0
 10
-14.35726558990816
 20
30.79262243154466
 10
-13.78251124299348
 20
31.41052592931336
 10
-13.20256505152891
 20
32.08959235991435
  0
LWPOLYLINE
  5
1EE
330
120
100
AcDbEntity
  8
AM_4
100
AcDbPolyline
 90
        3
 70
     0
 43
0.0
 10
-13.20256505152891
 20
32.08959235991435
 10
-12.62521478233928
 20
32.82764544113399
 10
-12.04786451314965
 20
33.62104955629086
  0
LINE
  5
1EF
330
120
100
AcDbEntity
  8
AM_4
100
AcDbLine
 10
-12.04786451314965
 20
33.62104955629086
 30
0.0
 11
-12.04786451314965
 21
35.50788263184368
 31
0.0
  0
LINE
  5
1F0
330
120
100
AcDbEntity
  8
AM_4
100
AcDbLine
 10
-18.97606774342517
 20
30.79262243154466
 30
0.0
 11
-18.97606774342517
 21
32.67945550709749
 31
0.0
  0
LWPOLYLINE
  5
1F1
330
120
100
AcDbEntity
  8
AM_4
100
AcDbPolyline
 90
        3
 70
     0
 43
0.0
 10
-18.97606774342517
 20
30.79262243154466
 10
-17.82655904959579
 20
30.70659849061957
 10
-16.66666666666666
 20
30.67537879754126
  0
LWPOLYLINE
  5
1F2
330
120
100
AcDbEntity
  8
AM_4
100
AcDbPolyline
 90
        3
 70
     0
 43
0.0
 10
-16.66666666666666
 20
30.67537879754126
 10
-15.51196612828741
 20
30.70632509757435
 10
-14.35726558990816
 20
30.79262243154466
  0
LINE
  5
1F3
330
120
100
AcDbEntity
  8
AM_4
100
AcDbLine
 10
-14.35726558990816
 20
30.79262243154466
 30
0.0
 11
-14.35726558990816
 21
32.67945550709749
 31
0.0
  0
LWPOLYLINE
  5
1F4
330
120
100
AcDbEntity
  8
AM_4
100
AcDbPolyline
 90
        3
 70
     0
 43
0.0
 10
-13.20256505152888
 20
34.21091270347402
 10
-13.77991532071852
 20
33.47285962225437
 10
-14.35726558990816
 20
32.67945550709749
  0
LWPOLYLINE
  5
1F5
330
120
100
AcDbEntity
  8
AM_4
100
AcDbPolyline
 90
        3
 70
     0
 43
0.0
 10
-14.35726558990816
 20
32.67945550709749
 10
-15.50677428373753
 20
32.76547944802257
 10
-16.66666666666666
 20
32.79669914110089
  0
LWPOLYLINE
  5
1F6
330
120
100
AcDbEntity
  8
AM_4
100
AcDbPolyline
 90
        3
 70
     0
 43
0.0
 10
-16.66666666666666
 20
32.79669914110089
 10
-17.82136720504591
 20
32.76575284106781
 10
-18.97606774342517
 20
32.67945550709749
  0
ELLIPSE
  5
1F7
330
120
100
AcDbEntity
  8
AM_4
100
AcDbEllipse
 10
-16.66666666666668
 20
35.62512626584707
 30
0.0
 11
-3.999999999999972
 21
4.898587196589378E-16
 31
0.0
210
0.0
220
0.0
230
1.0
 40
0.7071067811865476
 41
5.432680275987479
 42
10.27680850883712
  0
LWPOLYLINE
  5
1F8
330
120
100
AcDbEntity
  8
AM_4
100
AcDbPolyline
 90
        3
 70
     0
 43
0.0
 10
-18.97606774342517
 20
32.67945550709749
 10
-19.55082209033986
 20
33.46940688671638
 10
-20.13076828180445
 20
34.21091270347402
  0
LWPOLYLINE
  5
1F9
330
120
100
AcDbEntity
  8
AM_4
100
AcDbPolyline
 90
       21
 70
     0
 43
0.0
 10
-16.66666666666666
 20
36.15391507124856
 10
-16.51133357317927
 20
36.15725911348271
 10
-16.22872937241111
 20
36.18065719105228
 10
-15.950429634441
 20
36.22630067603289
 10
-15.67940622344632
 20
36.29392390380943
 10
-15.41851990499785
 20
36.38312641777923
 10
-15.17062993419162
 20
36.49335226663725
 10
-14.93862745639244
 20
36.62384084107797
 10
-14.72552855367187
 20
36.77347837228787
 10
-14.5342678827581
 20
36.94077079463205
 10
-14.36764150810461
 20
37.12372098424522
 10
-14.22810037327255
 20
37.31980492427189
 10
-14.11751497363017
 20
37.52608066392758
 10
-14.03702078685063
 20
37.73942087933557
 10
-13.98702698687168
 20
37.95677734717206
 10
-13.96737460154733
 20
38.17537271667288
 10
-13.97755803920429
 20
38.39277579528974
 10
-14.01689096838006
 20
38.60674329595398
 10
-14.08456237478108
 20
38.81518876657191
 10
-14.17982265895015
 20
39.01645792777331
 10
-14.23607375881566
 20
39.11152226173891
  0
LWPOLYLINE
  5
1FA
330
120
100
AcDbEntity
  8
AM_4
100
AcDbPolyline
 90
       21
 70
     0
 43
0.0
 10
-19.10619199306895
 20
39.09725757783923
 10
-19.14198656354632
 20
39.03702143597772
 10
-19.24350786236753
 20
38.82826569852379
 10
-19.3147416823994
 20
38.613391596628
 10
-19.35547318325462
 20
38.39538009036166
 10
-19.36599052124056
 20
38.17690599513467
 10
-19.34686245798002
 20
37.96029651272023
 10
-19.29882975941015
 20
37.74782604313032
 10
-19.22269373355259
 20
37.5413907060064
 10
-19.11918746921414
 20
37.3426265807433
 10
-18.98905738719727
 20
37.15320570926621
 10
-18.83322846214984
 20
36.97493543262318
 10
-18.65299439077623
 20
36.80976515534016
 10
-18.45014705666208
 20
36.65969082164973
 10
-18.22698310917592
 20
36.52659920484424
 10
-17.98619464844166
 20
36.41212553865925
 10
-17.73071102240488
 20
36.31757858707129
 10
-17.46361351652698
 20
36.24394967591756
 10
-17.18794112474419
 20
36.19191425017713
 10
-16.90667213908228
 20
36.16190802241615
 10
-16.66666666666666
 20
36.15391507124856
  0
ELLIPSE
  5
1FB
330
120
100
AcDbEntity
  8
AM_4
100
AcDbEllipse
 10
-16.66666666666666
 20
38.3406102923438
 30
0.0
 11
-2.663890264528341
 21
3.262324685734428E-16
 31
0.0
210
0.0
220
0.0
230
1.0
 40
0.7071067811865478
 41
5.871668461112098
 42
9.836294806836868
  0
LINE
  5
1FC
330
120
100
AcDbEntity
  8
AM_4
100
AcDbLine
 10
-18.499696944649
 20
40.07989898732232
 30
0.0
 11
-19.10816242271806
 21
39.09407224049772
 31
0.0
  0
LINE
  5
1FD
330
120
100
AcDbEntity
  8
AM_4
100
AcDbLine
 10
-14.22517091061526
 20
39.09407224049772
 30
0.0
 11
-14.83363638868433
 21
40.07989898732232
 31
0.0
  0
ELLIPSE
  5
1FE
330
120
100
AcDbEntity
  8
AM_4
100
AcDbEllipse
 10
-16.66666666666666
 20
39.51421356237307
 30
0.0
 11
-2.000000000000014
 21
2.449293598294724E-16
 31
0.0
210
0.0
220
0.0
230
1.0
 40
0.7071067811865482
 41
0.0
 42
6.283185307179586
  0
ENDBLK
  5
123
330
120
100
AcDbEntity
  8
0
100
AcDbBlockEnd
  0
ENDSEC
  0
SECTION
  2
ENTITIES
  0
INSERT
  5
6F
330
1F
100
AcDbEntity
  8
0
100
AcDbBlockReference
  2
1_129322_2
 10
0.0
 20
0.0
 30
0.0
  0
POINT
  5
200
330
1F
100
AcDbEntity
  8
ConnectionPoints
100
AcDbPoint
 10
-15.9
 20
0.0
 30
0.0000000000000025
  0
POINT
  5
201
330
1F
100
AcDbEntity
  8
ConnectionPoints
100
AcDbPoint
 10
-3.600000000000001
 20
0.0
 30
0.0000000000000017
  0
POINT
  5
202
330
1F
100
AcDbEntity
  8
ConnectionPoints
100
AcDbPoint
 10
-3.600000000000001
 20
0.0
 30
0.0000000000000002
  0
ENDSEC
  0
SECTION
  2
OBJECTS
  0
DICTIONARY
  5
C
330
0
100
AcDbDictionary
281
     1
  3
ACAD_DETAILVIEWSTYLE
350
20A
  3
ACAD_GROUP
350
D
  3
ACAD_LAYOUT
350
1A
  3
ACAD_MATERIAL
350
43
  3
ACAD_MLEADERSTYLE
350
6B
  3
ACAD_MLINESTYLE
350
17
  3
ACAD_PLOTSETTINGS
350
19
  3
ACAD_PLOTSTYLENAME
350
E
  3
ACAD_SCALELIST
350
47
  3
ACAD_SECTIONVIEWSTYLE
350
20B
  3
ACAD_TABLESTYLE
350
69
  3
ACAD_VISUALSTYLE
350
2A
  3
ACDB_RECOMPOSE_DATA
350
207
  3
AcDbVariableDictionary
350
203
  0
SUN
  5
6D
330
29
100
AcDbSun
 90
        1
290
     0
 63
     7
421
 16777215
 40
1.0
291
     1
 91
  2455826
 92
 54000000
292
     0
 70
     2
 71
   256
280
     1
  0
DICTIONARY
  5
20A
102
{ACAD_REACTORS
330
C
102
}
330
C
100
AcDbDictionary
281
     1
  0
DICTIONARY
  5
D
102
{ACAD_REACTORS
330
C
102
}
330
C
100
AcDbDictionary
281
     1
  0
DICTIONARY
  5
1A
102
{ACAD_REACTORS
330
C
102
}
330
C
100
AcDbDictionary
281
     1
  3
Layout1
350
1E
  3
Layout2
350
26
  3
Model
350
22
  0
DICTIONARY
  5
43
102
{ACAD_REACTORS
330
C
102
}
330
C
100
AcDbDictionary
281
     1
  3
ByBlock
350
45
  3
ByLayer
350
44
  3
Global
350
46
  0
DICTIONARY
  5
6B
102
{ACAD_REACTORS
330
C
102
}
330
C
100
AcDbDictionary
281
     1
  3
Standard
350
6C
  0
DICTIONARY
  5
17
102
{ACAD_REACTORS
330
C
102
}
330
C
100
AcDbDictionary
281
     1
  3
Standard
350
18
  0
DICTIONARY
  5
19
102
{ACAD_REACTORS
330
C
102
}
330
C
100
AcDbDictionary
281
     1
  0
ACDBDICTIONARYWDFLT
  5
E
102
{ACAD_REACTORS
330
C
102
}
330
C
100
AcDbDictionary
281
     1
  3
Normal
350
F
100
AcDbDictionaryWithDefault
340
F
  0
DICTIONARY
  5
47
102
{ACAD_REACTORS
330
C
102
}
330
C
100
AcDbDictionary
281
     1
  3
A0
350
48
  3
A1
350
49
  3
A2
350
4A
  3
A3
350
4B
  3
A4
350
4C
  3
A5
350
4D
  3
A6
350
4E
  3
A7
350
4F
  3
A8
350
50
  3
A9
350
51
  3
B0
350
52
  3
B1
350
53
  3
B2
350
54
  3
B3
350
55
  3
B4
350
56
  3
B5
350
57
  3
B6
350
58
  3
B7
350
59
  3
B8
350
5A
  3
B9
350
5B
  3
C0
350
5C
  3
C1
350
5D
  3
C2
350
5E
  3
C3
350
5F
  3
C4
350
60
  3
C5
350
61
  3
C6
350
62
  3
C7
350
63
  3
C8
350
64
  3
C9
350
65
  3
D0
350
66
  3
D1
350
67
  3
D2
350
68
  0
DICTIONARY
  5
20B
102
{ACAD_REACTORS
330
C
102
}
330
C
100
AcDbDictionary
281
     1
  0
DICTIONARY
  5
69
102
{ACAD_REACTORS
330
C
102
}
330
C
100
AcDbDictionary
281
     1
  3
Standard
350
6A
  0
DICTIONARY
  5
2A
102
{ACAD_REACTORS
330
C
102
}
330
C
100
AcDbDictionary
281
     1
  3
2dWireframe
350
2F
  3
Basic
350
32
  3
Brighten
350
36
  3
ColorChange
350
3A
  3
Conceptual
350
34
  3
Dim
350
35
  3
EdgeColorOff
350
3D
  3
Facepattern
350
39
  3
Flat
350
2B
  3
FlatWithEdges
350
2C
  3
Gouraud
350
2D
  3
GouraudWithEdges
350
2E
  3
Hidden
350
31
  3
JitterOff
350
3B
  3
Linepattern
350
38
  3
OverhangOff
350
3C
  3
Realistic
350
33
  3
Shaded
350
42
  3
Shaded with edges
350
41
  3
Shades of Gray
350
3E
  3
Sketchy
350
3F
  3
Thicken
350
37
  3
Wireframe
350
30
  3
X-Ray
350
40
  0
XRECORD
  5
207
102
{ACAD_REACTORS
330
C
102
}
330
C
100
AcDbXrecord
280
     1
 90
        1
330
6A
  0
DICTIONARY
  5
203
102
{ACAD_REACTORS
330
C
102
}
330
C
100
AcDbDictionary
281
     1
  3
CANNOSCALE
350
204
  3
CMLEADERSTYLE
350
209
  3
CTABLESTYLE
350
208
  0
LAYOUT
  5
1E
102
{ACAD_REACTORS
330
1A
102
}
330
1A
100
AcDbPlotSettings
  1

  2
none_device
  4

  6

 40
0.0
 41
0.0
 42
0.0
 43
0.0
 44
0.0
 45
0.0
 46
0.0
 47
0.0
 48
0.0
 49
0.0
140
0.0
141
0.0
142
1.0
143
1.0
 70
   688
 72
     1
 73
     0
 74
     5
  7

 75
    16
 76
     0
 77
     2
 78
   300
147
1.0
148
0.0
149
0.0
100
AcDbLayout
  1
Layout1
 70
     1
 71
     1
 10
0.0
 20
0.0
 11
420.0
 21
297.0
 12
0.0
 22
0.0
 32
0.0
 14
1.000000000000000E+20
 24
1.000000000000000E+20
 34
1.000000000000000E+20
 15
-1.000000000000000E+20
 25
-1.000000000000000E+20
 35
-1.000000000000000E+20
146
0.0
 13
0.0
 23
0.0
 33
0.0
 16
1.0
 26
0.0
 36
0.0
 17
0.0
 27
1.0
 37
0.0
 76
     0
330
1B
  0
LAYOUT
  5
26
102
{ACAD_REACTORS
330
1A
102
}
330
1A
100
AcDbPlotSettings
  1

  2
none_device
  4

  6

 40
0.0
 41
0.0
 42
0.0
 43
0.0
 44
0.0
 45
0.0
 46
0.0
 47
0.0
 48
0.0
 49
0.0
140
0.0
141
0.0
142
1.0
143
1.0
 70
   688
 72
     1
 73
     0
 74
     5
  7

 75
    16
 76
     0
 77
     2
 78
   300
147
1.0
148
0.0
149
0.0
100
AcDbLayout
  1
Layout2
 70
     1
 71
     2
 10
0.0
 20
0.0
 11
0.0
 21
0.0
 12
0.0
 22
0.0
 32
0.0
 14
0.0
 24
0.0
 34
0.0
 15
0.0
 25
0.0
 35
0.0
146
0.0
 13
0.0
 23
0.0
 33
0.0
 16
1.0
 26
0.0
 36
0.0
 17
0.0
 27
1.0
 37
0.0
 76
     0
330
23
  0
LAYOUT
  5
22
102
{ACAD_REACTORS
330
1A
102
}
330
1A
100
AcDbPlotSettings
  1

  2
none_device
  4
Letter_(8.50_x_11.00_Inches)
  6

 40
6.35
 41
6.35
 42
6.35000508
 43
6.35000508
 44
215.9
 45
279.4
 46
0.0
 47
0.0
 48
0.0
 49
0.0
140
0.0
141
0.0
142
1.0
143
1.0
 70
  1712
 72
     1
 73
     0
 74
     0
  7

 75
     0
 76
     0
 77
     2
 78
   300
147
1.0
148
0.0
149
0.0
100
AcDbLayout
  1
Model
 70
     1
 71
     0
 10
0.0
 20
0.0
 11
420.0
 21
297.0
 12
0.0
 22
0.0
 32
0.0
 14
1.000000000000000E+20
 24
1.000000000000000E+20
 34
1.000000000000000E+20
 15
-1.000000000000000E+20
 25
-1.000000000000000E+20
 35
-1.000000000000000E+20
146
0.0
 13
0.0
 23
0.0
 33
0.0
 16
1.0
 26
0.0
 36
0.0
 17
0.0
 27
1.0
 37
0.0
 76
     0
330
1F
331
29
  0
MATERIAL
  5
45
102
{ACAD_REACTORS
330
43
102
}
330
43
100
AcDbMaterial
  1
ByBlock
 72
     1
 94
      127
  0
MATERIAL
  5
44
102
{ACAD_REACTORS
330
43
102
}
330
43
100
AcDbMaterial
  1
ByLayer
 72
     1
 94
      127
  0
MATERIAL
  5
46
102
{ACAD_REACTORS
330
43
102
}
330
43
100
AcDbMaterial
  1
Global
 72
     1
 94
      127
  0
MLEADERSTYLE
  5
6C
102
{ACAD_REACTORS
330
6B
102
}
330
6B
100
AcDbMLeaderStyle
179
     2
170
     2
171
     1
172
     0
 90
        2
 40
0.0
 41
0.0
173
     1
 91
-1056964608
340
14
 92
       -2
290
     1
 42
2.0
291
     1
 43
8.0
  3
Standard
341
0
 44
4.0
300

342
11
174
     1
178
     6
175
     1
176
     0
 93
-1056964608
 45
4.0
292
     0
297
     0
 46
4.0
343
0
 94
-1056964608
 47
1.0
 49
1.0
140
1.0
293
     1
141
0.0
294
     1
177
     0
142
1.0
295
     0
296
     0
143
3.75
271
     0
272
     9
273
     9
298
     0
  0
MLINESTYLE
  5
18
102
{ACAD_REACTORS
330
17
102
}
330
17
100
AcDbMlineStyle
  2
Standard
 70
     0
  3

 62
   256
 51
90.0
 52
90.0
 71
     2
 49
0.5
 62
   256
  6
BYLAYER
 49
-0.5
 62
   256
  6
BYLAYER
  0
ACDBPLACEHOLDER
  5
F
102
{ACAD_REACTORS
330
E
102
}
330
E
  0
SCALE
  5
48
102
{ACAD_REACTORS
330
47
102
}
330
47
100
AcDbScale
 70
     0
300
1:1
140
1.0
141
1.0
290
     1
  0
SCALE
  5
49
102
{ACAD_REACTORS
330
47
102
}
330
47
100
AcDbScale
 70
     0
300
1:2
140
1.0
141
2.0
290
     0
  0
SCALE
  5
4A
102
{ACAD_REACTORS
330
47
102
}
330
47
100
AcDbScale
 70
     0
300
1:4
140
1.0
141
4.0
290
     0
  0
SCALE
  5
4B
102
{ACAD_REACTORS
330
47
102
}
330
47
100
AcDbScale
 70
     0
300
1:5
140
1.0
141
5.0
290
     0
  0
SCALE
  5
4C
102
{ACAD_REACTORS
330
47
102
}
330
47
100
AcDbScale
 70
     0
300
1:8
140
1.0
141
8.0
290
     0
  0
SCALE
  5
4D
102
{ACAD_REACTORS
330
47
102
}
330
47
100
AcDbScale
 70
     0
300
1:10
140
1.0
141
10.0
290
     0
  0
SCALE
  5
4E
102
{ACAD_REACTORS
330
47
102
}
330
47
100
AcDbScale
 70
     0
300
1:16
140
1.0
141
16.0
290
     0
  0
SCALE
  5
4F
102
{ACAD_REACTORS
330
47
102
}
330
47
100
AcDbScale
 70
     0
300
1:20
140
1.0
141
20.0
290
     0
  0
SCALE
  5
50
102
{ACAD_REACTORS
330
47
102
}
330
47
100
AcDbScale
 70
     0
300
1:30
140
1.0
141
30.0
290
     0
  0
SCALE
  5
51
102
{ACAD_REACTORS
330
47
102
}
330
47
100
AcDbScale
 70
     0
300
1:40
140
1.0
141
40.0
290
     0
  0
SCALE
  5
52
102
{ACAD_REACTORS
330
47
102
}
330
47
100
AcDbScale
 70
     0
300
1:50
140
1.0
141
50.0
290
     0
  0
SCALE
  5
53
102
{ACAD_REACTORS
330
47
102
}
330
47
100
AcDbScale
 70
     0
300
1:100
140
1.0
141
100.0
290
     0
  0
SCALE
  5
54
102
{ACAD_REACTORS
330
47
102
}
330
47
100
AcDbScale
 70
     0
300
2:1
140
2.0
141
1.0
290
     0
  0
SCALE
  5
55
102
{ACAD_REACTORS
330
47
102
}
330
47
100
AcDbScale
 70
     0
300
4:1
140
4.0
141
1.0
290
     0
  0
SCALE
  5
56
102
{ACAD_REACTORS
330
47
102
}
330
47
100
AcDbScale
 70
     0
300
8:1
140
8.0
141
1.0
290
     0
  0
SCALE
  5
57
102
{ACAD_REACTORS
330
47
102
}
330
47
100
AcDbScale
 70
     0
300
10:1
140
10.0
141
1.0
290
     0
  0
SCALE
  5
58
102
{ACAD_REACTORS
330
47
102
}
330
47
100
AcDbScale
 70
     0
300
100:1
140
100.0
141
1.0
290
     0
  0
SCALE
  5
59
102
{ACAD_REACTORS
330
47
102
}
330
47
100
AcDbScale
 70
     0
300
1/128" = 1'-0"
140
0.0078125
141
12.0
290
     0
  0
SCALE
  5
5A
102
{ACAD_REACTORS
330
47
102
}
330
47
100
AcDbScale
 70
     0
300
1/64" = 1'-0"
140
0.015625
141
12.0
290
     0
  0
SCALE
  5
5B
102
{ACAD_REACTORS
330
47
102
}
330
47
100
AcDbScale
 70
     0
300
1/32" = 1'-0"
140
0.03125
141
12.0
290
     0
  0
SCALE
  5
5C
102
{ACAD_REACTORS
330
47
102
}
330
47
100
AcDbScale
 70
     0
300
1/16" = 1'-0"
140
0.0625
141
12.0
290
     0
  0
SCALE
  5
5D
102
{ACAD_REACTORS
330
47
102
}
330
47
100
AcDbScale
 70
     0
300
3/32" = 1'-0"
140
0.09375
141
12.0
290
     0
  0
SCALE
  5
5E
102
{ACAD_REACTORS
330
47
102
}
330
47
100
AcDbScale
 70
     0
300
1/8" = 1'-0"
140
0.125
141
12.0
290
     0
  0
SCALE
  5
5F
102
{ACAD_REACTORS
330
47
102
}
330
47
100
AcDbScale
 70
     0
300
3/16" = 1'-0"
140
0.1875
141
12.0
290
     0
  0
SCALE
  5
60
102
{ACAD_REACTORS
330
47
102
}
330
47
100
AcDbScale
 70
     0
300
1/4" = 1'-0"
140
0.25
141
12.0
290
     0
  0
SCALE
  5
61
102
{ACAD_REACTORS
330
47
102
}
330
47
100
AcDbScale
 70
     0
300
3/8" = 1'-0"
140
0.375
141
12.0
290
     0
  0
SCALE
  5
62
102
{ACAD_REACTORS
330
47
102
}
330
47
100
AcDbScale
 70
     0
300
1/2" = 1'-0"
140
0.5
141
12.0
290
     0
  0
SCALE
  5
63
102
{ACAD_REACTORS
330
47
102
}
330
47
100
AcDbScale
 70
     0
300
3/4" = 1'-0"
140
0.75
141
12.0
290
     0
  0
SCALE
  5
64
102
{ACAD_REACTORS
330
47
102
}
330
47
100
AcDbScale
 70
     0
300
1" = 1'-0"
140
1.0
141
12.0
290
     0
  0
SCALE
  5
65
102
{ACAD_REACTORS
330
47
102
}
330
47
100
AcDbScale
 70
     0
300
1-1/2" = 1'-0"
140
1.5
141
12.0
290
     0
  0
SCALE
  5
66
102
{ACAD_REACTORS
330
47
102
}
330
47
100
AcDbScale
 70
     0
300
3" = 1'-0"
140
3.0
141
12.0
290
     0
  0
SCALE
  5
67
102
{ACAD_REACTORS
330
47
102
}
330
47
100
AcDbScale
 70
     0
300
6" = 1'-0"
140
6.0
141
12.0
290
     0
  0
SCALE
  5
68
102
{ACAD_REACTORS
330
47
102
}
330
47
100
AcDbScale
 70
     0
300
1'-0" = 1'-0"
140
12.0
141
12.0
290
     0
  0
TABLESTYLE
  5
6A
102
{ACAD_REACTORS
330
69
102
}
102
{ACAD_XDICTIONARY
360
205
102
}
330
69
100
AcDbTableStyle
  3
Standard
 70
     0
 71
     0
 40
0.06
 41
0.06
280
     0
281
     0
  7
Standard
140
4.5
170
     2
 62
     0
 63
   257
283
     0
 90
        4
 91
        0
  1

274
    -2
284
     1
 64
     0
275
    -2
285
     1
 65
     0
276
    -2
286
     1
 66
     0
277
    -2
287
     1
 67
     0
278
    -2
288
     1
 68
     0
279
    -2
289
     1
 69
     0
  7
Standard
140
6.0
170
     5
 62
     0
 63
   257
283
     0
 90
        4
 91
        0
  1

274
    -2
284
     1
 64
     0
275
    -2
285
     1
 65
     0
276
    -2
286
     1
 66
     0
277
    -2
287
     1
 67
     0
278
    -2
288
     1
 68
     0
279
    -2
289
     1
 69
     0
  7
Standard
140
4.5
170
     5
 62
     0
 63
   257
283
     0
 90
        4
 91
        0
  1

274
    -2
284
     1
 64
     0
275
    -2
285
     1
 65
     0
276
    -2
286
     1
 66
     0
277
    -2
287
     1
 67
     0
278
    -2
288
     1
 68
     0
279
    -2
289
     1
 69
     0
  0
VISUALSTYLE
  5
2F
102
{ACAD_REACTORS
330
2A
102
}
330
2A
100
AcDbVisualStyle
  2
2dWireframe
 70
     4
177
     3
291
     0
 70
    58
 90
        0
176
     1
 90
        2
176
     1
 90
        0
176
     1
 90
        0
176
     1
 40
0.6
176
     1
 40
30.0
176
     1
 62
     7
420
 16777215
176
     1
 90
        1
176
     1
 90
        4
176
     1
 62
     7
176
     1
 62
   257
176
     1
 90
        1
176
     1
 90
        1
176
     1
 40
1.0
176
     1
 90
        0
176
     1
 62
   257
176
     1
 40
1.0
176
     1
 90
        1
176
     1
 90
        6
176
     1
 90
        2
176
     1
 62
     7
176
     1
 90
        5
176
     1
 90
        0
176
     1
 90
        0
176
     1
290
     0
176
     1
 90
        1
176
     1
 40
0.0
176
     1
 90
        0
176
     1
290
     1
176
     1
290
     1
176
     1
290
     0
176
     1
290
     0
176
     1
290
     0
176
     1
290
     0
176
     1
290
     0
176
     1
290
     0
176
     1
290
     0
176
     1
 90
       50
176
     1
 40
0.0
176
     1
 40
1.0
176
     1
 90
        0
176
     1
 62
    18
420
        0
176
     1
 90
       50
176
     1
 90
        3
176
     1
 62
     5
420
      255
176
     1
290
     0
176
     1
 90
       50
176
     1
 90
       50
176
     1
 90
       50
176
     1
290
     0
176
     1
 90
       50
176
     1
 62
   256
176
     0
 40
1.0
176
     0
 90
        2
176
     1
  1
strokes_ogs.tif
176
     1
290
     0
176
     1
 40
1.0
176
     1
 40
1.0
176
     1
  0
VISUALSTYLE
  5
32
102
{ACAD_REACTORS
330
2A
102
}
330
2A
100
AcDbVisualStyle
  2
Basic
 70
     7
177
     3
291
     1
 70
    58
 90
        1
176
     1
 90
        0
176
     1
 90
        1
176
     1
 90
        0
176
     1
 40
0.6
176
     1
 40
30.0
176
     1
 62
     7
420
 16777215
176
     1
 90
        0
176
     1
 90
        4
176
     1
 62
     7
176
     1
 62
   257
176
     1
 90
        1
176
     1
 90
        1
176
     1
 40
1.0
176
     1
 90
        8
176
     1
 62
     7
176
     1
 40
1.0
176
     1
 90
        1
176
     1
 90
        6
176
     1
 90
        2
176
     1
 62
     7
176
     1
 90
        5
176
     1
 90
        0
176
     1
 90
        0
176
     1
290
     0
176
     1
 90
        1
176
     1
 40
0.0
176
     1
 90
        0
176
     1
290
     0
176
     1
290
     1
176
     1
290
     1
176
     1
290
     0
176
     1
290
     0
176
     1
290
     0
176
     1
290
     0
176
     1
290
     0
176
     1
290
     0
176
     1
 90
       50
176
     1
 40
0.0
176
     1
 40
1.0
176
     1
 90
        0
176
     1
 62
    18
420
        0
176
     1
 90
       50
176
     1
 90
        3
176
     1
 62
     5
420
      255
176
     1
290
     0
176
     1
 90
       50
176
     1
 90
       50
176
     1
 90
       50
176
     1
290
     0
176
     1
 90
       50
176
     1
 62
   256
176
     0
 40
1.0
176
     0
 90
        2
176
     1
  1
strokes_ogs.tif
176
     1
290
     0
176
     1
 40
1.0
176
     1
 40
1.0
176
     1
  0
VISUALSTYLE
  5
36
102
{ACAD_REACTORS
330
2A
102
}
330
2A
100
AcDbVisualStyle
  2
Brighten
 70
    12
177
     3
291
     1
 70
    58
 90
        2
176
     1
 90
        2
176
     1
 90
        0
176
     1
 90
        0
176
     1
 40
0.6
176
     1
 40
30.0
176
     1
 62
     7
420
 16777215
176
     1
 90
        1
176
     1
 90
        4
176
     1
 62
     7
176
     1
 62
   257
176
     1
 90
        1
176
     1
 90
        1
176
     1
 40
1.0
176
     1
 90
        8
176
     1
 62
     7
176
     1
 40
1.0
176
     1
 90
        1
176
     1
 90
        6
176
     1
 90
        2
176
     1
 62
     7
176
     1
 90
        5
176
     1
 90
        0
176
     1
 90
        0
176
     1
290
     0
176
     1
 90
        1
176
     1
 40
50.0
176
     1
 90
        0
176
     1
290
     0
176
     1
290
     1
176
     1
290
     1
176
     1
290
     0
176
     1
290
     0
176
     1
290
     0
176
     1
290
     0
176
     1
290
     0
176
     1
290
     0
176
     1
 90
       50
176
     1
 40
0.0
176
     1
 40
1.0
176
     1
 90
        0
176
     1
 62
    18
420
        0
176
     1
 90
       50
176
     1
 90
        3
176
     1
 62
     5
420
      255
176
     1
290
     0
176
     1
 90
       50
176
     1
 90
       50
176
     1
 90
       50
176
     1
290
     0
176
     1
 90
       50
176
     1
 62
   256
176
     0
 40
1.0
176
     0
 90
        2
176
     1
  1
strokes_ogs.tif
176
     1
290
     0
176
     1
 40
1.0
176
     1
 40
1.0
176
     1
  0
VISUALSTYLE
  5
3A
102
{ACAD_REACTORS
330
2A
102
}
330
2A
100
AcDbVisualStyle
  2
ColorChange
 70
    16
177
     3
291
     1
 70
    58
 90
        2
176
     1
 90
        2
176
     1
 90
        3
176
     1
 90
        0
176
     1
 40
0.6
176
     1
 40
30.0
176
     1
 62
     8
420
  8421504
176
     1
 90
        1
176
     1
 90
        4
176
     1
 62
     7
176
     1
 62
   257
176
     1
 90
        1
176
     1
 90
        1
176
     1
 40
1.0
176
     1
 90
        8
176
     1
 62
     8
420
  8421504
176
     1
 40
1.0
176
     1
 90
        1
176
     1
 90
        6
176
     1
 90
        2
176
     1
 62
     7
176
     1
 90
        5
176
     1
 90
        0
176
     1
 90
        0
176
     1
290
     0
176
     1
 90
        1
176
     1
 40
0.0
176
     1
 90
        0
176
     1
290
     0
176
     1
290
     1
176
     1
290
     1
176
     1
290
     0
176
     1
290
     0
176
     1
290
     0
176
     1
290
     0
176
     1
290
     0
176
     1
290
     0
176
     1
 90
       50
176
     1
 40
0.0
176
     1
 40
1.0
176
     1
 90
        0
176
     1
 62
    18
420
        0
176
     1
 90
       50
176
     1
 90
        3
176
     1
 62
     5
420
      255
176
     1
290
     0
176
     1
 90
       50
176
     1
 90
       50
176
     1
 90
       50
176
     1
290
     0
176
     1
 90
       50
176
     1
 62
   256
176
     0
 40
1.0
176
     0
 90
        2
176
     1
  1
strokes_ogs.tif
176
     1
290
     0
176
     1
 40
1.0
176
     1
 40
1.0
176
     1
  0
VISUALSTYLE
  5
34
102
{ACAD_REACTORS
330
2A
102
}
330
2A
100
AcDbVisualStyle
  2
Conceptual
 70
     9
177
     3
291
     0
 70
    58
 90
        3
176
     1
 90
        2
176
     1
 90
        0
176
     1
 90
        0
176
     1
 40
0.6
176
     1
 40
30.0
176
     1
 62
     7
420
 16777215
176
     1
 90
        2
176
     1
 90
        2
176
     1
 62
     7
176
     1
 62
   257
176
     1
 90
        1
176
     1
 90
        1
176
     1
 40
179.0
176
     1
 90
        8
176
     1
 62
     7
176
     1
 40
1.0
176
     1
 90
        1
176
     1
 90
        6
176
     1
 90
        2
176
     1
 62
     7
176
     1
 90
        3
176
     1
 90
        0
176
     1
 90
        0
176
     1
290
     0
176
     1
 90
        1
176
     1
 40
0.0
176
     1
 90
        0
176
     1
290
     0
176
     1
290
     1
176
     1
290
     1
176
     1
290
     0
176
     1
290
     0
176
     1
290
     0
176
     1
290
     0
176
     1
290
     0
176
     1
290
     0
176
     1
 90
       50
176
     1
 40
0.0
176
     1
 40
1.0
176
     1
 90
        0
176
     1
 62
    18
420
        0
176
     1
 90
       50
176
     1
 90
        3
176
     1
 62
     5
420
      255
176
     1
290
     0
176
     1
 90
       50
176
     1
 90
       50
176
     1
 90
       50
176
     1
290
     0
176
     1
 90
       50
176
     1
 62
   256
176
     0
 40
1.0
176
     0
 90
        2
176
     1
  1
strokes_ogs.tif
176
     1
290
     0
176
     1
 40
1.0
176
     1
 40
1.0
176
     1
  0
VISUALSTYLE
  5
35
102
{ACAD_REACTORS
330
2A
102
}
330
2A
100
AcDbVisualStyle
  2
Dim
 70
    11
177
     3
291
     1
 70
    58
 90
        2
176
     1
 90
        2
176
     1
 90
        0
176
     1
 90
        0
176
     1
 40
0.6
176
     1
 40
30.0
176
     1
 62
     7
420
 16777215
176
     1
 90
        1
176
     1
 90
        4
176
     1
 62
     7
176
     1
 62
   257
176
     1
 90
        1
176
     1
 90
        1
176
     1
 40
1.0
176
     1
 90
        8
176
     1
 62
     7
176
     1
 40
1.0
176
     1
 90
        1
176
     1
 90
        6
176
     1
 90
        2
176
     1
 62
     7
176
     1
 90
        5
176
     1
 90
        0
176
     1
 90
        0
176
     1
290
     0
176
     1
 90
        1
176
     1
 40
-50.0
176
     1
 90
        0
176
     1
290
     0
176
     1
290
     1
176
     1
290
     1
176
     1
290
     0
176
     1
290
     0
176
     1
290
     0
176
     1
290
     0
176
     1
290
     0
176
     1
290
     0
176
     1
 90
       50
176
     1
 40
0.0
176
     1
 40
1.0
176
     1
 90
        0
176
     1
 62
    18
420
        0
176
     1
 90
       50
176
     1
 90
        3
176
     1
 62
     5
420
      255
176
     1
290
     0
176
     1
 90
       50
176
     1
 90
       50
176
     1
 90
       50
176
     1
290
     0
176
     1
 90
       50
176
     1
 62
   256
176
     0
 40
1.0
176
     0
 90
        2
176
     1
  1
strokes_ogs.tif
176
     1
290
     0
176
     1
 40
1.0
176
     1
 40
1.0
176
     1
  0
VISUALSTYLE
  5
3D
102
{ACAD_REACTORS
330
2A
102
}
330
2A
100
AcDbVisualStyle
  2
EdgeColorOff
 70
    22
177
     3
291
     1
 70
    58
 90
        2
176
     0
 90
        2
176
     0
 90
        0
176
     0
 90
        0
176
     0
 40
0.6
176
     0
 40
30.0
176
     0
 62
     7
420
 16777215
176
     0
 90
        1
176
     0
 90
        4
176
     0
 62
     7
176
     0
 62
   257
176
     0
 90
        1
176
     0
 90
        1
176
     0
 40
1.0
176
     0
 90
        8
176
     2
 62
     7
176
     0
 40
1.0
176
     0
 90
        1
176
     0
 90
        6
176
     0
 90
        2
176
     0
 62
     7
176
     0
 90
        5
176
     0
 90
        0
176
     0
 90
        0
176
     0
290
     0
176
     0
 90
        1
176
     0
 40
0.0
176
     0
 90
        0
176
     0
290
     0
176
     0
290
     1
176
     0
290
     1
176
     0
290
     0
176
     0
290
     0
176
     0
290
     0
176
     0
290
     0
176
     0
290
     0
176
     0
290
     0
176
     0
 90
       50
176
     0
 40
0.0
176
     0
 40
1.0
176
     0
 90
        0
176
     0
 62
    18
420
        0
176
     0
 90
       50
176
     0
 90
        3
176
     0
 62
     5
420
      255
176
     0
290
     0
176
     0
 90
       50
176
     0
 90
       50
176
     0
 90
       50
176
     0
290
     0
176
     0
 90
       50
176
     0
 62
   256
176
     0
 40
1.0
176
     0
 90
        2
176
     0
  1
strokes_ogs.tif
176
     0
290
     0
176
     0
 40
1.0
176
     0
 40
1.0
176
     0
  0
VISUALSTYLE
  5
39
102
{ACAD_REACTORS
330
2A
102
}
330
2A
100
AcDbVisualStyle
  2
Facepattern
 70
    15
177
     3
291
     1
 70
    58
 90
        2
176
     1
 90
        2
176
     1
 90
        0
176
     1
 90
        0
176
     1
 40
0.6
176
     1
 40
30.0
176
     1
 62
     7
420
 16777215
176
     1
 90
        1
176
     1
 90
        4
176
     1
 62
     7
176
     1
 62
   257
176
     1
 90
        1
176
     1
 90
        1
176
     1
 40
1.0
176
     1
 90
        8
176
     1
 62
     7
176
     1
 40
1.0
176
     1
 90
        1
176
     1
 90
        6
176
     1
 90
        2
176
     1
 62
     7
176
     1
 90
        5
176
     1
 90
        0
176
     1
 90
        0
176
     1
290
     0
176
     1
 90
        1
176
     1
 40
0.0
176
     1
 90
        0
176
     1
290
     0
176
     1
290
     1
176
     1
290
     1
176
     1
290
     0
176
     1
290
     0
176
     1
290
     0
176
     1
290
     0
176
     1
290
     0
176
     1
290
     0
176
     1
 90
       50
176
     1
 40
0.0
176
     1
 40
1.0
176
     1
 90
        0
176
     1
 62
    18
420
        0
176
     1
 90
       50
176
     1
 90
        3
176
     1
 62
     5
420
      255
176
     1
290
     0
176
     1
 90
       50
176
     1
 90
       50
176
     1
 90
       50
176
     1
290
     0
176
     1
 90
       50
176
     1
 62
   256
176
     0
 40
1.0
176
     0
 90
        2
176
     1
  1
strokes_ogs.tif
176
     1
290
     0
176
     1
 40
1.0
176
     1
 40
1.0
176
     1
  0
VISUALSTYLE
  5
2B
102
{ACAD_REACTORS
330
2A
102
}
330
2A
100
AcDbVisualStyle
  2
Flat
 70
     0
177
     3
291
     1
 70
    58
 90
        2
176
     1
 90
        1
176
     1
 90
        1
176
     1
 90
        2
176
     1
 40
0.6
176
     1
 40
30.0
176
     1
 62
     7
420
 16777215
176
     1
 90
        0
176
     1
 90
        0
176
     1
 62
     7
176
     1
 62
   257
176
     1
 90
        1
176
     1
 90
        1
176
     1
 40
1.0
176
     1
 90
        8
176
     1
 62
     7
176
     1
 40
1.0
176
     1
 90
        1
176
     1
 90
        6
176
     1
 90
        2
176
     1
 62
     7
176
     1
 90
        5
176
     1
 90
        0
176
     1
 90
        0
176
     1
290
     0
176
     1
 90
       13
176
     1
 40
0.0
176
     1
 90
        0
176
     1
290
     0
176
     1
290
     1
176
     1
290
     1
176
     1
290
     0
176
     1
290
     0
176
     1
290
     0
176
     1
290
     0
176
     1
290
     0
176
     1
290
     0
176
     1
 90
       50
176
     1
 40
0.0
176
     1
 40
1.0
176
     1
 90
        0
176
     1
 62
    18
420
        0
176
     1
 90
       50
176
     1
 90
        3
176
     1
 62
     5
420
      255
176
     1
290
     0
176
     1
 90
       50
176
     1
 90
       50
176
     1
 90
       50
176
     1
290
     0
176
     1
 90
       50
176
     1
 62
   256
176
     0
 40
1.0
176
     0
 90
        2
176
     1
  1
strokes_ogs.tif
176
     1
290
     0
176
     1
 40
1.0
176
     1
 40
1.0
176
     1
  0
VISUALSTYLE
  5
2C
102
{ACAD_REACTORS
330
2A
102
}
330
2A
100
AcDbVisualStyle
  2
FlatWithEdges
 70
     1
177
     3
291
     1
 70
    58
 90
        2
176
     1
 90
        1
176
     1
 90
        1
176
     1
 90
        2
176
     1
 40
0.6
176
     1
 40
30.0
176
     1
 62
     7
420
 16777215
176
     1
 90
        1
176
     1
 90
        0
176
     1
 62
     7
176
     1
 62
   257
176
     1
 90
        1
176
     1
 90
        1
176
     1
 40
1.0
176
     1
 90
        0
176
     1
 62
   257
176
     1
 40
1.0
176
     1
 90
        1
176
     1
 90
        6
176
     1
 90
        2
176
     1
 62
     7
176
     1
 90
        5
176
     1
 90
        0
176
     1
 90
        0
176
     1
290
     0
176
     1
 90
       13
176
     1
 40
0.0
176
     1
 90
        0
176
     1
290
     0
176
     1
290
     1
176
     1
290
     1
176
     1
290
     0
176
     1
290
     0
176
     1
290
     0
176
     1
290
     0
176
     1
290
     0
176
     1
290
     0
176
     1
 90
       50
176
     1
 40
0.0
176
     1
 40
1.0
176
     1
 90
        0
176
     1
 62
    18
420
        0
176
     1
 90
       50
176
     1
 90
        3
176
     1
 62
     5
420
      255
176
     1
290
     0
176
     1
 90
       50
176
     1
 90
       50
176
     1
 90
       50
176
     1
290
     0
176
     1
 90
       50
176
     1
 62
   256
176
     0
 40
1.0
176
     0
 90
        2
176
     1
  1
strokes_ogs.tif
176
     1
290
     0
176
     1
 40
1.0
176
     1
 40
1.0
176
     1
  0
VISUALSTYLE
  5
2D
102
{ACAD_REACTORS
330
2A
102
}
330
2A
100
AcDbVisualStyle
  2
Gouraud
 70
     2
177
     3
291
     1
 70
    58
 90
        2
176
     1
 90
        2
176
     1
 90
        1
176
     1
 90
        2
176
     1
 40
0.6
176
     1
 40
30.0
176
     1
 62
     7
420
 16777215
176
     1
 90
        0
176
     1
 90
        0
176
     1
 62
     7
176
     1
 62
   257
176
     1
 90
        1
176
     1
 90
        1
176
     1
 40
1.0
176
     1
 90
        0
176
     1
 62
     7
176
     1
 40
1.0
176
     1
 90
        1
176
     1
 90
        6
176
     1
 90
        2
176
     1
 62
     7
176
     1
 90
        5
176
     1
 90
        0
176
     1
 90
        0
176
     1
290
     0
176
     1
 90
       13
176
     1
 40
0.0
176
     1
 90
        0
176
     1
290
     0
176
     1
290
     1
176
     1
290
     1
176
     1
290
     0
176
     1
290
     0
176
     1
290
     0
176
     1
290
     0
176
     1
290
     0
176
     1
290
     0
176
     1
 90
       50
176
     1
 40
0.0
176
     1
 40
1.0
176
     1
 90
        0
176
     1
 62
    18
420
        0
176
     1
 90
       50
176
     1
 90
        3
176
     1
 62
     5
420
      255
176
     1
290
     0
176
     1
 90
       50
176
     1
 90
       50
176
     1
 90
       50
176
     1
290
     0
176
     1
 90
       50
176
     1
 62
   256
176
     0
 40
1.0
176
     0
 90
        2
176
     1
  1
strokes_ogs.tif
176
     1
290
     0
176
     1
 40
1.0
176
     1
 40
1.0
176
     1
  0
VISUALSTYLE
  5
2E
102
{ACAD_REACTORS
330
2A
102
}
330
2A
100
AcDbVisualStyle
  2
GouraudWithEdges
 70
     3
177
     3
291
     1
 70
    58
 90
        2
176
     1
 90
        2
176
     1
 90
        1
176
     1
 90
        2
176
     1
 40
0.6
176
     1
 40
30.0
176
     1
 62
     7
420
 16777215
176
     1
 90
        1
176
     1
 90
        0
176
     1
 62
     7
176
     1
 62
   257
176
     1
 90
        1
176
     1
 90
        1
176
     1
 40
1.0
176
     1
 90
        0
176
     1
 62
   257
176
     1
 40
1.0
176
     1
 90
        1
176
     1
 90
        6
176
     1
 90
        2
176
     1
 62
     7
176
     1
 90
        5
176
     1
 90
        0
176
     1
 90
        0
176
     1
290
     0
176
     1
 90
       13
176
     1
 40
0.0
176
     1
 90
        0
176
     1
290
     0
176
     1
290
     1
176
     1
290
     1
176
     1
290
     0
176
     1
290
     0
176
     1
290
     0
176
     1
290
     0
176
     1
290
     0
176
     1
290
     0
176
     1
 90
       50
176
     1
 40
0.0
176
     1
 40
1.0
176
     1
 90
        0
176
     1
 62
    18
420
        0
176
     1
 90
       50
176
     1
 90
        3
176
     1
 62
     5
420
      255
176
     1
290
     0
176
     1
 90
       50
176
     1
 90
       50
176
     1
 90
       50
176
     1
290
     0
176
     1
 90
       50
176
     1
 62
   256
176
     0
 40
1.0
176
     0
 90
        2
176
     1
  1
strokes_ogs.tif
176
     1
290
     0
176
     1
 40
1.0
176
     1
 40
1.0
176
     1
  0
VISUALSTYLE
  5
31
102
{ACAD_REACTORS
330
2A
102
}
330
2A
100
AcDbVisualStyle
  2
Hidden
 70
     6
177
     3
291
     0
 70
    58
 90
        1
176
     1
 90
        2
176
     1
 90
        2
176
     1
 90
        0
176
     1
 40
0.6
176
     1
 40
30.0
176
     1
 62
     7
420
 16777215
176
     1
 90
        2
176
     1
 90
        2
176
     1
 62
     7
176
     1
 62
   257
176
     1
 90
        2
176
     1
 90
        1
176
     1
 40
40.0
176
     1
 90
        0
176
     1
 62
   257
176
     1
 40
1.0
176
     1
 90
        1
176
     1
 90
        6
176
     1
 90
        2
176
     1
 62
     7
176
     1
 90
        3
176
     1
 90
        0
176
     1
 90
        0
176
     1
290
     0
176
     1
 90
        1
176
     1
 40
0.0
176
     1
 90
        0
176
     1
290
     0
176
     1
290
     1
176
     1
290
     1
176
     1
290
     0
176
     1
290
     0
176
     1
290
     0
176
     1
290
     0
176
     1
290
     0
176
     1
290
     0
176
     1
 90
       50
176
     1
 40
0.0
176
     1
 40
1.0
176
     1
 90
        0
176
     1
 62
    18
420
        0
176
     1
 90
       50
176
     1
 90
        3
176
     1
 62
     5
420
      255
176
     1
290
     0
176
     1
 90
       50
176
     1
 90
       50
176
     1
 90
       50
176
     1
290
     0
176
     1
 90
       50
176
     1
 62
   256
176
     0
 40
1.0
176
     0
 90
        2
176
     1
  1
strokes_ogs.tif
176
     1
290
     0
176
     1
 40
1.0
176
     1
 40
1.0
176
     1
  0
VISUALSTYLE
  5
3B
102
{ACAD_REACTORS
330
2A
102
}
330
2A
100
AcDbVisualStyle
  2
JitterOff
 70
    20
177
     3
291
     1
 70
    58
 90
        2
176
     0
 90
        2
176
     0
 90
        0
176
     0
 90
        0
176
     0
 40
0.6
176
     0
 40
30.0
176
     0
 62
     7
420
 16777215
176
     0
 90
        1
176
     0
 90
        4
176
     0
 62
     7
176
     0
 62
   257
176
     0
 90
        1
176
     0
 90
        1
176
     0
 40
1.0
176
     0
 90
       10
176
     2
 62
     7
176
     0
 40
1.0
176
     0
 90
        1
176
     0
 90
        6
176
     0
 90
        2
176
     0
 62
     7
176
     0
 90
        5
176
     0
 90
        0
176
     0
 90
        0
176
     0
290
     0
176
     0
 90
        1
176
     0
 40
0.0
176
     0
 90
        0
176
     0
290
     0
176
     0
290
     1
176
     0
290
     1
176
     0
290
     0
176
     0
290
     0
176
     0
290
     0
176
     0
290
     0
176
     0
290
     0
176
     0
290
     0
176
     0
 90
       50
176
     0
 40
0.0
176
     0
 40
1.0
176
     0
 90
        0
176
     0
 62
    18
420
        0
176
     0
 90
       50
176
     0
 90
        3
176
     0
 62
     5
420
      255
176
     0
290
     0
176
     0
 90
       50
176
     0
 90
       50
176
     0
 90
       50
176
     0
290
     0
176
     0
 90
       50
176
     0
 62
   256
176
     0
 40
1.0
176
     0
 90
        2
176
     0
  1
strokes_ogs.tif
176
     0
290
     0
176
     0
 40
1.0
176
     0
 40
1.0
176
     0
  0
VISUALSTYLE
  5
38
102
{ACAD_REACTORS
330
2A
102
}
330
2A
100
AcDbVisualStyle
  2
Linepattern
 70
    14
177
     3
291
     1
 70
    58
 90
        2
176
     1
 90
        2
176
     1
 90
        0
176
     1
 90
        0
176
     1
 40
0.6
176
     1
 40
30.0
176
     1
 62
     7
420
 16777215
176
     1
 90
        1
176
     1
 90
        4
176
     1
 62
     7
176
     1
 62
   257
176
     1
 90
        7
176
     1
 90
        7
176
     1
 40
1.0
176
     1
 90
        8
176
     1
 62
     7
176
     1
 40
1.0
176
     1
 90
        1
176
     1
 90
        6
176
     1
 90
        2
176
     1
 62
     7
176
     1
 90
        5
176
     1
 90
        0
176
     1
 90
        0
176
     1
290
     0
176
     1
 90
        1
176
     1
 40
0.0
176
     1
 90
        0
176
     1
290
     0
176
     1
290
     1
176
     1
290
     1
176
     1
290
     0
176
     1
290
     0
176
     1
290
     0
176
     1
290
     0
176
     1
290
     0
176
     1
290
     0
176
     1
 90
       50
176
     1
 40
0.0
176
     1
 40
1.0
176
     1
 90
        0
176
     1
 62
    18
420
        0
176
     1
 90
       50
176
     1
 90
        3
176
     1
 62
     5
420
      255
176
     1
290
     0
176
     1
 90
       50
176
     1
 90
       50
176
     1
 90
       50
176
     1
290
     0
176
     1
 90
       50
176
     1
 62
   256
176
     0
 40
1.0
176
     0
 90
        2
176
     1
  1
strokes_ogs.tif
176
     1
290
     0
176
     1
 40
1.0
176
     1
 40
1.0
176
     1
  0
VISUALSTYLE
  5
3C
102
{ACAD_REACTORS
330
2A
102
}
330
2A
100
AcDbVisualStyle
  2
OverhangOff
 70
    21
177
     3
291
     1
 70
    58
 90
        2
176
     0
 90
        2
176
     0
 90
        0
176
     0
 90
        0
176
     0
 40
0.6
176
     0
 40
30.0
176
     0
 62
     7
420
 16777215
176
     0
 90
        1
176
     0
 90
        4
176
     0
 62
     7
176
     0
 62
   257
176
     0
 90
        1
176
     0
 90
        1
176
     0
 40
1.0
176
     0
 90
        9
176
     2
 62
     7
176
     0
 40
1.0
176
     0
 90
        1
176
     0
 90
        6
176
     0
 90
        2
176
     0
 62
     7
176
     0
 90
        5
176
     0
 90
        0
176
     0
 90
        0
176
     0
290
     0
176
     0
 90
        1
176
     0
 40
0.0
176
     0
 90
        0
176
     0
290
     0
176
     0
290
     1
176
     0
290
     1
176
     0
290
     0
176
     0
290
     0
176
     0
290
     0
176
     0
290
     0
176
     0
290
     0
176
     0
290
     0
176
     0
 90
       50
176
     0
 40
0.0
176
     0
 40
1.0
176
     0
 90
        0
176
     0
 62
    18
420
        0
176
     0
 90
       50
176
     0
 90
        3
176
     0
 62
     5
420
      255
176
     0
290
     0
176
     0
 90
       50
176
     0
 90
       50
176
     0
 90
       50
176
     0
290
     0
176
     0
 90
       50
176
     0
 62
   256
176
     0
 40
1.0
176
     0
 90
        2
176
     0
  1
strokes_ogs.tif
176
     0
290
     0
176
     0
 40
1.0
176
     0
 40
1.0
176
     0
  0
VISUALSTYLE
  5
33
102
{ACAD_REACTORS
330
2A
102
}
330
2A
100
AcDbVisualStyle
  2
Realistic
 70
     8
177
     3
291
     0
 70
    58
 90
        2
176
     1
 90
        3
176
     1
 90
        0
176
     1
 90
        2
176
     1
 40
0.6
176
     1
 40
30.0
176
     1
 62
     7
420
 16777215
176
     1
 90
        0
176
     1
 90
        0
176
     1
 62
     7
176
     1
 62
   257
176
     1
 90
        1
176
     1
 90
        1
176
     1
 40
1.0
176
     1
 90
        8
176
     1
 62
   257
176
     1
 40
1.0
176
     1
 90
        1
176
     1
 90
        6
176
     1
 90
        2
176
     1
 62
     7
176
     1
 90
        3
176
     1
 90
        0
176
     1
 90
        0
176
     1
290
     0
176
     1
 90
       13
176
     1
 40
0.0
176
     1
 90
        0
176
     1
290
     0
176
     1
290
     1
176
     1
290
     1
176
     1
290
     0
176
     1
290
     0
176
     1
290
     0
176
     1
290
     0
176
     1
290
     0
176
     1
290
     0
176
     1
 90
       50
176
     1
 40
0.0
176
     1
 40
1.0
176
     1
 90
        0
176
     1
 62
    18
420
        0
176
     1
 90
       50
176
     1
 90
        3
176
     1
 62
     5
420
      255
176
     1
290
     0
176
     1
 90
       50
176
     1
 90
       50
176
     1
 90
       50
176
     1
290
     0
176
     1
 90
       50
176
     1
 62
   256
176
     0
 40
1.0
176
     0
 90
        2
176
     1
  1
strokes_ogs.tif
176
     1
290
     0
176
     1
 40
1.0
176
     1
 40
1.0
176
     1
  0
VISUALSTYLE
  5
42
102
{ACAD_REACTORS
330
2A
102
}
330
2A
100
AcDbVisualStyle
  2
Shaded
 70
    27
177
     3
291
     0
 70
    58
 90
        2
176
     1
 90
        2
176
     1
 90
        1
176
     1
 90
        2
176
     1
 40
0.6
176
     1
 40
30.0
176
     1
 62
     7
420
 16777215
176
     1
 90
        0
176
     1
 90
        4
176
     1
 62
     7
176
     1
 62
   257
176
     1
 90
        1
176
     1
 90
        1
176
     1
 40
1.0
176
     1
 90
        8
176
     1
 62
   257
176
     1
 40
1.0
176
     1
 90
        1
176
     1
 90
        6
176
     1
 90
        2
176
     1
 62
     8
420
  7895160
176
     1
 90
        3
176
     1
 90
        0
176
     1
 90
        0
176
     1
290
     0
176
     1
 90
        5
176
     1
 40
0.0
176
     1
 90
        0
176
     1
290
     0
176
     1
290
     1
176
     1
290
     1
176
     1
290
     0
176
     1
290
     0
176
     1
290
     0
176
     1
290
     0
176
     1
290
     0
176
     1
290
     0
176
     1
 90
       50
176
     1
 40
0.0
176
     1
 40
1.0
176
     1
 90
        0
176
     1
 62
    18
420
        0
176
     1
 90
       50
176
     1
 90
        3
176
     1
 62
     5
420
      255
176
     1
290
     0
176
     1
 90
       50
176
     1
 90
       50
176
     1
 90
       50
176
     1
290
     0
176
     1
 90
       50
176
     1
 62
   256
176
     0
 40
1.0
176
     0
 90
        2
176
     1
  1
strokes_ogs.tif
176
     1
290
     0
176
     1
 40
1.0
176
     1
 40
1.0
176
     1
  0
VISUALSTYLE
  5
41
102
{ACAD_REACTORS
330
2A
102
}
330
2A
100
AcDbVisualStyle
  2
Shaded with edges
 70
    26
177
     3
291
     0
 70
    58
 90
        2
176
     1
 90
        2
176
     1
 90
        1
176
     1
 90
        2
176
     1
 40
0.6
176
     1
 40
30.0
176
     1
 62
     7
420
 16777215
176
     1
 90
        1
176
     1
 90
       10
176
     1
 62
     7
176
     1
 62
   257
176
     1
 90
        2
176
     1
 90
        1
176
     1
 40
1.0
176
     1
 90
        8
176
     1
 62
   257
176
     1
 40
1.0
176
     1
 90
        1
176
     1
 90
        6
176
     1
 90
        2
176
     1
 62
     7
176
     1
 90
        3
176
     1
 90
        0
176
     1
 90
        0
176
     1
290
     0
176
     1
 90
        5
176
     1
 40
0.0
176
     1
 90
        0
176
     1
290
     0
176
     1
290
     1
176
     1
290
     1
176
     1
290
     0
176
     1
290
     0
176
     1
290
     0
176
     1
290
     0
176
     1
290
     0
176
     1
290
     0
176
     1
 90
       50
176
     1
 40
0.0
176
     1
 40
1.0
176
     1
 90
        0
176
     1
 62
    18
420
        0
176
     1
 90
       50
176
     1
 90
        3
176
     1
 62
     5
420
      255
176
     1
290
     0
176
     1
 90
       50
176
     1
 90
       50
176
     1
 90
       50
176
     1
290
     0
176
     1
 90
       50
176
     1
 62
   256
176
     0
 40
1.0
176
     0
 90
        2
176
     1
  1
strokes_ogs.tif
176
     1
290
     0
176
     1
 40
1.0
176
     1
 40
1.0
176
     1
  0
VISUALSTYLE
  5
3E
102
{ACAD_REACTORS
330
2A
102
}
330
2A
100
AcDbVisualStyle
  2
Shades of Gray
 70
    23
177
     3
291
     0
 70
    58
 90
        2
176
     1
 90
        2
176
     1
 90
        3
176
     1
 90
        0
176
     1
 40
0.6
176
     1
 40
30.0
176
     1
 62
     7
420
 16777215
176
     1
 90
        2
176
     1
 90
        2
176
     1
 62
     7
176
     1
 62
     7
176
     1
 90
        1
176
     1
 90
        1
176
     1
 40
40.0
176
     1
 90
        8
176
     1
 62
     7
176
     1
 40
1.0
176
     1
 90
        1
176
     1
 90
        6
176
     1
 90
        2
176
     1
 62
     7
176
     1
 90
        3
176
     1
 90
        0
176
     1
 90
        0
176
     1
290
     0
176
     1
 90
        1
176
     1
 40
0.0
176
     1
 90
        0
176
     1
290
     0
176
     1
290
     1
176
     1
290
     1
176
     1
290
     0
176
     1
290
     0
176
     1
290
     0
176
     1
290
     0
176
     1
290
     0
176
     1
290
     0
176
     1
 90
       50
176
     1
 40
0.0
176
     1
 40
1.0
176
     1
 90
        0
176
     1
 62
    18
420
        0
176
     1
 90
       50
176
     1
 90
        3
176
     1
 62
     5
420
      255
176
     1
290
     0
176
     1
 90
       50
176
     1
 90
       50
176
     1
 90
       50
176
     1
290
     0
176
     1
 90
       50
176
     1
 62
   256
176
     0
 40
1.0
176
     0
 90
        2
176
     1
  1
strokes_ogs.tif
176
     1
290
     0
176
     1
 40
1.0
176
     1
 40
1.0
176
     1
  0
VISUALSTYLE
  5
3F
102
{ACAD_REACTORS
330
2A
102
}
330
2A
100
AcDbVisualStyle
  2
Sketchy
 70
    24
177
     3
291
     0
 70
    58
 90
        1
176
     1
 90
        2
176
     1
 90
        2
176
     1
 90
        0
176
     1
 40
0.6
176
     1
 40
30.0
176
     1
 62
     7
420
 16777215
176
     1
 90
        2
176
     1
 90
        2
176
     1
 62
     7
176
     1
 62
     7
176
     1
 90
        1
176
     1
 90
        1
176
     1
 40
40.0
176
     1
 90
       11
176
     1
 62
     7
176
     1
 40
1.0
176
     1
 90
        1
176
     1
 90
        6
176
     1
 90
        2
176
     1
 62
     7
176
     1
 90
        6
176
     1
 90
        0
176
     1
 90
        0
176
     1
290
     0
176
     1
 90
        1
176
     1
 40
0.0
176
     1
 90
        0
176
     1
290
     0
176
     1
290
     1
176
     1
290
     1
176
     1
290
     0
176
     1
290
     0
176
     1
290
     0
176
     1
290
     0
176
     1
290
     0
176
     1
290
     0
176
     1
 90
       50
176
     1
 40
0.0
176
     1
 40
1.0
176
     1
 90
        0
176
     1
 62
    18
420
        0
176
     1
 90
       50
176
     1
 90
        3
176
     1
 62
     5
420
      255
176
     1
290
     0
176
     1
 90
       50
176
     1
 90
       50
176
     1
 90
       50
176
     1
290
     0
176
     1
 90
       50
176
     1
 62
   256
176
     0
 40
1.0
176
     0
 90
        2
176
     1
  1
strokes_ogs.tif
176
     1
290
     0
176
     1
 40
1.0
176
     1
 40
1.0
176
     1
  0
VISUALSTYLE
  5
37
102
{ACAD_REACTORS
330
2A
102
}
330
2A
100
AcDbVisualStyle
  2
Thicken
 70
    13
177
     3
291
     1
 70
    58
 90
        2
176
     1
 90
        2
176
     1
 90
        0
176
     1
 90
        0
176
     1
 40
0.6
176
     1
 40
30.0
176
     1
 62
     7
420
 16777215
176
     1
 90
        1
176
     1
 90
        4
176
     1
 62
     7
176
     1
 62
   257
176
     1
 90
        1
176
     1
 90
        1
176
     1
 40
1.0
176
     1
 90
       12
176
     1
 62
     7
176
     1
 40
1.0
176
     1
 90
        1
176
     1
 90
        6
176
     1
 90
        2
176
     1
 62
     7
176
     1
 90
        5
176
     1
 90
        0
176
     1
 90
        0
176
     1
290
     0
176
     1
 90
        1
176
     1
 40
0.0
176
     1
 90
        0
176
     1
290
     0
176
     1
290
     1
176
     1
290
     1
176
     1
290
     0
176
     1
290
     0
176
     1
290
     0
176
     1
290
     0
176
     1
290
     0
176
     1
290
     0
176
     1
 90
       50
176
     1
 40
0.0
176
     1
 40
1.0
176
     1
 90
        0
176
     1
 62
    18
420
        0
176
     1
 90
       50
176
     1
 90
        3
176
     1
 62
     5
420
      255
176
     1
290
     0
176
     1
 90
       50
176
     1
 90
       50
176
     1
 90
       50
176
     1
290
     0
176
     1
 90
       50
176
     1
 62
   256
176
     0
 40
1.0
176
     0
 90
        2
176
     1
  1
strokes_ogs.tif
176
     1
290
     0
176
     1
 40
1.0
176
     1
 40
1.0
176
     1
  0
VISUALSTYLE
  5
30
102
{ACAD_REACTORS
330
2A
102
}
330
2A
100
AcDbVisualStyle
  2
Wireframe
 70
     5
177
     3
291
     0
 70
    58
 90
        0
176
     1
 90
        2
176
     1
 90
        0
176
     1
 90
        0
176
     1
 40
0.6
176
     1
 40
30.0
176
     1
 62
     7
420
 16777215
176
     1
 90
        1
176
     1
 90
        4
176
     1
 62
     7
176
     1
 62
   257
176
     1
 90
        1
176
     1
 90
        1
176
     1
 40
1.0
176
     1
 90
        0
176
     1
 62
   257
176
     1
 40
1.0
176
     1
 90
        1
176
     1
 90
        6
176
     1
 90
        2
176
     1
 62
     7
176
     1
 90
        3
176
     1
 90
        0
176
     1
 90
        0
176
     1
290
     0
176
     1
 90
        1
176
     1
 40
0.0
176
     1
 90
        0
176
     1
290
     0
176
     1
290
     1
176
     1
290
     1
176
     1
290
     0
176
     1
290
     0
176
     1
290
     0
176
     1
290
     0
176
     1
290
     0
176
     1
290
     0
176
     1
 90
       50
176
     1
 40
0.0
176
     1
 40
1.0
176
     1
 90
        0
176
     1
 62
    18
420
        0
176
     1
 90
       50
176
     1
 90
        3
176
     1
 62
     5
420
      255
176
     1
290
     0
176
     1
 90
       50
176
     1
 90
       50
176
     1
 90
       50
176
     1
290
     0
176
     1
 90
       50
176
     1
 62
   256
176
     0
 40
1.0
176
     0
 90
        2
176
     1
  1
strokes_ogs.tif
176
     1
290
     0
176
     1
 40
1.0
176
     1
 40
1.0
176
     1
  0
VISUALSTYLE
  5
40
102
{ACAD_REACTORS
330
2A
102
}
330
2A
100
AcDbVisualStyle
  2
X-Ray
 70
    25
177
     3
291
     0
 70
    58
 90
        2
176
     1
 90
        2
176
     1
 90
        1
176
     1
 90
        1
176
     1
 40
0.5
176
     1
 40
30.0
176
     1
 62
     7
420
 16777215
176
     1
 90
        1
176
     1
 90
        0
176
     1
 62
     7
176
     1
 62
   257
176
     1
 90
        1
176
     1
 90
        1
176
     1
 40
1.0
176
     1
 90
        8
176
     1
 62
     7
176
     1
 40
1.0
176
     1
 90
        1
176
     1
 90
        6
176
     1
 90
        2
176
     1
 62
     7
176
     1
 90
        3
176
     1
 90
        0
176
     1
 90
        0
176
     1
290
     0
176
     1
 90
       13
176
     1
 40
0.0
176
     1
 90
        0
176
     1
290
     0
176
     1
290
     1
176
     1
290
     1
176
     1
290
     0
176
     1
290
     0
176
     1
290
     0
176
     1
290
     0
176
     1
290
     0
176
     1
290
     0
176
     1
 90
       50
176
     1
 40
0.0
176
     1
 40
1.0
176
     1
 90
        0
176
     1
 62
    18
420
        0
176
     1
 90
       50
176
     1
 90
        3
176
     1
 62
     5
420
      255
176
     1
290
     0
176
     1
 90
       50
176
     1
 90
       50
176
     1
 90
       50
176
     1
290
     0
176
     1
 90
       50
176
     1
 62
   256
176
     0
 40
1.0
176
     0
 90
        2
176
     1
  1
strokes_ogs.tif
176
     1
290
     0
176
     1
 40
1.0
176
     1
 40
1.0
176
     1
  0
DICTIONARYVAR
  5
204
102
{ACAD_REACTORS
330
203
102
}
330
203
100
DictionaryVariables
280
     0
  1
1:1
  0
DICTIONARYVAR
  5
209
102
{ACAD_REACTORS
330
203
102
}
330
203
100
DictionaryVariables
280
     0
  1
Standard
  0
DICTIONARYVAR
  5
208
102
{ACAD_REACTORS
330
203
102
}
330
203
100
DictionaryVariables
280
     0
  1
Standard
  0
DICTIONARY
  5
205
330
6A
100
AcDbDictionary
280
     1
281
     1
  3
ACAD_ROUNDTRIP_2008_TABLESTYLE_CELLSTYLEMAP
360
206
  0
CELLSTYLEMAP
  5
206
102
{ACAD_REACTORS
330
205
102
}
330
205
100
AcDbCellStyleMap
 90
        3
300
CELLSTYLE
  1
TABLEFORMAT_BEGIN
 90
        5
170
     1
 91
        0
 92
    32768
 62
   257
 93
        1
300
CONTENTFORMAT
  1
CONTENTFORMAT_BEGIN
 90
        0
 91
        0
 92
        4
 93
        0
300

 40
0.0
140
1.0
 94
        5
 62
     0
340
11
144
6.0
309
CONTENTFORMAT_END
171
     1
301
MARGIN
  1
CELLMARGIN_BEGIN
 40
1.5
 40
1.5
 40
1.5
 40
1.5
 40
1.5
 40
1.5
309
CELLMARGIN_END
 94
        6
 95
        1
302
GRIDFORMAT
  1
GRIDFORMAT_BEGIN
 90
        0
 91
        1
 62
     0
 92
       -2
340
14
 93
        0
 40
0.045
309
GRIDFORMAT_END
 95
        2
302
GRIDFORMAT
  1
GRIDFORMAT_BEGIN
 90
        0
 91
        1
 62
     0
 92
       -2
340
14
 93
        0
 40
0.045
309
GRIDFORMAT_END
 95
        4
302
GRIDFORMAT
  1
GRIDFORMAT_BEGIN
 90
        0
 91
        1
 62
     0
 92
       -2
340
14
 93
        0
 40
0.045
309
GRIDFORMAT_END
 95
        8
302
GRIDFORMAT
  1
GRIDFORMAT_BEGIN
 90
        0
 91
        1
 62
     0
 92
       -2
340
14
 93
        0
 40
0.045
309
GRIDFORMAT_END
 95
       16
302
GRIDFORMAT
  1
GRIDFORMAT_BEGIN
 90
        0
 91
        1
 62
     0
 92
       -2
340
14
 93
        0
 40
0.045
309
GRIDFORMAT_END
 95
       32
302
GRIDFORMAT
  1
GRIDFORMAT_BEGIN
 90
        0
 91
        1
 62
     0
 92
       -2
340
14
 93
        0
 40
0.045
309
GRIDFORMAT_END
309
TABLEFORMAT_END
  1
CELLSTYLE_BEGIN
 90
        1
 91
        1
300
_TITLE
309
CELLSTYLE_END
300
CELLSTYLE
  1
TABLEFORMAT_BEGIN
 90
        5
170
     1
 91
        0
 92
        0
 62
   257
 93
        1
300
CONTENTFORMAT
  1
CONTENTFORMAT_BEGIN
 90
        0
 91
        0
 92
        4
 93
        0
300

 40
0.0
140
1.0
 94
        5
 62
     0
340
11
144
4.5
309
CONTENTFORMAT_END
171
     1
301
MARGIN
  1
CELLMARGIN_BEGIN
 40
1.5
 40
1.5
 40
1.5
 40
1.5
 40
1.5
 40
1.5
309
CELLMARGIN_END
 94
        6
 95
        1
302
GRIDFORMAT
  1
GRIDFORMAT_BEGIN
 90
        0
 91
        1
 62
     0
 92
       -2
340
14
 93
        0
 40
0.045
309
GRIDFORMAT_END
 95
        2
302
GRIDFORMAT
  1
GRIDFORMAT_BEGIN
 90
        0
 91
        1
 62
     0
 92
       -2
340
14
 93
        0
 40
0.045
309
GRIDFORMAT_END
 95
        4
302
GRIDFORMAT
  1
GRIDFORMAT_BEGIN
 90
        0
 91
        1
 62
     0
 92
       -2
340
14
 93
        0
 40
0.045
309
GRIDFORMAT_END
 95
        8
302
GRIDFORMAT
  1
GRIDFORMAT_BEGIN
 90
        0
 91
        1
 62
     0
 92
       -2
340
14
 93
        0
 40
0.045
309
GRIDFORMAT_END
 95
       16
302
GRIDFORMAT
  1
GRIDFORMAT_BEGIN
 90
        0
 91
        1
 62
     0
 92
       -2
340
14
 93
        0
 40
0.045
309
GRIDFORMAT_END
 95
       32
302
GRIDFORMAT
  1
GRIDFORMAT_BEGIN
 90
        0
 91
        1
 62
     0
 92
       -2
340
14
 93
        0
 40
0.045
309
GRIDFORMAT_END
309
TABLEFORMAT_END
  1
CELLSTYLE_BEGIN
 90
        2
 91
        1
300
_HEADER
309
CELLSTYLE_END
300
CELLSTYLE
  1
TABLEFORMAT_BEGIN
 90
        5
170
     1
 91
        0
 92
        0
 62
   257
 93
        1
300
CONTENTFORMAT
  1
CONTENTFORMAT_BEGIN
 90
        0
 91
        0
 92
        4
 93
        0
300

 40
0.0
140
1.0
 94
        2
 62
     0
340
11
144
4.5
309
CONTENTFORMAT_END
171
     1
301
MARGIN
  1
CELLMARGIN_BEGIN
 40
1.5
 40
1.5
 40
1.5
 40
1.5
 40
1.5
 40
1.5
309
CELLMARGIN_END
 94
        6
 95
        1
302
GRIDFORMAT
  1
GRIDFORMAT_BEGIN
 90
        0
 91
        1
 62
     0
 92
       -2
340
14
 93
        0
 40
0.045
309
GRIDFORMAT_END
 95
        2
302
GRIDFORMAT
  1
GRIDFORMAT_BEGIN
 90
        0
 91
        1
 62
     0
 92
       -2
340
14
 93
        0
 40
0.045
309
GRIDFORMAT_END
 95
        4
302
GRIDFORMAT
  1
GRIDFORMAT_BEGIN
 90
        0
 91
        1
 62
     0
 92
       -2
340
14
 93
        0
 40
0.045
309
GRIDFORMAT_END
 95
        8
302
GRIDFORMAT
  1
GRIDFORMAT_BEGIN
 90
        0
 91
        1
 62
     0
 92
       -2
340
14
 93
        0
 40
0.045
309
GRIDFORMAT_END
 95
       16
302
GRIDFORMAT
  1
GRIDFORMAT_BEGIN
 90
        0
 91
        1
 62
     0
 92
       -2
340
14
 93
        0
 40
0.045
309
GRIDFORMAT_END
 95
       32
302
GRIDFORMAT
  1
GRIDFORMAT_BEGIN
 90
        0
 91
        1
 62
     0
 92
       -2
340
14
 93
        0
 40
0.045
309
GRIDFORMAT_END
309
TABLEFORMAT_END
  1
CELLSTYLE_BEGIN
 90
        3
 91
        2
300
_DATA
309
CELLSTYLE_END
  0
ENDSEC
  0
EOF