0
SECTION
  2
HEADER
  9
$ACADVER
  1
AC1027
  9
$ACADMAINTVER
 70
     8
  9
$DWGCODEPAGE
  3
ANSI_1252
  9
$REQUIREDVERSIONS
160
                 0
  9
$COMMENTS
  1
File was created by Cadenas
  9
$CUSTOMPROPERTYTAG
  1
NN
  9
$CUSTOMPROPERTY
  1
Grip Tight Two-Bolt Flange Metric Bore
  9
$CUSTOMPROPERTYTAG
  1
NT
  9
$CUSTOMPROPERTY
  1
GT Normal Duty 2 Bolt Flange Bearings
  9
$CUSTOMPROPERTYTAG
  1
NB
  9
$CUSTOMPROPERTY
  1
129321
  9
$CUSTOMPROPERTYTAG
  1
NBSYN
  9
$CUSTOMPROPERTY
  1
$PN.$LUBE.
  9
$CUSTOMPROPERTYTAG
  1
LINA
  9
$CUSTOMPROPERTY
  1
129321
  9
$CUSTOMPROPERTYTAG
  1
SERIES
  9
$CUSTOMPROPERTY
  1
203
  9
$CUSTOMPROPERTYTAG
  1
SS
  9
$CUSTOMPROPERTY
  1
17
  9
$CUSTOMPROPERTYTAG
  1
PN
  9
$CUSTOMPROPERTY
  1
129321
  9
$CUSTOMPROPERTYTAG
  1
DESCRIPTION
  9
$CUSTOMPROPERTY
  1
F2B-GT-17M
  9
$CUSTOMPROPERTYTAG
  1
A
  9
$CUSTOMPROPERTY
  1
34.1
  9
$CUSTOMPROPERTYTAG
  1
B
  9
$CUSTOMPROPERTY
  1
98.4
  9
$CUSTOMPROPERTYTAG
  1
C
  9
$CUSTOMPROPERTY
  1
37.3
  9
$CUSTOMPROPERTYTAG
  1
D
  9
$CUSTOMPROPERTY
  1
76.2
  9
$CUSTOMPROPERTYTAG
  1
F
  9
$CUSTOMPROPERTY
  1
M10
  9
$CUSTOMPROPERTYTAG
  1
H
  9
$CUSTOMPROPERTY
  1
9.5
  9
$CUSTOMPROPERTYTAG
  1
J
  9
$CUSTOMPROPERTY
  1
15.5
  9
$CUSTOMPROPERTYTAG
  1
L
  9
$CUSTOMPROPERTY
  1
35.7
  9
$CUSTOMPROPERTYTAG
  1
M
  9
$CUSTOMPROPERTY
  1
53.9
  9
$CUSTOMPROPERTYTAG
  1
N
  9
$CUSTOMPROPERTY
  1
28.6
  9
$CUSTOMPROPERTYTAG
  1
Z
  9
$CUSTOMPROPERTY
  1
36.9
  9
$CUSTOMPROPERTYTAG
  1
COMPANY
  9
$CUSTOMPROPERTY
  1
baldor
  9
$INSBASE
 10
0.0
 20
0.0
 30
0.0
  9
$EXTMIN
 10
1.000000000000000E+20
 20
1.000000000000000E+20
 30
1.000000000000000E+20
  9
$EXTMAX
 10
-1.000000000000000E+20
 20
-1.000000000000000E+20
 30
-1.000000000000000E+20
  9
$LIMMIN
 10
0.0
 20
0.0
  9
$LIMMAX
 10
420.0
 20
297.0
  9
$ORTHOMODE
 70
     0
  9
$REGENMODE
 70
     1
  9
$FILLMODE
 70
     1
  9
$QTEXTMODE
 70
     0
  9
$MIRRTEXT
 70
     1
  9
$LTSCALE
 40
1.0
  9
$ATTMODE
 70
     1
  9
$TEXTSIZE
 40
2.5
  9
$TRACEWID
 40
1.0
  9
$TEXTSTYLE
  7
Standard
  9
$CLAYER
  8
0
  9
$CELTYPE
  6
ByLayer
  9
$CECOLOR
 62
   256
  9
$CELTSCALE
 40
1.0
  9
$DISPSILH
 70
     0
  9
$DIMSCALE
 40
1.0
  9
$DIMASZ
 40
2.5
  9
$DIMEXO
 40
0.625
  9
$DIMDLI
 40
3.75
  9
$DIMRND
 40
0.0
  9
$DIMDLE
 40
0.0
  9
$DIMEXE
 40
1.25
  9
$DIMTP
 40
0.0
  9
$DIMTM
 40
0.0
  9
$DIMTXT
 40
2.5
  9
$DIMCEN
 40
2.5
  9
$DIMTSZ
 40
0.0
  9
$DIMTOL
 70
     0
  9
$DIMLIM
 70
     0
  9
$DIMTIH
 70
     0
  9
$DIMTOH
 70
     0
  9
$DIMSE1
 70
     0
  9
$DIMSE2
 70
     0
  9
$DIMTAD
 70
     1
  9
$DIMZIN
 70
     8
  9
$DIMBLK
  1

  9
$DIMASO
 70
     1
  9
$DIMSHO
 70
     1
  9
$DIMPOST
  1

  9
$DIMAPOST
  1

  9
$DIMALT
 70
     0
  9
$DIMALTD
 70
     3
  9
$DIMALTF
 40
0.03937007874016
  9
$DIMLFAC
 40
1.0
  9
$DIMTOFL
 70
     1
  9
$DIMTVP
 40
0.0
  9
$DIMTIX
 70
     0
  9
$DIMSOXD
 70
     0
  9
$DIMSAH
 70
     0
  9
$DIMBLK1
  1

  9
$DIMBLK2
  1

  9
$DIMSTYLE
  2
ISO-25
  9
$DIMCLRD
 70
     0
  9
$DIMCLRE
 70
     0
  9
$DIMCLRT
 70
     0
  9
$DIMTFAC
 40
1.0
  9
$DIMGAP
 40
0.625
  9
$DIMJUST
 70
     0
  9
$DIMSD1
 70
     0
  9
$DIMSD2
 70
     0
  9
$DIMTOLJ
 70
     0
  9
$DIMTZIN
 70
     8
  9
$DIMALTZ
 70
     0
  9
$DIMALTTZ
 70
     0
  9
$DIMUPT
 70
     0
  9
$DIMDEC
 70
     2
  9
$DIMTDEC
 70
     2
  9
$DIMALTU
 70
     2
  9
$DIMALTTD
 70
     3
  9
$DIMTXSTY
  7
Standard
  9
$DIMAUNIT
 70
     0
  9
$DIMADEC
 70
     0
  9
$DIMALTRND
 40
0.0
  9
$DIMAZIN
 70
     0
  9
$DIMDSEP
 70
    44
  9
$DIMATFIT
 70
     3
  9
$DIMFRAC
 70
     0
  9
$DIMLDRBLK
  1

  9
$DIMLUNIT
 70
     2
  9
$DIMLWD
 70
    -2
  9
$DIMLWE
 70
    -2
  9
$DIMTMOVE
 70
     0
  9
$DIMFXL
 40
1.0
  9
$DIMFXLON
 70
     0
  9
$DIMJOGANG
 40
0.7853981633974483
  9
$DIMTFILL
 70
     0
  9
$DIMTFILLCLR
 70
     0
  9
$DIMARCSYM
 70
     0
  9
$DIMLTYPE
  6

  9
$DIMLTEX1
  6

  9
$DIMLTEX2
  6

  9
$DIMTXTDIRECTION
 70
     0
  9
$LUNITS
 70
     2
  9
$LUPREC
 70
     4
  9
$SKETCHINC
 40
1.0
  9
$FILLETRAD
 40
10.0
  9
$AUNITS
 70
     0
  9
$AUPREC
 70
     0
  9
$MENU
  1
.
  9
$ELEVATION
 40
0.0
  9
$PELEVATION
 40
0.0
  9
$THICKNESS
 40
0.0
  9
$LIMCHECK
 70
     0
  9
$CHAMFERA
 40
0.0
  9
$CHAMFERB
 40
0.0
  9
$CHAMFERC
 40
0.0
  9
$CHAMFERD
 40
0.0
  9
$SKPOLY
 70
     0
  9
$TDCREATE
 40
2458168.973923148
  9
$TDUCREATE
 40
2458168.932256482
  9
$TDUPDATE
 40
2458168.973923333
  9
$TDUUPDATE
 40
2458168.932256666
  9
$TDINDWG
 40
0.0000000116
  9
$TDUSRTIMER
 40
0.0000000116
  9
$USRTIMER
 70
     1
  9
$ANGBASE
 50
0.0
  9
$ANGDIR
 70
     0
  9
$PDMODE
 70
     0
  9
$PDSIZE
 40
0.0
  9
$PLINEWID
 40
0.0
  9
$SPLFRAME
 70
     0
  9
$SPLINETYPE
 70
     6
  9
$SPLINESEGS
 70
     8
  9
$HANDSEED
  5
1FF
  9
$SURFTAB1
 70
     6
  9
$SURFTAB2
 70
     6
  9
$SURFTYPE
 70
     6
  9
$SURFU
 70
     6
  9
$SURFV
 70
     6
  9
$UCSBASE
  2

  9
$UCSNAME
  2

  9
$UCSORG
 10
0.0
 20
0.0
 30
0.0
  9
$UCSXDIR
 10
1.0
 20
0.0
 30
0.0
  9
$UCSYDIR
 10
0.0
 20
1.0
 30
0.0
  9
$UCSORTHOREF
  2

  9
$UCSORTHOVIEW
 70
     0
  9
$UCSORGTOP
 10
0.0
 20
0.0
 30
0.0
  9
$UCSORGBOTTOM
 10
0.0
 20
0.0
 30
0.0
  9
$UCSORGLEFT
 10
0.0
 20
0.0
 30
0.0
  9
$UCSORGRIGHT
 10
0.0
 20
0.0
 30
0.0
  9
$UCSORGFRONT
 10
0.0
 20
0.0
 30
0.0
  9
$UCSORGBACK
 10
0.0
 20
0.0
 30
0.0
  9
$PUCSBASE
  2

  9
$PUCSNAME
  2

  9
$PUCSORG
 10
0.0
 20
0.0
 30
0.0
  9
$PUCSXDIR
 10
1.0
 20
0.0
 30
0.0
  9
$PUCSYDIR
 10
0.0
 20
1.0
 30
0.0
  9
$PUCSORTHOREF
  2

  9
$PUCSORTHOVIEW
 70
     0
  9
$PUCSORGTOP
 10
0.0
 20
0.0
 30
0.0
  9
$PUCSORGBOTTOM
 10
0.0
 20
0.0
 30
0.0
  9
$PUCSORGLEFT
 10
0.0
 20
0.0
 30
0.0
  9
$PUCSORGRIGHT
 10
0.0
 20
0.0
 30
0.0
  9
$PUCSORGFRONT
 10
0.0
 20
0.0
 30
0.0
  9
$PUCSORGBACK
 10
0.0
 20
0.0
 30
0.0
  9
$USERI1
 70
     0
  9
$USERI2
 70
     0
  9
$USERI3
 70
     0
  9
$USERI4
 70
     0
  9
$USERI5
 70
     0
  9
$USERR1
 40
0.0
  9
$USERR2
 40
0.0
  9
$USERR3
 40
0.0
  9
$USERR4
 40
0.0
  9
$USERR5
 40
0.0
  9
$WORLDVIEW
 70
     1
  9
$SHADEDGE
 70
     3
  9
$SHADEDIF
 70
    70
  9
$TILEMODE
 70
     1
  9
$MAXACTVP
 70
    64
  9
$PINSBASE
 10
0.0
 20
0.0
 30
0.0
  9
$PLIMCHECK
 70
     0
  9
$PEXTMIN
 10
1.000000000000000E+20
 20
1.000000000000000E+20
 30
1.000000000000000E+20
  9
$PEXTMAX
 10
-1.000000000000000E+20
 20
-1.000000000000000E+20
 30
-1.000000000000000E+20
  9
$PLIMMIN
 10
0.0
 20
0.0
  9
$PLIMMAX
 10
420.0
 20
297.0
  9
$UNITMODE
 70
     0
  9
$VISRETAIN
 70
     1
  9
$PLINEGEN
 70
     0
  9
$PSLTSCALE
 70
     1
  9
$TREEDEPTH
 70
  3020
  9
$CMLSTYLE
  2
Standard
  9
$CMLJUST
 70
     0
  9
$CMLSCALE
 40
20.0
  9
$PROXYGRAPHICS
 70
     1
  9
$MEASUREMENT
 70
     1
  9
$CELWEIGHT
370
    -1
  9
$ENDCAPS
280
     0
  9
$JOINSTYLE
280
     0
  9
$LWDISPLAY
290
     0
  9
$INSUNITS
 70
     4
  9
$HYPERLINKBASE
  1

  9
$STYLESHEET
  1

  9
$XEDIT
290
     1
  9
$CEPSNTYPE
380
     0
  9
$PSTYLEMODE
290
     1
  9
$FINGERPRINTGUID
  2
{20D44B1B-94F5-4ECF-98FE-1B641BC0A933}
  9
$VERSIONGUID
  2
{FAEB1C32-E019-11D5-929B-00C0DF256EC4}
  9
$EXTNAMES
290
     1
  9
$PSVPSCALE
 40
0.0
  9
$OLESTARTUP
290
     0
  9
$SORTENTS
280
   127
  9
$INDEXCTL
280
     0
  9
$HIDETEXT
280
     1
  9
$XCLIPFRAME
280
     2
  9
$HALOGAP
280
     0
  9
$OBSCOLOR
 70
   257
  9
$OBSLTYPE
280
     0
  9
$INTERSECTIONDISPLAY
280
     0
  9
$INTERSECTIONCOLOR
 70
   257
  9
$DIMASSOC
280
     2
  9
$PROJECTNAME
  1

  9
$CAMERADISPLAY
290
     0
  9
$LENSLENGTH
 40
50.0
  9
$CAMERAHEIGHT
 40
0.0
  9
$STEPSPERSEC
 40
2.0
  9
$STEPSIZE
 40
6.0
  9
$3DDWFPREC
 40
2.0
  9
$PSOLWIDTH
 40
5.0
  9
$PSOLHEIGHT
 40
80.0
  9
$LOFTANG1
 40
1.570796326794897
  9
$LOFTANG2
 40
1.570796326794897
  9
$LOFTMAG1
 40
0.0
  9
$LOFTMAG2
 40
0.0
  9
$LOFTPARAM
 70
     7
  9
$LOFTNORMALS
280
     1
  9
$LATITUDE
 40
37.795
  9
$LONGITUDE
 40
-122.394
  9
$NORTHDIRECTION
 40
0.0
  9
$TIMEZONE
 70
 -8000
  9
$LIGHTGLYPHDISPLAY
280
     1
  9
$TILEMODELIGHTSYNCH
280
     1
  9
$CMATERIAL
347
44
  9
$SOLIDHIST
280
     0
  9
$SHOWHIST
280
     1
  9
$DWFFRAME
280
     2
  9
$DGNFRAME
280
     2
  9
$REALWORLDSCALE
290
     1
  9
$INTERFERECOLOR
 62
   256
  9
$CSHADOW
280
     0
  9
$SHADOWPLANELOCATION
 40
0.0
  0
ENDSEC
  0
SECTION
  2
CLASSES
  0
CLASS
  1
ACDBDICTIONARYWDFLT
  2
AcDbDictionaryWithDefault
  3
ObjectDBX Classes
 90
        0
 91
        4
280
     0
281
     0
  0
CLASS
  1
VISUALSTYLE
  2
AcDbVisualStyle
  3
ObjectDBX Classes
 90
     4095
 91
        4
280
     0
281
     0
  0
CLASS
  1
MATERIAL
  2
AcDbMaterial
  3
ObjectDBX Classes
 90
     1153
 91
        4
280
     0
281
     0
  0
CLASS
  1
SCALE
  2
AcDbScale
  3
ObjectDBX Classes
 90
     1153
 91
        4
280
     0
281
     0
  0
CLASS
  1
TABLESTYLE
  2
AcDbTableStyle
  3
ObjectDBX Classes
 90
     4095
 91
        4
280
     0
281
     0
  0
CLASS
  1
MLEADERSTYLE
  2
AcDbMLeaderStyle
  3
ACDB_MLEADERSTYLE_CLASS
 90
     4095
 91
        4
280
     0
281
     0
  0
CLASS
  1
SUN
  2
AcDbSun
  3
SCENEOE
 90
     1153
 91
        4
280
     0
281
     0
  0
CLASS
  1
DICTIONARYVAR
  2
AcDbDictionaryVar
  3
ObjectDBX Classes
 90
        0
 91
        4
280
     0
281
     0
  0
CLASS
  1
CELLSTYLEMAP
  2
AcDbCellStyleMap
  3
ObjectDBX Classes
 90
     1152
 91
        4
280
     0
281
     0
  0
ENDSEC
  0
SECTION
  2
TABLES
  0
TABLE
  2
VPORT
  5
8
330
0
100
AcDbSymbolTable
 70
     1
  0
VPORT
  5
29
330
8
100
AcDbSymbolTableRecord
100
AcDbViewportTableRecord
  2
*Active
 70
     0
 10
0.0
 20
0.0
 11
1.0
 21
1.0
 12
0.8249999999999886
 22
-18.9675
 13
0.0
 23
0.0
 14
10.0
 24
10.0
 15
10.0
 25
10.0
 16
0.0
 26
0.0
 36
1.0
 17
0.0
 27
0.0
 37
0.0
 40
40.87649999999999
 41
1.386150966936995
 42
50.0
 43
0.0
 44
0.0
 50
0.0
 51
0.0
 71
     0
 72
   100
 73
     1
 74
     3
 75
     0
 76
     0
 77
     0
 78
     0
281
     0
 65
     1
110
0.0
120
0.0
130
0.0
111
1.0
121
0.0
131
0.0
112
0.0
122
1.0
132
0.0
 79
     0
146
0.0
348
2F
 60
     3
 61
     5
292
     1
282
     1
141
0.0
142
0.0
 63
   250
361
6D
  0
ENDTAB
  0
TABLE
  2
LTYPE
  5
5
330
0
100
AcDbSymbolTable
 70
     3
  0
LTYPE
  5
14
330
5
100
AcDbSymbolTableRecord
100
AcDbLinetypeTableRecord
  2
ByBlock
 70
     0
  3

 72
    65
 73
     0
 40
0.0
  0
LTYPE
  5
15
330
5
100
AcDbSymbolTableRecord
100
AcDbLinetypeTableRecord
  2
ByLayer
 70
     0
  3

 72
    65
 73
     0
 40
0.0
  0
LTYPE
  5
16
330
5
100
AcDbSymbolTableRecord
100
AcDbLinetypeTableRecord
  2
Continuous
 70
     0
  3
Solid line
 72
    65
 73
     0
 40
0.0
  0
LTYPE
  5
9E
330
5
100
AcDbSymbolTableRecord
100
AcDbLinetypeTableRecord
  2
Dashed
 70
     0
  3

 72
    65
 73
     2
 40
2.0
 49
1.0
 74
     0
 49
-1.0
 74
     0
  0
LTYPE
  5
108
330
5
100
AcDbSymbolTableRecord
100
AcDbLinetypeTableRecord
  2
Center
 70
     0
  3

 72
    65
 73
     4
 40
1.5
 49
0.45
 74
     0
 49
-0.5
 74
     0
 49
0.05
 74
     0
 49
-0.5
 74
     0
  0
ENDTAB
  0
TABLE
  2
LAYER
  5
2
330
0
100
AcDbSymbolTable
 70
     7
  0
LAYER
  5
10
330
2
100
AcDbSymbolTableRecord
100
AcDbLayerTableRecord
  2
0
 70
     0
 62
     7
  6
Continuous
370
    -3
390
F
347
46
348
0
  0
LAYER
  5
72
330
2
100
AcDbSymbolTableRecord
100
AcDbLayerTableRecord
  2
AM_6
 70
     0
 62
    -2
  6
Continuous
370
    35
390
F
347
46
348
0
  0
LAYER
  5
9F
330
2
100
AcDbSymbolTableRecord
100
AcDbLayerTableRecord
  2
AM_9
 70
     0
 62
     6
  6
Dashed
370
    25
390
F
347
46
348
0
  0
LAYER
  5
CC
330
2
100
AcDbSymbolTableRecord
100
AcDbLayerTableRecord
  2
AM_4
 70
     0
 62
     7
  6
Continuous
370
    50
390
F
347
46
348
0
  0
LAYER
  5
105
330
2
100
AcDbSymbolTableRecord
100
AcDbLayerTableRecord
  2
AM_5
 70
     0
 62
     3
  6
Continuous
370
    25
390
F
347
46
348
0
  0
LAYER
  5
109
330
2
100
AcDbSymbolTableRecord
100
AcDbLayerTableRecord
  2
AM_7
 70
     0
 62
     7
  6
Center
370
    25
390
F
347
46
348
0
  0
LAYER
  5
1F2
330
2
100
AcDbSymbolTableRecord
100
AcDbLayerTableRecord
  2
ConnectionPoints
 70
     0
 62
     7
  6
Continuous
370
    50
390
F
347
46
348
0
  0
ENDTAB
  0
TABLE
  2
STYLE
  5
3
330
0
100
AcDbSymbolTable
 70
     1
  0
STYLE
  5
11
330
3
100
AcDbSymbolTableRecord
100
AcDbTextStyleTableRecord
  2
Standard
 70
     0
 40
0.0
 41
1.0
 50
0.0
 71
     0
 42
2.5
  3
txt
  4

  0
ENDTAB
  0
TABLE
  2
VIEW
  5
6
330
0
100
AcDbSymbolTable
 70
     0
  0
ENDTAB
  0
TABLE
  2
UCS
  5
7
330
0
100
AcDbSymbolTable
 70
     0
  0
ENDTAB
  0
TABLE
  2
APPID
  5
9
330
0
100
AcDbSymbolTable
 70
     1
  0
APPID
  5
12
330
9
100
AcDbSymbolTableRecord
100
AcDbRegAppTableRecord
  2
ACAD
 70
     0
  0
ENDTAB
  0
TABLE
  2
DIMSTYLE
  5
A
330
0
100
AcDbSymbolTable
 70
     1
100
AcDbDimStyleTable
  0
DIMSTYLE
105
27
330
A
100
AcDbSymbolTableRecord
100
AcDbDimStyleTableRecord
  2
ISO-25
 70
     0
 41
2.5
 42
0.625
 43
3.75
 44
1.25
 73
     0
 74
     0
 77
     1
 78
     8
140
2.5
141
2.5
143
0.03937007874016
147
0.625
171
     3
172
     1
178
     0
271
     2
272
     2
274
     3
278
    44
283
     0
284
     8
340
11
  0
ENDTAB
  0
TABLE
  2
BLOCK_RECORD
  5
1
330
0
100
AcDbSymbolTable
 70
     5
  0
BLOCK_RECORD
  5
1F
330
1
100
AcDbSymbolTableRecord
100
AcDbBlockTableRecord
  2
*Model_Space
340
22
 70
     0
280
     1
281
     0
  0
BLOCK_RECORD
  5
1B
330
1
100
AcDbSymbolTableRecord
100
AcDbBlockTableRecord
  2
*Paper_Space
340
1E
 70
     0
280
     1
281
     0
  0
BLOCK_RECORD
  5
23
330
1
100
AcDbSymbolTableRecord
100
AcDbBlockTableRecord
  2
*Paper_Space0
340
26
 70
     0
280
     1
281
     0
  0
BLOCK_RECORD
  5
6E
330
1
100
AcDbSymbolTableRecord
100
AcDbBlockTableRecord
  2
1_129321_4
340
0
102
{BLKREFS
331
6F
102
}
 70
     0
280
     1
281
     0
  0
BLOCK_RECORD
  5
88
330
1
100
AcDbSymbolTableRecord
100
AcDbBlockTableRecord
  2
2_129516_0_in_129321_4
340
0
102
{BLKREFS
331
89
102
}
 70
     0
280
     1
281
     0
  0
BLOCK_RECORD
  5
D2
330
1
100
AcDbSymbolTableRecord
100
AcDbBlockTableRecord
  2
3_129942_0_in_129321_4
340
0
102
{BLKREFS
331
D3
102
}
 70
     0
280
     1
281
     0
  0
BLOCK_RECORD
  5
126
330
1
100
AcDbSymbolTableRecord
100
AcDbBlockTableRecord
  2
4_129490_0_in_129321_4
340
0
102
{BLKREFS
331
127
102
}
 70
     0
280
     1
281
     0
  0
ENDTAB
  0
ENDSEC
  0
SECTION
  2
BLOCKS
  0
BLOCK
  5
20
330
1F
100
AcDbEntity
  8
0
100
AcDbBlockBegin
  2
*Model_Space
 70
     0
 10
0.0
 20
0.0
 30
0.0
  3
*Model_Space
  1

  0
ENDBLK
  5
21
330
1F
100
AcDbEntity
  8
0
100
AcDbBlockEnd
  0
BLOCK
  5
1C
330
1B
100
AcDbEntity
 67
     1
  8
0
100
AcDbBlockBegin
  2
*Paper_Space
 70
     0
 10
0.0
 20
0.0
 30
0.0
  3
*Paper_Space
  1

  0
ENDBLK
  5
1D
330
1B
100
AcDbEntity
 67
     1
  8
0
100
AcDbBlockEnd
  0
BLOCK
  5
24
330
23
100
AcDbEntity
  8
0
100
AcDbBlockBegin
  2
*Paper_Space0
 70
     0
 10
0.0
 20
0.0
 30
0.0
  3
*Paper_Space0
  1

  0
ENDBLK
  5
25
330
23
100
AcDbEntity
  8
0
100
AcDbBlockEnd
  0
BLOCK
  5
70
330
6E
100
AcDbEntity
  8
0
100
AcDbBlockBegin
  2
1_129321_4
 70
     2
 10
0.0
 20
0.0
 30
0.0
  3
1_129321_4
  1

  0
ATTDEF
  5
73
330
6E
100
AcDbEntity
  8
AM_6
100
AcDbText
 10
33.60000000000001
 20
1.069999999999998
 30
0.0
 40
0.5
  1
Grip Tight Two-Bolt Flange Metric Bore
100
AcDbAttributeDefinition
  3

  2
NN
 70
     8
280
     0
  0
ATTDEF
  5
74
330
6E
100
AcDbEntity
  8
AM_6
100
AcDbText
 10
33.60000000000001
 20
0.5699999999999976
 30
0.0
 40
0.5
  1
GT Normal Duty 2 Bolt Flange Bearings
100
AcDbAttributeDefinition
  3

  2
NT
 70
     8
280
     0
  0
ATTDEF
  5
75
330
6E
100
AcDbEntity
  8
AM_6
100
AcDbText
 10
33.60000000000001
 20
0.0699999999999976
 30
0.0
 40
0.5
  1
129321
100
AcDbAttributeDefinition
  3

  2
NB
 70
     8
280
     0
  0
ATTDEF
  5
76
330
6E
100
AcDbEntity
  8
AM_6
100
AcDbText
 10
33.60000000000001
 20
-0.4300000000000024
 30
0.0
 40
0.5
  1
$PN.$LUBE.
100
AcDbAttributeDefinition
  3

  2
NBSYN
 70
     8
280
     0
  0
ATTDEF
  5
77
330
6E
100
AcDbEntity
  8
AM_6
100
AcDbText
 10
33.60000000000001
 20
-0.9300000000000024
 30
0.0
 40
0.5
  1
129321
100
AcDbAttributeDefinition
  3

  2
LINA
 70
     8
280
     0
  0
ATTDEF
  5
78
330
6E
100
AcDbEntity
  8
AM_6
100
AcDbText
 10
33.60000000000001
 20
-1.430000000000002
 30
0.0
 40
0.5
  1
203
100
AcDbAttributeDefinition
  3

  2
SERIES
 70
     8
280
     0
  0
ATTDEF
  5
79
330
6E
100
AcDbEntity
  8
AM_6
100
AcDbText
 10
33.60000000000001
 20
-1.930000000000002
 30
0.0
 40
0.5
  1
17
100
AcDbAttributeDefinition
  3

  2
SS
 70
     8
280
     0
  0
ATTDEF
  5
7A
330
6E
100
AcDbEntity
  8
AM_6
100
AcDbText
 10
33.60000000000001
 20
-2.430000000000002
 30
0.0
 40
0.5
  1
129321
100
AcDbAttributeDefinition
  3

  2
PN
 70
     8
280
     0
  0
ATTDEF
  5
7B
330
6E
100
AcDbEntity
  8
AM_6
100
AcDbText
 10
33.60000000000001
 20
-2.930000000000002
 30
0.0
 40
0.5
  1
F2B-GT-17M
100
AcDbAttributeDefinition
  3

  2
DESCRIPTION
 70
     8
280
     0
  0
ATTDEF
  5
7C
330
6E
100
AcDbEntity
  8
AM_6
100
AcDbText
 10
33.60000000000001
 20
-3.430000000000002
 30
0.0
 40
0.5
  1
34.1
100
AcDbAttributeDefinition
  3

  2
A
 70
     8
280
     0
  0
ATTDEF
  5
7D
330
6E
100
AcDbEntity
  8
AM_6
100
AcDbText
 10
33.60000000000001
 20
-3.930000000000002
 30
0.0
 40
0.5
  1
98.4
100
AcDbAttributeDefinition
  3

  2
B
 70
     8
280
     0
  0
ATTDEF
  5
7E
330
6E
100
AcDbEntity
  8
AM_6
100
AcDbText
 10
33.60000000000001
 20
-4.430000000000002
 30
0.0
 40
0.5
  1
37.3
100
AcDbAttributeDefinition
  3

  2
C
 70
     8
280
     0
  0
ATTDEF
  5
7F
330
6E
100
AcDbEntity
  8
AM_6
100
AcDbText
 10
33.60000000000001
 20
-4.930000000000002
 30
0.0
 40
0.5
  1
76.2
100
AcDbAttributeDefinition
  3

  2
D
 70
     8
280
     0
  0
ATTDEF
  5
80
330
6E
100
AcDbEntity
  8
AM_6
100
AcDbText
 10
33.60000000000001
 20
-5.430000000000002
 30
0.0
 40
0.5
  1
M10
100
AcDbAttributeDefinition
  3

  2
F
 70
     8
280
     0
  0
ATTDEF
  5
81
330
6E
100
AcDbEntity
  8
AM_6
100
AcDbText
 10
33.60000000000001
 20
-5.930000000000002
 30
0.0
 40
0.5
  1
9.5
100
AcDbAttributeDefinition
  3

  2
H
 70
     8
280
     0
  0
ATTDEF
  5
82
330
6E
100
AcDbEntity
  8
AM_6
100
AcDbText
 10
33.60000000000001
 20
-6.430000000000002
 30
0.0
 40
0.5
  1
15.5
100
AcDbAttributeDefinition
  3

  2
J
 70
     8
280
     0
  0
ATTDEF
  5
83
330
6E
100
AcDbEntity
  8
AM_6
100
AcDbText
 10
33.60000000000001
 20
-6.930000000000002
 30
0.0
 40
0.5
  1
35.7
100
AcDbAttributeDefinition
  3

  2
L
 70
     8
280
     0
  0
ATTDEF
  5
84
330
6E
100
AcDbEntity
  8
AM_6
100
AcDbText
 10
33.60000000000001
 20
-7.430000000000002
 30
0.0
 40
0.5
  1
53.9
100
AcDbAttributeDefinition
  3

  2
M
 70
     8
280
     0
  0
ATTDEF
  5
85
330
6E
100
AcDbEntity
  8
AM_6
100
AcDbText
 10
33.60000000000001
 20
-7.930000000000002
 30
0.0
 40
0.5
  1
28.6
100
AcDbAttributeDefinition
  3

  2
N
 70
     8
280
     0
  0
ATTDEF
  5
86
330
6E
100
AcDbEntity
  8
AM_6
100
AcDbText
 10
33.60000000000001
 20
-8.430000000000003
 30
0.0
 40
0.5
  1
36.9
100
AcDbAttributeDefinition
  3

  2
Z
 70
     8
280
     0
  0
ATTDEF
  5
87
330
6E
100
AcDbEntity
  8
AM_6
100
AcDbText
 10
33.60000000000001
 20
-8.930000000000003
 30
0.0
 40
0.5
  1
baldor
100
AcDbAttributeDefinition
  3

  2
COMPANY
 70
     8
280
     0
  0
INSERT
  5
89
330
6E
100
AcDbEntity
  8
0
100
AcDbBlockReference
  2
2_129516_0_in_129321_4
 10
0.0
 20
0.0
 30
0.0
  0
INSERT
  5
D3
330
6E
100
AcDbEntity
  8
0
100
AcDbBlockReference
  2
3_129942_0_in_129321_4
 10
0.0
 20
0.0
 30
0.0
  0
INSERT
  5
127
330
6E
100
AcDbEntity
  8
0
100
AcDbBlockReference
  2
4_129490_0_in_129321_4
 10
0.0
 20
0.0
 30
0.0
  0
ENDBLK
  5
71
330
6E
100
AcDbEntity
  8
0
100
AcDbBlockEnd
  0
BLOCK
  5
8A
330
88
100
AcDbEntity
  8
0
100
AcDbBlockBegin
  2
2_129516_0_in_129321_4
 70
     2
 10
0.0
 20
0.0
 30
0.0
  3
2_129516_0_in_129321_4
  1

  0
ATTDEF
  5
8C
330
88
100
AcDbEntity
  8
AM_6
100
AcDbText
 10
24.99732282307349
 20
-4.319999999999996
 30
0.0
 40
0.5
  1
INS-GT-M B
100
AcDbAttributeDefinition
  3

  2
NN
 70
     8
280
     0
  0
ATTDEF
  5
8D
330
88
100
AcDbEntity
  8
AM_6
100
AcDbText
 10
24.99732282307349
 20
-4.819999999999996
 30
0.0
 40
0.5
  1
GT Normal Duty Bearing Inserts
100
AcDbAttributeDefinition
  3

  2
NT
 70
     8
280
     0
  0
ATTDEF
  5
8E
330
88
100
AcDbEntity
  8
AM_6
100
AcDbText
 10
24.99732282307349
 20
-5.319999999999996
 30
0.0
 40
0.5
  1
129516
100
AcDbAttributeDefinition
  3

  2
NB
 70
     8
280
     0
  0
ATTDEF
  5
8F
330
88
100
AcDbEntity
  8
AM_6
100
AcDbText
 10
24.99732282307349
 20
-5.819999999999996
 30
0.0
 40
0.5
  1
$PN.
100
AcDbAttributeDefinition
  3

  2
NBSYN
 70
     8
280
     0
  0
ATTDEF
  5
90
330
88
100
AcDbEntity
  8
AM_6
100
AcDbText
 10
24.99732282307349
 20
-6.319999999999996
 30
0.0
 40
0.5
  1
129516
100
AcDbAttributeDefinition
  3

  2
LINA
 70
     8
280
     0
  0
ATTDEF
  5
91
330
88
100
AcDbEntity
  8
AM_6
100
AcDbText
 10
24.99732282307349
 20
-6.819999999999996
 30
0.0
 40
0.5
  1
203
100
AcDbAttributeDefinition
  3

  2
SERIES
 70
     8
280
     0
  0
ATTDEF
  5
92
330
88
100
AcDbEntity
  8
AM_6
100
AcDbText
 10
24.99732282307349
 20
-7.319999999999996
 30
0.0
 40
0.5
  1
129516
100
AcDbAttributeDefinition
  3

  2
PN
 70
     8
280
     0
  0
ATTDEF
  5
93
330
88
100
AcDbEntity
  8
AM_6
100
AcDbText
 10
24.99732282307349
 20
-7.819999999999996
 30
0.0
 40
0.5
  1
INS-GT-03
100
AcDbAttributeDefinition
  3

  2
DESCRIPTION
 70
     8
280
     0
  0
ATTDEF
  5
94
330
88
100
AcDbEntity
  8
AM_6
100
AcDbText
 10
24.99732282307349
 20
-8.319999999999997
 30
0.0
 40
0.5
  1
32.8
100
AcDbAttributeDefinition
  3

  2
A
 70
     8
280
     0
  0
ATTDEF
  5
95
330
88
100
AcDbEntity
  8
AM_6
100
AcDbText
 10
24.99732282307349
 20
-8.819999999999997
 30
0.0
 40
0.5
  1
13.0
100
AcDbAttributeDefinition
  3

  2
C
 70
     8
280
     0
  0
ATTDEF
  5
96
330
88
100
AcDbEntity
  8
AM_6
100
AcDbText
 10
24.99732282307349
 20
-9.319999999999997
 30
0.0
 40
0.5
  1
40.0
100
AcDbAttributeDefinition
  3

  2
D
 70
     8
280
     0
  0
ATTDEF
  5
97
330
88
100
AcDbEntity
  8
AM_6
100
AcDbText
 10
24.99732282307349
 20
-9.819999999999997
 30
0.0
 40
0.5
  1
3.8
100
AcDbAttributeDefinition
  3

  2
J
 70
     8
280
     0
  0
ATTDEF
  5
98
330
88
100
AcDbEntity
  8
AM_6
100
AcDbText
 10
24.99732282307349
 20
-10.32
 30
0.0
 40
0.5
  1
35.6
100
AcDbAttributeDefinition
  3

  2
L
 70
     8
280
     0
  0
ATTDEF
  5
99
330
88
100
AcDbEntity
  8
AM_6
100
AcDbText
 10
24.99732282307349
 20
-10.82
 30
0.0
 40
0.5
  1
#10 - 32 x 1/4
100
AcDbAttributeDefinition
  3

  2
N
 70
     8
280
     0
  0
ATTDEF
  5
9A
330
88
100
AcDbEntity
  8
AM_6
100
AcDbText
 10
24.99732282307349
 20
-11.32
 30
0.0
 40
0.5
  1
10.2
100
AcDbAttributeDefinition
  3

  2
W
 70
     8
280
     0
  0
ATTDEF
  5
9B
330
88
100
AcDbEntity
  8
AM_6
100
AcDbText
 10
24.99732282307349
 20
-11.82
 30
0.0
 40
0.5
  1
22.9
100
AcDbAttributeDefinition
  3

  2
X
 70
     8
280
     0
  0
ATTDEF
  5
9C
330
88
100
AcDbEntity
  8
AM_6
100
AcDbText
 10
24.99732282307349
 20
-12.32
 30
0.0
 40
0.5
  1
22.6
100
AcDbAttributeDefinition
  3

  2
Y
 70
     8
280
     0
  0
ATTDEF
  5
9D
330
88
100
AcDbEntity
  8
AM_6
100
AcDbText
 10
24.99732282307349
 20
-12.82
 30
0.0
 40
0.5
  1
baldor
100
AcDbAttributeDefinition
  3

  2
COMPANY
 70
     8
280
     0
  0
LINE
  5
A0
330
88
100
AcDbEntity
  8
AM_9
100
AcDbLine
 10
13.27936507936508
 20
-30.67499999999999
 30
0.0
 11
13.27936507936508
 21
-22.08749999999996
 31
0.0
  0
LINE
  5
A1
330
88
100
AcDbEntity
  8
AM_9
100
AcDbLine
 10
-13.27936507936508
 20
-22.08749999999996
 30
0.0
 11
-13.27936507936508
 21
-30.67499999999999
 31
0.0
  0
LINE
  5
A2
330
88
100
AcDbEntity
  8
AM_9
100
AcDbLine
 10
-13.27936507936508
 20
-22.08749999999996
 30
0.0
 11
13.27936507936508
 21
-22.08749999999996
 31
0.0
  0
LINE
  5
A3
330
88
100
AcDbEntity
  8
AM_9
100
AcDbLine
 10
13.27936507936508
 20
-22.08749999999996
 30
0.0
 11
13.89981985130971
 21
-4.319999999999996
 31
0.0
  0
LINE
  5
A4
330
88
100
AcDbEntity
  8
AM_9
100
AcDbLine
 10
-13.89981985130971
 20
-4.319999999999996
 30
0.0
 11
-13.27936507936508
 21
-22.08749999999996
 31
0.0
  0
LINE
  5
A5
330
88
100
AcDbEntity
  8
AM_9
100
AcDbLine
 10
14.55079365079366
 20
-27.8125
 30
0.0
 11
14.55079365079366
 21
-25.19999999999999
 31
0.0
  0
LINE
  5
A6
330
88
100
AcDbEntity
  8
AM_9
100
AcDbLine
 10
-14.55079365079365
 20
-25.19999999999999
 30
0.0
 11
-14.55079365079365
 21
-27.8125
 31
0.0
  0
LINE
  5
A7
330
88
100
AcDbEntity
  8
AM_9
100
AcDbLine
 10
15.82222222222222
 20
-30.15499999999999
 30
0.0
 11
15.82222222222222
 21
-27.8125
 31
0.0
  0
LINE
  5
A8
330
88
100
AcDbEntity
  8
AM_9
100
AcDbLine
 10
-15.82222222222222
 20
-27.8125
 30
0.0
 11
-15.82222222222222
 21
-30.15499999999999
 31
0.0
  0
LINE
  5
A9
330
88
100
AcDbEntity
  8
AM_9
100
AcDbLine
 10
-15.82222222222222
 20
-27.8125
 30
0.0
 11
15.82222222222222
 21
-27.8125
 31
0.0
  0
LINE
  5
AA
330
88
100
AcDbEntity
  8
AM_9
100
AcDbLine
 10
15.30222222222223
 20
-30.67499999999999
 30
0.0
 11
15.82222222222222
 21
-30.15499999999999
 31
0.0
  0
LINE
  5
AB
330
88
100
AcDbEntity
  8
AM_9
100
AcDbLine
 10
-15.82222222222222
 20
-30.15499999999999
 30
0.0
 11
-15.30222222222222
 21
-30.67499999999999
 31
0.0
  0
LINE
  5
AC
330
88
100
AcDbEntity
  8
AM_9
100
AcDbLine
 10
-15.30222222222222
 20
-30.67499999999999
 30
0.0
 11
15.30222222222223
 21
-30.67499999999999
 31
0.0
  0
LINE
  5
AD
330
88
100
AcDbEntity
  8
AM_9
100
AcDbLine
 10
-15.82222222222222
 20
-30.15499999999999
 30
0.0
 11
15.82222222222222
 21
-30.15499999999999
 31
0.0
  0
LINE
  5
AE
330
88
100
AcDbEntity
  8
AM_9
100
AcDbLine
 10
-15.30222222222222
 20
-4.319999999999996
 30
0.0
 11
15.30222222222223
 21
-4.319999999999996
 31
0.0
  0
LINE
  5
AF
330
88
100
AcDbEntity
  8
AM_9
100
AcDbLine
 10
-15.30222222222222
 20
-4.319999999999996
 30
0.0
 11
-15.82222222222222
 21
-4.839999999999995
 31
0.0
  0
LINE
  5
B0
330
88
100
AcDbEntity
  8
AM_9
100
AcDbLine
 10
15.82222222222222
 20
-4.839999999999995
 30
0.0
 11
15.30222222222223
 21
-4.319999999999996
 31
0.0
  0
LINE
  5
B1
330
88
100
AcDbEntity
  8
AM_9
100
AcDbLine
 10
15.82222222222222
 20
-21.4
 30
0.0
 11
15.82222222222222
 21
-20.0
 31
0.0
  0
LINE
  5
B2
330
88
100
AcDbEntity
  8
AM_9
100
AcDbLine
 10
-15.82222222222222
 20
-20.0
 30
0.0
 11
-15.82222222222222
 21
-21.4
 31
0.0
  0
LINE
  5
B3
330
88
100
AcDbEntity
  8
AM_9
100
AcDbLine
 10
-15.82222222222222
 20
-4.839999999999995
 30
0.0
 11
15.82222222222222
 21
-4.839999999999995
 31
0.0
  0
LINE
  5
B4
330
88
100
AcDbEntity
  8
AM_9
100
AcDbLine
 10
15.82222222222222
 20
-6.999999999999996
 30
0.0
 11
15.82222222222222
 21
-4.839999999999995
 31
0.0
  0
LINE
  5
B5
330
88
100
AcDbEntity
  8
AM_9
100
AcDbLine
 10
-15.82222222222222
 20
-4.839999999999995
 30
0.0
 11
-15.82222222222222
 21
-6.999999999999996
 31
0.0
  0
LINE
  5
B6
330
88
100
AcDbEntity
  8
AM_9
100
AcDbLine
 10
18.7
 20
-18.05999999999999
 30
0.0
 11
18.7
 21
-16.54
 31
0.0
  0
LINE
  5
B7
330
88
100
AcDbEntity
  8
AM_9
100
AcDbLine
 10
-18.7
 20
-16.54
 30
0.0
 11
-18.7
 21
-18.05999999999999
 31
0.0
  0
LINE
  5
B8
330
88
100
AcDbEntity
  8
AM_9
100
AcDbLine
 10
-18.34939343055979
 20
-20.0
 30
0.0
 11
18.34939343055979
 21
-20.0
 31
0.0
  0
ARC
  5
B9
330
88
100
AcDbEntity
  8
AM_9
100
AcDbCircle
 10
18.34939343055978
 20
-19.47999999999998
 30
0.0
 40
0.5200000000000173
100
AcDbArc
 50
270.0
 51
338.5875329531146
  0
ARC
  5
BA
330
88
100
AcDbEntity
  8
AM_9
100
AcDbCircle
 10
-18.34939343055978
 20
-19.47999999999998
 30
0.0
 40
0.5200000000000191
100
AcDbArc
 50
201.4124670468854
 51
270.0
  0
LINE
  5
BB
330
88
100
AcDbEntity
  8
AM_9
100
AcDbLine
 10
-18.3493934305598
 20
-6.999999999999996
 30
0.0
 11
18.3493934305598
 21
-6.999999999999996
 31
0.0
  0
ARC
  5
BC
330
88
100
AcDbEntity
  8
AM_9
100
AcDbCircle
 10
18.3493934305598
 20
-7.520000000000005
 30
0.0
 40
0.5200000000000059
100
AcDbArc
 50
21.41246704688493
 51
90.0
  0
ARC
  5
BD
330
88
100
AcDbEntity
  8
AM_9
100
AcDbCircle
 10
-18.3493934305598
 20
-7.520000000000005
 30
0.0
 40
0.5200000000000093
100
AcDbArc
 50
90.0
 51
158.587532953115
  0
LINE
  5
BE
330
88
100
AcDbEntity
  8
AM_9
100
AcDbLine
 10
-18.83350115851408
 20
-19.66984126984127
 30
0.0
 11
18.83350115851408
 21
-19.66984126984127
 31
0.0
  0
ARC
  5
BF
330
88
100
AcDbEntity
  8
AM_9
100
AcDbCircle
 10
3.100000000001552
 20
-13.5000000000006
 30
0.0
 40
16.89999999999835
100
AcDbArc
 50
338.587532953116
 51
343.7597241107438
  0
ARC
  5
C0
330
88
100
AcDbEntity
  8
AM_9
100
AcDbCircle
 10
-3.100000000000488
 20
-13.50000000000024
 30
0.0
 40
16.89999999999947
100
AcDbArc
 50
196.2402758892564
 51
201.4124670468839
  0
LINE
  5
C1
330
88
100
AcDbEntity
  8
AM_9
100
AcDbLine
 10
-19.32564491940984
 20
-18.22635662526958
 30
0.0
 11
19.32564491940984
 21
-18.22635662526958
 31
0.0
  0
LINE
  5
C2
330
88
100
AcDbEntity
  8
AM_9
100
AcDbLine
 10
-19.20083227662472
 20
-18.05999999999999
 30
0.0
 11
19.20083227662472
 21
-18.05999999999999
 31
0.0
  0
ARC
  5
C3
330
88
100
AcDbEntity
  8
AM_9
100
AcDbCircle
 10
19.20083227662471
 20
-18.19
 30
0.0
 40
0.130000000000009
100
AcDbArc
 50
343.7597076562045
 51
90.0
  0
ARC
  5
C4
330
88
100
AcDbEntity
  8
AM_9
100
AcDbCircle
 10
-19.20083227662471
 20
-18.19
 30
0.0
 40
0.1300000000000097
100
AcDbArc
 50
90.0
 51
196.2402923437955
  0
LINE
  5
C5
330
88
100
AcDbEntity
  8
AM_9
100
AcDbLine
 10
-19.61559263241862
 20
-16.54
 30
0.0
 11
19.61559263241862
 21
-16.54
 31
0.0
  0
ARC
  5
C6
330
88
100
AcDbEntity
  8
AM_9
100
AcDbCircle
 10
19.61559263241862
 20
-16.41
 30
0.0
 40
0.129999999999999
100
AcDbArc
 50
270.0
 51
350.0072157916903
  0
ARC
  5
C7
330
88
100
AcDbEntity
  8
AM_9
100
AcDbCircle
 10
-19.61559263241862
 20
-16.41
 30
0.0
 40
0.1299999999999993
100
AcDbArc
 50
189.9927842083097
 51
270.0
  0
LINE
  5
C8
330
88
100
AcDbEntity
  8
AM_9
100
AcDbLine
 10
-18.83350115851408
 20
-7.330158730158726
 30
0.0
 11
18.83350115851408
 21
-7.330158730158726
 31
0.0
  0
ARC
  5
C9
330
88
100
AcDbEntity
  8
AM_9
100
AcDbCircle
 10
3.099999999999856
 20
-13.5
 30
0.0
 40
16.90000000000015
100
AcDbArc
 50
350.0072157916903
 51
21.41246704688389
  0
ARC
  5
CA
330
88
100
AcDbEntity
  8
AM_9
100
AcDbCircle
 10
-3.100000000004258
 20
-13.49999999999956
 30
0.0
 40
16.89999999999589
100
AcDbArc
 50
158.5875329531121
 51
189.9927842083138
  0
LINE
  5
CB
330
88
100
AcDbEntity
  8
AM_9
100
AcDbLine
 10
-19.74362048228233
 20
-16.43255813953488
 30
0.0
 11
19.74362048228233
 21
-16.43255813953488
 31
0.0
  0
LINE
  5
CD
330
88
100
AcDbEntity
  8
AM_4
100
AcDbLine
 10
14.55079365079366
 20
-25.19999999999999
 30
0.0
 11
14.55079365079366
 21
-24.94999999999999
 31
0.0
  0
LINE
  5
CE
330
88
100
AcDbEntity
  8
AM_4
100
AcDbLine
 10
-14.55079365079365
 20
-24.94999999999999
 30
0.0
 11
-14.55079365079365
 21
-25.19999999999999
 31
0.0
  0
LINE
  5
CF
330
88
100
AcDbEntity
  8
AM_4
100
AcDbLine
 10
-15.82222222222222
 20
-24.94999999999999
 30
0.0
 11
15.82222222222222
 21
-24.94999999999999
 31
0.0
  0
LINE
  5
D0
330
88
100
AcDbEntity
  8
AM_4
100
AcDbLine
 10
15.82222222222222
 20
-24.94999999999999
 30
0.0
 11
15.82222222222222
 21
-21.4
 31
0.0
  0
LINE
  5
D1
330
88
100
AcDbEntity
  8
AM_4
100
AcDbLine
 10
-15.82222222222222
 20
-21.4
 30
0.0
 11
-15.82222222222222
 21
-24.94999999999999
 31
0.0
  0
ENDBLK
  5
8B
330
88
100
AcDbEntity
  8
0
100
AcDbBlockEnd
  0
BLOCK
  5
D4
330
D2
100
AcDbEntity
  8
0
100
AcDbBlockBegin
  2
3_129942_0_in_129321_4
 70
     2
 10
0.0
 20
0.0
 30
0.0
  3
3_129942_0_in_129321_4
  1

  0
ATTDEF
  5
D6
330
D2
100
AcDbEntity
  8
AM_6
100
AcDbText
 10
22.74859149341153
 20
-3.199999999999993
 30
0.0
 40
0.5
  1
Grip Tight Normal Duty Adapter and Nut Metric Bore
100
AcDbAttributeDefinition
  3

  2
NN
 70
     8
280
     0
  0
ATTDEF
  5
D7
330
D2
100
AcDbEntity
  8
AM_6
100
AcDbText
 10
22.74859149341153
 20
-3.699999999999993
 30
0.0
 40
0.5
  1
GT and GTM Adapter & Lock Nut Assemblies
100
AcDbAttributeDefinition
  3

  2
NT
 70
     8
280
     0
  0
ATTDEF
  5
D8
330
D2
100
AcDbEntity
  8
AM_6
100
AcDbText
 10
22.74859149341153
 20
-4.199999999999992
 30
0.0
 40
0.5
  1
129942
100
AcDbAttributeDefinition
  3

  2
NB
 70
     8
280
     0
  0
ATTDEF
  5
D9
330
D2
100
AcDbEntity
  8
AM_6
100
AcDbText
 10
22.74859149341153
 20
-4.699999999999992
 30
0.0
 40
0.5
  1
$PN.
100
AcDbAttributeDefinition
  3

  2
NBSYN
 70
     8
280
     0
  0
ATTDEF
  5
DA
330
D2
100
AcDbEntity
  8
AM_6
100
AcDbText
 10
22.74859149341153
 20
-5.199999999999992
 30
0.0
 40
0.5
  1
129942
100
AcDbAttributeDefinition
  3

  2
LINA
 70
     8
280
     0
  0
ATTDEF
  5
DB
330
D2
100
AcDbEntity
  8
AM_6
100
AcDbText
 10
22.74859149341153
 20
-5.699999999999992
 30
0.0
 40
0.5
  1
203
100
AcDbAttributeDefinition
  3

  2
SERIES
 70
     8
280
     0
  0
ATTDEF
  5
DC
330
D2
100
AcDbEntity
  8
AM_6
100
AcDbText
 10
22.74859149341153
 20
-6.199999999999992
 30
0.0
 40
0.5
  1
17
100
AcDbAttributeDefinition
  3

  2
SS
 70
     8
280
     0
  0
ATTDEF
  5
DD
330
D2
100
AcDbEntity
  8
AM_6
100
AcDbText
 10
22.74859149341153
 20
-6.699999999999992
 30
0.0
 40
0.5
  1
129942
100
AcDbAttributeDefinition
  3

  2
PN
 70
     8
280
     0
  0
ATTDEF
  5
DE
330
D2
100
AcDbEntity
  8
AM_6
100
AcDbText
 10
22.74859149341153
 20
-7.199999999999992
 30
0.0
 40
0.5
  1
AN-GT-03-17M
100
AcDbAttributeDefinition
  3

  2
DESCRIPTION
 70
     8
280
     0
  0
ATTDEF
  5
DF
330
D2
100
AcDbEntity
  8
AM_6
100
AcDbText
 10
22.74859149341153
 20
-7.699999999999992
 30
0.0
 40
0.5
  1
34.1
100
AcDbAttributeDefinition
  3

  2
A
 70
     8
280
     0
  0
ATTDEF
  5
E0
330
D2
100
AcDbEntity
  8
AM_6
100
AcDbText
 10
22.74859149341153
 20
-8.199999999999992
 30
0.0
 40
0.5
  1
13.0
100
AcDbAttributeDefinition
  3

  2
C
 70
     8
280
     0
  0
ATTDEF
  5
E1
330
D2
100
AcDbEntity
  8
AM_6
100
AcDbText
 10
22.74859149341153
 20
-8.699999999999992
 30
0.0
 40
0.5
  1
40.0
100
AcDbAttributeDefinition
  3

  2
D
 70
     8
280
     0
  0
ATTDEF
  5
E2
330
D2
100
AcDbEntity
  8
AM_6
100
AcDbText
 10
22.74859149341153
 20
-9.199999999999992
 30
0.0
 40
0.5
  1
3.8
100
AcDbAttributeDefinition
  3

  2
J
 70
     8
280
     0
  0
ATTDEF
  5
E3
330
D2
100
AcDbEntity
  8
AM_6
100
AcDbText
 10
22.74859149341153
 20
-9.699999999999992
 30
0.0
 40
0.5
  1
35.7
100
AcDbAttributeDefinition
  3

  2
L
 70
     8
280
     0
  0
ATTDEF
  5
E4
330
D2
100
AcDbEntity
  8
AM_6
100
AcDbText
 10
22.74859149341153
 20
-10.19999999999999
 30
0.0
 40
0.5
  1
10 - 32 x 1/4
100
AcDbAttributeDefinition
  3

  2
N
 70
     8
280
     0
  0
ATTDEF
  5
E5
330
D2
100
AcDbEntity
  8
AM_6
100
AcDbText
 10
22.74859149341153
 20
-10.69999999999999
 30
0.0
 40
0.5
  1
10.3
100
AcDbAttributeDefinition
  3

  2
W
 70
     8
280
     0
  0
ATTDEF
  5
E6
330
D2
100
AcDbEntity
  8
AM_6
100
AcDbText
 10
22.74859149341153
 20
-11.19999999999999
 30
0.0
 40
0.5
  1
23.4
100
AcDbAttributeDefinition
  3

  2
X
 70
     8
280
     0
  0
ATTDEF
  5
E7
330
D2
100
AcDbEntity
  8
AM_6
100
AcDbText
 10
22.74859149341153
 20
-11.69999999999999
 30
0.0
 40
0.5
  1
23.8
100
AcDbAttributeDefinition
  3

  2
Y
 70
     8
280
     0
  0
ATTDEF
  5
E8
330
D2
100
AcDbEntity
  8
AM_6
100
AcDbText
 10
22.74859149341153
 20
-12.19999999999999
 30
0.0
 40
0.5
  1
baldor
100
AcDbAttributeDefinition
  3

  2
COMPANY
 70
     8
280
     0
  0
LINE
  5
E9
330
D2
100
AcDbEntity
  8
AM_9
100
AcDbLine
 10
16.65999603332011
 20
-25.2
 30
0.0
 11
16.65999603332011
 21
-36.9
 31
0.0
  0
LINE
  5
EA
330
D2
100
AcDbEntity
  8
AM_9
100
AcDbLine
 10
-17.4182
 20
-35.63953333333333
 30
0.0
 11
-13.8193
 21
-35.63953333333333
 31
0.0
  0
LINE
  5
EB
330
D2
100
AcDbEntity
  8
AM_9
100
AcDbLine
 10
-13.8193
 20
-31.67713333333332
 30
0.0
 11
-17.4182
 21
-31.67713333333332
 31
0.0
  0
LINE
  5
EC
330
D2
100
AcDbEntity
  8
AM_9
100
AcDbLine
 10
-17.4182
 20
-31.67713333333332
 30
0.0
 11
-17.85
 21
-31.24533333333333
 31
0.0
  0
LINE
  5
ED
330
D2
100
AcDbEntity
  8
AM_9
100
AcDbLine
 10
-17.85
 20
-36.07133333333332
 30
0.0
 11
-17.4182
 21
-35.63953333333333
 31
0.0
  0
LINE
  5
EE
330
D2
100
AcDbEntity
  8
AM_9
100
AcDbLine
 10
-17.4182
 20
-31.67713333333332
 30
0.0
 11
-17.4182
 21
-35.63953333333333
 31
0.0
  0
LINE
  5
EF
330
D2
100
AcDbEntity
  8
AM_9
100
AcDbLine
 10
-13.8193
 20
-35.63953333333333
 30
0.0
 11
-13.3875
 21
-36.07133333333333
 31
0.0
  0
LINE
  5
F0
330
D2
100
AcDbEntity
  8
AM_9
100
AcDbLine
 10
-13.3875
 20
-31.24533333333333
 30
0.0
 11
-13.8193
 21
-31.67713333333332
 31
0.0
  0
LINE
  5
F1
330
D2
100
AcDbEntity
  8
AM_9
100
AcDbLine
 10
-13.3875
 20
-31.24533333333333
 30
0.0
 11
-13.3875
 21
-36.07133333333333
 31
0.0
  0
LINE
  5
F2
330
D2
100
AcDbEntity
  8
AM_9
100
AcDbLine
 10
-13.8193
 20
-31.67713333333332
 30
0.0
 11
-13.8193
 21
-35.63953333333333
 31
0.0
  0
LINE
  5
F3
330
D2
100
AcDbEntity
  8
AM_9
100
AcDbLine
 10
8.500000000000002
 20
-37.3
 30
0.0
 11
8.500000000000002
 21
-3.199999999999993
 31
0.0
  0
LINE
  5
F4
330
D2
100
AcDbEntity
  8
AM_9
100
AcDbLine
 10
-8.499999999999998
 20
-3.199999999999993
 30
0.0
 11
-8.499999999999998
 21
-37.3
 31
0.0
  0
LINE
  5
F5
330
D2
100
AcDbEntity
  8
AM_9
100
AcDbLine
 10
13.31666666666666
 20
-31.04999999999999
 30
0.0
 11
13.31666666666666
 21
-22.27500000000008
 31
0.0
  0
LINE
  5
F6
330
D2
100
AcDbEntity
  8
AM_9
100
AcDbLine
 10
-13.31666666666666
 20
-22.27500000000008
 30
0.0
 11
-13.31666666666666
 21
-31.04999999999999
 31
0.0
  0
LINE
  5
F7
330
D2
100
AcDbEntity
  8
AM_9
100
AcDbLine
 10
-1.249999999999999
 20
-3.199999999999996
 30
0.0
 11
-1.25
 21
-36.9
 31
0.0
  0
LINE
  5
F8
330
D2
100
AcDbEntity
  8
AM_9
100
AcDbLine
 10
1.250000000000001
 20
-3.199999999999996
 30
0.0
 11
1.250000000000001
 21
-36.9
 31
0.0
  0
LINE
  5
F9
330
D2
100
AcDbEntity
  8
AM_9
100
AcDbLine
 10
-13.31666666666666
 20
-22.27500000000008
 30
0.0
 11
13.31666666666666
 21
-22.27500000000008
 31
0.0
  0
LINE
  5
FA
330
D2
100
AcDbEntity
  8
AM_9
100
AcDbLine
 10
13.31666666666666
 20
-22.27500000000008
 30
0.0
 11
13.98278034472176
 21
-3.199999999999996
 31
0.0
  0
LINE
  5
FB
330
D2
100
AcDbEntity
  8
AM_9
100
AcDbLine
 10
-13.98278034472175
 20
-3.199999999999996
 30
0.0
 11
-13.31666666666666
 21
-22.27500000000008
 31
0.0
  0
LINE
  5
FC
330
D2
100
AcDbEntity
  8
AM_9
100
AcDbLine
 10
-13.98278034472175
 20
-3.199999999999996
 30
0.0
 11
13.98278034472176
 21
-3.199999999999996
 31
0.0
  0
LINE
  5
FD
330
D2
100
AcDbEntity
  8
AM_9
100
AcDbLine
 10
-17.7769972450712
 20
-35.35383271646797
 30
0.0
 11
-17.7640486049915
 21
-35.19263384186816
 31
0.0
  0
LINE
  5
FE
330
D2
100
AcDbEntity
  8
AM_9
100
AcDbLine
 10
14.59166666666667
 20
-28.125
 30
0.0
 11
14.59166666666667
 21
-25.19999999999999
 31
0.0
  0
LINE
  5
FF
330
D2
100
AcDbEntity
  8
AM_9
100
AcDbLine
 10
-14.59166666666667
 20
-25.19999999999999
 30
0.0
 11
-14.59166666666667
 21
-28.125
 31
0.0
  0
LINE
  5
100
330
D2
100
AcDbEntity
  8
AM_9
100
AcDbLine
 10
-6.684549749469628
 20
-25.19999999999999
 30
0.0
 11
-6.684549749469628
 21
-36.9
 31
0.0
  0
LINE
  5
101
330
D2
100
AcDbEntity
  8
AM_9
100
AcDbLine
 10
-16.04516666666666
 20
-28.125
 30
0.0
 11
16.04516666666666
 21
-28.125
 31
0.0
  0
LINE
  5
102
330
D2
100
AcDbEntity
  8
AM_9
100
AcDbLine
 10
-16.04516666666666
 20
-31.04999999999999
 30
0.0
 11
16.04516666666666
 21
-31.04999999999999
 31
0.0
  0
LINE
  5
103
330
D2
100
AcDbEntity
  8
AM_9
100
AcDbLine
 10
16.04516666666666
 20
-31.04999999999999
 30
0.0
 11
16.04516666666666
 21
-28.125
 31
0.0
  0
LINE
  5
104
330
D2
100
AcDbEntity
  8
AM_9
100
AcDbLine
 10
-16.04516666666666
 20
-28.125
 30
0.0
 11
-16.04516666666666
 21
-31.04999999999999
 31
0.0
  0
LINE
  5
106
330
D2
100
AcDbEntity
  8
AM_5
100
AcDbLine
 10
-17.85
 20
-36.07133333333333
 30
0.0
 11
-13.3875
 21
-36.07133333333333
 31
0.0
  0
LINE
  5
107
330
D2
100
AcDbEntity
  8
AM_5
100
AcDbLine
 10
-17.85
 20
-31.24533333333333
 30
0.0
 11
-13.3875
 21
-31.24533333333333
 31
0.0
  0
LINE
  5
10A
330
D2
100
AcDbEntity
  8
AM_7
100
AcDbLine
 10
-13.164375
 20
-33.65833333333332
 30
0.0
 11
-18.073125
 21
-33.65833333333332
 31
0.0
  0
LINE
  5
10B
330
D2
100
AcDbEntity
  8
AM_4
100
AcDbLine
 10
-1.249999999999999
 20
-37.3
 30
0.0
 11
-1.25
 21
-36.9
 31
0.0
  0
LINE
  5
10C
330
D2
100
AcDbEntity
  8
AM_4
100
AcDbLine
 10
1.250000000000001
 20
-37.3
 30
0.0
 11
1.250000000000002
 21
-36.9
 31
0.0
  0
LINE
  5
10D
330
D2
100
AcDbEntity
  8
AM_4
100
AcDbLine
 10
13.31666666666667
 20
-37.3
 30
0.0
 11
13.31666666666667
 21
-36.9
 31
0.0
  0
LINE
  5
10E
330
D2
100
AcDbEntity
  8
AM_4
100
AcDbLine
 10
-13.31666666666666
 20
-36.9
 30
0.0
 11
-13.31666666666666
 21
-37.3
 31
0.0
  0
LINE
  5
10F
330
D2
100
AcDbEntity
  8
AM_4
100
AcDbLine
 10
-13.31666666666666
 20
-37.3
 30
0.0
 11
13.31666666666667
 21
-37.3
 31
0.0
  0
LINE
  5
110
330
D2
100
AcDbEntity
  8
AM_4
100
AcDbLine
 10
-17.32999999999999
 20
-25.19999999999999
 30
0.0
 11
-17.84999999999999
 21
-25.71999999999999
 31
0.0
  0
LINE
  5
111
330
D2
100
AcDbEntity
  8
AM_4
100
AcDbLine
 10
-10.25821350258377
 20
-25.19999999999999
 30
0.0
 11
-10.5197440138962
 21
-25.72
 31
0.0
  0
LINE
  5
112
330
D2
100
AcDbEntity
  8
AM_4
100
AcDbLine
 10
-10.5197440138962
 20
-25.72
 30
0.0
 11
-10.5197440138962
 21
-36.38
 31
0.0
  0
LWPOLYLINE
  5
113
330
D2
100
AcDbEntity
  8
AM_4
100
AcDbPolyline
 90
        7
 70
     0
 43
0.0
 10
-17.77372918079882
 20
-35.31460995780644
 10
-17.79478977007207
 20
-35.55338361259196
 10
-17.8149630838595
 20
-35.7571706561088
 10
-17.83320483304537
 20
-35.9260397118715
 10
-17.84565828389667
 20
-36.03460232361913
 10
-17.8499679138514
 20
-36.07106387750962
 10
-17.84999999999978
 20
-36.07133333333156
  0
LINE
  5
114
330
D2
100
AcDbEntity
  8
AM_4
100
AcDbLine
 10
-17.85
 20
-25.71999999999999
 30
0.0
 11
-17.85
 21
-31.25204381584879
 31
0.0
  0
LINE
  5
115
330
D2
100
AcDbEntity
  8
AM_4
100
AcDbLine
 10
-17.85
 20
-36.06862876502413
 30
0.0
 11
-17.85
 21
-36.38
 31
0.0
  0
LINE
  5
116
330
D2
100
AcDbEntity
  8
AM_4
100
AcDbLine
 10
-17.85
 20
-25.71999999999999
 30
0.0
 11
-10.5197440138962
 21
-25.72
 31
0.0
  0
LWPOLYLINE
  5
117
330
D2
100
AcDbEntity
  8
AM_4
100
AcDbPolyline
 90
       16
 70
     0
 43
0.0
 10
-17.84999999999957
 20
-31.24533333333695
 10
-17.84970602212379
 20
-31.24780322038413
 10
-17.84427390825028
 20
-31.29389281134835
 10
-17.83211796980285
 20
-31.4003427712985
 10
-17.81507815911333
 20
-31.55838915641607
 10
-17.79411458729539
 20
-31.77047657938203
 10
-17.77125747421227
 20
-32.03234127595385
 10
-17.7486821335107
 20
-32.3403455629824
 10
-17.72863791880631
 20
-32.69204827857572
 10
-17.713718709558
 20
-33.07800704253076
 10
-17.70603044651993
 20
-33.48653886216198
 10
-17.70689148295991
 20
-33.91114419886798
 10
-17.71641027123337
 20
-34.32496972842998
 10
-17.73407865506977
 20
-34.73146710494738
 10
-17.75254561536518
 20
-35.03387952392751
 10
-17.77372918079882
 20
-35.31460995780644
  0
LINE
  5
118
330
D2
100
AcDbEntity
  8
AM_4
100
AcDbLine
 10
-10.5197440138962
 20
-36.38
 30
0.0
 11
-10.25821350258378
 21
-36.9
 31
0.0
  0
LINE
  5
119
330
D2
100
AcDbEntity
  8
AM_4
100
AcDbLine
 10
-17.85
 20
-36.38
 30
0.0
 11
-17.33
 21
-36.9
 31
0.0
  0
LINE
  5
11A
330
D2
100
AcDbEntity
  8
AM_4
100
AcDbLine
 10
-17.85
 20
-36.38
 30
0.0
 11
-10.5197440138962
 21
-36.38
 31
0.0
  0
LINE
  5
11B
330
D2
100
AcDbEntity
  8
AM_4
100
AcDbLine
 10
-9.975446283850495
 20
-25.2
 30
0.0
 11
-9.975446283850495
 21
-36.9
 31
0.0
  0
LINE
  5
11C
330
D2
100
AcDbEntity
  8
AM_4
100
AcDbLine
 10
17.22553047078666
 20
-25.19999999999999
 30
0.0
 11
17.74859149341152
 21
-25.72
 31
0.0
  0
LINE
  5
11D
330
D2
100
AcDbEntity
  8
AM_4
100
AcDbLine
 10
-17.32999999999999
 20
-25.19999999999999
 30
0.0
 11
17.22553047078666
 21
-25.19999999999999
 31
0.0
  0
LINE
  5
11E
330
D2
100
AcDbEntity
  8
AM_4
100
AcDbLine
 10
-7.228847479515336
 20
-25.72
 30
0.0
 11
-6.967316968202904
 21
-25.19999999999999
 31
0.0
  0
LINE
  5
11F
330
D2
100
AcDbEntity
  8
AM_4
100
AcDbLine
 10
17.74859149341152
 20
-25.72
 30
0.0
 11
17.74859149341153
 21
-36.38
 31
0.0
  0
LINE
  5
120
330
D2
100
AcDbEntity
  8
AM_4
100
AcDbLine
 10
-7.228847479515336
 20
-25.72
 30
0.0
 11
17.74859149341152
 21
-25.72
 31
0.0
  0
LINE
  5
121
330
D2
100
AcDbEntity
  8
AM_4
100
AcDbLine
 10
-7.228847479515338
 20
-36.38
 30
0.0
 11
-7.228847479515336
 21
-25.72
 31
0.0
  0
LINE
  5
122
330
D2
100
AcDbEntity
  8
AM_4
100
AcDbLine
 10
17.74859149341153
 20
-36.38
 30
0.0
 11
17.22553047078667
 21
-36.9
 31
0.0
  0
LINE
  5
123
330
D2
100
AcDbEntity
  8
AM_4
100
AcDbLine
 10
-7.228847479515338
 20
-36.38
 30
0.0
 11
17.74859149341153
 21
-36.38
 31
0.0
  0
LINE
  5
124
330
D2
100
AcDbEntity
  8
AM_4
100
AcDbLine
 10
-6.967316968202907
 20
-36.9
 30
0.0
 11
-7.228847479515338
 21
-36.38
 31
0.0
  0
LINE
  5
125
330
D2
100
AcDbEntity
  8
AM_4
100
AcDbLine
 10
-17.33
 20
-36.9
 30
0.0
 11
17.22553047078667
 21
-36.9
 31
0.0
  0
ENDBLK
  5
D5
330
D2
100
AcDbEntity
  8
0
100
AcDbBlockEnd
  0
BLOCK
  5
128
330
126
100
AcDbEntity
  8
0
100
AcDbBlockBegin
  2
4_129490_0_in_129321_4
 70
     2
 10
0.0
 20
0.0
 30
0.0
  3
4_129490_0_in_129321_4
  1

  0
ATTDEF
  5
12A
330
126
100
AcDbEntity
  8
AM_6
100
AcDbText
 10
33.60000000000001
 20
1.069999999999998
 30
0.0
 40
0.5
  1
F2B-GT-M-B
100
AcDbAttributeDefinition
  3

  2
NN
 70
     8
280
     0
  0
ATTDEF
  5
12B
330
126
100
AcDbEntity
  8
AM_6
100
AcDbText
 10
33.60000000000001
 20
0.5699999999999976
 30
0.0
 40
0.5
  1
GT Normal Duty 2 Bolt Flange Bearings
100
AcDbAttributeDefinition
  3

  2
NT
 70
     8
280
     0
  0
ATTDEF
  5
12C
330
126
100
AcDbEntity
  8
AM_6
100
AcDbText
 10
33.60000000000001
 20
0.0699999999999976
 30
0.0
 40
0.5
  1
129490
100
AcDbAttributeDefinition
  3

  2
NB
 70
     8
280
     0
  0
ATTDEF
  5
12D
330
126
100
AcDbEntity
  8
AM_6
100
AcDbText
 10
33.60000000000001
 20
-0.4300000000000024
 30
0.0
 40
0.5
  1
$PN.$LUBE.
100
AcDbAttributeDefinition
  3

  2
NBSYN
 70
     8
280
     0
  0
ATTDEF
  5
12E
330
126
100
AcDbEntity
  8
AM_6
100
AcDbText
 10
33.60000000000001
 20
-0.9300000000000024
 30
0.0
 40
0.5
  1
129490
100
AcDbAttributeDefinition
  3

  2
LINA
 70
     8
280
     0
  0
ATTDEF
  5
12F
330
126
100
AcDbEntity
  8
AM_6
100
AcDbText
 10
33.60000000000001
 20
-1.430000000000002
 30
0.0
 40
0.5
  1
203
100
AcDbAttributeDefinition
  3

  2
SERIES
 70
     8
280
     0
  0
ATTDEF
  5
130
330
126
100
AcDbEntity
  8
AM_6
100
AcDbText
 10
33.60000000000001
 20
-1.930000000000002
 30
0.0
 40
0.5
  1
40
100
AcDbAttributeDefinition
  3

  2
BOD
 70
     8
280
     0
  0
ATTDEF
  5
131
330
126
100
AcDbEntity
  8
AM_6
100
AcDbText
 10
33.60000000000001
 20
-2.430000000000002
 30
0.0
 40
0.5
  1
17
100
AcDbAttributeDefinition
  3

  2
SS
 70
     8
280
     0
  0
ATTDEF
  5
132
330
126
100
AcDbEntity
  8
AM_6
100
AcDbText
 10
33.60000000000001
 20
-2.930000000000002
 30
0.0
 40
0.5
  1
129490
100
AcDbAttributeDefinition
  3

  2
PN
 70
     8
280
     0
  0
ATTDEF
  5
133
330
126
100
AcDbEntity
  8
AM_6
100
AcDbText
 10
33.60000000000001
 20
-3.430000000000002
 30
0.0
 40
0.5
  1
F2B-GT-03
100
AcDbAttributeDefinition
  3

  2
DESCRIPTION
 70
     8
280
     0
  0
ATTDEF
  5
134
330
126
100
AcDbEntity
  8
AM_6
100
AcDbText
 10
33.60000000000001
 20
-3.930000000000002
 30
0.0
 40
0.5
  1
With Lube
100
AcDbAttributeDefinition
  3

  2
LUBE
 70
     8
280
     0
  0
ATTDEF
  5
135
330
126
100
AcDbEntity
  8
AM_6
100
AcDbText
 10
33.60000000000001
 20
-4.430000000000002
 30
0.0
 40
0.5
  1
0.3
100
AcDbAttributeDefinition
  3

  2
WEIGHT
 70
     8
280
     0
  0
ATTDEF
  5
136
330
126
100
AcDbEntity
  8
AM_6
100
AcDbText
 10
33.60000000000001
 20
-4.930000000000002
 30
0.0
 40
0.5
  1
34.1
100
AcDbAttributeDefinition
  3

  2
A
 70
     8
280
     0
  0
ATTDEF
  5
137
330
126
100
AcDbEntity
  8
AM_6
100
AcDbText
 10
33.60000000000001
 20
-5.430000000000002
 30
0.0
 40
0.5
  1
98.4
100
AcDbAttributeDefinition
  3

  2
B
 70
     8
280
     0
  0
ATTDEF
  5
138
330
126
100
AcDbEntity
  8
AM_6
100
AcDbText
 10
33.60000000000001
 20
-5.930000000000002
 30
0.0
 40
0.5
  1
37.3
100
AcDbAttributeDefinition
  3

  2
C
 70
     8
280
     0
  0
ATTDEF
  5
139
330
126
100
AcDbEntity
  8
AM_6
100
AcDbText
 10
33.60000000000001
 20
-6.430000000000002
 30
0.0
 40
0.5
  1
76.2
100
AcDbAttributeDefinition
  3

  2
D
 70
     8
280
     0
  0
ATTDEF
  5
13A
330
126
100
AcDbEntity
  8
AM_6
100
AcDbText
 10
33.60000000000001
 20
-6.930000000000002
 30
0.0
 40
0.5
  1
M10
100
AcDbAttributeDefinition
  3

  2
F
 70
     8
280
     0
  0
ATTDEF
  5
13B
330
126
100
AcDbEntity
  8
AM_6
100
AcDbText
 10
33.60000000000001
 20
-7.430000000000002
 30
0.0
 40
0.5
  1
9.5
100
AcDbAttributeDefinition
  3

  2
H
 70
     8
280
     0
  0
ATTDEF
  5
13C
330
126
100
AcDbEntity
  8
AM_6
100
AcDbText
 10
33.60000000000001
 20
-7.930000000000002
 30
0.0
 40
0.5
  1
15.5
100
AcDbAttributeDefinition
  3

  2
J
 70
     8
280
     0
  0
ATTDEF
  5
13D
330
126
100
AcDbEntity
  8
AM_6
100
AcDbText
 10
33.60000000000001
 20
-8.430000000000003
 30
0.0
 40
0.5
  1
35.7
100
AcDbAttributeDefinition
  3

  2
L
 70
     8
280
     0
  0
ATTDEF
  5
13E
330
126
100
AcDbEntity
  8
AM_6
100
AcDbText
 10
33.60000000000001
 20
-8.930000000000003
 30
0.0
 40
0.5
  1
53.9
100
AcDbAttributeDefinition
  3

  2
M
 70
     8
280
     0
  0
ATTDEF
  5
13F
330
126
100
AcDbEntity
  8
AM_6
100
AcDbText
 10
33.60000000000001
 20
-9.430000000000003
 30
0.0
 40
0.5
  1
28.6
100
AcDbAttributeDefinition
  3

  2
N
 70
     8
280
     0
  0
ATTDEF
  5
140
330
126
100
AcDbEntity
  8
AM_6
100
AcDbText
 10
33.60000000000001
 20
-9.930000000000003
 30
0.0
 40
0.5
  1
36.9
100
AcDbAttributeDefinition
  3

  2
Z
 70
     8
280
     0
  0
ATTDEF
  5
141
330
126
100
AcDbEntity
  8
AM_6
100
AcDbText
 10
33.60000000000001
 20
-10.43
 30
0.0
 40
0.5
  1
10.8
100
AcDbAttributeDefinition
  3

  2
F1
 70
     8
280
     0
  0
ATTDEF
  5
142
330
126
100
AcDbEntity
  8
AM_6
100
AcDbText
 10
33.60000000000001
 20
-10.93
 30
0.0
 40
0.5
  1
baldor
100
AcDbAttributeDefinition
  3

  2
COMPANY
 70
     8
280
     0
  0
LWPOLYLINE
  5
143
330
126
100
AcDbEntity
  8
AM_9
100
AcDbPolyline
 90
        4
 70
     0
 43
0.0
 10
13.49994175023947
 20
-10.32635182233307
 10
13.49164842057334
 20
-10.18230824189573
 10
13.47855145675344
 20
-10.04463027021405
 10
13.45006177466066
 20
-9.8548726643711
  0
LINE
  5
144
330
126
100
AcDbEntity
  8
AM_9
100
AcDbLine
 10
21.9421035
 20
-19.4
 30
0.0
 11
21.9421035
 21
-21.4
 31
0.0
  0
LINE
  5
145
330
126
100
AcDbEntity
  8
AM_9
100
AcDbLine
 10
21.720099
 20
-19.4
 30
0.0
 11
21.720099
 21
-21.4
 31
0.0
  0
LINE
  5
146
330
126
100
AcDbEntity
  8
AM_9
100
AcDbLine
 10
21.868102
 20
-19.4
 30
0.0
 11
21.868102
 21
-21.4
 31
0.0
  0
LINE
  5
147
330
126
100
AcDbEntity
  8
AM_9
100
AcDbLine
 10
21.646097
 20
-19.4
 30
0.0
 11
21.646097
 21
-21.4
 31
0.0
  0
LINE
  5
148
330
126
100
AcDbEntity
  8
AM_9
100
AcDbLine
 10
21.42089
 20
-19.4
 30
0.0
 11
21.42089
 21
-21.4
 31
0.0
  0
LINE
  5
149
330
126
100
AcDbEntity
  8
AM_9
100
AcDbLine
 10
22.34591
 20
-19.4
 30
0.0
 11
22.34591
 21
-21.4
 31
0.0
  0
LINE
  5
14A
330
126
100
AcDbEntity
  8
AM_9
100
AcDbLine
 10
22.160906
 20
-19.4
 30
0.0
 11
22.160906
 21
-21.4
 31
0.0
  0
LINE
  5
14B
330
126
100
AcDbEntity
  8
AM_9
100
AcDbLine
 10
21.605894
 20
-19.4
 30
0.0
 11
21.605894
 21
-21.4
 31
0.0
  0
LINE
  5
14C
330
126
100
AcDbEntity
  8
AM_9
100
AcDbLine
 10
21.4578905
 20
-19.4
 30
0.0
 11
21.4578905
 21
-21.4
 31
0.0
  0
LINE
  5
14D
330
126
100
AcDbEntity
  8
AM_9
100
AcDbLine
 10
22.3089095
 20
-19.4
 30
0.0
 11
22.3089095
 21
-21.4
 31
0.0
  0
LINE
  5
14E
330
126
100
AcDbEntity
  8
AM_9
100
AcDbLine
 10
21.34689000000001
 20
-19.4
 30
0.0
 11
21.34689000000001
 21
-21.4
 31
0.0
  0
LINE
  5
14F
330
126
100
AcDbEntity
  8
AM_9
100
AcDbLine
 10
22.41991
 20
-19.4
 30
0.0
 11
22.41991
 21
-21.4
 31
0.0
  0
LINE
  5
150
330
126
100
AcDbEntity
  8
AM_9
100
AcDbLine
 10
21.124885
 20
-19.4
 30
0.0
 11
21.124885
 21
-21.4
 31
0.0
  0
LINE
  5
151
330
126
100
AcDbEntity
  8
AM_9
100
AcDbLine
 10
22.641915
 20
-19.4
 30
0.0
 11
22.641915
 21
-21.4
 31
0.0
  0
LINE
  5
152
330
126
100
AcDbEntity
  8
AM_9
100
AcDbLine
 10
21.272885
 20
-19.4
 30
0.0
 11
21.272885
 21
-21.4
 31
0.0
  0
LINE
  5
153
330
126
100
AcDbEntity
  8
AM_9
100
AcDbLine
 10
22.493915
 20
-19.4
 30
0.0
 11
22.493915
 21
-21.4
 31
0.0
  0
LINE
  5
154
330
126
100
AcDbEntity
  8
AM_9
100
AcDbLine
 10
21.05088
 20
-19.4
 30
0.0
 11
21.05088
 21
-21.4
 31
0.0
  0
LINE
  5
155
330
126
100
AcDbEntity
  8
AM_9
100
AcDbLine
 10
22.71592
 20
-19.4
 30
0.0
 11
22.71592
 21
-21.4
 31
0.0
  0
LINE
  5
156
330
126
100
AcDbEntity
  8
AM_9
100
AcDbLine
 10
22.530915
 20
-19.4
 30
0.0
 11
22.530915
 21
-21.4
 31
0.0
  0
LINE
  5
157
330
126
100
AcDbEntity
  8
AM_9
100
AcDbLine
 10
21.235885
 20
-19.4
 30
0.0
 11
21.235885
 21
-21.4
 31
0.0
  0
LINE
  5
158
330
126
100
AcDbEntity
  8
AM_9
100
AcDbLine
 10
22.75292
 20
-19.4
 30
0.0
 11
20.90608
 21
-19.4
 31
0.0
  0
LINE
  5
159
330
126
100
AcDbEntity
  8
AM_9
100
AcDbLine
 10
21.01388
 20
-19.4
 30
0.0
 11
21.01388
 21
-21.4
 31
0.0
  0
LINE
  5
15A
330
126
100
AcDbEntity
  8
AM_9
100
AcDbLine
 10
22.75292
 20
-19.4
 30
0.0
 11
22.75292
 21
-21.4
 31
0.0
  0
LINE
  5
15B
330
126
100
AcDbEntity
  8
AM_9
100
AcDbLine
 10
21.31309
 20
-19.4
 30
0.0
 11
21.31309
 21
-21.4
 31
0.0
  0
LINE
  5
15C
330
126
100
AcDbEntity
  8
AM_9
100
AcDbLine
 10
22.23811
 20
-19.4
 30
0.0
 11
22.23811
 21
-21.4
 31
0.0
  0
LINE
  5
15D
330
126
100
AcDbEntity
  8
AM_9
100
AcDbLine
 10
21.498094
 20
-19.4
 30
0.0
 11
21.498094
 21
-21.4
 31
0.0
  0
LINE
  5
15E
330
126
100
AcDbEntity
  8
AM_9
100
AcDbLine
 10
22.053106
 20
-19.4
 30
0.0
 11
22.053106
 21
-21.4
 31
0.0
  0
LINE
  5
15F
330
126
100
AcDbEntity
  8
AM_9
100
AcDbLine
 10
22.2011095
 20
-19.4
 30
0.0
 11
22.2011095
 21
-21.4
 31
0.0
  0
LINE
  5
160
330
126
100
AcDbEntity
  8
AM_9
100
AcDbLine
 10
21.3500905
 20
-19.4
 30
0.0
 11
21.3500905
 21
-21.4
 31
0.0
  0
LINE
  5
161
330
126
100
AcDbEntity
  8
AM_9
100
AcDbLine
 10
21.23909
 20
-19.4
 30
0.0
 11
21.23909
 21
-21.4
 31
0.0
  0
LINE
  5
162
330
126
100
AcDbEntity
  8
AM_9
100
AcDbLine
 10
22.31211
 20
-19.4
 30
0.0
 11
22.31211
 21
-21.4
 31
0.0
  0
LINE
  5
163
330
126
100
AcDbEntity
  8
AM_9
100
AcDbLine
 10
22.534115
 20
-19.4
 30
0.0
 11
22.534115
 21
-21.4
 31
0.0
  0
LINE
  5
164
330
126
100
AcDbEntity
  8
AM_9
100
AcDbLine
 10
21.017085
 20
-19.4
 30
0.0
 11
21.017085
 21
-21.4
 31
0.0
  0
LINE
  5
165
330
126
100
AcDbEntity
  8
AM_9
100
AcDbLine
 10
22.386115
 20
-19.4
 30
0.0
 11
22.386115
 21
-21.4
 31
0.0
  0
LINE
  5
166
330
126
100
AcDbEntity
  8
AM_9
100
AcDbLine
 10
21.165085
 20
-19.4
 30
0.0
 11
21.165085
 21
-21.4
 31
0.0
  0
LINE
  5
167
330
126
100
AcDbEntity
  8
AM_9
100
AcDbLine
 10
22.60812
 20
-19.4
 30
0.0
 11
22.60812
 21
-21.4
 31
0.0
  0
LINE
  5
168
330
126
100
AcDbEntity
  8
AM_9
100
AcDbLine
 10
20.94308
 20
-19.4
 30
0.0
 11
20.94308
 21
-21.4
 31
0.0
  0
LINE
  5
169
330
126
100
AcDbEntity
  8
AM_9
100
AcDbLine
 10
21.128085
 20
-19.4
 30
0.0
 11
21.128085
 21
-21.4
 31
0.0
  0
LINE
  5
16A
330
126
100
AcDbEntity
  8
AM_9
100
AcDbLine
 10
22.423115
 20
-19.4
 30
0.0
 11
22.423115
 21
-21.4
 31
0.0
  0
LINE
  5
16B
330
126
100
AcDbEntity
  8
AM_9
100
AcDbLine
 10
22.64512
 20
-19.4
 30
0.0
 11
22.64512
 21
-21.4
 31
0.0
  0
LINE
  5
16C
330
126
100
AcDbEntity
  8
AM_9
100
AcDbLine
 10
20.90608
 20
-19.4
 30
0.0
 11
20.90608
 21
-21.4
 31
0.0
  0
LINE
  5
16D
330
126
100
AcDbEntity
  8
AM_9
100
AcDbLine
 10
21.18445541711125
 20
-8.14285714285714
 30
0.0
 11
21.18445541711125
 21
-10.70000000000004
 31
0.0
  0
LINE
  5
16E
330
126
100
AcDbEntity
  8
AM_9
100
AcDbLine
 10
13.51488506968432
 20
-8.142857142857144
 30
0.0
 11
13.51488506968432
 21
-10.69999999999998
 31
0.0
  0
LINE
  5
16F
330
126
100
AcDbEntity
  8
AM_9
100
AcDbLine
 10
21.75440962095512
 20
-2.374999999999998
 30
0.0
 11
21.75440962095512
 21
-8.14285714285714
 31
0.0
  0
LINE
  5
170
330
126
100
AcDbEntity
  8
AM_9
100
AcDbLine
 10
17.53087415122141
 20
-8.142857142857142
 30
0.0
 11
23.67035354437184
 21
-8.142857142857142
 31
0.0
  0
LINE
  5
171
330
126
100
AcDbEntity
  8
AM_9
100
AcDbLine
 10
20.0
 20
-21.4
 30
0.0
 11
20.0
 21
-2.374999999999999
 31
0.0
  0
LINE
  5
172
330
126
100
AcDbEntity
  8
AM_9
100
AcDbLine
 10
-20.0
 20
-2.374999999999999
 30
0.0
 11
-20.0
 21
-21.4
 31
0.0
  0
LINE
  5
173
330
126
100
AcDbEntity
  8
AM_9
100
AcDbLine
 10
23.67035354437184
 20
-18.52824844717241
 30
0.0
 11
23.67035354437184
 21
-10.00503305300517
 31
0.0
  0
LWPOLYLINE
  5
174
330
126
100
AcDbEntity
  8
AM_9
100
AcDbPolyline
 90
        3
 70
     0
 43
0.0
 10
22.58959235991435
 20
-17.73076828180442
 10
23.32764544113399
 20
-17.15341801261479
 10
24.12104955629085
 20
-16.57606774342517
  0
LWPOLYLINE
  5
175
330
126
100
AcDbEntity
  8
AM_9
100
AcDbPolyline
 90
        3
 70
     0
 43
0.0
 10
24.12104955629085
 20
-16.57606774342517
 10
24.03502561536576
 20
-15.42655904959579
 10
24.00380592228744
 20
-14.26666666666666
  0
LWPOLYLINE
  5
176
330
126
100
AcDbEntity
  8
AM_9
100
AcDbPolyline
 90
        3
 70
     0
 43
0.0
 10
24.12104955629085
 20
-11.95726558990816
 10
23.33109817667198
 20
-11.38251124299347
 10
22.58959235991435
 20
-10.80256505152891
  0
LWPOLYLINE
  5
177
330
126
100
AcDbEntity
  8
AM_9
100
AcDbPolyline
 90
        3
 70
     0
 43
0.0
 10
24.00380592228744
 20
-14.26666666666666
 10
24.03475222232054
 20
-13.11196612828741
 10
24.12104955629085
 20
-11.95726558990816
  0
LINE
  5
178
330
126
100
AcDbEntity
  8
AM_9
100
AcDbLine
 10
24.12104955629085
 20
-16.57606774342517
 30
0.0
 11
26.00788263184369
 21
-16.57606774342517
 31
0.0
  0
LINE
  5
179
330
126
100
AcDbEntity
  8
AM_9
100
AcDbLine
 10
24.12104955629085
 20
-11.95726558990816
 30
0.0
 11
26.00788263184369
 21
-11.95726558990816
 31
0.0
  0
LINE
  5
17A
330
126
100
AcDbEntity
  8
AM_9
100
AcDbLine
 10
25.62025282344157
 20
-11.59143506494199
 30
0.0
 11
26.00788263184369
 21
-11.95726558990816
 31
0.0
  0
LWPOLYLINE
  5
17B
330
126
100
AcDbEntity
  8
AM_9
100
AcDbPolyline
 90
        3
 70
     0
 43
0.0
 10
26.00788263184369
 20
-11.95726558990816
 10
26.09390657276877
 20
-13.10677428373753
 10
26.12512626584709
 20
-14.26666666666666
  0
LINE
  5
17C
330
126
100
AcDbEntity
  8
AM_9
100
AcDbLine
 10
26.00788263184369
 20
-16.57606774342517
 30
0.0
 11
25.62150055663592
 21
-16.94074893658744
 31
0.0
  0
LWPOLYLINE
  5
17D
330
126
100
AcDbEntity
  8
AM_9
100
AcDbPolyline
 90
        3
 70
     0
 43
0.0
 10
26.12512626584709
 20
-14.26666666666666
 10
26.094179965814
 20
-15.42136720504591
 10
26.00788263184369
 20
-16.57606774342517
  0
LWPOLYLINE
  5
17E
330
126
100
AcDbEntity
  8
AM_9
100
AcDbPolyline
 90
        6
 70
     0
 43
0.0
 10
19.94400517775317
 20
-20.57364817766693
 10
19.86405442208608
 20
-20.88832996372665
 10
19.71500575409092
 20
-21.14808101208568
 10
19.51286106808538
 20
-21.32493224056307
 10
19.27895983114762
 20
-21.39863699438255
 10
19.24172792988155
 20
-21.4
  0
LWPOLYLINE
  5
17F
330
126
100
AcDbEntity
  8
AM_9
100
AcDbPolyline
 90
        3
 70
     0
 43
0.0
 10
22.58959235991435
 20
-10.80256505152891
 10
21.9134318787609
 20
-10.22521478233928
 10
21.29262243154466
 20
-9.647864513149658
  0
LWPOLYLINE
  5
180
330
126
100
AcDbEntity
  8
AM_9
100
AcDbPolyline
 90
        3
 70
     0
 43
0.0
 10
21.29262243154466
 20
-18.88546882018368
 10
21.91052592931336
 20
-18.31071447326898
 10
22.58959235991435
 20
-17.73076828180442
  0
LINE
  5
181
330
126
100
AcDbEntity
  8
AM_9
100
AcDbLine
 10
23.08456710674493
 20
-18.88546882018368
 30
0.0
 11
23.08456710674493
 21
-9.647864513149658
 31
0.0
  0
LINE
  5
182
330
126
100
AcDbEntity
  8
AM_9
100
AcDbLine
 10
21.17537879754125
 20
-11.46666666666667
 30
0.0
 11
20.82182540694798
 21
-11.46666666666667
 31
0.0
  0
LINE
  5
183
330
126
100
AcDbEntity
  8
AM_9
100
AcDbLine
 10
20.82182540694798
 20
-17.06666666666666
 30
0.0
 11
21.17537879754125
 21
-17.06666666666666
 31
0.0
  0
LINE
  5
184
330
126
100
AcDbEntity
  8
AM_9
100
AcDbLine
 10
18.55908370715102
 20
-16.66432994095496
 30
0.0
 11
18.55908370715102
 21
-11.86901976225175
 31
0.0
  0
LINE
  5
185
330
126
100
AcDbEntity
  8
AM_9
100
AcDbLine
 10
19.94400517775317
 20
-20.57364817766693
 30
0.0
 11
21.18445541711125
 21
-10.70000000000004
 31
0.0
  0
LINE
  5
186
330
126
100
AcDbEntity
  8
AM_9
100
AcDbLine
 10
13.32102824805495
 20
-10.32635182233307
 30
0.0
 11
13.49994175023947
 21
-10.32635182233307
 31
0.0
  0
LINE
  5
187
330
126
100
AcDbEntity
  8
AM_9
100
AcDbLine
 10
13.51488506968432
 20
-10.69999999999998
 30
0.0
 11
13.49994175023947
 21
-10.32635182233307
 31
0.0
  0
LINE
  5
188
330
126
100
AcDbEntity
  8
AM_9
100
AcDbLine
 10
13.51488506968432
 20
-10.69999999999998
 30
0.0
 11
24.59158421746472
 21
-10.70000000000004
 31
0.0
  0
LINE
  5
189
330
126
100
AcDbEntity
  8
AM_9
100
AcDbLine
 10
25.84555728022531
 20
-16.96360591746738
 30
0.0
 11
26.75235149863854
 21
-11.82092035244595
 31
0.0
  0
LINE
  5
18A
330
126
100
AcDbEntity
  8
AM_9
100
AcDbLine
 10
11.99177817464024
 20
-20.57364817766693
 30
0.0
 11
23.67035354437184
 21
-20.57364817766693
 31
0.0
  0
ELLIPSE
  5
18B
330
126
100
AcDbEntity
  8
AM_9
100
AcDbEllipse
 10
23.29669914110091
 20
-14.26666666666666
 30
0.0
 11
1.714505518806292E-16
 21
2.799999999999995
 31
0.0
210
0.0
220
0.0
230
1.0
 40
0.7071067811865472
 41
3.141592653589793
 42
6.283185307179586
  0
ELLIPSE
  5
18C
330
126
100
AcDbEntity
  8
AM_9
100
AcDbEllipse
 10
23.65025253169415
 20
-14.26666666666668
 30
0.0
 11
1.714505518806310E-16
 21
2.800000000000026
 31
0.0
210
0.0
220
0.0
230
1.0
 40
0.7071067811865472
 41
3.752528467207243
 42
5.672068718401463
  0
ELLIPSE
  5
18D
330
126
100
AcDbEntity
  8
AM_9
100
AcDbEllipse
 10
23.29669914110089
 20
-14.26666666666666
 30
0.0
 11
2.449293598294700E-16
 21
3.999999999999989
 31
0.0
210
0.0
220
0.0
230
1.0
 40
0.7071067811865507
 41
3.993156836531767
 42
5.431693660376016
  0
LINE
  5
18E
330
126
100
AcDbEntity
  8
AM_9
100
AcDbLine
 10
7.981059481491557
 20
-2.374999999999999
 30
0.0
 11
7.981059481491557
 21
0.0000000000000013
 31
0.0
  0
LINE
  5
18F
330
126
100
AcDbEntity
  8
AM_9
100
AcDbLine
 10
-7.98105948149155
 20
-2.374999999999999
 30
0.0
 11
-7.98105948149155
 21
0.0000000000000013
 31
0.0
  0
LINE
  5
190
330
126
100
AcDbEntity
  8
AM_9
100
AcDbLine
 10
-16.27969281358222
 20
-2.374999999999998
 30
0.0
 11
16.27969281358222
 21
-2.374999999999998
 31
0.0
  0
LWPOLYLINE
  5
191
330
126
100
AcDbEntity
  8
AM_9
100
AcDbPolyline
 90
        4
 70
     0
 43
0.0
 10
23.83597469374807
 20
-14.53678853088933
 10
23.83486525870506
 20
-14.52178172876838
 10
23.8258264005562
 20
-14.29188130451519
 10
23.82574934594208
 20
-14.27586505123251
  0
LWPOLYLINE
  5
192
330
126
100
AcDbEntity
  8
AM_9
100
AcDbPolyline
 90
        4
 70
     0
 43
0.0
 10
24.04790239637328
 20
-15.47617088145114
 10
24.00684879425482
 20
-15.36755659214643
 10
23.94578938123227
 20
-15.17345149600551
 10
23.9327705921942
 20
-15.12495276119049
  0
LWPOLYLINE
  5
193
330
126
100
AcDbEntity
  8
AM_9
100
AcDbPolyline
 90
       29
 70
     0
 43
0.0
 10
25.59608788936529
 20
-14.26666666666666
 10
25.5943397808382
 20
-14.37845626830521
 10
25.57974729871923
 20
-14.60757385718641
 10
25.55073936248555
 20
-14.83165805310646
 10
25.50819652417767
 20
-15.04718073664102
 10
25.45343902042339
 20
-15.25091979441217
 10
25.3882124813729
 20
-15.43994276414486
 10
25.31465797868479
 20
-15.61170342238747
 10
25.23526568023614
 20
-15.76414135158731
 10
25.15280826529127
 20
-15.89577983452214
 10
25.07028402275308
 20
-16.00577552589898
 10
24.99088770661934
 20
-16.09393994141492
 10
24.91764233641496
 20
-16.16107835408766
 10
24.85329458255694
 20
-16.20885578796204
 10
24.80007746817936
 20
-16.23977310653024
 10
24.75934895800567
 20
-16.2571057593239
 10
24.73083163723575
 20
-16.26475999948277
 10
24.71022378824803
 20
-16.26666421736976
 10
24.68534988534029
 20
-16.26362837790773
 10
24.65345492978396
 20
-16.25382752240821
 10
24.60899934130578
 20
-16.23314389050848
 10
24.55344972729677
 20
-16.19863021254277
 10
24.48101563018946
 20
-16.14129156187436
 10
24.40212457043917
 20
-16.06383513943111
 10
24.31957065618466
 20
-15.96550708036136
 10
24.23606697587935
 20
-15.84602271056465
 10
24.15434810028067
 20
-15.70573243761023
 10
24.07709399845897
 20
-15.54566136691134
 10
24.04790239637328
 20
-15.47617088145114
  0
LWPOLYLINE
  5
194
330
126
100
AcDbEntity
  8
AM_9
100
AcDbPolyline
 90
       29
 70
     0
 43
0.0
 10
24.04850756346706
 20
-13.05566208462267
 10
24.06265981387552
 20
-13.02131618952526
 10
24.13890698617675
 20
-12.85719726513027
 10
24.21989373620001
 20
-12.7130774711306
 10
24.30275669582627
 20
-12.59016985300529
 10
24.38438305134875
 20
-12.48909481639953
 10
24.4616315800945
 20
-12.40962729337919
 10
24.53156683877418
 20
-12.35061182314396
 10
24.59161821440502
 20
-12.31003854707378
 10
24.63985245236764
 20
-12.28508168985064
 10
24.6754421487013
 20
-12.27218228902717
 10
24.69981116574184
 20
-12.267286305886
 10
24.72113426067391
 20
-12.26719390324722
 10
24.75345585009743
 20
-12.27428540802529
 10
24.79272427354394
 20
-12.28997912828815
 10
24.84381624433089
 20
-12.31836830635593
 10
24.90497605685441
 20
-12.36200722997111
 10
24.98101693891452
 20
-12.42956339753012
 10
25.06213586767721
 20
-12.51774566125725
 10
25.14552369465486
 20
-12.62702677978919
 10
25.22844256280423
 20
-12.75736232623732
 10
25.30818509626453
 20
-12.90807442228595
 10
25.38209951784729
 20
-13.07770086771327
 10
25.44784636368952
 20
-13.2643692232189
 10
25.50339036716692
 20
-13.46580418159394
 10
25.54701351473716
 20
-13.67931647759942
 10
25.57736227118377
 20
-13.9018813669953
 10
25.59348284556357
 20
-14.13022108115215
 10
25.59608788936529
 20
-14.26666666666666
  0
LWPOLYLINE
  5
195
330
126
100
AcDbEntity
  8
AM_9
100
AcDbPolyline
 90
        4
 70
     0
 43
0.0
 10
23.9282688023906
 20
-13.42592286842979
 10
23.93451701579557
 20
-13.40168727007974
 10
23.99376658225989
 20
-13.20359974969766
 10
24.04850756346706
 20
-13.05566208462267
  0
LWPOLYLINE
  5
196
330
126
100
AcDbEntity
  8
AM_9
100
AcDbPolyline
 90
        3
 70
     0
 43
0.0
 10
23.82574934594208
 20
-14.27586505123251
 10
23.83164270711272
 20
-14.0613532256216
 10
23.83461230798395
 20
-14.01510015853777
  0
ELLIPSE
  5
197
330
126
100
AcDbEntity
  8
AM_9
100
AcDbEllipse
 10
25.62722598654211
 20
-14.2666666666667
 30
0.0
 11
1.560179112509611E-16
 21
2.547965852025039
 31
0.0
210
0.0
220
0.0
230
1.0
 40
0.7071067811864693
 41
1.932111755887874
 42
2.110363938738889
  0
ELLIPSE
  5
198
330
126
100
AcDbEntity
  8
AM_9
100
AcDbEllipse
 10
25.62722598654236
 20
-14.26666666666666
 30
0.0
 11
1.560179112509645E-16
 21
2.547965852025094
 31
0.0
210
0.0
220
0.0
230
1.0
 40
0.7071067811865475
 41
2.116420725249108
 42
7.311045028780679
  0
ELLIPSE
  5
199
330
126
100
AcDbEntity
  8
AM_9
100
AcDbEllipse
 10
25.62722598654169
 20
-14.26666666666654
 30
0.0
 11
1.560179112509453E-16
 21
2.547965852024781
 31
0.0
210
0.0
220
0.0
230
1.0
 40
0.7071067811863805
 41
1.034759588721988
 42
1.208589038013297
  0
LINE
  5
19A
330
126
100
AcDbEntity
  8
AM_9
100
AcDbLine
 10
26.78118600949956
 20
-16.69846536658916
 30
0.0
 11
26.79412051141251
 21
-16.69023323615933
 31
0.0
  0
ELLIPSE
  5
19B
330
126
100
AcDbEntity
  8
AM_9
100
AcDbEllipse
 10
26.01218316760588
 20
-14.26666666658705
 30
0.0
 11
1.631162342920580E-16
 21
2.663890264615494
 31
0.0
210
0.0
220
0.0
230
1.0
 40
0.7071067811814128
 41
3.553109499643966
 42
4.71238898038469
  0
LINE
  5
19C
330
126
100
AcDbEntity
  8
AM_9
100
AcDbLine
 10
5.4
 20
-9.5
 30
0.0
 11
5.4
 21
0.0000000000000023
 31
0.0
  0
LINE
  5
19D
330
126
100
AcDbEntity
  8
AM_9
100
AcDbLine
 10
-5.4
 20
0.0000000000000023
 30
0.0
 11
-5.4
 21
-9.5
 31
0.0
  0
ELLIPSE
  5
19E
330
126
100
AcDbEntity
  8
AM_9
100
AcDbEllipse
 10
21.17537879754128
 20
-14.26666666666664
 30
0.0
 11
2.449293598294723E-16
 21
4.000000000000027
 31
0.0
210
0.0
220
0.0
230
1.0
 40
0.7071067811865476
 41
0.0
 42
6.283185307179586
  0
ELLIPSE
  5
19F
330
126
100
AcDbEntity
  8
AM_9
100
AcDbEllipse
 10
21.17537879754125
 20
-14.26666666666666
 30
0.0
 11
1.714505518806294E-16
 21
2.799999999999999
 31
0.0
210
0.0
220
0.0
230
1.0
 40
0.7071067811865477
 41
0.0
 42
6.283185307179586
  0
ELLIPSE
  5
1A0
330
126
100
AcDbEntity
  8
AM_9
100
AcDbEllipse
 10
20.82182540694799
 20
-14.26666666666666
 30
0.0
 11
-5.143516556418865E-16
 21
-2.79999999999999
 31
0.0
210
0.0
220
0.0
230
1.0
 40
0.7071067811865486
 41
0.0
 42
6.283185307179586
  0
LINE
  5
1A1
330
126
100
AcDbEntity
  8
AM_7
100
AcDbLine
 10
0.0
 20
1.069999999999998
 30
0.0
 11
0.0000000000000013
 21
-39.005
 31
0.0
  0
LINE
  5
1A2
330
126
100
AcDbEntity
  8
AM_4
100
AcDbLine
 10
26.95
 20
-10.70000000000004
 30
0.0
 11
26.95
 21
-2.375
 31
0.0
  0
LINE
  5
1A3
330
126
100
AcDbEntity
  8
AM_4
100
AcDbLine
 10
23.67035354437184
 20
-8.142857142857142
 30
0.0
 11
24.50724689340539
 21
-8.142857142857142
 31
0.0
  0
LINE
  5
1A4
330
126
100
AcDbEntity
  8
AM_4
100
AcDbLine
 10
24.50724689340539
 20
-2.374999999999999
 30
0.0
 11
24.50724689340539
 21
-8.142857142857142
 31
0.0
  0
LINE
  5
1A5
330
126
100
AcDbEntity
  8
AM_4
100
AcDbLine
 10
23.67035354437184
 20
-10.00503305300517
 30
0.0
 11
23.67035354437184
 21
-2.374999999999997
 31
0.0
  0
LINE
  5
1A6
330
126
100
AcDbEntity
  8
AM_4
100
AcDbLine
 10
23.67035354437184
 20
-21.4
 30
0.0
 11
23.67035354437184
 21
-18.52824844717241
 31
0.0
  0
LINE
  5
1A7
330
126
100
AcDbEntity
  8
AM_4
100
AcDbLine
 10
-26.95
 20
-2.375
 30
0.0
 11
-26.95
 21
-10.69999999999986
 31
0.0
  0
LINE
  5
1A8
330
126
100
AcDbEntity
  8
AM_4
100
AcDbLine
 10
-26.95
 20
-2.375
 30
0.0
 11
-16.27969281358222
 21
-2.374999999999998
 31
0.0
  0
LWPOLYLINE
  5
1A9
330
126
100
AcDbEntity
  8
AM_4
100
AcDbPolyline
 90
        3
 70
     0
 43
0.0
 10
24.71091270347399
 20
-10.80256505152891
 10
25.38707318462745
 20
-11.37991532071853
 10
25.62025282344157
 20
-11.59143506494199
  0
LWPOLYLINE
  5
1AA
330
126
100
AcDbEntity
  8
AM_4
100
AcDbPolyline
 90
        3
 70
     0
 43
0.0
 10
25.62150055663592
 20
-16.94074893658744
 10
25.38997913407498
 20
-17.15082209033986
 10
24.71091270347399
 20
-17.73076828180442
  0
ARC
  5
1AB
330
126
100
AcDbEntity
  8
AM_4
100
AcDbCircle
 10
-24.22420167524215
 20
-20.4
 30
0.0
 40
1.000000000000002
100
AcDbArc
 50
190.0000000000002
 51
270.0
  0
ARC
  5
1AC
330
126
100
AcDbEntity
  8
AM_4
100
AcDbCircle
 10
24.22420167524215
 20
-20.4
 30
0.0
 40
1.000000000000004
100
AcDbArc
 50
270.0
 51
349.9999999999998
  0
LWPOLYLINE
  5
1AD
330
126
100
AcDbEntity
  8
AM_4
100
AcDbPolyline
 90
        9
 70
     0
 43
0.0
 10
11.26382959800041
 20
-21.4
 10
11.46642609487699
 20
-21.36181097363458
 10
11.58699167702349
 20
-21.2995874728065
 10
11.70154986322834
 20
-21.20613123790721
 10
11.79732605049494
 20
-21.09252957499981
 10
11.88004629586284
 20
-20.95264369294576
 10
11.93953072525248
 20
-20.80570204866849
 10
11.98118408568186
 20
-20.64130271420672
 10
11.99177817464024
 20
-20.57364817766693
  0
LINE
  5
1AE
330
126
100
AcDbEntity
  8
AM_4
100
AcDbLine
 10
24.22420167524215
 20
-21.4
 30
0.0
 11
-24.22420167524215
 21
-21.4
 31
0.0
  0
LINE
  5
1AF
330
126
100
AcDbEntity
  8
AM_4
100
AcDbLine
 10
23.08456710674493
 20
-9.647864513149658
 30
0.0
 11
23.08456710674493
 21
-2.374999999999997
 31
0.0
  0
LINE
  5
1B0
330
126
100
AcDbEntity
  8
AM_4
100
AcDbLine
 10
23.08456710674493
 20
-21.4
 30
0.0
 11
23.08456710674493
 21
-18.88546882018368
 31
0.0
  0
LINE
  5
1B1
330
126
100
AcDbEntity
  8
AM_4
100
AcDbLine
 10
18.55908370715102
 20
-11.86901976225175
 30
0.0
 11
18.55908370715102
 21
-2.374999999999997
 31
0.0
  0
LINE
  5
1B2
330
126
100
AcDbEntity
  8
AM_4
100
AcDbLine
 10
18.55908370715102
 20
-21.4
 30
0.0
 11
18.55908370715102
 21
-16.66432994095496
 31
0.0
  0
LINE
  5
1B3
330
126
100
AcDbEntity
  8
AM_4
100
AcDbLine
 10
15.73065658240484
 20
-21.4
 30
0.0
 11
15.73065658240484
 21
-8.14285714285714
 31
0.0
  0
LINE
  5
1B4
330
126
100
AcDbEntity
  8
AM_4
100
AcDbLine
 10
11.99177817464024
 20
-20.57364817766693
 30
0.0
 11
-25.20900942825436
 21
-20.57364817766693
 31
0.0
  0
LINE
  5
1B5
330
126
100
AcDbEntity
  8
AM_4
100
AcDbLine
 10
13.32102824805495
 20
-10.32635182233307
 30
0.0
 11
11.99177817464024
 21
-20.57364817766693
 31
0.0
  0
LINE
  5
1B6
330
126
100
AcDbEntity
  8
AM_4
100
AcDbLine
 10
24.59158421746472
 20
-10.70000000000004
 30
0.0
 11
26.95
 21
-10.70000000000004
 31
0.0
  0
LINE
  5
1B7
330
126
100
AcDbEntity
  8
AM_4
100
AcDbLine
 10
26.75235149863854
 20
-11.82092035244595
 30
0.0
 11
26.95
 21
-10.70000000000004
 31
0.0
  0
LINE
  5
1B8
330
126
100
AcDbEntity
  8
AM_4
100
AcDbLine
 10
25.20900942825436
 20
-20.57364817766693
 30
0.0
 11
25.84555728022531
 21
-16.96360591746738
 31
0.0
  0
LINE
  5
1B9
330
126
100
AcDbEntity
  8
AM_4
100
AcDbLine
 10
-26.95000000000003
 20
-10.69999999999986
 30
0.0
 11
-25.20900942825436
 21
-20.57364817766693
 31
0.0
  0
LINE
  5
1BA
330
126
100
AcDbEntity
  8
AM_4
100
AcDbLine
 10
25.20900942825436
 20
-20.57364817766693
 30
0.0
 11
23.67035354437184
 21
-20.57364817766693
 31
0.0
  0
LINE
  5
1BB
330
126
100
AcDbEntity
  8
AM_4
100
AcDbLine
 10
-26.95000000000003
 20
-10.69999999999986
 30
0.0
 11
-13.51488506968433
 21
-10.7
 31
0.0
  0
LWPOLYLINE
  5
1BC
330
126
100
AcDbEntity
  8
AM_4
100
AcDbPolyline
 90
        3
 70
     0
 43
0.0
 10
23.17945550709749
 20
-9.647864513149658
 10
23.96940688671636
 20
-10.22261886006434
 10
24.71091270347399
 20
-10.80256505152891
  0
LWPOLYLINE
  5
1BD
330
126
100
AcDbEntity
  8
AM_4
100
AcDbPolyline
 90
        3
 70
     0
 43
0.0
 10
24.71091270347399
 20
-17.73076828180442
 10
23.97285962225435
 20
-18.30811855099405
 10
23.17945550709749
 20
-18.88546882018368
  0
LWPOLYLINE
  5
1BE
330
126
100
AcDbEntity
  8
AM_4
100
AcDbPolyline
 90
        5
 70
     0
 43
0.0
 10
13.45778791236122
 20
-9.897801860376681
 10
13.43493477900751
 20
-9.94151093281155
 10
13.37556386155233
 20
-10.08641253897467
 10
13.33348467782317
 20
-10.24838892122428
 10
13.32102824805495
 20
-10.32635182233307
  0
LINE
  5
1BF
330
126
100
AcDbEntity
  8
AM_4
100
AcDbLine
 10
13.32102824805495
 20
-10.32635182233307
 30
0.0
 11
-13.49994175023946
 21
-10.32635182233307
 31
0.0
  0
LINE
  5
1C0
330
126
100
AcDbEntity
  8
AM_4
100
AcDbLine
 10
23.65025253169417
 20
-11.46666666666667
 30
0.0
 11
23.2966991411009
 21
-11.46666666666667
 31
0.0
  0
LINE
  5
1C1
330
126
100
AcDbEntity
  8
AM_4
100
AcDbLine
 10
23.2966991411009
 20
-17.06666666666666
 30
0.0
 11
23.65025253169417
 21
-17.06666666666666
 31
0.0
  0
ELLIPSE
  5
1C2
330
126
100
AcDbEntity
  8
AM_4
100
AcDbEllipse
 10
23.29669914110089
 20
-14.26666666666666
 30
0.0
 11
1.714505518806294E-16
 21
2.799999999999999
 31
0.0
210
0.0
220
0.0
230
1.0
 40
0.7071067811865477
 41
0.0
 42
3.141592653589793
  0
ELLIPSE
  5
1C3
330
126
100
AcDbEntity
  8
AM_4
100
AcDbEllipse
 10
23.65025253169418
 20
-14.26666666666666
 30
0.0
 11
1.714505518806294E-16
 21
2.799999999999999
 31
0.0
210
0.0
220
0.0
230
1.0
 40
0.7071067811865477
 41
5.672068718401472
 42
10.03571377438682
  0
LWPOLYLINE
  5
1C4
330
126
100
AcDbEntity
  8
AM_4
100
AcDbPolyline
 90
        3
 70
     0
 43
0.0
 10
23.17945550709749
 20
-18.88546882018368
 10
22.56155200932879
 20
-18.31071447326898
 10
21.8824855787278
 20
-17.73076828180442
  0
LWPOLYLINE
  5
1C5
330
126
100
AcDbEntity
  8
AM_4
100
AcDbPolyline
 90
        3
 70
     0
 43
0.0
 10
18.46419530679847
 20
-16.57606774342517
 10
19.08209880456717
 20
-17.15082209033986
 10
19.76116523516816
 20
-17.73076828180442
  0
LWPOLYLINE
  5
1C6
330
126
100
AcDbEntity
  8
AM_4
100
AcDbPolyline
 90
        3
 70
     0
 43
0.0
 10
19.76116523516816
 20
-17.73076828180442
 10
20.4992183163878
 20
-18.30811855099405
 10
21.29262243154466
 20
-18.88546882018368
  0
LINE
  5
1C7
330
126
100
AcDbEntity
  8
AM_4
100
AcDbLine
 10
21.29262243154466
 20
-18.88546882018368
 30
0.0
 11
23.17945550709749
 21
-18.88546882018368
 31
0.0
  0
LWPOLYLINE
  5
1C8
330
126
100
AcDbEntity
  8
AM_4
100
AcDbPolyline
 90
        3
 70
     0
 43
0.0
 10
21.8824855787278
 20
-10.80256505152891
 10
22.55864605988126
 20
-10.22521478233928
 10
23.17945550709749
 20
-9.647864513149658
  0
LINE
  5
1C9
330
126
100
AcDbEntity
  8
AM_4
100
AcDbLine
 10
21.29262243154466
 20
-9.647864513149658
 30
0.0
 11
23.17945550709749
 21
-9.647864513149658
 31
0.0
  0
LWPOLYLINE
  5
1CA
330
126
100
AcDbEntity
  8
AM_4
100
AcDbPolyline
 90
        3
 70
     0
 43
0.0
 10
21.29262243154466
 20
-9.647864513149658
 10
20.50267105192579
 20
-10.22261886006434
 10
19.76116523516816
 20
-10.80256505152891
  0
LWPOLYLINE
  5
1CB
330
126
100
AcDbEntity
  8
AM_4
100
AcDbPolyline
 90
        3
 70
     0
 43
0.0
 10
19.76116523516816
 20
-10.80256505152891
 10
19.0850047540147
 20
-11.37991532071853
 10
18.46419530679847
 20
-11.95726558990816
  0
LINE
  5
1CC
330
126
100
AcDbEntity
  8
AM_4
100
AcDbLine
 10
18.46419530679847
 20
-11.95726558990816
 30
0.0
 11
20.3510283823513
 21
-11.95726558990816
 31
0.0
  0
LWPOLYLINE
  5
1CD
330
126
100
AcDbEntity
  8
AM_4
100
AcDbPolyline
 90
        3
 70
     0
 43
0.0
 10
18.46419530679847
 20
-11.95726558990816
 10
18.37817136587338
 20
-13.10677428373753
 10
18.34695167279506
 20
-14.26666666666666
  0
LWPOLYLINE
  5
1CE
330
126
100
AcDbEntity
  8
AM_4
100
AcDbPolyline
 90
        3
 70
     0
 43
0.0
 10
18.34695167279506
 20
-14.26666666666666
 10
18.37789797282815
 20
-15.42136720504591
 10
18.46419530679847
 20
-16.57606774342517
  0
LINE
  5
1CF
330
126
100
AcDbEntity
  8
AM_4
100
AcDbLine
 10
18.46419530679847
 20
-16.57606774342517
 30
0.0
 11
20.3510283823513
 21
-16.57606774342516
 31
0.0
  0
LWPOLYLINE
  5
1D0
330
126
100
AcDbEntity
  8
AM_4
100
AcDbPolyline
 90
        3
 70
     0
 43
0.0
 10
20.4682720163547
 20
-14.26666666666666
 10
20.43732571632162
 20
-13.11196612828741
 10
20.3510283823513
 20
-11.95726558990816
  0
ELLIPSE
  5
1D1
330
126
100
AcDbEntity
  8
AM_4
100
AcDbEllipse
 10
23.29669914110091
 20
-14.26666666666667
 30
0.0
 11
2.449293598294710E-16
 21
4.000000000000005
 31
0.0
210
0.0
220
0.0
230
1.0
 40
0.7071067811865505
 41
5.431693660376022
 42
10.27634214371135
  0
LWPOLYLINE
  5
1D2
330
126
100
AcDbEntity
  8
AM_4
100
AcDbPolyline
 90
        3
 70
     0
 43
0.0
 10
20.3510283823513
 20
-11.95726558990816
 10
21.14097976197017
 20
-11.38251124299347
 10
21.8824855787278
 20
-10.80256505152891
  0
LWPOLYLINE
  5
1D3
330
126
100
AcDbEntity
  8
AM_4
100
AcDbPolyline
 90
        3
 70
     0
 43
0.0
 10
20.3510283823513
 20
-16.57606774342516
 10
20.43705232327639
 20
-15.42655904959579
 10
20.4682720163547
 20
-14.26666666666666
  0
LWPOLYLINE
  5
1D4
330
126
100
AcDbEntity
  8
AM_4
100
AcDbPolyline
 90
        3
 70
     0
 43
0.0
 10
21.8824855787278
 20
-17.73076828180442
 10
21.14443249750816
 20
-17.15341801261479
 10
20.3510283823513
 20
-16.57606774342516
  0
LINE
  5
1D5
330
126
100
AcDbEntity
  8
AM_4
100
AcDbLine
 10
16.54829756869343
 20
-2.374999999999998
 30
0.0
 11
16.54829756869343
 21
0.0000000000000017
 31
0.0
  0
LINE
  5
1D6
330
126
100
AcDbEntity
  8
AM_4
100
AcDbLine
 10
16.54829756869343
 20
0.0000000000000017
 30
0.0
 11
-16.54829756869343
 21
0.0000000000000017
 31
0.0
  0
LINE
  5
1D7
330
126
100
AcDbEntity
  8
AM_4
100
AcDbLine
 10
-16.54829756869343
 20
0.0000000000000017
 30
0.0
 11
-16.54829756869343
 21
-2.374999999999998
 31
0.0
  0
ELLIPSE
  5
1D8
330
126
100
AcDbEntity
  8
AM_4
100
AcDbEllipse
 10
25.62722598654242
 20
-14.26666666666666
 30
0.0
 11
1.560179112509650E-16
 21
2.547965852025103
 31
0.0
210
0.0
220
0.0
230
1.0
 40
0.7071067811865673
 41
1.20858903801331
 42
1.932111755887874
  0
LWPOLYLINE
  5
1D9
330
126
100
AcDbEntity
  8
AM_4
100
AcDbPolyline
 90
       19
 70
     0
 43
0.0
 10
26.68905713731222
 20
-11.78038960347541
 10
26.67317551168704
 20
-11.77171264635434
 10
26.47293638074775
 20
-11.67913261667261
 10
26.267468170603
 20
-11.6141790351125
 10
26.05931577029523
 20
-11.57698636691098
 10
25.8507690958288
 20
-11.56729806671104
 10
25.64383996090915
 20
-11.5846385661875
 10
25.44051671675636
 20
-11.62839062921979
 10
25.24247769180562
 20
-11.6978787732422
 10
25.05117447320328
 20
-11.79247747960939
 10
24.86807761344614
 20
-11.91155357772287
 10
24.69476071516224
 20
-12.05434252322652
 10
24.53291852409296
 20
-12.21979705840077
 10
24.38430575353841
 20
-12.40646985883294
 10
24.25061941966225
 20
-12.61248318131603
 10
24.13337640015511
 20
-12.83559438492926
 10
24.03383403575474
 20
-13.07331693259566
 10
23.95297213719404
 20
-13.32303025162017
 10
23.9437345205763
 20
-13.35674841204013
  0
LINE
  5
1DA
330
126
100
AcDbEntity
  8
AM_4
100
AcDbLine
 10
26.76736206388577
 20
-11.82623191093424
 30
0.0
 11
26.70595806324422
 21
-11.78984990047626
 31
0.0
  0
LWPOLYLINE
  5
1DB
330
126
100
AcDbEntity
  8
AM_4
100
AcDbPolyline
 90
        3
 70
     0
 43
0.0
 10
26.57950217969454
 20
-16.80872319684136
 10
26.6925088569246
 20
-16.7510306892981
 10
26.78118600949956
 20
-16.69846536658916
  0
LWPOLYLINE
  5
1DC
330
126
100
AcDbEntity
  8
AM_4
100
AcDbPolyline
 90
       18
 70
     0
 43
0.0
 10
23.94320453577139
 20
-15.17460717538484
 10
23.94643609990049
 20
-15.18659156163356
 10
24.02601253981702
 20
-15.43863932725336
 10
24.12492037185603
 20
-15.67960024311314
 10
24.24255888169544
 20
-15.90697159201131
 10
24.37806917359699
 20
-16.11815033701345
 10
24.53029139660595
 20
-16.31055222953322
 10
24.69768650148346
 20
-16.48167550789215
 10
24.87827932552919
 20
-16.62922172802585
 10
25.06969303119988
 20
-16.7512797666898
 10
25.26928828301698
 20
-16.84649070265955
 10
25.47436760536731
 20
-16.91411496096018
 10
25.68236583533528
 20
-16.95397144163475
 10
25.89096630573473
 20
-16.96628676975807
 10
26.09813139355925
 20
-16.9515222399744
 10
26.30188375325266
 20
-16.91028063813782
 10
26.50049483953341
 20
-16.84324045913473
 10
26.56443230524289
 20
-16.81566714315845
  0
LINE
  5
1DD
330
126
100
AcDbEntity
  8
AM_4
100
AcDbLine
 10
27.75147186257615
 20
-12.43363638868433
 30
0.0
 11
26.76564511575154
 21
-11.82517091061525
 31
0.0
  0
LINE
  5
1DE
330
126
100
AcDbEntity
  8
AM_4
100
AcDbLine
 10
26.76564511575154
 20
-16.70816242271808
 30
0.0
 11
27.75147186257615
 21
-16.09969694464899
 31
0.0
  0
ELLIPSE
  5
1DF
330
126
100
AcDbEntity
  8
AM_4
100
AcDbEllipse
 10
26.01218316759761
 20
-14.26666666666667
 30
0.0
 11
1.631162342867215E-16
 21
2.663890264528343
 31
0.0
210
0.0
220
0.0
230
1.0
 40
0.7071067811865474
 41
5.871668461112098
 42
9.836294806836868
  0
LINE
  5
1E0
330
126
100
AcDbEntity
  8
AM_4
100
AcDbLine
 10
10.09389389672726
 20
-8.142857142857139
 30
0.0
 11
17.53087415122141
 21
-8.14285714285714
 31
0.0
  0
LINE
  5
1E1
330
126
100
AcDbEntity
  8
AM_4
100
AcDbLine
 10
16.27969281358222
 20
0.0000000000000018
 30
0.0
 11
16.27969281358222
 21
-2.374999999999998
 31
0.0
  0
LINE
  5
1E2
330
126
100
AcDbEntity
  8
AM_4
100
AcDbLine
 10
17.53087415122141
 20
-8.14285714285714
 30
0.0
 11
17.53087415122141
 21
-2.374999999999997
 31
0.0
  0
LINE
  5
1E3
330
126
100
AcDbEntity
  8
AM_4
100
AcDbLine
 10
16.27969281358222
 20
-2.374999999999998
 30
0.0
 11
26.95
 21
-2.375
 31
0.0
  0
LINE
  5
1E4
330
126
100
AcDbEntity
  8
AM_4
100
AcDbLine
 10
-24.50724689340539
 20
-8.142857142857142
 30
0.0
 11
-10.09389389672727
 21
-8.142857142857139
 31
0.0
  0
LINE
  5
1E5
330
126
100
AcDbEntity
  8
AM_4
100
AcDbLine
 10
-16.27969281358222
 20
-2.374999999999998
 30
0.0
 11
-16.27969281358222
 21
0.0000000000000018
 31
0.0
  0
LINE
  5
1E6
330
126
100
AcDbEntity
  8
AM_4
100
AcDbLine
 10
-24.50724689340539
 20
-2.374999999999999
 30
0.0
 11
-24.50724689340539
 21
-8.142857142857142
 31
0.0
  0
LINE
  5
1E7
330
126
100
AcDbEntity
  8
AM_4
100
AcDbLine
 10
-13.51488506968433
 20
-8.14285714285714
 30
0.0
 11
-13.51488506968433
 21
-10.7
 31
0.0
  0
LINE
  5
1E8
330
126
100
AcDbEntity
  8
AM_4
100
AcDbLine
 10
-13.51488506968433
 20
-10.7
 30
0.0
 11
-13.49994175023946
 21
-10.32635182233307
 31
0.0
  0
LWPOLYLINE
  5
1E9
330
126
100
AcDbEntity
  8
AM_4
100
AcDbPolyline
 90
        9
 70
     0
 43
0.0
 10
-13.49994175023946
 20
-10.32635182233307
 10
-13.49164842057333
 20
-10.18230824189572
 10
-13.47855145675343
 20
-10.04463027021404
 10
-13.44279350398814
 20
-9.818488645075837
 10
-13.41183039026122
 20
-9.695576328652043
 10
-13.37681020790538
 20
-9.600876281245771
 10
-13.34004874606735
 20
-9.537965831453896
 10
-13.30132872878732
 20
-9.504882808403996
 10
-13.27946176321754
 20
-9.49999999999961
  0
LINE
  5
1EA
330
126
100
AcDbEntity
  8
AM_4
100
AcDbLine
 10
-13.27946176321754
 20
-9.49999999999961
 30
0.0
 11
13.27946176321755
 21
-9.499999999999998
 31
0.0
  0
LWPOLYLINE
  5
1EB
330
126
100
AcDbEntity
  8
AM_4
100
AcDbPolyline
 90
        5
 70
     0
 43
0.0
 10
13.27946176321755
 20
-9.499999999999998
 10
13.32709975279097
 20
-9.52332874108796
 10
13.37214815566236
 20
-9.591017664963516
 10
13.41570828398963
 20
-9.70862729500292
 10
13.45778791236122
 20
-9.897801860376681
  0
LINE
  5
1EC
330
126
100
AcDbEntity
  8
AM_4
100
AcDbLine
 10
13.45778791236122
 20
-9.897801860376681
 30
0.0
 11
13.45778791236122
 21
-8.14285714285714
 31
0.0
  0
LINE
  5
1ED
330
126
100
AcDbEntity
  8
AM_4
100
AcDbLine
 10
10.09389389672726
 20
-8.142857142857139
 30
0.0
 11
10.09389389672726
 21
-9.499999999999998
 31
0.0
  0
LINE
  5
1EE
330
126
100
AcDbEntity
  8
AM_4
100
AcDbLine
 10
10.09389389672727
 20
0.0000000000000026
 30
0.0
 11
10.09389389672726
 21
-8.142857142857139
 31
0.0
  0
LINE
  5
1EF
330
126
100
AcDbEntity
  8
AM_4
100
AcDbLine
 10
-10.09389389672727
 20
0.0000000000000026
 30
0.0
 11
-10.09389389672727
 21
-8.142857142857139
 31
0.0
  0
LINE
  5
1F0
330
126
100
AcDbEntity
  8
AM_4
100
AcDbLine
 10
-10.09389389672727
 20
-8.142857142857139
 30
0.0
 11
-10.09389389672727
 21
-9.499999999999998
 31
0.0
  0
ELLIPSE
  5
1F1
330
126
100
AcDbEntity
  8
AM_4
100
AcDbEllipse
 10
27.18578643762691
 20
-14.26666666666666
 30
0.0
 11
1.224646799147352E-16
 21
1.999999999999998
 31
0.0
210
0.0
220
0.0
230
1.0
 40
0.7071067811865486
 41
0.0
 42
6.283185307179586
  0
ENDBLK
  5
129
330
126
100
AcDbEntity
  8
0
100
AcDbBlockEnd
  0
ENDSEC
  0
SECTION
  2
ENTITIES
  0
INSERT
  5
6F
330
1F
100
AcDbEntity
  8
0
100
AcDbBlockReference
  2
1_129321_4
 10
0.0
 20
0.0
 30
0.0
  0
POINT
  5
1F3
330
1F
100
AcDbEntity
  8
ConnectionPoints
100
AcDbPoint
 10
0.0000000000000013
 20
-13.5
 30
0.0000000000000008
  0
POINT
  5
1F4
330
1F
100
AcDbEntity
  8
ConnectionPoints
100
AcDbPoint
 10
0.0000000000000013
 20
-3.199999999999996
 30
0.0000000000000002
  0
POINT
  5
1F5
330
1F
100
AcDbEntity
  8
ConnectionPoints
100
AcDbPoint
 10
0.0
 20
-3.199999999999996
 30
0.0000000000000002
  0
ENDSEC
  0
SECTION
  2
OBJECTS
  0
DICTIONARY
  5
C
330
0
100
AcDbDictionary
281
     1
  3
ACAD_DETAILVIEWSTYLE
350
1FD
  3
ACAD_GROUP
350
D
  3
ACAD_LAYOUT
350
1A
  3
ACAD_MATERIAL
350
43
  3
ACAD_MLEADERSTYLE
350
6B
  3
ACAD_MLINESTYLE
350
17
  3
ACAD_PLOTSETTINGS
350
19
  3
ACAD_PLOTSTYLENAME
350
E
  3
ACAD_SCALELIST
350
47
  3
ACAD_SECTIONVIEWSTYLE
350
1FE
  3
ACAD_TABLESTYLE
350
69
  3
ACAD_VISUALSTYLE
350
2A
  3
ACDB_RECOMPOSE_DATA
350
1FA
  3
AcDbVariableDictionary
350
1F6
  0
SUN
  5
6D
330
29
100
AcDbSun
 90
        1
290
     0
 63
     7
421
 16777215
 40
1.0
291
     1
 91
  2455826
 92
 54000000
292
     0
 70
     2
 71
   256
280
     1
  0
DICTIONARY
  5
1FD
102
{ACAD_REACTORS
330
C
102
}
330
C
100
AcDbDictionary
281
     1
  0
DICTIONARY
  5
D
102
{ACAD_REACTORS
330
C
102
}
330
C
100
AcDbDictionary
281
     1
  0
DICTIONARY
  5
1A
102
{ACAD_REACTORS
330
C
102
}
330
C
100
AcDbDictionary
281
     1
  3
Layout1
350
1E
  3
Layout2
350
26
  3
Model
350
22
  0
DICTIONARY
  5
43
102
{ACAD_REACTORS
330
C
102
}
330
C
100
AcDbDictionary
281
     1
  3
ByBlock
350
45
  3
ByLayer
350
44
  3
Global
350
46
  0
DICTIONARY
  5
6B
102
{ACAD_REACTORS
330
C
102
}
330
C
100
AcDbDictionary
281
     1
  3
Standard
350
6C
  0
DICTIONARY
  5
17
102
{ACAD_REACTORS
330
C
102
}
330
C
100
AcDbDictionary
281
     1
  3
Standard
350
18
  0
DICTIONARY
  5
19
102
{ACAD_REACTORS
330
C
102
}
330
C
100
AcDbDictionary
281
     1
  0
ACDBDICTIONARYWDFLT
  5
E
102
{ACAD_REACTORS
330
C
102
}
330
C
100
AcDbDictionary
281
     1
  3
Normal
350
F
100
AcDbDictionaryWithDefault
340
F
  0
DICTIONARY
  5
47
102
{ACAD_REACTORS
330
C
102
}
330
C
100
AcDbDictionary
281
     1
  3
A0
350
48
  3
A1
350
49
  3
A2
350
4A
  3
A3
350
4B
  3
A4
350
4C
  3
A5
350
4D
  3
A6
350
4E
  3
A7
350
4F
  3
A8
350
50
  3
A9
350
51
  3
B0
350
52
  3
B1
350
53
  3
B2
350
54
  3
B3
350
55
  3
B4
350
56
  3
B5
350
57
  3
B6
350
58
  3
B7
350
59
  3
B8
350
5A
  3
B9
350
5B
  3
C0
350
5C
  3
C1
350
5D
  3
C2
350
5E
  3
C3
350
5F
  3
C4
350
60
  3
C5
350
61
  3
C6
350
62
  3
C7
350
63
  3
C8
350
64
  3
C9
350
65
  3
D0
350
66
  3
D1
350
67
  3
D2
350
68
  0
DICTIONARY
  5
1FE
102
{ACAD_REACTORS
330
C
102
}
330
C
100
AcDbDictionary
281
     1
  0
DICTIONARY
  5
69
102
{ACAD_REACTORS
330
C
102
}
330
C
100
AcDbDictionary
281
     1
  3
Standard
350
6A
  0
DICTIONARY
  5
2A
102
{ACAD_REACTORS
330
C
102
}
330
C
100
AcDbDictionary
281
     1
  3
2dWireframe
350
2F
  3
Basic
350
32
  3
Brighten
350
36
  3
ColorChange
350
3A
  3
Conceptual
350
34
  3
Dim
350
35
  3
EdgeColorOff
350
3D
  3
Facepattern
350
39
  3
Flat
350
2B
  3
FlatWithEdges
350
2C
  3
Gouraud
350
2D
  3
GouraudWithEdges
350
2E
  3
Hidden
350
31
  3
JitterOff
350
3B
  3
Linepattern
350
38
  3
OverhangOff
350
3C
  3
Realistic
350
33
  3
Shaded
350
42
  3
Shaded with edges
350
41
  3
Shades of Gray
350
3E
  3
Sketchy
350
3F
  3
Thicken
350
37
  3
Wireframe
350
30
  3
X-Ray
350
40
  0
XRECORD
  5
1FA
102
{ACAD_REACTORS
330
C
102
}
330
C
100
AcDbXrecord
280
     1
 90
        1
330
6A
  0
DICTIONARY
  5
1F6
102
{ACAD_REACTORS
330
C
102
}
330
C
100
AcDbDictionary
281
     1
  3
CANNOSCALE
350
1F7
  3
CMLEADERSTYLE
350
1FC
  3
CTABLESTYLE
350
1FB
  0
LAYOUT
  5
1E
102
{ACAD_REACTORS
330
1A
102
}
330
1A
100
AcDbPlotSettings
  1

  2
none_device
  4

  6

 40
0.0
 41
0.0
 42
0.0
 43
0.0
 44
0.0
 45
0.0
 46
0.0
 47
0.0
 48
0.0
 49
0.0
140
0.0
141
0.0
142
1.0
143
1.0
 70
   688
 72
     1
 73
     0
 74
     5
  7

 75
    16
 76
     0
 77
     2
 78
   300
147
1.0
148
0.0
149
0.0
100
AcDbLayout
  1
Layout1
 70
     1
 71
     1
 10
0.0
 20
0.0
 11
420.0
 21
297.0
 12
0.0
 22
0.0
 32
0.0
 14
1.000000000000000E+20
 24
1.000000000000000E+20
 34
1.000000000000000E+20
 15
-1.000000000000000E+20
 25
-1.000000000000000E+20
 35
-1.000000000000000E+20
146
0.0
 13
0.0
 23
0.0
 33
0.0
 16
1.0
 26
0.0
 36
0.0
 17
0.0
 27
1.0
 37
0.0
 76
     0
330
1B
  0
LAYOUT
  5
26
102
{ACAD_REACTORS
330
1A
102
}
330
1A
100
AcDbPlotSettings
  1

  2
none_device
  4

  6

 40
0.0
 41
0.0
 42
0.0
 43
0.0
 44
0.0
 45
0.0
 46
0.0
 47
0.0
 48
0.0
 49
0.0
140
0.0
141
0.0
142
1.0
143
1.0
 70
   688
 72
     1
 73
     0
 74
     5
  7

 75
    16
 76
     0
 77
     2
 78
   300
147
1.0
148
0.0
149
0.0
100
AcDbLayout
  1
Layout2
 70
     1
 71
     2
 10
0.0
 20
0.0
 11
0.0
 21
0.0
 12
0.0
 22
0.0
 32
0.0
 14
0.0
 24
0.0
 34
0.0
 15
0.0
 25
0.0
 35
0.0
146
0.0
 13
0.0
 23
0.0
 33
0.0
 16
1.0
 26
0.0
 36
0.0
 17
0.0
 27
1.0
 37
0.0
 76
     0
330
23
  0
LAYOUT
  5
22
102
{ACAD_REACTORS
330
1A
102
}
330
1A
100
AcDbPlotSettings
  1

  2
none_device
  4
Letter_(8.50_x_11.00_Inches)
  6

 40
6.35
 41
6.35
 42
6.35000508
 43
6.35000508
 44
215.9
 45
279.4
 46
0.0
 47
0.0
 48
0.0
 49
0.0
140
0.0
141
0.0
142
1.0
143
1.0
 70
  1712
 72
     1
 73
     0
 74
     0
  7

 75
     0
 76
     0
 77
     2
 78
   300
147
1.0
148
0.0
149
0.0
100
AcDbLayout
  1
Model
 70
     1
 71
     0
 10
0.0
 20
0.0
 11
420.0
 21
297.0
 12
0.0
 22
0.0
 32
0.0
 14
1.000000000000000E+20
 24
1.000000000000000E+20
 34
1.000000000000000E+20
 15
-1.000000000000000E+20
 25
-1.000000000000000E+20
 35
-1.000000000000000E+20
146
0.0
 13
0.0
 23
0.0
 33
0.0
 16
1.0
 26
0.0
 36
0.0
 17
0.0
 27
1.0
 37
0.0
 76
     0
330
1F
331
29
  0
MATERIAL
  5
45
102
{ACAD_REACTORS
330
43
102
}
330
43
100
AcDbMaterial
  1
ByBlock
 72
     1
 94
      127
  0
MATERIAL
  5
44
102
{ACAD_REACTORS
330
43
102
}
330
43
100
AcDbMaterial
  1
ByLayer
 72
     1
 94
      127
  0
MATERIAL
  5
46
102
{ACAD_REACTORS
330
43
102
}
330
43
100
AcDbMaterial
  1
Global
 72
     1
 94
      127
  0
MLEADERSTYLE
  5
6C
102
{ACAD_REACTORS
330
6B
102
}
330
6B
100
AcDbMLeaderStyle
179
     2
170
     2
171
     1
172
     0
 90
        2
 40
0.0
 41
0.0
173
     1
 91
-1056964608
340
14
 92
       -2
290
     1
 42
2.0
291
     1
 43
8.0
  3
Standard
341
0
 44
4.0
300

342
11
174
     1
178
     6
175
     1
176
     0
 93
-1056964608
 45
4.0
292
     0
297
     0
 46
4.0
343
0
 94
-1056964608
 47
1.0
 49
1.0
140
1.0
293
     1
141
0.0
294
     1
177
     0
142
1.0
295
     0
296
     0
143
3.75
271
     0
272
     9
273
     9
298
     0
  0
MLINESTYLE
  5
18
102
{ACAD_REACTORS
330
17
102
}
330
17
100
AcDbMlineStyle
  2
Standard
 70
     0
  3

 62
   256
 51
90.0
 52
90.0
 71
     2
 49
0.5
 62
   256
  6
BYLAYER
 49
-0.5
 62
   256
  6
BYLAYER
  0
ACDBPLACEHOLDER
  5
F
102
{ACAD_REACTORS
330
E
102
}
330
E
  0
SCALE
  5
48
102
{ACAD_REACTORS
330
47
102
}
330
47
100
AcDbScale
 70
     0
300
1:1
140
1.0
141
1.0
290
     1
  0
SCALE
  5
49
102
{ACAD_REACTORS
330
47
102
}
330
47
100
AcDbScale
 70
     0
300
1:2
140
1.0
141
2.0
290
     0
  0
SCALE
  5
4A
102
{ACAD_REACTORS
330
47
102
}
330
47
100
AcDbScale
 70
     0
300
1:4
140
1.0
141
4.0
290
     0
  0
SCALE
  5
4B
102
{ACAD_REACTORS
330
47
102
}
330
47
100
AcDbScale
 70
     0
300
1:5
140
1.0
141
5.0
290
     0
  0
SCALE
  5
4C
102
{ACAD_REACTORS
330
47
102
}
330
47
100
AcDbScale
 70
     0
300
1:8
140
1.0
141
8.0
290
     0
  0
SCALE
  5
4D
102
{ACAD_REACTORS
330
47
102
}
330
47
100
AcDbScale
 70
     0
300
1:10
140
1.0
141
10.0
290
     0
  0
SCALE
  5
4E
102
{ACAD_REACTORS
330
47
102
}
330
47
100
AcDbScale
 70
     0
300
1:16
140
1.0
141
16.0
290
     0
  0
SCALE
  5
4F
102
{ACAD_REACTORS
330
47
102
}
330
47
100
AcDbScale
 70
     0
300
1:20
140
1.0
141
20.0
290
     0
  0
SCALE
  5
50
102
{ACAD_REACTORS
330
47
102
}
330
47
100
AcDbScale
 70
     0
300
1:30
140
1.0
141
30.0
290
     0
  0
SCALE
  5
51
102
{ACAD_REACTORS
330
47
102
}
330
47
100
AcDbScale
 70
     0
300
1:40
140
1.0
141
40.0
290
     0
  0
SCALE
  5
52
102
{ACAD_REACTORS
330
47
102
}
330
47
100
AcDbScale
 70
     0
300
1:50
140
1.0
141
50.0
290
     0
  0
SCALE
  5
53
102
{ACAD_REACTORS
330
47
102
}
330
47
100
AcDbScale
 70
     0
300
1:100
140
1.0
141
100.0
290
     0
  0
SCALE
  5
54
102
{ACAD_REACTORS
330
47
102
}
330
47
100
AcDbScale
 70
     0
300
2:1
140
2.0
141
1.0
290
     0
  0
SCALE
  5
55
102
{ACAD_REACTORS
330
47
102
}
330
47
100
AcDbScale
 70
     0
300
4:1
140
4.0
141
1.0
290
     0
  0
SCALE
  5
56
102
{ACAD_REACTORS
330
47
102
}
330
47
100
AcDbScale
 70
     0
300
8:1
140
8.0
141
1.0
290
     0
  0
SCALE
  5
57
102
{ACAD_REACTORS
330
47
102
}
330
47
100
AcDbScale
 70
     0
300
10:1
140
10.0
141
1.0
290
     0
  0
SCALE
  5
58
102
{ACAD_REACTORS
330
47
102
}
330
47
100
AcDbScale
 70
     0
300
100:1
140
100.0
141
1.0
290
     0
  0
SCALE
  5
59
102
{ACAD_REACTORS
330
47
102
}
330
47
100
AcDbScale
 70
     0
300
1/128" = 1'-0"
140
0.0078125
141
12.0
290
     0
  0
SCALE
  5
5A
102
{ACAD_REACTORS
330
47
102
}
330
47
100
AcDbScale
 70
     0
300
1/64" = 1'-0"
140
0.015625
141
12.0
290
     0
  0
SCALE
  5
5B
102
{ACAD_REACTORS
330
47
102
}
330
47
100
AcDbScale
 70
     0
300
1/32" = 1'-0"
140
0.03125
141
12.0
290
     0
  0
SCALE
  5
5C
102
{ACAD_REACTORS
330
47
102
}
330
47
100
AcDbScale
 70
     0
300
1/16" = 1'-0"
140
0.0625
141
12.0
290
     0
  0
SCALE
  5
5D
102
{ACAD_REACTORS
330
47
102
}
330
47
100
AcDbScale
 70
     0
300
3/32" = 1'-0"
140
0.09375
141
12.0
290
     0
  0
SCALE
  5
5E
102
{ACAD_REACTORS
330
47
102
}
330
47
100
AcDbScale
 70
     0
300
1/8" = 1'-0"
140
0.125
141
12.0
290
     0
  0
SCALE
  5
5F
102
{ACAD_REACTORS
330
47
102
}
330
47
100
AcDbScale
 70
     0
300
3/16" = 1'-0"
140
0.1875
141
12.0
290
     0
  0
SCALE
  5
60
102
{ACAD_REACTORS
330
47
102
}
330
47
100
AcDbScale
 70
     0
300
1/4" = 1'-0"
140
0.25
141
12.0
290
     0
  0
SCALE
  5
61
102
{ACAD_REACTORS
330
47
102
}
330
47
100
AcDbScale
 70
     0
300
3/8" = 1'-0"
140
0.375
141
12.0
290
     0
  0
SCALE
  5
62
102
{ACAD_REACTORS
330
47
102
}
330
47
100
AcDbScale
 70
     0
300
1/2" = 1'-0"
140
0.5
141
12.0
290
     0
  0
SCALE
  5
63
102
{ACAD_REACTORS
330
47
102
}
330
47
100
AcDbScale
 70
     0
300
3/4" = 1'-0"
140
0.75
141
12.0
290
     0
  0
SCALE
  5
64
102
{ACAD_REACTORS
330
47
102
}
330
47
100
AcDbScale
 70
     0
300
1" = 1'-0"
140
1.0
141
12.0
290
     0
  0
SCALE
  5
65
102
{ACAD_REACTORS
330
47
102
}
330
47
100
AcDbScale
 70
     0
300
1-1/2" = 1'-0"
140
1.5
141
12.0
290
     0
  0
SCALE
  5
66
102
{ACAD_REACTORS
330
47
102
}
330
47
100
AcDbScale
 70
     0
300
3" = 1'-0"
140
3.0
141
12.0
290
     0
  0
SCALE
  5
67
102
{ACAD_REACTORS
330
47
102
}
330
47
100
AcDbScale
 70
     0
300
6" = 1'-0"
140
6.0
141
12.0
290
     0
  0
SCALE
  5
68
102
{ACAD_REACTORS
330
47
102
}
330
47
100
AcDbScale
 70
     0
300
1'-0" = 1'-0"
140
12.0
141
12.0
290
     0
  0
TABLESTYLE
  5
6A
102
{ACAD_REACTORS
330
69
102
}
102
{ACAD_XDICTIONARY
360
1F8
102
}
330
69
100
AcDbTableStyle
  3
Standard
 70
     0
 71
     0
 40
0.06
 41
0.06
280
     0
281
     0
  7
Standard
140
4.5
170
     2
 62
     0
 63
   257
283
     0
 90
        4
 91
        0
  1

274
    -2
284
     1
 64
     0
275
    -2
285
     1
 65
     0
276
    -2
286
     1
 66
     0
277
    -2
287
     1
 67
     0
278
    -2
288
     1
 68
     0
279
    -2
289
     1
 69
     0
  7
Standard
140
6.0
170
     5
 62
     0
 63
   257
283
     0
 90
        4
 91
        0
  1

274
    -2
284
     1
 64
     0
275
    -2
285
     1
 65
     0
276
    -2
286
     1
 66
     0
277
    -2
287
     1
 67
     0
278
    -2
288
     1
 68
     0
279
    -2
289
     1
 69
     0
  7
Standard
140
4.5
170
     5
 62
     0
 63
   257
283
     0
 90
        4
 91
        0
  1

274
    -2
284
     1
 64
     0
275
    -2
285
     1
 65
     0
276
    -2
286
     1
 66
     0
277
    -2
287
     1
 67
     0
278
    -2
288
     1
 68
     0
279
    -2
289
     1
 69
     0
  0
VISUALSTYLE
  5
2F
102
{ACAD_REACTORS
330
2A
102
}
330
2A
100
AcDbVisualStyle
  2
2dWireframe
 70
     4
177
     3
291
     0
 70
    58
 90
        0
176
     1
 90
        2
176
     1
 90
        0
176
     1
 90
        0
176
     1
 40
0.6
176
     1
 40
30.0
176
     1
 62
     7
420
 16777215
176
     1
 90
        1
176
     1
 90
        4
176
     1
 62
     7
176
     1
 62
   257
176
     1
 90
        1
176
     1
 90
        1
176
     1
 40
1.0
176
     1
 90
        0
176
     1
 62
   257
176
     1
 40
1.0
176
     1
 90
        1
176
     1
 90
        6
176
     1
 90
        2
176
     1
 62
     7
176
     1
 90
        5
176
     1
 90
        0
176
     1
 90
        0
176
     1
290
     0
176
     1
 90
        1
176
     1
 40
0.0
176
     1
 90
        0
176
     1
290
     1
176
     1
290
     1
176
     1
290
     0
176
     1
290
     0
176
     1
290
     0
176
     1
290
     0
176
     1
290
     0
176
     1
290
     0
176
     1
290
     0
176
     1
 90
       50
176
     1
 40
0.0
176
     1
 40
1.0
176
     1
 90
        0
176
     1
 62
    18
420
        0
176
     1
 90
       50
176
     1
 90
        3
176
     1
 62
     5
420
      255
176
     1
290
     0
176
     1
 90
       50
176
     1
 90
       50
176
     1
 90
       50
176
     1
290
     0
176
     1
 90
       50
176
     1
 62
   256
176
     0
 40
1.0
176
     0
 90
        2
176
     1
  1
strokes_ogs.tif
176
     1
290
     0
176
     1
 40
1.0
176
     1
 40
1.0
176
     1
  0
VISUALSTYLE
  5
32
102
{ACAD_REACTORS
330
2A
102
}
330
2A
100
AcDbVisualStyle
  2
Basic
 70
     7
177
     3
291
     1
 70
    58
 90
        1
176
     1
 90
        0
176
     1
 90
        1
176
     1
 90
        0
176
     1
 40
0.6
176
     1
 40
30.0
176
     1
 62
     7
420
 16777215
176
     1
 90
        0
176
     1
 90
        4
176
     1
 62
     7
176
     1
 62
   257
176
     1
 90
        1
176
     1
 90
        1
176
     1
 40
1.0
176
     1
 90
        8
176
     1
 62
     7
176
     1
 40
1.0
176
     1
 90
        1
176
     1
 90
        6
176
     1
 90
        2
176
     1
 62
     7
176
     1
 90
        5
176
     1
 90
        0
176
     1
 90
        0
176
     1
290
     0
176
     1
 90
        1
176
     1
 40
0.0
176
     1
 90
        0
176
     1
290
     0
176
     1
290
     1
176
     1
290
     1
176
     1
290
     0
176
     1
290
     0
176
     1
290
     0
176
     1
290
     0
176
     1
290
     0
176
     1
290
     0
176
     1
 90
       50
176
     1
 40
0.0
176
     1
 40
1.0
176
     1
 90
        0
176
     1
 62
    18
420
        0
176
     1
 90
       50
176
     1
 90
        3
176
     1
 62
     5
420
      255
176
     1
290
     0
176
     1
 90
       50
176
     1
 90
       50
176
     1
 90
       50
176
     1
290
     0
176
     1
 90
       50
176
     1
 62
   256
176
     0
 40
1.0
176
     0
 90
        2
176
     1
  1
strokes_ogs.tif
176
     1
290
     0
176
     1
 40
1.0
176
     1
 40
1.0
176
     1
  0
VISUALSTYLE
  5
36
102
{ACAD_REACTORS
330
2A
102
}
330
2A
100
AcDbVisualStyle
  2
Brighten
 70
    12
177
     3
291
     1
 70
    58
 90
        2
176
     1
 90
        2
176
     1
 90
        0
176
     1
 90
        0
176
     1
 40
0.6
176
     1
 40
30.0
176
     1
 62
     7
420
 16777215
176
     1
 90
        1
176
     1
 90
        4
176
     1
 62
     7
176
     1
 62
   257
176
     1
 90
        1
176
     1
 90
        1
176
     1
 40
1.0
176
     1
 90
        8
176
     1
 62
     7
176
     1
 40
1.0
176
     1
 90
        1
176
     1
 90
        6
176
     1
 90
        2
176
     1
 62
     7
176
     1
 90
        5
176
     1
 90
        0
176
     1
 90
        0
176
     1
290
     0
176
     1
 90
        1
176
     1
 40
50.0
176
     1
 90
        0
176
     1
290
     0
176
     1
290
     1
176
     1
290
     1
176
     1
290
     0
176
     1
290
     0
176
     1
290
     0
176
     1
290
     0
176
     1
290
     0
176
     1
290
     0
176
     1
 90
       50
176
     1
 40
0.0
176
     1
 40
1.0
176
     1
 90
        0
176
     1
 62
    18
420
        0
176
     1
 90
       50
176
     1
 90
        3
176
     1
 62
     5
420
      255
176
     1
290
     0
176
     1
 90
       50
176
     1
 90
       50
176
     1
 90
       50
176
     1
290
     0
176
     1
 90
       50
176
     1
 62
   256
176
     0
 40
1.0
176
     0
 90
        2
176
     1
  1
strokes_ogs.tif
176
     1
290
     0
176
     1
 40
1.0
176
     1
 40
1.0
176
     1
  0
VISUALSTYLE
  5
3A
102
{ACAD_REACTORS
330
2A
102
}
330
2A
100
AcDbVisualStyle
  2
ColorChange
 70
    16
177
     3
291
     1
 70
    58
 90
        2
176
     1
 90
        2
176
     1
 90
        3
176
     1
 90
        0
176
     1
 40
0.6
176
     1
 40
30.0
176
     1
 62
     8
420
  8421504
176
     1
 90
        1
176
     1
 90
        4
176
     1
 62
     7
176
     1
 62
   257
176
     1
 90
        1
176
     1
 90
        1
176
     1
 40
1.0
176
     1
 90
        8
176
     1
 62
     8
420
  8421504
176
     1
 40
1.0
176
     1
 90
        1
176
     1
 90
        6
176
     1
 90
        2
176
     1
 62
     7
176
     1
 90
        5
176
     1
 90
        0
176
     1
 90
        0
176
     1
290
     0
176
     1
 90
        1
176
     1
 40
0.0
176
     1
 90
        0
176
     1
290
     0
176
     1
290
     1
176
     1
290
     1
176
     1
290
     0
176
     1
290
     0
176
     1
290
     0
176
     1
290
     0
176
     1
290
     0
176
     1
290
     0
176
     1
 90
       50
176
     1
 40
0.0
176
     1
 40
1.0
176
     1
 90
        0
176
     1
 62
    18
420
        0
176
     1
 90
       50
176
     1
 90
        3
176
     1
 62
     5
420
      255
176
     1
290
     0
176
     1
 90
       50
176
     1
 90
       50
176
     1
 90
       50
176
     1
290
     0
176
     1
 90
       50
176
     1
 62
   256
176
     0
 40
1.0
176
     0
 90
        2
176
     1
  1
strokes_ogs.tif
176
     1
290
     0
176
     1
 40
1.0
176
     1
 40
1.0
176
     1
  0
VISUALSTYLE
  5
34
102
{ACAD_REACTORS
330
2A
102
}
330
2A
100
AcDbVisualStyle
  2
Conceptual
 70
     9
177
     3
291
     0
 70
    58
 90
        3
176
     1
 90
        2
176
     1
 90
        0
176
     1
 90
        0
176
     1
 40
0.6
176
     1
 40
30.0
176
     1
 62
     7
420
 16777215
176
     1
 90
        2
176
     1
 90
        2
176
     1
 62
     7
176
     1
 62
   257
176
     1
 90
        1
176
     1
 90
        1
176
     1
 40
179.0
176
     1
 90
        8
176
     1
 62
     7
176
     1
 40
1.0
176
     1
 90
        1
176
     1
 90
        6
176
     1
 90
        2
176
     1
 62
     7
176
     1
 90
        3
176
     1
 90
        0
176
     1
 90
        0
176
     1
290
     0
176
     1
 90
        1
176
     1
 40
0.0
176
     1
 90
        0
176
     1
290
     0
176
     1
290
     1
176
     1
290
     1
176
     1
290
     0
176
     1
290
     0
176
     1
290
     0
176
     1
290
     0
176
     1
290
     0
176
     1
290
     0
176
     1
 90
       50
176
     1
 40
0.0
176
     1
 40
1.0
176
     1
 90
        0
176
     1
 62
    18
420
        0
176
     1
 90
       50
176
     1
 90
        3
176
     1
 62
     5
420
      255
176
     1
290
     0
176
     1
 90
       50
176
     1
 90
       50
176
     1
 90
       50
176
     1
290
     0
176
     1
 90
       50
176
     1
 62
   256
176
     0
 40
1.0
176
     0
 90
        2
176
     1
  1
strokes_ogs.tif
176
     1
290
     0
176
     1
 40
1.0
176
     1
 40
1.0
176
     1
  0
VISUALSTYLE
  5
35
102
{ACAD_REACTORS
330
2A
102
}
330
2A
100
AcDbVisualStyle
  2
Dim
 70
    11
177
     3
291
     1
 70
    58
 90
        2
176
     1
 90
        2
176
     1
 90
        0
176
     1
 90
        0
176
     1
 40
0.6
176
     1
 40
30.0
176
     1
 62
     7
420
 16777215
176
     1
 90
        1
176
     1
 90
        4
176
     1
 62
     7
176
     1
 62
   257
176
     1
 90
        1
176
     1
 90
        1
176
     1
 40
1.0
176
     1
 90
        8
176
     1
 62
     7
176
     1
 40
1.0
176
     1
 90
        1
176
     1
 90
        6
176
     1
 90
        2
176
     1
 62
     7
176
     1
 90
        5
176
     1
 90
        0
176
     1
 90
        0
176
     1
290
     0
176
     1
 90
        1
176
     1
 40
-50.0
176
     1
 90
        0
176
     1
290
     0
176
     1
290
     1
176
     1
290
     1
176
     1
290
     0
176
     1
290
     0
176
     1
290
     0
176
     1
290
     0
176
     1
290
     0
176
     1
290
     0
176
     1
 90
       50
176
     1
 40
0.0
176
     1
 40
1.0
176
     1
 90
        0
176
     1
 62
    18
420
        0
176
     1
 90
       50
176
     1
 90
        3
176
     1
 62
     5
420
      255
176
     1
290
     0
176
     1
 90
       50
176
     1
 90
       50
176
     1
 90
       50
176
     1
290
     0
176
     1
 90
       50
176
     1
 62
   256
176
     0
 40
1.0
176
     0
 90
        2
176
     1
  1
strokes_ogs.tif
176
     1
290
     0
176
     1
 40
1.0
176
     1
 40
1.0
176
     1
  0
VISUALSTYLE
  5
3D
102
{ACAD_REACTORS
330
2A
102
}
330
2A
100
AcDbVisualStyle
  2
EdgeColorOff
 70
    22
177
     3
291
     1
 70
    58
 90
        2
176
     0
 90
        2
176
     0
 90
        0
176
     0
 90
        0
176
     0
 40
0.6
176
     0
 40
30.0
176
     0
 62
     7
420
 16777215
176
     0
 90
        1
176
     0
 90
        4
176
     0
 62
     7
176
     0
 62
   257
176
     0
 90
        1
176
     0
 90
        1
176
     0
 40
1.0
176
     0
 90
        8
176
     2
 62
     7
176
     0
 40
1.0
176
     0
 90
        1
176
     0
 90
        6
176
     0
 90
        2
176
     0
 62
     7
176
     0
 90
        5
176
     0
 90
        0
176
     0
 90
        0
176
     0
290
     0
176
     0
 90
        1
176
     0
 40
0.0
176
     0
 90
        0
176
     0
290
     0
176
     0
290
     1
176
     0
290
     1
176
     0
290
     0
176
     0
290
     0
176
     0
290
     0
176
     0
290
     0
176
     0
290
     0
176
     0
290
     0
176
     0
 90
       50
176
     0
 40
0.0
176
     0
 40
1.0
176
     0
 90
        0
176
     0
 62
    18
420
        0
176
     0
 90
       50
176
     0
 90
        3
176
     0
 62
     5
420
      255
176
     0
290
     0
176
     0
 90
       50
176
     0
 90
       50
176
     0
 90
       50
176
     0
290
     0
176
     0
 90
       50
176
     0
 62
   256
176
     0
 40
1.0
176
     0
 90
        2
176
     0
  1
strokes_ogs.tif
176
     0
290
     0
176
     0
 40
1.0
176
     0
 40
1.0
176
     0
  0
VISUALSTYLE
  5
39
102
{ACAD_REACTORS
330
2A
102
}
330
2A
100
AcDbVisualStyle
  2
Facepattern
 70
    15
177
     3
291
     1
 70
    58
 90
        2
176
     1
 90
        2
176
     1
 90
        0
176
     1
 90
        0
176
     1
 40
0.6
176
     1
 40
30.0
176
     1
 62
     7
420
 16777215
176
     1
 90
        1
176
     1
 90
        4
176
     1
 62
     7
176
     1
 62
   257
176
     1
 90
        1
176
     1
 90
        1
176
     1
 40
1.0
176
     1
 90
        8
176
     1
 62
     7
176
     1
 40
1.0
176
     1
 90
        1
176
     1
 90
        6
176
     1
 90
        2
176
     1
 62
     7
176
     1
 90
        5
176
     1
 90
        0
176
     1
 90
        0
176
     1
290
     0
176
     1
 90
        1
176
     1
 40
0.0
176
     1
 90
        0
176
     1
290
     0
176
     1
290
     1
176
     1
290
     1
176
     1
290
     0
176
     1
290
     0
176
     1
290
     0
176
     1
290
     0
176
     1
290
     0
176
     1
290
     0
176
     1
 90
       50
176
     1
 40
0.0
176
     1
 40
1.0
176
     1
 90
        0
176
     1
 62
    18
420
        0
176
     1
 90
       50
176
     1
 90
        3
176
     1
 62
     5
420
      255
176
     1
290
     0
176
     1
 90
       50
176
     1
 90
       50
176
     1
 90
       50
176
     1
290
     0
176
     1
 90
       50
176
     1
 62
   256
176
     0
 40
1.0
176
     0
 90
        2
176
     1
  1
strokes_ogs.tif
176
     1
290
     0
176
     1
 40
1.0
176
     1
 40
1.0
176
     1
  0
VISUALSTYLE
  5
2B
102
{ACAD_REACTORS
330
2A
102
}
330
2A
100
AcDbVisualStyle
  2
Flat
 70
     0
177
     3
291
     1
 70
    58
 90
        2
176
     1
 90
        1
176
     1
 90
        1
176
     1
 90
        2
176
     1
 40
0.6
176
     1
 40
30.0
176
     1
 62
     7
420
 16777215
176
     1
 90
        0
176
     1
 90
        0
176
     1
 62
     7
176
     1
 62
   257
176
     1
 90
        1
176
     1
 90
        1
176
     1
 40
1.0
176
     1
 90
        8
176
     1
 62
     7
176
     1
 40
1.0
176
     1
 90
        1
176
     1
 90
        6
176
     1
 90
        2
176
     1
 62
     7
176
     1
 90
        5
176
     1
 90
        0
176
     1
 90
        0
176
     1
290
     0
176
     1
 90
       13
176
     1
 40
0.0
176
     1
 90
        0
176
     1
290
     0
176
     1
290
     1
176
     1
290
     1
176
     1
290
     0
176
     1
290
     0
176
     1
290
     0
176
     1
290
     0
176
     1
290
     0
176
     1
290
     0
176
     1
 90
       50
176
     1
 40
0.0
176
     1
 40
1.0
176
     1
 90
        0
176
     1
 62
    18
420
        0
176
     1
 90
       50
176
     1
 90
        3
176
     1
 62
     5
420
      255
176
     1
290
     0
176
     1
 90
       50
176
     1
 90
       50
176
     1
 90
       50
176
     1
290
     0
176
     1
 90
       50
176
     1
 62
   256
176
     0
 40
1.0
176
     0
 90
        2
176
     1
  1
strokes_ogs.tif
176
     1
290
     0
176
     1
 40
1.0
176
     1
 40
1.0
176
     1
  0
VISUALSTYLE
  5
2C
102
{ACAD_REACTORS
330
2A
102
}
330
2A
100
AcDbVisualStyle
  2
FlatWithEdges
 70
     1
177
     3
291
     1
 70
    58
 90
        2
176
     1
 90
        1
176
     1
 90
        1
176
     1
 90
        2
176
     1
 40
0.6
176
     1
 40
30.0
176
     1
 62
     7
420
 16777215
176
     1
 90
        1
176
     1
 90
        0
176
     1
 62
     7
176
     1
 62
   257
176
     1
 90
        1
176
     1
 90
        1
176
     1
 40
1.0
176
     1
 90
        0
176
     1
 62
   257
176
     1
 40
1.0
176
     1
 90
        1
176
     1
 90
        6
176
     1
 90
        2
176
     1
 62
     7
176
     1
 90
        5
176
     1
 90
        0
176
     1
 90
        0
176
     1
290
     0
176
     1
 90
       13
176
     1
 40
0.0
176
     1
 90
        0
176
     1
290
     0
176
     1
290
     1
176
     1
290
     1
176
     1
290
     0
176
     1
290
     0
176
     1
290
     0
176
     1
290
     0
176
     1
290
     0
176
     1
290
     0
176
     1
 90
       50
176
     1
 40
0.0
176
     1
 40
1.0
176
     1
 90
        0
176
     1
 62
    18
420
        0
176
     1
 90
       50
176
     1
 90
        3
176
     1
 62
     5
420
      255
176
     1
290
     0
176
     1
 90
       50
176
     1
 90
       50
176
     1
 90
       50
176
     1
290
     0
176
     1
 90
       50
176
     1
 62
   256
176
     0
 40
1.0
176
     0
 90
        2
176
     1
  1
strokes_ogs.tif
176
     1
290
     0
176
     1
 40
1.0
176
     1
 40
1.0
176
     1
  0
VISUALSTYLE
  5
2D
102
{ACAD_REACTORS
330
2A
102
}
330
2A
100
AcDbVisualStyle
  2
Gouraud
 70
     2
177
     3
291
     1
 70
    58
 90
        2
176
     1
 90
        2
176
     1
 90
        1
176
     1
 90
        2
176
     1
 40
0.6
176
     1
 40
30.0
176
     1
 62
     7
420
 16777215
176
     1
 90
        0
176
     1
 90
        0
176
     1
 62
     7
176
     1
 62
   257
176
     1
 90
        1
176
     1
 90
        1
176
     1
 40
1.0
176
     1
 90
        0
176
     1
 62
     7
176
     1
 40
1.0
176
     1
 90
        1
176
     1
 90
        6
176
     1
 90
        2
176
     1
 62
     7
176
     1
 90
        5
176
     1
 90
        0
176
     1
 90
        0
176
     1
290
     0
176
     1
 90
       13
176
     1
 40
0.0
176
     1
 90
        0
176
     1
290
     0
176
     1
290
     1
176
     1
290
     1
176
     1
290
     0
176
     1
290
     0
176
     1
290
     0
176
     1
290
     0
176
     1
290
     0
176
     1
290
     0
176
     1
 90
       50
176
     1
 40
0.0
176
     1
 40
1.0
176
     1
 90
        0
176
     1
 62
    18
420
        0
176
     1
 90
       50
176
     1
 90
        3
176
     1
 62
     5
420
      255
176
     1
290
     0
176
     1
 90
       50
176
     1
 90
       50
176
     1
 90
       50
176
     1
290
     0
176
     1
 90
       50
176
     1
 62
   256
176
     0
 40
1.0
176
     0
 90
        2
176
     1
  1
strokes_ogs.tif
176
     1
290
     0
176
     1
 40
1.0
176
     1
 40
1.0
176
     1
  0
VISUALSTYLE
  5
2E
102
{ACAD_REACTORS
330
2A
102
}
330
2A
100
AcDbVisualStyle
  2
GouraudWithEdges
 70
     3
177
     3
291
     1
 70
    58
 90
        2
176
     1
 90
        2
176
     1
 90
        1
176
     1
 90
        2
176
     1
 40
0.6
176
     1
 40
30.0
176
     1
 62
     7
420
 16777215
176
     1
 90
        1
176
     1
 90
        0
176
     1
 62
     7
176
     1
 62
   257
176
     1
 90
        1
176
     1
 90
        1
176
     1
 40
1.0
176
     1
 90
        0
176
     1
 62
   257
176
     1
 40
1.0
176
     1
 90
        1
176
     1
 90
        6
176
     1
 90
        2
176
     1
 62
     7
176
     1
 90
        5
176
     1
 90
        0
176
     1
 90
        0
176
     1
290
     0
176
     1
 90
       13
176
     1
 40
0.0
176
     1
 90
        0
176
     1
290
     0
176
     1
290
     1
176
     1
290
     1
176
     1
290
     0
176
     1
290
     0
176
     1
290
     0
176
     1
290
     0
176
     1
290
     0
176
     1
290
     0
176
     1
 90
       50
176
     1
 40
0.0
176
     1
 40
1.0
176
     1
 90
        0
176
     1
 62
    18
420
        0
176
     1
 90
       50
176
     1
 90
        3
176
     1
 62
     5
420
      255
176
     1
290
     0
176
     1
 90
       50
176
     1
 90
       50
176
     1
 90
       50
176
     1
290
     0
176
     1
 90
       50
176
     1
 62
   256
176
     0
 40
1.0
176
     0
 90
        2
176
     1
  1
strokes_ogs.tif
176
     1
290
     0
176
     1
 40
1.0
176
     1
 40
1.0
176
     1
  0
VISUALSTYLE
  5
31
102
{ACAD_REACTORS
330
2A
102
}
330
2A
100
AcDbVisualStyle
  2
Hidden
 70
     6
177
     3
291
     0
 70
    58
 90
        1
176
     1
 90
        2
176
     1
 90
        2
176
     1
 90
        0
176
     1
 40
0.6
176
     1
 40
30.0
176
     1
 62
     7
420
 16777215
176
     1
 90
        2
176
     1
 90
        2
176
     1
 62
     7
176
     1
 62
   257
176
     1
 90
        2
176
     1
 90
        1
176
     1
 40
40.0
176
     1
 90
        0
176
     1
 62
   257
176
     1
 40
1.0
176
     1
 90
        1
176
     1
 90
        6
176
     1
 90
        2
176
     1
 62
     7
176
     1
 90
        3
176
     1
 90
        0
176
     1
 90
        0
176
     1
290
     0
176
     1
 90
        1
176
     1
 40
0.0
176
     1
 90
        0
176
     1
290
     0
176
     1
290
     1
176
     1
290
     1
176
     1
290
     0
176
     1
290
     0
176
     1
290
     0
176
     1
290
     0
176
     1
290
     0
176
     1
290
     0
176
     1
 90
       50
176
     1
 40
0.0
176
     1
 40
1.0
176
     1
 90
        0
176
     1
 62
    18
420
        0
176
     1
 90
       50
176
     1
 90
        3
176
     1
 62
     5
420
      255
176
     1
290
     0
176
     1
 90
       50
176
     1
 90
       50
176
     1
 90
       50
176
     1
290
     0
176
     1
 90
       50
176
     1
 62
   256
176
     0
 40
1.0
176
     0
 90
        2
176
     1
  1
strokes_ogs.tif
176
     1
290
     0
176
     1
 40
1.0
176
     1
 40
1.0
176
     1
  0
VISUALSTYLE
  5
3B
102
{ACAD_REACTORS
330
2A
102
}
330
2A
100
AcDbVisualStyle
  2
JitterOff
 70
    20
177
     3
291
     1
 70
    58
 90
        2
176
     0
 90
        2
176
     0
 90
        0
176
     0
 90
        0
176
     0
 40
0.6
176
     0
 40
30.0
176
     0
 62
     7
420
 16777215
176
     0
 90
        1
176
     0
 90
        4
176
     0
 62
     7
176
     0
 62
   257
176
     0
 90
        1
176
     0
 90
        1
176
     0
 40
1.0
176
     0
 90
       10
176
     2
 62
     7
176
     0
 40
1.0
176
     0
 90
        1
176
     0
 90
        6
176
     0
 90
        2
176
     0
 62
     7
176
     0
 90
        5
176
     0
 90
        0
176
     0
 90
        0
176
     0
290
     0
176
     0
 90
        1
176
     0
 40
0.0
176
     0
 90
        0
176
     0
290
     0
176
     0
290
     1
176
     0
290
     1
176
     0
290
     0
176
     0
290
     0
176
     0
290
     0
176
     0
290
     0
176
     0
290
     0
176
     0
290
     0
176
     0
 90
       50
176
     0
 40
0.0
176
     0
 40
1.0
176
     0
 90
        0
176
     0
 62
    18
420
        0
176
     0
 90
       50
176
     0
 90
        3
176
     0
 62
     5
420
      255
176
     0
290
     0
176
     0
 90
       50
176
     0
 90
       50
176
     0
 90
       50
176
     0
290
     0
176
     0
 90
       50
176
     0
 62
   256
176
     0
 40
1.0
176
     0
 90
        2
176
     0
  1
strokes_ogs.tif
176
     0
290
     0
176
     0
 40
1.0
176
     0
 40
1.0
176
     0
  0
VISUALSTYLE
  5
38
102
{ACAD_REACTORS
330
2A
102
}
330
2A
100
AcDbVisualStyle
  2
Linepattern
 70
    14
177
     3
291
     1
 70
    58
 90
        2
176
     1
 90
        2
176
     1
 90
        0
176
     1
 90
        0
176
     1
 40
0.6
176
     1
 40
30.0
176
     1
 62
     7
420
 16777215
176
     1
 90
        1
176
     1
 90
        4
176
     1
 62
     7
176
     1
 62
   257
176
     1
 90
        7
176
     1
 90
        7
176
     1
 40
1.0
176
     1
 90
        8
176
     1
 62
     7
176
     1
 40
1.0
176
     1
 90
        1
176
     1
 90
        6
176
     1
 90
        2
176
     1
 62
     7
176
     1
 90
        5
176
     1
 90
        0
176
     1
 90
        0
176
     1
290
     0
176
     1
 90
        1
176
     1
 40
0.0
176
     1
 90
        0
176
     1
290
     0
176
     1
290
     1
176
     1
290
     1
176
     1
290
     0
176
     1
290
     0
176
     1
290
     0
176
     1
290
     0
176
     1
290
     0
176
     1
290
     0
176
     1
 90
       50
176
     1
 40
0.0
176
     1
 40
1.0
176
     1
 90
        0
176
     1
 62
    18
420
        0
176
     1
 90
       50
176
     1
 90
        3
176
     1
 62
     5
420
      255
176
     1
290
     0
176
     1
 90
       50
176
     1
 90
       50
176
     1
 90
       50
176
     1
290
     0
176
     1
 90
       50
176
     1
 62
   256
176
     0
 40
1.0
176
     0
 90
        2
176
     1
  1
strokes_ogs.tif
176
     1
290
     0
176
     1
 40
1.0
176
     1
 40
1.0
176
     1
  0
VISUALSTYLE
  5
3C
102
{ACAD_REACTORS
330
2A
102
}
330
2A
100
AcDbVisualStyle
  2
OverhangOff
 70
    21
177
     3
291
     1
 70
    58
 90
        2
176
     0
 90
        2
176
     0
 90
        0
176
     0
 90
        0
176
     0
 40
0.6
176
     0
 40
30.0
176
     0
 62
     7
420
 16777215
176
     0
 90
        1
176
     0
 90
        4
176
     0
 62
     7
176
     0
 62
   257
176
     0
 90
        1
176
     0
 90
        1
176
     0
 40
1.0
176
     0
 90
        9
176
     2
 62
     7
176
     0
 40
1.0
176
     0
 90
        1
176
     0
 90
        6
176
     0
 90
        2
176
     0
 62
     7
176
     0
 90
        5
176
     0
 90
        0
176
     0
 90
        0
176
     0
290
     0
176
     0
 90
        1
176
     0
 40
0.0
176
     0
 90
        0
176
     0
290
     0
176
     0
290
     1
176
     0
290
     1
176
     0
290
     0
176
     0
290
     0
176
     0
290
     0
176
     0
290
     0
176
     0
290
     0
176
     0
290
     0
176
     0
 90
       50
176
     0
 40
0.0
176
     0
 40
1.0
176
     0
 90
        0
176
     0
 62
    18
420
        0
176
     0
 90
       50
176
     0
 90
        3
176
     0
 62
     5
420
      255
176
     0
290
     0
176
     0
 90
       50
176
     0
 90
       50
176
     0
 90
       50
176
     0
290
     0
176
     0
 90
       50
176
     0
 62
   256
176
     0
 40
1.0
176
     0
 90
        2
176
     0
  1
strokes_ogs.tif
176
     0
290
     0
176
     0
 40
1.0
176
     0
 40
1.0
176
     0
  0
VISUALSTYLE
  5
33
102
{ACAD_REACTORS
330
2A
102
}
330
2A
100
AcDbVisualStyle
  2
Realistic
 70
     8
177
     3
291
     0
 70
    58
 90
        2
176
     1
 90
        3
176
     1
 90
        0
176
     1
 90
        2
176
     1
 40
0.6
176
     1
 40
30.0
176
     1
 62
     7
420
 16777215
176
     1
 90
        0
176
     1
 90
        0
176
     1
 62
     7
176
     1
 62
   257
176
     1
 90
        1
176
     1
 90
        1
176
     1
 40
1.0
176
     1
 90
        8
176
     1
 62
   257
176
     1
 40
1.0
176
     1
 90
        1
176
     1
 90
        6
176
     1
 90
        2
176
     1
 62
     7
176
     1
 90
        3
176
     1
 90
        0
176
     1
 90
        0
176
     1
290
     0
176
     1
 90
       13
176
     1
 40
0.0
176
     1
 90
        0
176
     1
290
     0
176
     1
290
     1
176
     1
290
     1
176
     1
290
     0
176
     1
290
     0
176
     1
290
     0
176
     1
290
     0
176
     1
290
     0
176
     1
290
     0
176
     1
 90
       50
176
     1
 40
0.0
176
     1
 40
1.0
176
     1
 90
        0
176
     1
 62
    18
420
        0
176
     1
 90
       50
176
     1
 90
        3
176
     1
 62
     5
420
      255
176
     1
290
     0
176
     1
 90
       50
176
     1
 90
       50
176
     1
 90
       50
176
     1
290
     0
176
     1
 90
       50
176
     1
 62
   256
176
     0
 40
1.0
176
     0
 90
        2
176
     1
  1
strokes_ogs.tif
176
     1
290
     0
176
     1
 40
1.0
176
     1
 40
1.0
176
     1
  0
VISUALSTYLE
  5
42
102
{ACAD_REACTORS
330
2A
102
}
330
2A
100
AcDbVisualStyle
  2
Shaded
 70
    27
177
     3
291
     0
 70
    58
 90
        2
176
     1
 90
        2
176
     1
 90
        1
176
     1
 90
        2
176
     1
 40
0.6
176
     1
 40
30.0
176
     1
 62
     7
420
 16777215
176
     1
 90
        0
176
     1
 90
        4
176
     1
 62
     7
176
     1
 62
   257
176
     1
 90
        1
176
     1
 90
        1
176
     1
 40
1.0
176
     1
 90
        8
176
     1
 62
   257
176
     1
 40
1.0
176
     1
 90
        1
176
     1
 90
        6
176
     1
 90
        2
176
     1
 62
     8
420
  7895160
176
     1
 90
        3
176
     1
 90
        0
176
     1
 90
        0
176
     1
290
     0
176
     1
 90
        5
176
     1
 40
0.0
176
     1
 90
        0
176
     1
290
     0
176
     1
290
     1
176
     1
290
     1
176
     1
290
     0
176
     1
290
     0
176
     1
290
     0
176
     1
290
     0
176
     1
290
     0
176
     1
290
     0
176
     1
 90
       50
176
     1
 40
0.0
176
     1
 40
1.0
176
     1
 90
        0
176
     1
 62
    18
420
        0
176
     1
 90
       50
176
     1
 90
        3
176
     1
 62
     5
420
      255
176
     1
290
     0
176
     1
 90
       50
176
     1
 90
       50
176
     1
 90
       50
176
     1
290
     0
176
     1
 90
       50
176
     1
 62
   256
176
     0
 40
1.0
176
     0
 90
        2
176
     1
  1
strokes_ogs.tif
176
     1
290
     0
176
     1
 40
1.0
176
     1
 40
1.0
176
     1
  0
VISUALSTYLE
  5
41
102
{ACAD_REACTORS
330
2A
102
}
330
2A
100
AcDbVisualStyle
  2
Shaded with edges
 70
    26
177
     3
291
     0
 70
    58
 90
        2
176
     1
 90
        2
176
     1
 90
        1
176
     1
 90
        2
176
     1
 40
0.6
176
     1
 40
30.0
176
     1
 62
     7
420
 16777215
176
     1
 90
        1
176
     1
 90
       10
176
     1
 62
     7
176
     1
 62
   257
176
     1
 90
        2
176
     1
 90
        1
176
     1
 40
1.0
176
     1
 90
        8
176
     1
 62
   257
176
     1
 40
1.0
176
     1
 90
        1
176
     1
 90
        6
176
     1
 90
        2
176
     1
 62
     7
176
     1
 90
        3
176
     1
 90
        0
176
     1
 90
        0
176
     1
290
     0
176
     1
 90
        5
176
     1
 40
0.0
176
     1
 90
        0
176
     1
290
     0
176
     1
290
     1
176
     1
290
     1
176
     1
290
     0
176
     1
290
     0
176
     1
290
     0
176
     1
290
     0
176
     1
290
     0
176
     1
290
     0
176
     1
 90
       50
176
     1
 40
0.0
176
     1
 40
1.0
176
     1
 90
        0
176
     1
 62
    18
420
        0
176
     1
 90
       50
176
     1
 90
        3
176
     1
 62
     5
420
      255
176
     1
290
     0
176
     1
 90
       50
176
     1
 90
       50
176
     1
 90
       50
176
     1
290
     0
176
     1
 90
       50
176
     1
 62
   256
176
     0
 40
1.0
176
     0
 90
        2
176
     1
  1
strokes_ogs.tif
176
     1
290
     0
176
     1
 40
1.0
176
     1
 40
1.0
176
     1
  0
VISUALSTYLE
  5
3E
102
{ACAD_REACTORS
330
2A
102
}
330
2A
100
AcDbVisualStyle
  2
Shades of Gray
 70
    23
177
     3
291
     0
 70
    58
 90
        2
176
     1
 90
        2
176
     1
 90
        3
176
     1
 90
        0
176
     1
 40
0.6
176
     1
 40
30.0
176
     1
 62
     7
420
 16777215
176
     1
 90
        2
176
     1
 90
        2
176
     1
 62
     7
176
     1
 62
     7
176
     1
 90
        1
176
     1
 90
        1
176
     1
 40
40.0
176
     1
 90
        8
176
     1
 62
     7
176
     1
 40
1.0
176
     1
 90
        1
176
     1
 90
        6
176
     1
 90
        2
176
     1
 62
     7
176
     1
 90
        3
176
     1
 90
        0
176
     1
 90
        0
176
     1
290
     0
176
     1
 90
        1
176
     1
 40
0.0
176
     1
 90
        0
176
     1
290
     0
176
     1
290
     1
176
     1
290
     1
176
     1
290
     0
176
     1
290
     0
176
     1
290
     0
176
     1
290
     0
176
     1
290
     0
176
     1
290
     0
176
     1
 90
       50
176
     1
 40
0.0
176
     1
 40
1.0
176
     1
 90
        0
176
     1
 62
    18
420
        0
176
     1
 90
       50
176
     1
 90
        3
176
     1
 62
     5
420
      255
176
     1
290
     0
176
     1
 90
       50
176
     1
 90
       50
176
     1
 90
       50
176
     1
290
     0
176
     1
 90
       50
176
     1
 62
   256
176
     0
 40
1.0
176
     0
 90
        2
176
     1
  1
strokes_ogs.tif
176
     1
290
     0
176
     1
 40
1.0
176
     1
 40
1.0
176
     1
  0
VISUALSTYLE
  5
3F
102
{ACAD_REACTORS
330
2A
102
}
330
2A
100
AcDbVisualStyle
  2
Sketchy
 70
    24
177
     3
291
     0
 70
    58
 90
        1
176
     1
 90
        2
176
     1
 90
        2
176
     1
 90
        0
176
     1
 40
0.6
176
     1
 40
30.0
176
     1
 62
     7
420
 16777215
176
     1
 90
        2
176
     1
 90
        2
176
     1
 62
     7
176
     1
 62
     7
176
     1
 90
        1
176
     1
 90
        1
176
     1
 40
40.0
176
     1
 90
       11
176
     1
 62
     7
176
     1
 40
1.0
176
     1
 90
        1
176
     1
 90
        6
176
     1
 90
        2
176
     1
 62
     7
176
     1
 90
        6
176
     1
 90
        0
176
     1
 90
        0
176
     1
290
     0
176
     1
 90
        1
176
     1
 40
0.0
176
     1
 90
        0
176
     1
290
     0
176
     1
290
     1
176
     1
290
     1
176
     1
290
     0
176
     1
290
     0
176
     1
290
     0
176
     1
290
     0
176
     1
290
     0
176
     1
290
     0
176
     1
 90
       50
176
     1
 40
0.0
176
     1
 40
1.0
176
     1
 90
        0
176
     1
 62
    18
420
        0
176
     1
 90
       50
176
     1
 90
        3
176
     1
 62
     5
420
      255
176
     1
290
     0
176
     1
 90
       50
176
     1
 90
       50
176
     1
 90
       50
176
     1
290
     0
176
     1
 90
       50
176
     1
 62
   256
176
     0
 40
1.0
176
     0
 90
        2
176
     1
  1
strokes_ogs.tif
176
     1
290
     0
176
     1
 40
1.0
176
     1
 40
1.0
176
     1
  0
VISUALSTYLE
  5
37
102
{ACAD_REACTORS
330
2A
102
}
330
2A
100
AcDbVisualStyle
  2
Thicken
 70
    13
177
     3
291
     1
 70
    58
 90
        2
176
     1
 90
        2
176
     1
 90
        0
176
     1
 90
        0
176
     1
 40
0.6
176
     1
 40
30.0
176
     1
 62
     7
420
 16777215
176
     1
 90
        1
176
     1
 90
        4
176
     1
 62
     7
176
     1
 62
   257
176
     1
 90
        1
176
     1
 90
        1
176
     1
 40
1.0
176
     1
 90
       12
176
     1
 62
     7
176
     1
 40
1.0
176
     1
 90
        1
176
     1
 90
        6
176
     1
 90
        2
176
     1
 62
     7
176
     1
 90
        5
176
     1
 90
        0
176
     1
 90
        0
176
     1
290
     0
176
     1
 90
        1
176
     1
 40
0.0
176
     1
 90
        0
176
     1
290
     0
176
     1
290
     1
176
     1
290
     1
176
     1
290
     0
176
     1
290
     0
176
     1
290
     0
176
     1
290
     0
176
     1
290
     0
176
     1
290
     0
176
     1
 90
       50
176
     1
 40
0.0
176
     1
 40
1.0
176
     1
 90
        0
176
     1
 62
    18
420
        0
176
     1
 90
       50
176
     1
 90
        3
176
     1
 62
     5
420
      255
176
     1
290
     0
176
     1
 90
       50
176
     1
 90
       50
176
     1
 90
       50
176
     1
290
     0
176
     1
 90
       50
176
     1
 62
   256
176
     0
 40
1.0
176
     0
 90
        2
176
     1
  1
strokes_ogs.tif
176
     1
290
     0
176
     1
 40
1.0
176
     1
 40
1.0
176
     1
  0
VISUALSTYLE
  5
30
102
{ACAD_REACTORS
330
2A
102
}
330
2A
100
AcDbVisualStyle
  2
Wireframe
 70
     5
177
     3
291
     0
 70
    58
 90
        0
176
     1
 90
        2
176
     1
 90
        0
176
     1
 90
        0
176
     1
 40
0.6
176
     1
 40
30.0
176
     1
 62
     7
420
 16777215
176
     1
 90
        1
176
     1
 90
        4
176
     1
 62
     7
176
     1
 62
   257
176
     1
 90
        1
176
     1
 90
        1
176
     1
 40
1.0
176
     1
 90
        0
176
     1
 62
   257
176
     1
 40
1.0
176
     1
 90
        1
176
     1
 90
        6
176
     1
 90
        2
176
     1
 62
     7
176
     1
 90
        3
176
     1
 90
        0
176
     1
 90
        0
176
     1
290
     0
176
     1
 90
        1
176
     1
 40
0.0
176
     1
 90
        0
176
     1
290
     0
176
     1
290
     1
176
     1
290
     1
176
     1
290
     0
176
     1
290
     0
176
     1
290
     0
176
     1
290
     0
176
     1
290
     0
176
     1
290
     0
176
     1
 90
       50
176
     1
 40
0.0
176
     1
 40
1.0
176
     1
 90
        0
176
     1
 62
    18
420
        0
176
     1
 90
       50
176
     1
 90
        3
176
     1
 62
     5
420
      255
176
     1
290
     0
176
     1
 90
       50
176
     1
 90
       50
176
     1
 90
       50
176
     1
290
     0
176
     1
 90
       50
176
     1
 62
   256
176
     0
 40
1.0
176
     0
 90
        2
176
     1
  1
strokes_ogs.tif
176
     1
290
     0
176
     1
 40
1.0
176
     1
 40
1.0
176
     1
  0
VISUALSTYLE
  5
40
102
{ACAD_REACTORS
330
2A
102
}
330
2A
100
AcDbVisualStyle
  2
X-Ray
 70
    25
177
     3
291
     0
 70
    58
 90
        2
176
     1
 90
        2
176
     1
 90
        1
176
     1
 90
        1
176
     1
 40
0.5
176
     1
 40
30.0
176
     1
 62
     7
420
 16777215
176
     1
 90
        1
176
     1
 90
        0
176
     1
 62
     7
176
     1
 62
   257
176
     1
 90
        1
176
     1
 90
        1
176
     1
 40
1.0
176
     1
 90
        8
176
     1
 62
     7
176
     1
 40
1.0
176
     1
 90
        1
176
     1
 90
        6
176
     1
 90
        2
176
     1
 62
     7
176
     1
 90
        3
176
     1
 90
        0
176
     1
 90
        0
176
     1
290
     0
176
     1
 90
       13
176
     1
 40
0.0
176
     1
 90
        0
176
     1
290
     0
176
     1
290
     1
176
     1
290
     1
176
     1
290
     0
176
     1
290
     0
176
     1
290
     0
176
     1
290
     0
176
     1
290
     0
176
     1
290
     0
176
     1
 90
       50
176
     1
 40
0.0
176
     1
 40
1.0
176
     1
 90
        0
176
     1
 62
    18
420
        0
176
     1
 90
       50
176
     1
 90
        3
176
     1
 62
     5
420
      255
176
     1
290
     0
176
     1
 90
       50
176
     1
 90
       50
176
     1
 90
       50
176
     1
290
     0
176
     1
 90
       50
176
     1
 62
   256
176
     0
 40
1.0
176
     0
 90
        2
176
     1
  1
strokes_ogs.tif
176
     1
290
     0
176
     1
 40
1.0
176
     1
 40
1.0
176
     1
  0
DICTIONARYVAR
  5
1F7
102
{ACAD_REACTORS
330
1F6
102
}
330
1F6
100
DictionaryVariables
280
     0
  1
1:1
  0
DICTIONARYVAR
  5
1FC
102
{ACAD_REACTORS
330
1F6
102
}
330
1F6
100
DictionaryVariables
280
     0
  1
Standard
  0
DICTIONARYVAR
  5
1FB
102
{ACAD_REACTORS
330
1F6
102
}
330
1F6
100
DictionaryVariables
280
     0
  1
Standard
  0
DICTIONARY
  5
1F8
330
6A
100
AcDbDictionary
280
     1
281
     1
  3
ACAD_ROUNDTRIP_2008_TABLESTYLE_CELLSTYLEMAP
360
1F9
  0
CELLSTYLEMAP
  5
1F9
102
{ACAD_REACTORS
330
1F8
102
}
330
1F8
100
AcDbCellStyleMap
 90
        3
300
CELLSTYLE
  1
TABLEFORMAT_BEGIN
 90
        5
170
     1
 91
        0
 92
    32768
 62
   257
 93
        1
300
CONTENTFORMAT
  1
CONTENTFORMAT_BEGIN
 90
        0
 91
        0
 92
        4
 93
        0
300

 40
0.0
140
1.0
 94
        5
 62
     0
340
11
144
6.0
309
CONTENTFORMAT_END
171
     1
301
MARGIN
  1
CELLMARGIN_BEGIN
 40
1.5
 40
1.5
 40
1.5
 40
1.5
 40
1.5
 40
1.5
309
CELLMARGIN_END
 94
        6
 95
        1
302
GRIDFORMAT
  1
GRIDFORMAT_BEGIN
 90
        0
 91
        1
 62
     0
 92
       -2
340
14
 93
        0
 40
0.045
309
GRIDFORMAT_END
 95
        2
302
GRIDFORMAT
  1
GRIDFORMAT_BEGIN
 90
        0
 91
        1
 62
     0
 92
       -2
340
14
 93
        0
 40
0.045
309
GRIDFORMAT_END
 95
        4
302
GRIDFORMAT
  1
GRIDFORMAT_BEGIN
 90
        0
 91
        1
 62
     0
 92
       -2
340
14
 93
        0
 40
0.045
309
GRIDFORMAT_END
 95
        8
302
GRIDFORMAT
  1
GRIDFORMAT_BEGIN
 90
        0
 91
        1
 62
     0
 92
       -2
340
14
 93
        0
 40
0.045
309
GRIDFORMAT_END
 95
       16
302
GRIDFORMAT
  1
GRIDFORMAT_BEGIN
 90
        0
 91
        1
 62
     0
 92
       -2
340
14
 93
        0
 40
0.045
309
GRIDFORMAT_END
 95
       32
302
GRIDFORMAT
  1
GRIDFORMAT_BEGIN
 90
        0
 91
        1
 62
     0
 92
       -2
340
14
 93
        0
 40
0.045
309
GRIDFORMAT_END
309
TABLEFORMAT_END
  1
CELLSTYLE_BEGIN
 90
        1
 91
        1
300
_TITLE
309
CELLSTYLE_END
300
CELLSTYLE
  1
TABLEFORMAT_BEGIN
 90
        5
170
     1
 91
        0
 92
        0
 62
   257
 93
        1
300
CONTENTFORMAT
  1
CONTENTFORMAT_BEGIN
 90
        0
 91
        0
 92
        4
 93
        0
300

 40
0.0
140
1.0
 94
        5
 62
     0
340
11
144
4.5
309
CONTENTFORMAT_END
171
     1
301
MARGIN
  1
CELLMARGIN_BEGIN
 40
1.5
 40
1.5
 40
1.5
 40
1.5
 40
1.5
 40
1.5
309
CELLMARGIN_END
 94
        6
 95
        1
302
GRIDFORMAT
  1
GRIDFORMAT_BEGIN
 90
        0
 91
        1
 62
     0
 92
       -2
340
14
 93
        0
 40
0.045
309
GRIDFORMAT_END
 95
        2
302
GRIDFORMAT
  1
GRIDFORMAT_BEGIN
 90
        0
 91
        1
 62
     0
 92
       -2
340
14
 93
        0
 40
0.045
309
GRIDFORMAT_END
 95
        4
302
GRIDFORMAT
  1
GRIDFORMAT_BEGIN
 90
        0
 91
        1
 62
     0
 92
       -2
340
14
 93
        0
 40
0.045
309
GRIDFORMAT_END
 95
        8
302
GRIDFORMAT
  1
GRIDFORMAT_BEGIN
 90
        0
 91
        1
 62
     0
 92
       -2
340
14
 93
        0
 40
0.045
309
GRIDFORMAT_END
 95
       16
302
GRIDFORMAT
  1
GRIDFORMAT_BEGIN
 90
        0
 91
        1
 62
     0
 92
       -2
340
14
 93
        0
 40
0.045
309
GRIDFORMAT_END
 95
       32
302
GRIDFORMAT
  1
GRIDFORMAT_BEGIN
 90
        0
 91
        1
 62
     0
 92
       -2
340
14
 93
        0
 40
0.045
309
GRIDFORMAT_END
309
TABLEFORMAT_END
  1
CELLSTYLE_BEGIN
 90
        2
 91
        1
300
_HEADER
309
CELLSTYLE_END
300
CELLSTYLE
  1
TABLEFORMAT_BEGIN
 90
        5
170
     1
 91
        0
 92
        0
 62
   257
 93
        1
300
CONTENTFORMAT
  1
CONTENTFORMAT_BEGIN
 90
        0
 91
        0
 92
        4
 93
        0
300

 40
0.0
140
1.0
 94
        2
 62
     0
340
11
144
4.5
309
CONTENTFORMAT_END
171
     1
301
MARGIN
  1
CELLMARGIN_BEGIN
 40
1.5
 40
1.5
 40
1.5
 40
1.5
 40
1.5
 40
1.5
309
CELLMARGIN_END
 94
        6
 95
        1
302
GRIDFORMAT
  1
GRIDFORMAT_BEGIN
 90
        0
 91
        1
 62
     0
 92
       -2
340
14
 93
        0
 40
0.045
309
GRIDFORMAT_END
 95
        2
302
GRIDFORMAT
  1
GRIDFORMAT_BEGIN
 90
        0
 91
        1
 62
     0
 92
       -2
340
14
 93
        0
 40
0.045
309
GRIDFORMAT_END
 95
        4
302
GRIDFORMAT
  1
GRIDFORMAT_BEGIN
 90
        0
 91
        1
 62
     0
 92
       -2
340
14
 93
        0
 40
0.045
309
GRIDFORMAT_END
 95
        8
302
GRIDFORMAT
  1
GRIDFORMAT_BEGIN
 90
        0
 91
        1
 62
     0
 92
       -2
340
14
 93
        0
 40
0.045
309
GRIDFORMAT_END
 95
       16
302
GRIDFORMAT
  1
GRIDFORMAT_BEGIN
 90
        0
 91
        1
 62
     0
 92
       -2
340
14
 93
        0
 40
0.045
309
GRIDFORMAT_END
 95
       32
302
GRIDFORMAT
  1
GRIDFORMAT_BEGIN
 90
        0
 91
        1
 62
     0
 92
       -2
340
14
 93
        0
 40
0.045
309
GRIDFORMAT_END
309
TABLEFORMAT_END
  1
CELLSTYLE_BEGIN
 90
        3
 91
        2
300
_DATA
309
CELLSTYLE_END
  0
ENDSEC
  0
EOF