0
SECTION
  2
HEADER
  9
$ACADVER
  1
AC1027
  9
$ACADMAINTVER
 70
     8
  9
$DWGCODEPAGE
  3
ANSI_1252
  9
$REQUIREDVERSIONS
160
                 0
  9
$COMMENTS
  1
File was created by Cadenas
  9
$CUSTOMPROPERTYTAG
  1
NN
  9
$CUSTOMPROPERTY
  1
Grip Tight Two-Bolt Flange Inch Bore
  9
$CUSTOMPROPERTYTAG
  1
NT
  9
$CUSTOMPROPERTY
  1
GT Normal Duty 2 Bolt Flange Bearings
  9
$CUSTOMPROPERTYTAG
  1
NB
  9
$CUSTOMPROPERTY
  1
129315
  9
$CUSTOMPROPERTYTAG
  1
NBSYN
  9
$CUSTOMPROPERTY
  1
$PN.$LUBE.
  9
$CUSTOMPROPERTYTAG
  1
LINA
  9
$CUSTOMPROPERTY
  1
129315
  9
$CUSTOMPROPERTYTAG
  1
SERIES
  9
$CUSTOMPROPERTY
  1
209
  9
$CUSTOMPROPERTYTAG
  1
SS
  9
$CUSTOMPROPERTY
  1
1-11/16
  9
$CUSTOMPROPERTYTAG
  1
PN
  9
$CUSTOMPROPERTY
  1
129315
  9
$CUSTOMPROPERTYTAG
  1
DESCRIPTION
  9
$CUSTOMPROPERTY
  1
F2B-GT-111
  9
$CUSTOMPROPERTYTAG
  1
A
  9
$CUSTOMPROPERTY
  1
1-27/32
  9
$CUSTOMPROPERTYTAG
  1
B
  9
$CUSTOMPROPERTY
  1
7-1/16
  9
$CUSTOMPROPERTYTAG
  1
C
  9
$CUSTOMPROPERTY
  1
2
  9
$CUSTOMPROPERTYTAG
  1
D
  9
$CUSTOMPROPERTY
  1
5-27/32
  9
$CUSTOMPROPERTYTAG
  1
F
  9
$CUSTOMPROPERTY
  1
1/2
  9
$CUSTOMPROPERTYTAG
  1
H
  9
$CUSTOMPROPERTY
  1
5/8
  9
$CUSTOMPROPERTYTAG
  1
J
  9
$CUSTOMPROPERTY
  1
9/16
  9
$CUSTOMPROPERTYTAG
  1
L
  9
$CUSTOMPROPERTY
  1
2-43/64
  9
$CUSTOMPROPERTYTAG
  1
M
  9
$CUSTOMPROPERTY
  1
4-3/8
  9
$CUSTOMPROPERTYTAG
  1
N
  9
$CUSTOMPROPERTY
  1
1-29/32
  9
$CUSTOMPROPERTYTAG
  1
Z
  9
$CUSTOMPROPERTY
  1
1-31/32
  9
$CUSTOMPROPERTYTAG
  1
COMPANY
  9
$CUSTOMPROPERTY
  1
baldor
  9
$INSBASE
 10
0.0
 20
0.0
 30
0.0
  9
$EXTMIN
 10
1.000000000000000E+20
 20
1.000000000000000E+20
 30
1.000000000000000E+20
  9
$EXTMAX
 10
-1.000000000000000E+20
 20
-1.000000000000000E+20
 30
-1.000000000000000E+20
  9
$LIMMIN
 10
0.0
 20
0.0
  9
$LIMMAX
 10
12.0
 20
9.0
  9
$ORTHOMODE
 70
     0
  9
$REGENMODE
 70
     1
  9
$FILLMODE
 70
     1
  9
$QTEXTMODE
 70
     0
  9
$MIRRTEXT
 70
     1
  9
$LTSCALE
 40
1.0
  9
$ATTMODE
 70
     1
  9
$TEXTSIZE
 40
0.2
  9
$TRACEWID
 40
0.05
  9
$TEXTSTYLE
  7
Standard
  9
$CLAYER
  8
0
  9
$CELTYPE
  6
ByLayer
  9
$CECOLOR
 62
   256
  9
$CELTSCALE
 40
1.0
  9
$DISPSILH
 70
     0
  9
$DIMSCALE
 40
1.0
  9
$DIMASZ
 40
0.18
  9
$DIMEXO
 40
0.0625
  9
$DIMDLI
 40
0.38
  9
$DIMRND
 40
0.0
  9
$DIMDLE
 40
0.0
  9
$DIMEXE
 40
0.18
  9
$DIMTP
 40
0.0
  9
$DIMTM
 40
0.0
  9
$DIMTXT
 40
0.18
  9
$DIMCEN
 40
0.09
  9
$DIMTSZ
 40
0.0
  9
$DIMTOL
 70
     0
  9
$DIMLIM
 70
     0
  9
$DIMTIH
 70
     1
  9
$DIMTOH
 70
     1
  9
$DIMSE1
 70
     0
  9
$DIMSE2
 70
     0
  9
$DIMTAD
 70
     0
  9
$DIMZIN
 70
     0
  9
$DIMBLK
  1

  9
$DIMASO
 70
     1
  9
$DIMSHO
 70
     1
  9
$DIMPOST
  1

  9
$DIMAPOST
  1

  9
$DIMALT
 70
     0
  9
$DIMALTD
 70
     2
  9
$DIMALTF
 40
25.4
  9
$DIMLFAC
 40
1.0
  9
$DIMTOFL
 70
     0
  9
$DIMTVP
 40
0.0
  9
$DIMTIX
 70
     0
  9
$DIMSOXD
 70
     0
  9
$DIMSAH
 70
     0
  9
$DIMBLK1
  1

  9
$DIMBLK2
  1

  9
$DIMSTYLE
  2
Standard
  9
$DIMCLRD
 70
     0
  9
$DIMCLRE
 70
     0
  9
$DIMCLRT
 70
     0
  9
$DIMTFAC
 40
1.0
  9
$DIMGAP
 40
0.09
  9
$DIMJUST
 70
     0
  9
$DIMSD1
 70
     0
  9
$DIMSD2
 70
     0
  9
$DIMTOLJ
 70
     1
  9
$DIMTZIN
 70
     0
  9
$DIMALTZ
 70
     0
  9
$DIMALTTZ
 70
     0
  9
$DIMUPT
 70
     0
  9
$DIMDEC
 70
     4
  9
$DIMTDEC
 70
     4
  9
$DIMALTU
 70
     2
  9
$DIMALTTD
 70
     2
  9
$DIMTXSTY
  7
Standard
  9
$DIMAUNIT
 70
     0
  9
$DIMADEC
 70
     0
  9
$DIMALTRND
 40
0.0
  9
$DIMAZIN
 70
     0
  9
$DIMDSEP
 70
    46
  9
$DIMATFIT
 70
     3
  9
$DIMFRAC
 70
     0
  9
$DIMLDRBLK
  1

  9
$DIMLUNIT
 70
     2
  9
$DIMLWD
 70
    -2
  9
$DIMLWE
 70
    -2
  9
$DIMTMOVE
 70
     0
  9
$DIMFXL
 40
1.0
  9
$DIMFXLON
 70
     0
  9
$DIMJOGANG
 40
0.7853981633974483
  9
$DIMTFILL
 70
     0
  9
$DIMTFILLCLR
 70
     0
  9
$DIMARCSYM
 70
     0
  9
$DIMLTYPE
  6

  9
$DIMLTEX1
  6

  9
$DIMLTEX2
  6

  9
$DIMTXTDIRECTION
 70
     0
  9
$LUNITS
 70
     2
  9
$LUPREC
 70
     4
  9
$SKETCHINC
 40
0.1
  9
$FILLETRAD
 40
0.5
  9
$AUNITS
 70
     0
  9
$AUPREC
 70
     0
  9
$MENU
  1
.
  9
$ELEVATION
 40
0.0
  9
$PELEVATION
 40
0.0
  9
$THICKNESS
 40
0.0
  9
$LIMCHECK
 70
     0
  9
$CHAMFERA
 40
0.0
  9
$CHAMFERB
 40
0.0
  9
$CHAMFERC
 40
0.0
  9
$CHAMFERD
 40
0.0
  9
$SKPOLY
 70
     0
  9
$TDCREATE
 40
2458168.995851562
  9
$TDUCREATE
 40
2458168.954184896
  9
$TDUPDATE
 40
2458168.995851748
  9
$TDUUPDATE
 40
2458168.954185081
  9
$TDINDWG
 40
0.0000000116
  9
$TDUSRTIMER
 40
0.0000000116
  9
$USRTIMER
 70
     1
  9
$ANGBASE
 50
0.0
  9
$ANGDIR
 70
     0
  9
$PDMODE
 70
     0
  9
$PDSIZE
 40
0.0
  9
$PLINEWID
 40
0.0
  9
$SPLFRAME
 70
     0
  9
$SPLINETYPE
 70
     6
  9
$SPLINESEGS
 70
     8
  9
$HANDSEED
  5
211
  9
$SURFTAB1
 70
     6
  9
$SURFTAB2
 70
     6
  9
$SURFTYPE
 70
     6
  9
$SURFU
 70
     6
  9
$SURFV
 70
     6
  9
$UCSBASE
  2

  9
$UCSNAME
  2

  9
$UCSORG
 10
0.0
 20
0.0
 30
0.0
  9
$UCSXDIR
 10
1.0
 20
0.0
 30
0.0
  9
$UCSYDIR
 10
0.0
 20
1.0
 30
0.0
  9
$UCSORTHOREF
  2

  9
$UCSORTHOVIEW
 70
     0
  9
$UCSORGTOP
 10
0.0
 20
0.0
 30
0.0
  9
$UCSORGBOTTOM
 10
0.0
 20
0.0
 30
0.0
  9
$UCSORGLEFT
 10
0.0
 20
0.0
 30
0.0
  9
$UCSORGRIGHT
 10
0.0
 20
0.0
 30
0.0
  9
$UCSORGFRONT
 10
0.0
 20
0.0
 30
0.0
  9
$UCSORGBACK
 10
0.0
 20
0.0
 30
0.0
  9
$PUCSBASE
  2

  9
$PUCSNAME
  2

  9
$PUCSORG
 10
0.0
 20
0.0
 30
0.0
  9
$PUCSXDIR
 10
1.0
 20
0.0
 30
0.0
  9
$PUCSYDIR
 10
0.0
 20
1.0
 30
0.0
  9
$PUCSORTHOREF
  2

  9
$PUCSORTHOVIEW
 70
     0
  9
$PUCSORGTOP
 10
0.0
 20
0.0
 30
0.0
  9
$PUCSORGBOTTOM
 10
0.0
 20
0.0
 30
0.0
  9
$PUCSORGLEFT
 10
0.0
 20
0.0
 30
0.0
  9
$PUCSORGRIGHT
 10
0.0
 20
0.0
 30
0.0
  9
$PUCSORGFRONT
 10
0.0
 20
0.0
 30
0.0
  9
$PUCSORGBACK
 10
0.0
 20
0.0
 30
0.0
  9
$USERI1
 70
     0
  9
$USERI2
 70
     0
  9
$USERI3
 70
     0
  9
$USERI4
 70
     0
  9
$USERI5
 70
     0
  9
$USERR1
 40
0.0
  9
$USERR2
 40
0.0
  9
$USERR3
 40
0.0
  9
$USERR4
 40
0.0
  9
$USERR5
 40
0.0
  9
$WORLDVIEW
 70
     1
  9
$SHADEDGE
 70
     3
  9
$SHADEDIF
 70
    70
  9
$TILEMODE
 70
     1
  9
$MAXACTVP
 70
    64
  9
$PINSBASE
 10
0.0
 20
0.0
 30
0.0
  9
$PLIMCHECK
 70
     0
  9
$PEXTMIN
 10
1.000000000000000E+20
 20
1.000000000000000E+20
 30
1.000000000000000E+20
  9
$PEXTMAX
 10
-1.000000000000000E+20
 20
-1.000000000000000E+20
 30
-1.000000000000000E+20
  9
$PLIMMIN
 10
0.0
 20
0.0
  9
$PLIMMAX
 10
12.0
 20
9.0
  9
$UNITMODE
 70
     0
  9
$VISRETAIN
 70
     1
  9
$PLINEGEN
 70
     0
  9
$PSLTSCALE
 70
     1
  9
$TREEDEPTH
 70
  3020
  9
$CMLSTYLE
  2
Standard
  9
$CMLJUST
 70
     0
  9
$CMLSCALE
 40
1.0
  9
$PROXYGRAPHICS
 70
     1
  9
$MEASUREMENT
 70
     0
  9
$CELWEIGHT
370
    -1
  9
$ENDCAPS
280
     0
  9
$JOINSTYLE
280
     0
  9
$LWDISPLAY
290
     0
  9
$INSUNITS
 70
     1
  9
$HYPERLINKBASE
  1

  9
$STYLESHEET
  1

  9
$XEDIT
290
     1
  9
$CEPSNTYPE
380
     0
  9
$PSTYLEMODE
290
     1
  9
$FINGERPRINTGUID
  2
{AF6B06C8-ECEB-4328-9963-598DD150DA47}
  9
$VERSIONGUID
  2
{FAEB1C32-E019-11D5-929B-00C0DF256EC4}
  9
$EXTNAMES
290
     1
  9
$PSVPSCALE
 40
0.0
  9
$OLESTARTUP
290
     0
  9
$SORTENTS
280
   127
  9
$INDEXCTL
280
     0
  9
$HIDETEXT
280
     1
  9
$XCLIPFRAME
280
     2
  9
$HALOGAP
280
     0
  9
$OBSCOLOR
 70
   257
  9
$OBSLTYPE
280
     0
  9
$INTERSECTIONDISPLAY
280
     0
  9
$INTERSECTIONCOLOR
 70
   257
  9
$DIMASSOC
280
     2
  9
$PROJECTNAME
  1

  9
$CAMERADISPLAY
290
     0
  9
$LENSLENGTH
 40
50.0
  9
$CAMERAHEIGHT
 40
0.0
  9
$STEPSPERSEC
 40
2.0
  9
$STEPSIZE
 40
6.0
  9
$3DDWFPREC
 40
2.0
  9
$PSOLWIDTH
 40
0.25
  9
$PSOLHEIGHT
 40
4.0
  9
$LOFTANG1
 40
1.570796326794897
  9
$LOFTANG2
 40
1.570796326794897
  9
$LOFTMAG1
 40
0.0
  9
$LOFTMAG2
 40
0.0
  9
$LOFTPARAM
 70
     7
  9
$LOFTNORMALS
280
     1
  9
$LATITUDE
 40
37.795
  9
$LONGITUDE
 40
-122.394
  9
$NORTHDIRECTION
 40
0.0
  9
$TIMEZONE
 70
 -8000
  9
$LIGHTGLYPHDISPLAY
280
     1
  9
$TILEMODELIGHTSYNCH
280
     1
  9
$CMATERIAL
347
44
  9
$SOLIDHIST
280
     0
  9
$SHOWHIST
280
     1
  9
$DWFFRAME
280
     2
  9
$DGNFRAME
280
     2
  9
$REALWORLDSCALE
290
     1
  9
$INTERFERECOLOR
 62
   256
  9
$CSHADOW
280
     0
  9
$SHADOWPLANELOCATION
 40
0.0
  0
ENDSEC
  0
SECTION
  2
CLASSES
  0
CLASS
  1
ACDBDICTIONARYWDFLT
  2
AcDbDictionaryWithDefault
  3
ObjectDBX Classes
 90
        0
 91
        4
280
     0
281
     0
  0
CLASS
  1
VISUALSTYLE
  2
AcDbVisualStyle
  3
ObjectDBX Classes
 90
     4095
 91
        4
280
     0
281
     0
  0
CLASS
  1
MATERIAL
  2
AcDbMaterial
  3
ObjectDBX Classes
 90
     1153
 91
        4
280
     0
281
     0
  0
CLASS
  1
SCALE
  2
AcDbScale
  3
ObjectDBX Classes
 90
     1153
 91
        4
280
     0
281
     0
  0
CLASS
  1
TABLESTYLE
  2
AcDbTableStyle
  3
ObjectDBX Classes
 90
     4095
 91
        4
280
     0
281
     0
  0
CLASS
  1
MLEADERSTYLE
  2
AcDbMLeaderStyle
  3
ACDB_MLEADERSTYLE_CLASS
 90
     4095
 91
        4
280
     0
281
     0
  0
CLASS
  1
SUN
  2
AcDbSun
  3
SCENEOE
 90
     1153
 91
        4
280
     0
281
     0
  0
CLASS
  1
DICTIONARYVAR
  2
AcDbDictionaryVar
  3
ObjectDBX Classes
 90
        0
 91
        4
280
     0
281
     0
  0
CLASS
  1
CELLSTYLEMAP
  2
AcDbCellStyleMap
  3
ObjectDBX Classes
 90
     1152
 91
        4
280
     0
281
     0
  0
ENDSEC
  0
SECTION
  2
TABLES
  0
TABLE
  2
VPORT
  5
8
330
0
100
AcDbSymbolTable
 70
     1
  0
VPORT
  5
29
330
8
100
AcDbSymbolTableRecord
100
AcDbViewportTableRecord
  2
*Active
 70
     0
 10
0.0
 20
0.0
 11
1.0
 21
1.0
 12
-1.01081875
 22
0.0
 13
0.0
 23
0.0
 14
0.5
 24
0.5
 15
0.5
 25
0.5
 16
0.0
 26
0.0
 36
1.0
 17
0.0
 27
0.0
 37
0.0
 40
7.204259999999999
 41
0.3061358487894663
 42
50.0
 43
0.0
 44
0.0
 50
0.0
 51
0.0
 71
     0
 72
   100
 73
     1
 74
     3
 75
     0
 76
     0
 77
     0
 78
     0
281
     0
 65
     1
110
0.0
120
0.0
130
0.0
111
1.0
121
0.0
131
0.0
112
0.0
122
1.0
132
0.0
 79
     0
146
0.0
348
2F
 60
     3
 61
     5
292
     1
282
     1
141
0.0
142
0.0
 63
   250
361
6D
  0
ENDTAB
  0
TABLE
  2
LTYPE
  5
5
330
0
100
AcDbSymbolTable
 70
     3
  0
LTYPE
  5
14
330
5
100
AcDbSymbolTableRecord
100
AcDbLinetypeTableRecord
  2
ByBlock
 70
     0
  3

 72
    65
 73
     0
 40
0.0
  0
LTYPE
  5
15
330
5
100
AcDbSymbolTableRecord
100
AcDbLinetypeTableRecord
  2
ByLayer
 70
     0
  3

 72
    65
 73
     0
 40
0.0
  0
LTYPE
  5
16
330
5
100
AcDbSymbolTableRecord
100
AcDbLinetypeTableRecord
  2
Continuous
 70
     0
  3
Solid line
 72
    65
 73
     0
 40
0.0
  0
LTYPE
  5
9E
330
5
100
AcDbSymbolTableRecord
100
AcDbLinetypeTableRecord
  2
Dashed
 70
     0
  3

 72
    65
 73
     2
 40
2.0
 49
1.0
 74
     0
 49
-1.0
 74
     0
  0
LTYPE
  5
116
330
5
100
AcDbSymbolTableRecord
100
AcDbLinetypeTableRecord
  2
Center
 70
     0
  3

 72
    65
 73
     4
 40
1.5
 49
0.45
 74
     0
 49
-0.5
 74
     0
 49
0.05
 74
     0
 49
-0.5
 74
     0
  0
ENDTAB
  0
TABLE
  2
LAYER
  5
2
330
0
100
AcDbSymbolTable
 70
     7
  0
LAYER
  5
10
330
2
100
AcDbSymbolTableRecord
100
AcDbLayerTableRecord
  2
0
 70
     0
 62
     7
  6
Continuous
370
    -3
390
F
347
46
348
0
  0
LAYER
  5
72
330
2
100
AcDbSymbolTableRecord
100
AcDbLayerTableRecord
  2
AM_6
 70
     0
 62
    -2
  6
Continuous
370
    35
390
F
347
46
348
0
  0
LAYER
  5
9F
330
2
100
AcDbSymbolTableRecord
100
AcDbLayerTableRecord
  2
AM_9
 70
     0
 62
     6
  6
Dashed
370
    25
390
F
347
46
348
0
  0
LAYER
  5
D0
330
2
100
AcDbSymbolTableRecord
100
AcDbLayerTableRecord
  2
AM_4
 70
     0
 62
     7
  6
Continuous
370
    50
390
F
347
46
348
0
  0
LAYER
  5
117
330
2
100
AcDbSymbolTableRecord
100
AcDbLayerTableRecord
  2
AM_7
 70
     0
 62
     7
  6
Center
370
    25
390
F
347
46
348
0
  0
LAYER
  5
12A
330
2
100
AcDbSymbolTableRecord
100
AcDbLayerTableRecord
  2
AM_5
 70
     0
 62
     3
  6
Continuous
370
    25
390
F
347
46
348
0
  0
LAYER
  5
204
330
2
100
AcDbSymbolTableRecord
100
AcDbLayerTableRecord
  2
ConnectionPoints
 70
     0
 62
     7
  6
Continuous
370
    50
390
F
347
46
348
0
  0
ENDTAB
  0
TABLE
  2
STYLE
  5
3
330
0
100
AcDbSymbolTable
 70
     1
  0
STYLE
  5
11
330
3
100
AcDbSymbolTableRecord
100
AcDbTextStyleTableRecord
  2
Standard
 70
     0
 40
0.0
 41
1.0
 50
0.0
 71
     0
 42
0.2
  3
txt
  4

  0
ENDTAB
  0
TABLE
  2
VIEW
  5
6
330
0
100
AcDbSymbolTable
 70
     0
  0
ENDTAB
  0
TABLE
  2
UCS
  5
7
330
0
100
AcDbSymbolTable
 70
     0
  0
ENDTAB
  0
TABLE
  2
APPID
  5
9
330
0
100
AcDbSymbolTable
 70
     1
  0
APPID
  5
12
330
9
100
AcDbSymbolTableRecord
100
AcDbRegAppTableRecord
  2
ACAD
 70
     0
  0
ENDTAB
  0
TABLE
  2
DIMSTYLE
  5
A
330
0
100
AcDbSymbolTable
 70
     1
100
AcDbDimStyleTable
  0
DIMSTYLE
105
27
330
A
100
AcDbSymbolTableRecord
100
AcDbDimStyleTableRecord
  2
Standard
 70
     0
178
     0
340
11
  0
ENDTAB
  0
TABLE
  2
BLOCK_RECORD
  5
1
330
0
100
AcDbSymbolTable
 70
     5
  0
BLOCK_RECORD
  5
1F
330
1
100
AcDbSymbolTableRecord
100
AcDbBlockTableRecord
  2
*Model_Space
340
22
 70
     0
280
     1
281
     0
  0
BLOCK_RECORD
  5
1B
330
1
100
AcDbSymbolTableRecord
100
AcDbBlockTableRecord
  2
*Paper_Space
340
1E
 70
     0
280
     1
281
     0
  0
BLOCK_RECORD
  5
23
330
1
100
AcDbSymbolTableRecord
100
AcDbBlockTableRecord
  2
*Paper_Space0
340
26
 70
     0
280
     1
281
     0
  0
BLOCK_RECORD
  5
6E
330
1
100
AcDbSymbolTableRecord
100
AcDbBlockTableRecord
  2
1_129315_2
340
0
102
{BLKREFS
331
6F
102
}
 70
     0
280
     1
281
     0
  0
BLOCK_RECORD
  5
88
330
1
100
AcDbSymbolTableRecord
100
AcDbBlockTableRecord
  2
2_129522I_0_in_129315_2
340
0
102
{BLKREFS
331
89
102
}
 70
     0
280
     1
281
     0
  0
BLOCK_RECORD
  5
D4
330
1
100
AcDbSymbolTableRecord
100
AcDbBlockTableRecord
  2
3_129916_0_in_129315_2
340
0
102
{BLKREFS
331
D5
102
}
 70
     0
280
     1
281
     0
  0
BLOCK_RECORD
  5
12C
330
1
100
AcDbSymbolTableRecord
100
AcDbBlockTableRecord
  2
4_129496I_0_in_129315_2
340
0
102
{BLKREFS
331
12D
102
}
 70
     0
280
     1
281
     0
  0
ENDTAB
  0
ENDSEC
  0
SECTION
  2
BLOCKS
  0
BLOCK
  5
20
330
1F
100
AcDbEntity
  8
0
100
AcDbBlockBegin
  2
*Model_Space
 70
     0
 10
0.0
 20
0.0
 30
0.0
  3
*Model_Space
  1

  0
ENDBLK
  5
21
330
1F
100
AcDbEntity
  8
0
100
AcDbBlockEnd
  0
BLOCK
  5
1C
330
1B
100
AcDbEntity
 67
     1
  8
0
100
AcDbBlockBegin
  2
*Paper_Space
 70
     0
 10
0.0
 20
0.0
 30
0.0
  3
*Paper_Space
  1

  0
ENDBLK
  5
1D
330
1B
100
AcDbEntity
 67
     1
  8
0
100
AcDbBlockEnd
  0
BLOCK
  5
24
330
23
100
AcDbEntity
  8
0
100
AcDbBlockBegin
  2
*Paper_Space0
 70
     0
 10
0.0
 20
0.0
 30
0.0
  3
*Paper_Space0
  1

  0
ENDBLK
  5
25
330
23
100
AcDbEntity
  8
0
100
AcDbBlockEnd
  0
BLOCK
  5
70
330
6E
100
AcDbEntity
  8
0
100
AcDbBlockBegin
  2
1_129315_2
 70
     2
 10
0.0
 20
0.0
 30
0.0
  3
1_129315_2
  1

  0
ATTDEF
  5
73
330
6E
100
AcDbEntity
  8
AM_6
100
AcDbText
 10
5.0703
 20
3.5315
 30
0.0
 40
0.5
  1
Grip Tight Two-Bolt Flange Inch Bore
100
AcDbAttributeDefinition
  3

  2
NN
 70
     8
280
     0
  0
ATTDEF
  5
74
330
6E
100
AcDbEntity
  8
AM_6
100
AcDbText
 10
5.0703
 20
3.0315
 30
0.0
 40
0.5
  1
GT Normal Duty 2 Bolt Flange Bearings
100
AcDbAttributeDefinition
  3

  2
NT
 70
     8
280
     0
  0
ATTDEF
  5
75
330
6E
100
AcDbEntity
  8
AM_6
100
AcDbText
 10
5.0703
 20
2.5315
 30
0.0
 40
0.5
  1
129315
100
AcDbAttributeDefinition
  3

  2
NB
 70
     8
280
     0
  0
ATTDEF
  5
76
330
6E
100
AcDbEntity
  8
AM_6
100
AcDbText
 10
5.0703
 20
2.0315
 30
0.0
 40
0.5
  1
$PN.$LUBE.
100
AcDbAttributeDefinition
  3

  2
NBSYN
 70
     8
280
     0
  0
ATTDEF
  5
77
330
6E
100
AcDbEntity
  8
AM_6
100
AcDbText
 10
5.0703
 20
1.5315
 30
0.0
 40
0.5
  1
129315
100
AcDbAttributeDefinition
  3

  2
LINA
 70
     8
280
     0
  0
ATTDEF
  5
78
330
6E
100
AcDbEntity
  8
AM_6
100
AcDbText
 10
5.0703
 20
1.0315
 30
0.0
 40
0.5
  1
209
100
AcDbAttributeDefinition
  3

  2
SERIES
 70
     8
280
     0
  0
ATTDEF
  5
79
330
6E
100
AcDbEntity
  8
AM_6
100
AcDbText
 10
5.0703
 20
0.5314999999999999
 30
0.0
 40
0.5
  1
1-11/16
100
AcDbAttributeDefinition
  3

  2
SS
 70
     8
280
     0
  0
ATTDEF
  5
7A
330
6E
100
AcDbEntity
  8
AM_6
100
AcDbText
 10
5.0703
 20
0.0314999999999999
 30
0.0
 40
0.5
  1
129315
100
AcDbAttributeDefinition
  3

  2
PN
 70
     8
280
     0
  0
ATTDEF
  5
7B
330
6E
100
AcDbEntity
  8
AM_6
100
AcDbText
 10
5.0703
 20
-0.4685000000000001
 30
0.0
 40
0.5
  1
F2B-GT-111
100
AcDbAttributeDefinition
  3

  2
DESCRIPTION
 70
     8
280
     0
  0
ATTDEF
  5
7C
330
6E
100
AcDbEntity
  8
AM_6
100
AcDbText
 10
5.0703
 20
-0.9685000000000001
 30
0.0
 40
0.5
  1
1-27/32
100
AcDbAttributeDefinition
  3

  2
A
 70
     8
280
     0
  0
ATTDEF
  5
7D
330
6E
100
AcDbEntity
  8
AM_6
100
AcDbText
 10
5.0703
 20
-1.4685
 30
0.0
 40
0.5
  1
7-1/16
100
AcDbAttributeDefinition
  3

  2
B
 70
     8
280
     0
  0
ATTDEF
  5
7E
330
6E
100
AcDbEntity
  8
AM_6
100
AcDbText
 10
5.0703
 20
-1.9685
 30
0.0
 40
0.5
  1
2
100
AcDbAttributeDefinition
  3

  2
C
 70
     8
280
     0
  0
ATTDEF
  5
7F
330
6E
100
AcDbEntity
  8
AM_6
100
AcDbText
 10
5.0703
 20
-2.4685
 30
0.0
 40
0.5
  1
5-27/32
100
AcDbAttributeDefinition
  3

  2
D
 70
     8
280
     0
  0
ATTDEF
  5
80
330
6E
100
AcDbEntity
  8
AM_6
100
AcDbText
 10
5.0703
 20
-2.9685
 30
0.0
 40
0.5
  1
1/2
100
AcDbAttributeDefinition
  3

  2
F
 70
     8
280
     0
  0
ATTDEF
  5
81
330
6E
100
AcDbEntity
  8
AM_6
100
AcDbText
 10
5.0703
 20
-3.4685
 30
0.0
 40
0.5
  1
5/8
100
AcDbAttributeDefinition
  3

  2
H
 70
     8
280
     0
  0
ATTDEF
  5
82
330
6E
100
AcDbEntity
  8
AM_6
100
AcDbText
 10
5.0703
 20
-3.9685
 30
0.0
 40
0.5
  1
9/16
100
AcDbAttributeDefinition
  3

  2
J
 70
     8
280
     0
  0
ATTDEF
  5
83
330
6E
100
AcDbEntity
  8
AM_6
100
AcDbText
 10
5.0703
 20
-4.468500000000001
 30
0.0
 40
0.5
  1
2-43/64
100
AcDbAttributeDefinition
  3

  2
L
 70
     8
280
     0
  0
ATTDEF
  5
84
330
6E
100
AcDbEntity
  8
AM_6
100
AcDbText
 10
5.0703
 20
-4.968500000000001
 30
0.0
 40
0.5
  1
4-3/8
100
AcDbAttributeDefinition
  3

  2
M
 70
     8
280
     0
  0
ATTDEF
  5
85
330
6E
100
AcDbEntity
  8
AM_6
100
AcDbText
 10
5.0703
 20
-5.468500000000001
 30
0.0
 40
0.5
  1
1-29/32
100
AcDbAttributeDefinition
  3

  2
N
 70
     8
280
     0
  0
ATTDEF
  5
86
330
6E
100
AcDbEntity
  8
AM_6
100
AcDbText
 10
5.0703
 20
-5.968500000000001
 30
0.0
 40
0.5
  1
1-31/32
100
AcDbAttributeDefinition
  3

  2
Z
 70
     8
280
     0
  0
ATTDEF
  5
87
330
6E
100
AcDbEntity
  8
AM_6
100
AcDbText
 10
5.0703
 20
-6.468500000000001
 30
0.0
 40
0.5
  1
baldor
100
AcDbAttributeDefinition
  3

  2
COMPANY
 70
     8
280
     0
  0
INSERT
  5
89
330
6E
100
AcDbEntity
  8
0
100
AcDbBlockReference
  2
2_129522I_0_in_129315_2
 10
0.0
 20
0.0
 30
0.0
  0
INSERT
  5
D5
330
6E
100
AcDbEntity
  8
0
100
AcDbBlockReference
  2
3_129916_0_in_129315_2
 10
0.0
 20
0.0
 30
0.0
  0
INSERT
  5
12D
330
6E
100
AcDbEntity
  8
0
100
AcDbBlockReference
  2
4_129496I_0_in_129315_2
 10
0.0
 20
0.0
 30
0.0
  0
ENDBLK
  5
71
330
6E
100
AcDbEntity
  8
0
100
AcDbBlockEnd
  0
BLOCK
  5
8A
330
88
100
AcDbEntity
  8
0
100
AcDbBlockBegin
  2
2_129522I_0_in_129315_2
 70
     2
 10
0.0
 20
0.0
 30
0.0
  3
2_129522I_0_in_129315_2
  1

  0
ATTDEF
  5
8C
330
88
100
AcDbEntity
  8
AM_6
100
AcDbText
 10
4.74575
 20
1.673112852363566
 30
0.0
 40
0.5
  1
INS-GT B
100
AcDbAttributeDefinition
  3

  2
NN
 70
     8
280
     0
  0
ATTDEF
  5
8D
330
88
100
AcDbEntity
  8
AM_6
100
AcDbText
 10
4.74575
 20
1.173112852363566
 30
0.0
 40
0.5
  1
GT Normal Duty Bearing Inserts
100
AcDbAttributeDefinition
  3

  2
NT
 70
     8
280
     0
  0
ATTDEF
  5
8E
330
88
100
AcDbEntity
  8
AM_6
100
AcDbText
 10
4.74575
 20
0.6731128523635661
 30
0.0
 40
0.5
  1
129522I
100
AcDbAttributeDefinition
  3

  2
NB
 70
     8
280
     0
  0
ATTDEF
  5
8F
330
88
100
AcDbEntity
  8
AM_6
100
AcDbText
 10
4.74575
 20
0.1731128523635661
 30
0.0
 40
0.5
  1
$PN.I
100
AcDbAttributeDefinition
  3

  2
NBSYN
 70
     8
280
     0
  0
ATTDEF
  5
90
330
88
100
AcDbEntity
  8
AM_6
100
AcDbText
 10
4.74575
 20
-0.3268871476364339
 30
0.0
 40
0.5
  1
129522
100
AcDbAttributeDefinition
  3

  2
LINA
 70
     8
280
     0
  0
ATTDEF
  5
91
330
88
100
AcDbEntity
  8
AM_6
100
AcDbText
 10
4.74575
 20
-0.8268871476364339
 30
0.0
 40
0.5
  1
209
100
AcDbAttributeDefinition
  3

  2
SERIES
 70
     8
280
     0
  0
ATTDEF
  5
92
330
88
100
AcDbEntity
  8
AM_6
100
AcDbText
 10
4.74575
 20
-1.326887147636434
 30
0.0
 40
0.5
  1
129522
100
AcDbAttributeDefinition
  3

  2
PN
 70
     8
280
     0
  0
ATTDEF
  5
93
330
88
100
AcDbEntity
  8
AM_6
100
AcDbText
 10
4.74575
 20
-1.826887147636434
 30
0.0
 40
0.5
  1
INS-GT-09
100
AcDbAttributeDefinition
  3

  2
DESCRIPTION
 70
     8
280
     0
  0
ATTDEF
  5
94
330
88
100
AcDbEntity
  8
AM_6
100
AcDbText
 10
4.74575
 20
-2.326887147636434
 30
0.0
 40
0.5
  1
1.85
100
AcDbAttributeDefinition
  3

  2
A
 70
     8
280
     0
  0
ATTDEF
  5
95
330
88
100
AcDbEntity
  8
AM_6
100
AcDbText
 10
4.74575
 20
-2.826887147636434
 30
0.0
 40
0.5
  1
0.87
100
AcDbAttributeDefinition
  3

  2
C
 70
     8
280
     0
  0
ATTDEF
  5
96
330
88
100
AcDbEntity
  8
AM_6
100
AcDbText
 10
4.74575
 20
-3.326887147636434
 30
0.0
 40
0.5
  1
3.3465
100
AcDbAttributeDefinition
  3

  2
D
 70
     8
280
     0
  0
ATTDEF
  5
97
330
88
100
AcDbEntity
  8
AM_6
100
AcDbText
 10
4.74575
 20
-3.826887147636434
 30
0.0
 40
0.5
  1
0.25
100
AcDbAttributeDefinition
  3

  2
J
 70
     8
280
     0
  0
ATTDEF
  5
98
330
88
100
AcDbEntity
  8
AM_6
100
AcDbText
 10
4.74575
 20
-4.326887147636434
 30
0.0
 40
0.5
  1
2.86
100
AcDbAttributeDefinition
  3

  2
L
 70
     8
280
     0
  0
ATTDEF
  5
99
330
88
100
AcDbEntity
  8
AM_6
100
AcDbText
 10
4.74575
 20
-4.826887147636434
 30
0.0
 40
0.5
  1
#10 - 32 x 1/4
100
AcDbAttributeDefinition
  3

  2
N
 70
     8
280
     0
  0
ATTDEF
  5
9A
330
88
100
AcDbEntity
  8
AM_6
100
AcDbText
 10
4.74575
 20
-5.326887147636434
 30
0.0
 40
0.5
  1
0.62000
100
AcDbAttributeDefinition
  3

  2
W
 70
     8
280
     0
  0
ATTDEF
  5
9B
330
88
100
AcDbEntity
  8
AM_6
100
AcDbText
 10
4.74575
 20
-5.826887147636434
 30
0.0
 40
0.5
  1
1.26
100
AcDbAttributeDefinition
  3

  2
X
 70
     8
280
     0
  0
ATTDEF
  5
9C
330
88
100
AcDbEntity
  8
AM_6
100
AcDbText
 10
4.74575
 20
-6.326887147636434
 30
0.0
 40
0.5
  1
1.23
100
AcDbAttributeDefinition
  3

  2
Y
 70
     8
280
     0
  0
ATTDEF
  5
9D
330
88
100
AcDbEntity
  8
AM_6
100
AcDbText
 10
4.74575
 20
-6.826887147636434
 30
0.0
 40
0.5
  1
baldor
100
AcDbAttributeDefinition
  3

  2
COMPANY
 70
     8
280
     0
  0
LINE
  5
A0
330
88
100
AcDbEntity
  8
AM_9
100
AcDbLine
 10
-1.7572491998984
 20
-1.066825315111111
 30
0.0
 11
-1.2847491998984
 21
-1.066825315111111
 31
0.0
  0
LINE
  5
A1
330
88
100
AcDbEntity
  8
AM_9
100
AcDbLine
 10
-1.2847491998984
 20
1.066825315111111
 30
0.0
 11
-1.7572491998984
 21
1.066825315111111
 31
0.0
  0
LINE
  5
A2
330
88
100
AcDbEntity
  8
AM_9
100
AcDbLine
 10
-1.2847491998984
 20
1.066825315111111
 30
0.0
 11
-1.2847491998984
 21
-1.066825315111111
 31
0.0
  0
LINE
  5
A3
330
88
100
AcDbEntity
  8
AM_9
100
AcDbLine
 10
-1.2847491998984
 20
-1.066825315111111
 30
0.0
 11
-0.25425
 21
-1.102811140132194
 31
0.0
  0
LINE
  5
A4
330
88
100
AcDbEntity
  8
AM_9
100
AcDbLine
 10
-0.25425
 20
1.102811140132194
 30
0.0
 11
-1.2847491998984
 21
1.066825315111111
 31
0.0
  0
LINE
  5
A5
330
88
100
AcDbEntity
  8
AM_9
100
AcDbLine
 10
-1.5997491998984
 20
-1.168968213111111
 30
0.0
 11
-1.4422491998984
 21
-1.168968213111111
 31
0.0
  0
LINE
  5
A6
330
88
100
AcDbEntity
  8
AM_9
100
AcDbLine
 10
-1.4422491998984
 20
1.168968213111111
 30
0.0
 11
-1.5997491998984
 21
1.168968213111111
 31
0.0
  0
LINE
  5
A7
330
88
100
AcDbEntity
  8
AM_9
100
AcDbLine
 10
-1.7572491998984
 20
1.236311111111111
 30
0.0
 11
-1.7572491998984
 21
-1.236311111111111
 31
0.0
  0
LINE
  5
A8
330
88
100
AcDbEntity
  8
AM_9
100
AcDbLine
 10
-1.7572491998984
 20
-1.236311111111111
 30
0.0
 11
-1.7224491998984
 21
-1.271111111111111
 31
0.0
  0
LINE
  5
A9
330
88
100
AcDbEntity
  8
AM_9
100
AcDbLine
 10
-1.7224491998984
 20
1.271111111111111
 30
0.0
 11
-1.7572491998984
 21
1.236311111111111
 31
0.0
  0
LINE
  5
AA
330
88
100
AcDbEntity
  8
AM_9
100
AcDbLine
 10
-1.4422491998984
 20
-0.124
 30
0.0
 11
-1.4422491998984
 21
-1.271111111111111
 31
0.0
  0
LINE
  5
AB
330
88
100
AcDbEntity
  8
AM_9
100
AcDbLine
 10
-1.4422491998984
 20
1.271111111111111
 30
0.0
 11
-1.4422491998984
 21
0.124
 31
0.0
  0
LINE
  5
AC
330
88
100
AcDbEntity
  8
AM_9
100
AcDbLine
 10
-1.4422491998984
 20
-1.271111111111111
 30
0.0
 11
-1.24725
 21
-1.271111111111111
 31
0.0
  0
LINE
  5
AD
330
88
100
AcDbEntity
  8
AM_9
100
AcDbLine
 10
-1.24725
 20
1.271111111111111
 30
0.0
 11
-1.4422491998984
 21
1.271111111111111
 31
0.0
  0
LINE
  5
AE
330
88
100
AcDbEntity
  8
AM_9
100
AcDbLine
 10
-0.3772499999999999
 20
-1.271111111111111
 30
0.0
 11
-0.28905
 21
-1.271111111111111
 31
0.0
  0
LINE
  5
AF
330
88
100
AcDbEntity
  8
AM_9
100
AcDbLine
 10
-0.28905
 20
1.271111111111111
 30
0.0
 11
-0.3772499999999999
 21
1.271111111111111
 31
0.0
  0
LINE
  5
B0
330
88
100
AcDbEntity
  8
AM_9
100
AcDbLine
 10
-1.7224491998984
 20
-0.124
 30
0.0
 11
-1.7224491998984
 21
-1.271111111111111
 31
0.0
  0
LINE
  5
B1
330
88
100
AcDbEntity
  8
AM_9
100
AcDbLine
 10
-1.7224491998984
 20
1.271111111111111
 30
0.0
 11
-1.7224491998984
 21
0.124
 31
0.0
  0
LINE
  5
B2
330
88
100
AcDbEntity
  8
AM_9
100
AcDbLine
 10
-1.5997491998984
 20
-0.124
 30
0.0
 11
-1.5997491998984
 21
-1.271111111111111
 31
0.0
  0
LINE
  5
B3
330
88
100
AcDbEntity
  8
AM_9
100
AcDbLine
 10
-1.5997491998984
 20
1.271111111111111
 30
0.0
 11
-1.5997491998984
 21
0.124
 31
0.0
  0
LINE
  5
B4
330
88
100
AcDbEntity
  8
AM_9
100
AcDbLine
 10
-1.7224491998984
 20
-1.271111111111111
 30
0.0
 11
-1.5997491998984
 21
-1.271111111111111
 31
0.0
  0
LINE
  5
B5
330
88
100
AcDbEntity
  8
AM_9
100
AcDbLine
 10
-1.5997491998984
 20
1.271111111111111
 30
0.0
 11
-1.7224491998984
 21
1.271111111111111
 31
0.0
  0
LINE
  5
B6
330
88
100
AcDbEntity
  8
AM_9
100
AcDbLine
 10
-0.28905
 20
1.271111111111111
 30
0.0
 11
-0.28905
 21
-1.271111111111111
 31
0.0
  0
LINE
  5
B7
330
88
100
AcDbEntity
  8
AM_9
100
AcDbLine
 10
-0.25425
 20
1.236311111111111
 30
0.0
 11
-0.25425
 21
-1.236311111111111
 31
0.0
  0
LINE
  5
B8
330
88
100
AcDbEntity
  8
AM_9
100
AcDbLine
 10
-0.25425
 20
1.236311111111111
 30
0.0
 11
-0.28905
 21
1.271111111111111
 31
0.0
  0
LINE
  5
B9
330
88
100
AcDbEntity
  8
AM_9
100
AcDbLine
 10
-0.28905
 20
-1.271111111111111
 30
0.0
 11
-0.25425
 21
-1.236311111111111
 31
0.0
  0
LINE
  5
BA
330
88
100
AcDbEntity
  8
AM_9
100
AcDbLine
 10
-1.11225
 20
-1.58625
 30
0.0
 11
-1.01225
 21
-1.58625
 31
0.0
  0
LINE
  5
BB
330
88
100
AcDbEntity
  8
AM_9
100
AcDbLine
 10
-1.01225
 20
1.58625
 30
0.0
 11
-1.11225
 21
1.58625
 31
0.0
  0
LINE
  5
BC
330
88
100
AcDbEntity
  8
AM_9
100
AcDbLine
 10
-1.24725
 20
1.562786330102177
 30
0.0
 11
-1.24725
 21
-1.562786330100423
 31
0.0
  0
ARC
  5
BD
330
88
100
AcDbEntity
  8
AM_9
100
AcDbCircle
 10
-1.21245
 20
-1.562786329583616
 30
0.0
 40
0.0347999999999999
100
AcDbArc
 50
180.0
 51
248.5875329531156
  0
ARC
  5
BE
330
88
100
AcDbEntity
  8
AM_9
100
AcDbCircle
 10
-1.21245
 20
1.562786329583616
 30
0.0
 40
0.0347999999999998
100
AcDbArc
 50
111.4124670468844
 51
180.0
  0
LINE
  5
BF
330
88
100
AcDbEntity
  8
AM_9
100
AcDbLine
 10
-0.3772499999999999
 20
1.562786329583616
 30
0.0
 11
-0.3772499999999999
 21
-1.562786329581863
 31
0.0
  0
ARC
  5
C0
330
88
100
AcDbEntity
  8
AM_9
100
AcDbCircle
 10
-0.4120499999999995
 20
-1.562786329583616
 30
0.0
 40
0.0347999999999994
100
AcDbArc
 50
291.4124616801312
 51
0.0
  0
ARC
  5
C1
330
88
100
AcDbEntity
  8
AM_9
100
AcDbCircle
 10
-0.4120499999999995
 20
1.562786329583616
 30
0.0
 40
0.0347999999999996
100
AcDbArc
 50
0.0
 51
68.58753831986878
  0
LINE
  5
C2
330
88
100
AcDbEntity
  8
AM_9
100
AcDbLine
 10
-1.225154761904762
 20
1.595184308300556
 30
0.0
 11
-1.225154761904762
 21
-1.595184308300556
 31
0.0
  0
ARC
  5
C3
330
88
100
AcDbEntity
  8
AM_9
100
AcDbCircle
 10
-0.8122499999998654
 20
-0.5422499999996082
 30
0.0
 40
1.131000000000413
100
AcDbArc
 50
248.5875329531168
 51
254.0344016750363
  0
ARC
  5
C4
330
88
100
AcDbEntity
  8
AM_9
100
AcDbCircle
 10
-0.8122499999999087
 20
0.5422499999997361
 30
0.0
 40
1.131000000000279
100
AcDbArc
 50
105.9655983249634
 51
111.4124670468835
  0
LINE
  5
C5
330
88
100
AcDbEntity
  8
AM_9
100
AcDbLine
 10
-1.123343021754185
 20
1.629623961347176
 30
0.0
 11
-1.123343021754185
 21
-1.629623961347176
 31
0.0
  0
LINE
  5
C6
330
88
100
AcDbEntity
  8
AM_9
100
AcDbLine
 10
-1.11225
 20
1.621259545833585
 30
0.0
 11
-1.11225
 21
-1.621259518562532
 31
0.0
  0
ARC
  5
C7
330
88
100
AcDbEntity
  8
AM_9
100
AcDbCircle
 10
-1.12095
 20
-1.621259545833585
 30
0.0
 40
0.0087000000000003
100
AcDbArc
 50
254.0344118819921
 51
0.0
  0
ARC
  5
C8
330
88
100
AcDbEntity
  8
AM_9
100
AcDbCircle
 10
-1.12095
 20
1.621259545833585
 30
0.0
 40
0.0087000000000002
100
AcDbArc
 50
0.0
 51
105.9655881180079
  0
LINE
  5
C9
330
88
100
AcDbEntity
  8
AM_9
100
AcDbLine
 10
-1.01225
 20
1.648125942409455
 30
0.0
 11
-1.01225
 21
-1.648125942408891
 31
0.0
  0
ARC
  5
CA
330
88
100
AcDbEntity
  8
AM_9
100
AcDbCircle
 10
-1.00355
 20
-1.648125942409455
 30
0.0
 40
0.0086999999999997
100
AcDbArc
 50
180.0
 51
260.1858105424309
  0
ARC
  5
CB
330
88
100
AcDbEntity
  8
AM_9
100
AcDbCircle
 10
-1.00355
 20
1.648125942409455
 30
0.0
 40
0.0086999999999997
100
AcDbArc
 50
99.81418945756901
 51
180.0
  0
LINE
  5
CC
330
88
100
AcDbEntity
  8
AM_9
100
AcDbLine
 10
-1.005032945736434
 20
1.656698624133559
 30
0.0
 11
-1.005032945736434
 21
-1.656698624133559
 31
0.0
  0
LINE
  5
CD
330
88
100
AcDbEntity
  8
AM_9
100
AcDbLine
 10
-0.3993452411298758
 20
1.595184309490579
 30
0.0
 11
-0.3993452411298758
 21
-1.595184309490579
 31
0.0
  0
ARC
  5
CE
330
88
100
AcDbEntity
  8
AM_9
100
AcDbCircle
 10
-0.8122500000000011
 20
-0.5422500000000019
 30
0.0
 40
1.130999999999998
100
AcDbArc
 50
260.1858105424293
 51
291.4124668817533
  0
ARC
  5
CF
330
88
100
AcDbEntity
  8
AM_9
100
AcDbCircle
 10
-0.8122499999999999
 20
0.5422500000000139
 30
0.0
 40
1.130999999999986
100
AcDbArc
 50
68.58753311824654
 51
99.81418945757079
  0
LINE
  5
D1
330
88
100
AcDbEntity
  8
AM_4
100
AcDbLine
 10
-1.4422491998984
 20
0.124
 30
0.0
 11
-1.4422491998984
 21
-0.124
 31
0.0
  0
LINE
  5
D2
330
88
100
AcDbEntity
  8
AM_4
100
AcDbLine
 10
-1.7224491998984
 20
0.124
 30
0.0
 11
-1.7224491998984
 21
-0.124
 31
0.0
  0
LINE
  5
D3
330
88
100
AcDbEntity
  8
AM_4
100
AcDbLine
 10
-1.5997491998984
 20
0.124
 30
0.0
 11
-1.5997491998984
 21
-0.124
 31
0.0
  0
ENDBLK
  5
8B
330
88
100
AcDbEntity
  8
0
100
AcDbBlockEnd
  0
BLOCK
  5
D6
330
D4
100
AcDbEntity
  8
0
100
AcDbBlockBegin
  2
3_129916_0_in_129315_2
 70
     2
 10
0.0
 20
0.0
 30
0.0
  3
3_129916_0_in_129315_2
  1

  0
ATTDEF
  5
D8
330
D4
100
AcDbEntity
  8
AM_6
100
AcDbText
 10
4.844
 20
1.335937500000001
 30
0.0
 40
0.5
  1
Grip Tight Normal Duty Adapter and Nut Inch Bore
100
AcDbAttributeDefinition
  3

  2
NN
 70
     8
280
     0
  0
ATTDEF
  5
D9
330
D4
100
AcDbEntity
  8
AM_6
100
AcDbText
 10
4.844
 20
0.8359375000000009
 30
0.0
 40
0.5
  1
GT and GTM Adapter & Lock Nut Assemblies
100
AcDbAttributeDefinition
  3

  2
NT
 70
     8
280
     0
  0
ATTDEF
  5
DA
330
D4
100
AcDbEntity
  8
AM_6
100
AcDbText
 10
4.844
 20
0.3359375000000009
 30
0.0
 40
0.5
  1
129916
100
AcDbAttributeDefinition
  3

  2
NB
 70
     8
280
     0
  0
ATTDEF
  5
DB
330
D4
100
AcDbEntity
  8
AM_6
100
AcDbText
 10
4.844
 20
-0.1640624999999991
 30
0.0
 40
0.5
  1
$PN.
100
AcDbAttributeDefinition
  3

  2
NBSYN
 70
     8
280
     0
  0
ATTDEF
  5
DC
330
D4
100
AcDbEntity
  8
AM_6
100
AcDbText
 10
4.844
 20
-0.6640624999999991
 30
0.0
 40
0.5
  1
129916
100
AcDbAttributeDefinition
  3

  2
LINA
 70
     8
280
     0
  0
ATTDEF
  5
DD
330
D4
100
AcDbEntity
  8
AM_6
100
AcDbText
 10
4.844
 20
-1.164062499999999
 30
0.0
 40
0.5
  1
209
100
AcDbAttributeDefinition
  3

  2
SERIES
 70
     8
280
     0
  0
ATTDEF
  5
DE
330
D4
100
AcDbEntity
  8
AM_6
100
AcDbText
 10
4.844
 20
-1.664062499999999
 30
0.0
 40
0.5
  1
1-11/16
100
AcDbAttributeDefinition
  3

  2
SS
 70
     8
280
     0
  0
ATTDEF
  5
DF
330
D4
100
AcDbEntity
  8
AM_6
100
AcDbText
 10
4.844
 20
-2.164062499999999
 30
0.0
 40
0.5
  1
129916
100
AcDbAttributeDefinition
  3

  2
PN
 70
     8
280
     0
  0
ATTDEF
  5
E0
330
D4
100
AcDbEntity
  8
AM_6
100
AcDbText
 10
4.844
 20
-2.664062499999999
 30
0.0
 40
0.5
  1
AN-GT-09-111
100
AcDbAttributeDefinition
  3

  2
DESCRIPTION
 70
     8
280
     0
  0
ATTDEF
  5
E1
330
D4
100
AcDbEntity
  8
AM_6
100
AcDbText
 10
4.844
 20
-3.164062499999999
 30
0.0
 40
0.5
  1
1-27/32
100
AcDbAttributeDefinition
  3

  2
A
 70
     8
280
     0
  0
ATTDEF
  5
E2
330
D4
100
AcDbEntity
  8
AM_6
100
AcDbText
 10
4.844
 20
-3.664062499999999
 30
0.0
 40
0.5
  1
0.8661
100
AcDbAttributeDefinition
  3

  2
C
 70
     8
280
     0
  0
ATTDEF
  5
E3
330
D4
100
AcDbEntity
  8
AM_6
100
AcDbText
 10
4.844
 20
-4.164062499999999
 30
0.0
 40
0.5
  1
3.3465
100
AcDbAttributeDefinition
  3

  2
D
 70
     8
280
     0
  0
ATTDEF
  5
E4
330
D4
100
AcDbEntity
  8
AM_6
100
AcDbText
 10
4.844
 20
-4.664062499999999
 30
0.0
 40
0.5
  1
0.248
100
AcDbAttributeDefinition
  3

  2
J
 70
     8
280
     0
  0
ATTDEF
  5
E5
330
D4
100
AcDbEntity
  8
AM_6
100
AcDbText
 10
4.844
 20
-5.164062499999999
 30
0.0
 40
0.5
  1
2-43/64
100
AcDbAttributeDefinition
  3

  2
L
 70
     8
280
     0
  0
ATTDEF
  5
E6
330
D4
100
AcDbEntity
  8
AM_6
100
AcDbText
 10
4.844
 20
-5.664062499999999
 30
0.0
 40
0.5
  1
10 - 32 x 1/4
100
AcDbAttributeDefinition
  3

  2
N
 70
     8
280
     0
  0
ATTDEF
  5
E7
330
D4
100
AcDbEntity
  8
AM_6
100
AcDbText
 10
4.844
 20
-6.164062499999999
 30
0.0
 40
0.5
  1
21/32
100
AcDbAttributeDefinition
  3

  2
W
 70
     8
280
     0
  0
ATTDEF
  5
E8
330
D4
100
AcDbEntity
  8
AM_6
100
AcDbText
 10
4.844
 20
-6.664062499999999
 30
0.0
 40
0.5
  1
1-5/32
100
AcDbAttributeDefinition
  3

  2
X
 70
     8
280
     0
  0
ATTDEF
  5
E9
330
D4
100
AcDbEntity
  8
AM_6
100
AcDbText
 10
4.844
 20
-7.164062499999999
 30
0.0
 40
0.5
  1
1-3/16
100
AcDbAttributeDefinition
  3

  2
Y
 70
     8
280
     0
  0
ATTDEF
  5
EA
330
D4
100
AcDbEntity
  8
AM_6
100
AcDbText
 10
4.844
 20
-7.664062499999999
 30
0.0
 40
0.5
  1
baldor
100
AcDbAttributeDefinition
  3

  2
COMPANY
 70
     8
280
     0
  0
LWPOLYLINE
  5
EB
330
D4
100
AcDbEntity
  8
AM_9
100
AcDbPolyline
 90
        5
 70
     0
 43
0.0
 10
-1.933856
 20
0.0466949700020129
 10
-1.938597361198688
 20
0.0248317012479007
 10
-1.940452393162051
 20
0.0015177936210992
 10
-1.938922773046124
 20
-0.0225599630181107
 10
-1.933856
 20
-0.0466949700020134
  0
LWPOLYLINE
  5
EC
330
D4
100
AcDbEntity
  8
AM_9
100
AcDbPolyline
 90
       15
 70
     0
 43
0.0
 10
-1.764594197522391
 20
0.0358221531165368
 10
-1.767841634648216
 20
0.0424730173753754
 10
-1.77608525573941
 20
0.0551011644712151
 10
-1.786265000679986
 20
0.0662288425714977
 10
-1.798479114225054
 20
0.0758142532984294
 10
-1.812084012119939
 20
0.0833037089168167
 10
-1.827210289859021
 20
0.0886293411330399
 10
-1.843005487281413
 20
0.0914207231802305
 10
-1.859400469227899
 20
0.0915557600971767
 10
-1.875590462808546
 20
0.0889755835242305
 10
-1.891196122966512
 20
0.0836675808344025
 10
-1.905677342900908
 20
0.0758034029324667
 10
-1.91562257969837
 20
0.0682361142785888
 10
-1.924480916490877
 20
0.0594232404865336
 10
-1.933856
 20
0.0466949700020129
  0
LWPOLYLINE
  5
ED
330
D4
100
AcDbEntity
  8
AM_9
100
AcDbPolyline
 90
       15
 70
     0
 43
0.0
 10
-1.933856
 20
-0.0466949700020134
 10
-1.931343089812764
 20
-0.0505819100497828
 10
-1.921758431580466
 20
-0.0623794548660669
 10
-1.91039277373109
 20
-0.0724753230575764
 10
-1.897113890685359
 20
-0.0808373427830104
 10
-1.882653382421643
 20
-0.0869432126164309
 10
-1.866921012173876
 20
-0.0906993722406942
 10
-1.850783757354233
 20
-0.0918311611689395
 10
-1.834406479723179
 20
-0.090228364686696
 10
-1.818527498719061
 20
-0.0859215836834834
 10
-1.803616163552881
 20
-0.0789778990211518
 10
-1.790105218620653
 20
-0.0696046761640653
 10
-1.778634970356465
 20
-0.0582377442992063
 10
-1.769296582866172
 20
-0.0450654046171648
 10
-1.764601931884876
 20
-0.0358397850285583
  0
CIRCLE
  5
EE
330
D4
100
AcDbEntity
  8
AM_9
100
AcDbCircle
 10
-1.852062683324867
 20
0.0
 30
0.0
 40
0.0724499999999998
  0
LINE
  5
EF
330
D4
100
AcDbEntity
  8
AM_9
100
AcDbLine
 10
-1.933856
 20
0.0466949700020129
 30
0.0
 11
-1.933856
 21
0.124
 31
0.0
  0
LINE
  5
F0
330
D4
100
AcDbEntity
  8
AM_9
100
AcDbLine
 10
-1.933856
 20
-0.124
 30
0.0
 11
-1.933856
 21
-0.0466949700020134
 31
0.0
  0
LINE
  5
F1
330
D4
100
AcDbEntity
  8
AM_9
100
AcDbLine
 10
-1.425019
 20
-0.124
 30
0.0
 11
-1.425019
 21
0.124
 31
0.0
  0
LINE
  5
F2
330
D4
100
AcDbEntity
  8
AM_9
100
AcDbLine
 10
-1.390375
 20
1.017825229432145
 30
0.0
 11
-1.9685
 21
1.017825229432145
 31
0.0
  0
LINE
  5
F3
330
D4
100
AcDbEntity
  8
AM_9
100
AcDbLine
 10
-1.390375
 20
1.059825111083135
 30
0.0
 11
-1.425019
 21
1.089961263641138
 31
0.0
  0
LINE
  5
F4
330
D4
100
AcDbEntity
  8
AM_9
100
AcDbLine
 10
-1.425019
 20
1.089961263641138
 30
0.0
 11
-1.933856
 21
1.089961263641138
 31
0.0
  0
LINE
  5
F5
330
D4
100
AcDbEntity
  8
AM_9
100
AcDbLine
 10
-1.933856
 20
1.089961263641138
 30
0.0
 11
-1.9685
 21
1.059825111083135
 31
0.0
  0
LINE
  5
F6
330
D4
100
AcDbEntity
  8
AM_9
100
AcDbLine
 10
-1.390375
 20
-1.017825229432146
 30
0.0
 11
-1.9685
 21
-1.017825229432146
 31
0.0
  0
LINE
  5
F7
330
D4
100
AcDbEntity
  8
AM_9
100
AcDbLine
 10
-1.9685
 20
-1.059825111083135
 30
0.0
 11
-1.933856
 21
-1.089961263641138
 31
0.0
  0
LINE
  5
F8
330
D4
100
AcDbEntity
  8
AM_9
100
AcDbLine
 10
-1.933856
 20
-1.089961263641138
 30
0.0
 11
-1.425019
 21
-1.089961263641138
 31
0.0
  0
LINE
  5
F9
330
D4
100
AcDbEntity
  8
AM_9
100
AcDbLine
 10
-1.425019
 20
-1.089961263641138
 30
0.0
 11
-1.390375
 21
-1.059825111083136
 31
0.0
  0
LINE
  5
FA
330
D4
100
AcDbEntity
  8
AM_9
100
AcDbLine
 10
-1.390375
 20
1.141825229432145
 30
0.0
 11
-1.9685
 21
1.141825229432145
 31
0.0
  0
LINE
  5
FB
330
D4
100
AcDbEntity
  8
AM_9
100
AcDbLine
 10
-1.390375
 20
-1.141825229432146
 30
0.0
 11
-1.9685
 21
-1.141825229432146
 31
0.0
  0
LINE
  5
FC
330
D4
100
AcDbEntity
  8
AM_9
100
AcDbLine
 10
-1.6794375
 20
0.9966517857142857
 30
0.0
 11
-1.9685
 21
0.9966517857142857
 31
0.0
  0
LINE
  5
FD
330
D4
100
AcDbEntity
  8
AM_9
100
AcDbLine
 10
-0.1559999999999999
 20
0.8422672156150918
 30
0.0
 11
-1.99975
 21
0.8422672156150921
 31
0.0
  0
LINE
  5
FE
330
D4
100
AcDbEntity
  8
AM_9
100
AcDbLine
 10
-1.99975
 20
-0.84375
 30
0.0
 11
-0.1560000000000002
 21
-0.84375
 31
0.0
  0
LINE
  5
FF
330
D4
100
AcDbEntity
  8
AM_9
100
AcDbLine
 10
-1.6794375
 20
0.9953967962413152
 30
0.0
 11
-1.245843750000001
 21
0.9953967962413153
 31
0.0
  0
LINE
  5
100
330
D4
100
AcDbEntity
  8
AM_9
100
AcDbLine
 10
-1.6794375
 20
-0.9966517857142857
 30
0.0
 11
-1.245843750000001
 21
-0.9966517857142857
 31
0.0
  0
LINE
  5
101
330
D4
100
AcDbEntity
  8
AM_9
100
AcDbLine
 10
-1.245843750000001
 20
0.9953967962413153
 30
0.0
 11
-0.1559999999999999
 21
1.03350119403169
 31
0.0
  0
LINE
  5
102
330
D4
100
AcDbEntity
  8
AM_9
100
AcDbLine
 10
-1.245843750000001
 20
0.9953967962413153
 30
0.0
 11
-1.245843750000001
 21
-0.9966517857142857
 31
0.0
  0
LINE
  5
103
330
D4
100
AcDbEntity
  8
AM_9
100
AcDbLine
 10
-1.245843750000001
 20
-0.9966517857142857
 30
0.0
 11
-0.1562499999999999
 21
-1.034701237897685
 31
0.0
  0
LINE
  5
104
330
D4
100
AcDbEntity
  8
AM_9
100
AcDbLine
 10
-1.53490625
 20
-1.092075892857143
 30
0.0
 11
-1.390375
 21
-1.092075892857143
 31
0.0
  0
LINE
  5
105
330
D4
100
AcDbEntity
  8
AM_9
100
AcDbLine
 10
-1.390375
 20
1.092075892857143
 30
0.0
 11
-1.53490625
 21
1.092075892857143
 31
0.0
  0
LINE
  5
106
330
D4
100
AcDbEntity
  8
AM_9
100
AcDbLine
 10
-1.53490625
 20
1.1875
 30
0.0
 11
-1.53490625
 21
-1.1875
 31
0.0
  0
LINE
  5
107
330
D4
100
AcDbEntity
  8
AM_9
100
AcDbLine
 10
-1.6794375
 20
1.1875
 30
0.0
 11
-1.6794375
 21
-1.1875
 31
0.0
  0
LINE
  5
108
330
D4
100
AcDbEntity
  8
AM_9
100
AcDbLine
 10
-1.6794375
 20
-1.1875
 30
0.0
 11
-1.53490625
 21
-1.1875
 31
0.0
  0
LINE
  5
109
330
D4
100
AcDbEntity
  8
AM_9
100
AcDbLine
 10
-1.53490625
 20
1.1875
 30
0.0
 11
-1.6794375
 21
1.1875
 31
0.0
  0
LINE
  5
10A
330
D4
100
AcDbEntity
  8
AM_9
100
AcDbLine
 10
-1.933856
 20
-1.213961263641138
 30
0.0
 11
-1.9685
 21
-1.183825111083135
 31
0.0
  0
LINE
  5
10B
330
D4
100
AcDbEntity
  8
AM_9
100
AcDbLine
 10
-1.9685
 20
1.183825111083135
 30
0.0
 11
-1.933856
 21
1.213961263641138
 31
0.0
  0
LINE
  5
10C
330
D4
100
AcDbEntity
  8
AM_9
100
AcDbLine
 10
-1.425019
 20
-1.213961263641139
 30
0.0
 11
-1.933856
 21
-1.213961263641138
 31
0.0
  0
LINE
  5
10D
330
D4
100
AcDbEntity
  8
AM_9
100
AcDbLine
 10
-1.390375
 20
-1.183825111083135
 30
0.0
 11
-1.425019
 21
-1.213961263641139
 31
0.0
  0
LINE
  5
10E
330
D4
100
AcDbEntity
  8
AM_9
100
AcDbLine
 10
-1.390375
 20
-0.12779154
 30
0.0
 11
-1.390375
 21
-1.301293500000001
 31
0.0
  0
LINE
  5
10F
330
D4
100
AcDbEntity
  8
AM_9
100
AcDbLine
 10
-1.405999890368509
 20
-0.124
 30
0.0
 11
-1.390375
 21
-0.124
 31
0.0
  0
LINE
  5
110
330
D4
100
AcDbEntity
  8
AM_9
100
AcDbLine
 10
-1.406
 20
-1.316918500000001
 30
0.0
 11
-1.390375
 21
-1.301293500000001
 31
0.0
  0
LINE
  5
111
330
D4
100
AcDbEntity
  8
AM_9
100
AcDbLine
 10
-1.933856
 20
1.213961263641138
 30
0.0
 11
-1.425019
 21
1.213961263641138
 31
0.0
  0
LINE
  5
112
330
D4
100
AcDbEntity
  8
AM_9
100
AcDbLine
 10
-1.390375
 20
0.124
 30
0.0
 11
-1.405999890368509
 21
0.124
 31
0.0
  0
LINE
  5
113
330
D4
100
AcDbEntity
  8
AM_9
100
AcDbLine
 10
-1.425019
 20
1.213961263641138
 30
0.0
 11
-1.390374999999999
 21
1.183825111083135
 31
0.0
  0
LINE
  5
114
330
D4
100
AcDbEntity
  8
AM_9
100
AcDbLine
 10
-1.390375
 20
1.301293500000001
 30
0.0
 11
-1.406
 21
1.316918500000001
 31
0.0
  0
LINE
  5
115
330
D4
100
AcDbEntity
  8
AM_9
100
AcDbLine
 10
-1.390375
 20
1.301293500000001
 30
0.0
 11
-1.390375
 21
-0.124
 31
0.0
  0
LINE
  5
118
330
D4
100
AcDbEntity
  8
AM_7
100
AcDbLine
 10
-1.852062683324867
 20
-0.0997499999999999
 30
0.0
 11
-1.852062683324867
 21
0.0997499999999999
 31
0.0
  0
LINE
  5
119
330
D4
100
AcDbEntity
  8
AM_4
100
AcDbLine
 10
-1.99975
 20
0.995396796241315
 30
0.0
 11
-1.9685
 21
0.9953967962413152
 31
0.0
  0
LINE
  5
11A
330
D4
100
AcDbEntity
  8
AM_4
100
AcDbLine
 10
-1.99975
 20
0.995396796241315
 30
0.0
 11
-1.99975
 21
-0.9966517857142855
 31
0.0
  0
LINE
  5
11B
330
D4
100
AcDbEntity
  8
AM_4
100
AcDbLine
 10
-1.99975
 20
-0.9966517857142855
 30
0.0
 11
-1.9685
 21
-0.9966517857142855
 31
0.0
  0
LINE
  5
11C
330
D4
100
AcDbEntity
  8
AM_4
100
AcDbLine
 10
-0.1559999999999999
 20
1.03350119403169
 30
0.0
 11
-0.1559999999999999
 21
-1.034709968090058
 31
0.0
  0
LINE
  5
11D
330
D4
100
AcDbEntity
  8
AM_4
100
AcDbLine
 10
-1.9685
 20
1.3012935
 30
0.0
 11
-1.9685
 21
-1.3012935
 31
0.0
  0
LINE
  5
11E
330
D4
100
AcDbEntity
  8
AM_4
100
AcDbLine
 10
-1.9685
 20
-1.3012935
 30
0.0
 11
-1.933856
 21
-1.3359375
 31
0.0
  0
LINE
  5
11F
330
D4
100
AcDbEntity
  8
AM_4
100
AcDbLine
 10
-1.933856
 20
1.3359375
 30
0.0
 11
-1.9685
 21
1.3012935
 31
0.0
  0
LINE
  5
120
330
D4
100
AcDbEntity
  8
AM_4
100
AcDbLine
 10
-1.933856
 20
-0.124
 30
0.0
 11
-1.933856
 21
-1.3359375
 31
0.0
  0
LINE
  5
121
330
D4
100
AcDbEntity
  8
AM_4
100
AcDbLine
 10
-1.933856
 20
-1.3359375
 30
0.0
 11
-1.425019
 21
-1.3359375
 31
0.0
  0
LINE
  5
122
330
D4
100
AcDbEntity
  8
AM_4
100
AcDbLine
 10
-1.968499999999999
 20
-0.124
 30
0.0
 11
-1.405999890368509
 21
-0.124
 31
0.0
  0
LINE
  5
123
330
D4
100
AcDbEntity
  8
AM_4
100
AcDbLine
 10
-1.425019
 20
-0.124
 30
0.0
 11
-1.425019
 21
-1.335937500000001
 31
0.0
  0
LINE
  5
124
330
D4
100
AcDbEntity
  8
AM_4
100
AcDbLine
 10
-1.425019
 20
-1.335937500000001
 30
0.0
 11
-1.406
 21
-1.316918500000001
 31
0.0
  0
LINE
  5
125
330
D4
100
AcDbEntity
  8
AM_4
100
AcDbLine
 10
-1.425019
 20
1.3359375
 30
0.0
 11
-1.933856
 21
1.3359375
 31
0.0
  0
LINE
  5
126
330
D4
100
AcDbEntity
  8
AM_4
100
AcDbLine
 10
-1.933856
 20
1.3359375
 30
0.0
 11
-1.933856
 21
0.124
 31
0.0
  0
LINE
  5
127
330
D4
100
AcDbEntity
  8
AM_4
100
AcDbLine
 10
-1.405999890368509
 20
0.124
 30
0.0
 11
-1.968499999999999
 21
0.124
 31
0.0
  0
LINE
  5
128
330
D4
100
AcDbEntity
  8
AM_4
100
AcDbLine
 10
-1.406
 20
1.316918500000001
 30
0.0
 11
-1.425019
 21
1.335937500000001
 31
0.0
  0
LINE
  5
129
330
D4
100
AcDbEntity
  8
AM_4
100
AcDbLine
 10
-1.425019
 20
1.335937500000001
 30
0.0
 11
-1.425019
 21
0.124
 31
0.0
  0
ARC
  5
12B
330
D4
100
AcDbEntity
  8
AM_5
100
AcDbCircle
 10
-1.852062683324867
 20
0.0000000000000001
 30
0.0
 40
0.0949999999999999
100
AcDbArc
 50
75.00000000000006
 51
14.99999999999994
  0
ENDBLK
  5
D7
330
D4
100
AcDbEntity
  8
0
100
AcDbBlockEnd
  0
BLOCK
  5
12E
330
12C
100
AcDbEntity
  8
0
100
AcDbBlockBegin
  2
4_129496I_0_in_129315_2
 70
     2
 10
0.0
 20
0.0
 30
0.0
  3
4_129496I_0_in_129315_2
  1

  0
ATTDEF
  5
130
330
12C
100
AcDbEntity
  8
AM_6
100
AcDbText
 10
5.0703
 20
3.5315
 30
0.0
 40
0.5
  1
F2B-GT-B
100
AcDbAttributeDefinition
  3

  2
NN
 70
     8
280
     0
  0
ATTDEF
  5
131
330
12C
100
AcDbEntity
  8
AM_6
100
AcDbText
 10
5.0703
 20
3.0315
 30
0.0
 40
0.5
  1
GT Normal Duty 2 Bolt Flange Bearings
100
AcDbAttributeDefinition
  3

  2
NT
 70
     8
280
     0
  0
ATTDEF
  5
132
330
12C
100
AcDbEntity
  8
AM_6
100
AcDbText
 10
5.0703
 20
2.5315
 30
0.0
 40
0.5
  1
129496I
100
AcDbAttributeDefinition
  3

  2
NB
 70
     8
280
     0
  0
ATTDEF
  5
133
330
12C
100
AcDbEntity
  8
AM_6
100
AcDbText
 10
5.0703
 20
2.0315
 30
0.0
 40
0.5
  1
$PN.$LUBE.I
100
AcDbAttributeDefinition
  3

  2
NBSYN
 70
     8
280
     0
  0
ATTDEF
  5
134
330
12C
100
AcDbEntity
  8
AM_6
100
AcDbText
 10
5.0703
 20
1.5315
 30
0.0
 40
0.5
  1
129496
100
AcDbAttributeDefinition
  3

  2
LINA
 70
     8
280
     0
  0
ATTDEF
  5
135
330
12C
100
AcDbEntity
  8
AM_6
100
AcDbText
 10
5.0703
 20
1.0315
 30
0.0
 40
0.5
  1
209
100
AcDbAttributeDefinition
  3

  2
SERIES
 70
     8
280
     0
  0
ATTDEF
  5
136
330
12C
100
AcDbEntity
  8
AM_6
100
AcDbText
 10
5.0703
 20
0.5314999999999999
 30
0.0
 40
0.5
  1
129496
100
AcDbAttributeDefinition
  3

  2
PN
 70
     8
280
     0
  0
ATTDEF
  5
137
330
12C
100
AcDbEntity
  8
AM_6
100
AcDbText
 10
5.0703
 20
0.0314999999999999
 30
0.0
 40
0.5
  1
F2B-GT-09
100
AcDbAttributeDefinition
  3

  2
DESCRIPTION
 70
     8
280
     0
  0
ATTDEF
  5
138
330
12C
100
AcDbEntity
  8
AM_6
100
AcDbText
 10
5.0703
 20
-0.4685000000000001
 30
0.0
 40
0.5
  1
1-27/32
100
AcDbAttributeDefinition
  3

  2
A
 70
     8
280
     0
  0
ATTDEF
  5
139
330
12C
100
AcDbEntity
  8
AM_6
100
AcDbText
 10
5.0703
 20
-0.9685000000000001
 30
0.0
 40
0.5
  1
7-1/16
100
AcDbAttributeDefinition
  3

  2
B
 70
     8
280
     0
  0
ATTDEF
  5
13A
330
12C
100
AcDbEntity
  8
AM_6
100
AcDbText
 10
5.0703
 20
-1.4685
 30
0.0
 40
0.5
  1
2
100
AcDbAttributeDefinition
  3

  2
C
 70
     8
280
     0
  0
ATTDEF
  5
13B
330
12C
100
AcDbEntity
  8
AM_6
100
AcDbText
 10
5.0703
 20
-1.9685
 30
0.0
 40
0.5
  1
5-27/32
100
AcDbAttributeDefinition
  3

  2
D
 70
     8
280
     0
  0
ATTDEF
  5
13C
330
12C
100
AcDbEntity
  8
AM_6
100
AcDbText
 10
5.0703
 20
-2.4685
 30
0.0
 40
0.5
  1
1/2
100
AcDbAttributeDefinition
  3

  2
F
 70
     8
280
     0
  0
ATTDEF
  5
13D
330
12C
100
AcDbEntity
  8
AM_6
100
AcDbText
 10
5.0703
 20
-2.9685
 30
0.0
 40
0.5
  1
5/8
100
AcDbAttributeDefinition
  3

  2
H
 70
     8
280
     0
  0
ATTDEF
  5
13E
330
12C
100
AcDbEntity
  8
AM_6
100
AcDbText
 10
5.0703
 20
-3.4685
 30
0.0
 40
0.5
  1
9/16
100
AcDbAttributeDefinition
  3

  2
J
 70
     8
280
     0
  0
ATTDEF
  5
13F
330
12C
100
AcDbEntity
  8
AM_6
100
AcDbText
 10
5.0703
 20
-3.9685
 30
0.0
 40
0.5
  1
2-43/64
100
AcDbAttributeDefinition
  3

  2
L
 70
     8
280
     0
  0
ATTDEF
  5
140
330
12C
100
AcDbEntity
  8
AM_6
100
AcDbText
 10
5.0703
 20
-4.468500000000001
 30
0.0
 40
0.5
  1
4-3/8
100
AcDbAttributeDefinition
  3

  2
M
 70
     8
280
     0
  0
ATTDEF
  5
141
330
12C
100
AcDbEntity
  8
AM_6
100
AcDbText
 10
5.0703
 20
-4.968500000000001
 30
0.0
 40
0.5
  1
1-29/32
100
AcDbAttributeDefinition
  3

  2
N
 70
     8
280
     0
  0
ATTDEF
  5
142
330
12C
100
AcDbEntity
  8
AM_6
100
AcDbText
 10
5.0703
 20
-5.468500000000001
 30
0.0
 40
0.5
  1
1-31/32
100
AcDbAttributeDefinition
  3

  2
Z
 70
     8
280
     0
  0
ATTDEF
  5
143
330
12C
100
AcDbEntity
  8
AM_6
100
AcDbText
 10
5.0703
 20
-5.968500000000001
 30
0.0
 40
0.5
  1
baldor
100
AcDbAttributeDefinition
  3

  2
COMPANY
 70
     8
280
     0
  0
LINE
  5
144
330
12C
100
AcDbEntity
  8
AM_9
100
AcDbLine
 10
0.0
 20
1.912285714285715
 30
0.0
 11
-0.15625
 21
1.912285714285715
 31
0.0
  0
LINE
  5
145
330
12C
100
AcDbEntity
  8
AM_9
100
AcDbLine
 10
-0.15625
 20
-1.912285714285714
 30
0.0
 11
0.0
 21
-1.912285714285714
 31
0.0
  0
LINE
  5
146
330
12C
100
AcDbEntity
  8
AM_9
100
AcDbLine
 10
-0.6250000000000001
 20
2.672
 30
0.0
 11
0.0
 21
2.672
 31
0.0
  0
LINE
  5
147
330
12C
100
AcDbEntity
  8
AM_9
100
AcDbLine
 10
0.0
 20
3.172
 30
0.0
 11
-0.6250000000000001
 21
3.172
 31
0.0
  0
LINE
  5
148
330
12C
100
AcDbEntity
  8
AM_9
100
AcDbLine
 10
-0.6250000000000001
 20
-3.172
 30
0.0
 11
0.0
 21
-3.172
 31
0.0
  0
LINE
  5
149
330
12C
100
AcDbEntity
  8
AM_9
100
AcDbLine
 10
0.0
 20
-2.672
 30
0.0
 11
-0.6250000000000001
 21
-2.672
 31
0.0
  0
LINE
  5
14A
330
12C
100
AcDbEntity
  8
AM_9
100
AcDbLine
 10
-0.15625
 20
-1.895951204704077
 30
0.0
 11
0.0
 21
-1.895951204704077
 31
0.0
  0
LINE
  5
14B
330
12C
100
AcDbEntity
  8
AM_9
100
AcDbLine
 10
-0.15625
 20
1.895951208591057
 30
0.0
 11
0.0
 21
1.895951208591057
 31
0.0
  0
LINE
  5
14C
330
12C
100
AcDbEntity
  8
AM_9
100
AcDbLine
 10
-0.7029999999999916
 20
1.818004281133724
 30
0.0
 11
-0.5357142875660849
 21
1.818004281133723
 31
0.0
  0
LINE
  5
14D
330
12C
100
AcDbEntity
  8
AM_9
100
AcDbLine
 10
-0.535714287566085
 20
1.352515111149444
 30
0.0
 11
-0.5357142875660849
 21
1.922845358890375
 31
0.0
  0
LINE
  5
14E
330
12C
100
AcDbEntity
  8
AM_9
100
AcDbLine
 10
-0.8324732864265111
 20
1.923557561981004
 30
0.0
 11
-1.042142771925143
 21
1.923557561981004
 31
0.0
  0
LWPOLYLINE
  5
14F
330
12C
100
AcDbEntity
  8
AM_9
100
AcDbPolyline
 90
        3
 70
     0
 43
0.0
 10
-1.028254638477402
 20
1.841018764890563
 10
-1.050882763095781
 20
1.809918315878857
 10
-1.073715291049436
 20
1.780725172552644
  0
LWPOLYLINE
  5
150
330
12C
100
AcDbEntity
  8
AM_9
100
AcDbPolyline
 90
        3
 70
     0
 43
0.0
 10
-0.9373333333333332
 20
1.836402873640358
 10
-0.9827939859053674
 20
1.837621231948365
 10
-1.028254638477402
 20
1.841018764890563
  0
LWPOLYLINE
  5
151
330
12C
100
AcDbEntity
  8
AM_9
100
AcDbPolyline
 90
        3
 70
     0
 43
0.0
 10
-0.8009513756172304
 20
1.780725172552644
 10
-0.8236817019032476
 20
1.809782381404508
 10
-0.8464120281892649
 20
1.841018764890563
  0
LWPOLYLINE
  5
152
330
12C
100
AcDbEntity
  8
AM_9
100
AcDbPolyline
 90
        3
 70
     0
 43
0.0
 10
-0.8464120281892649
 20
1.841018764890563
 10
-0.8916682774260228
 20
1.837631995454427
 10
-0.9373333333333332
 20
1.836402873640358
  0
LINE
  5
153
330
12C
100
AcDbEntity
  8
AM_9
100
AcDbLine
 10
-0.8464120281892649
 20
1.841018764890563
 30
0.0
 11
-0.8464120281892649
 21
1.915303534021724
 31
0.0
  0
LINE
  5
154
330
12C
100
AcDbEntity
  8
AM_9
100
AcDbLine
 10
-1.028254638477402
 20
1.841018764890563
 30
0.0
 11
-1.028254638477402
 21
1.915303534021724
 31
0.0
  0
LINE
  5
155
330
12C
100
AcDbEntity
  8
AM_9
100
AcDbLine
 10
-0.8464120281892649
 20
1.915303534021724
 30
0.0
 11
-0.8321105248183355
 21
1.900152450797994
 31
0.0
  0
LWPOLYLINE
  5
156
330
12C
100
AcDbEntity
  8
AM_9
100
AcDbPolyline
 90
        3
 70
     0
 43
0.0
 10
-0.9373333333333332
 20
1.91991942527193
 10
-0.8918726807612991
 20
1.918701066963922
 10
-0.8464120281892649
 20
1.915303534021724
  0
LINE
  5
157
330
12C
100
AcDbEntity
  8
AM_9
100
AcDbLine
 10
-1.042569929803264
 20
1.900137486201132
 30
0.0
 11
-1.028254638477402
 21
1.915303534021724
 31
0.0
  0
LWPOLYLINE
  5
158
330
12C
100
AcDbEntity
  8
AM_9
100
AcDbPolyline
 90
        3
 70
     0
 43
0.0
 10
-1.028254638477402
 20
1.915303534021724
 10
-0.9829983892406438
 20
1.91869030345786
 10
-0.9373333333333332
 20
1.91991942527193
  0
LWPOLYLINE
  5
159
330
12C
100
AcDbEntity
  8
AM_9
100
AcDbPolyline
 90
        3
 70
     0
 43
0.0
 10
-0.7554907230451964
 20
1.729663362715135
 10
-0.7781188476635754
 20
1.753990272854569
 10
-0.8009513756172304
 20
1.780725172552644
  0
LWPOLYLINE
  5
15A
330
12C
100
AcDbEntity
  8
AM_9
100
AcDbPolyline
 90
        3
 70
     0
 43
0.0
 10
-1.073715291049436
 20
1.780725172552644
 10
-1.096445617335453
 20
1.754104680316794
 10
-1.11917594362147
 20
1.729663362715135
  0
LINE
  5
15B
330
12C
100
AcDbEntity
  8
AM_9
100
AcDbLine
 10
-1.406
 20
-1.67325
 30
0.0
 11
-0.15625
 21
-1.67325
 31
0.0
  0
LINE
  5
15C
330
12C
100
AcDbEntity
  8
AM_9
100
AcDbLine
 10
-0.15625
 20
1.67325
 30
0.0
 11
-1.406
 21
1.67325
 31
0.0
  0
LINE
  5
15D
330
12C
100
AcDbEntity
  8
AM_9
100
AcDbLine
 10
-1.047569553333333
 20
1.72504747146493
 30
0.0
 11
-1.047569553333333
 21
1.711128046193002
 31
0.0
  0
LINE
  5
15E
330
12C
100
AcDbEntity
  8
AM_9
100
AcDbLine
 10
-0.8270971133333331
 20
1.711128046193002
 30
0.0
 11
-0.8270971133333331
 21
1.72504747146493
 31
0.0
  0
LINE
  5
15F
330
12C
100
AcDbEntity
  8
AM_9
100
AcDbLine
 10
-1.32725984
 20
-0.08340886
 30
0.0
 11
-1.406
 21
-0.08340886
 31
0.0
  0
LINE
  5
160
330
12C
100
AcDbEntity
  8
AM_9
100
AcDbLine
 10
-1.32725984
 20
-0.167583075
 30
0.0
 11
-1.406
 21
-0.167583075
 31
0.0
  0
LINE
  5
161
330
12C
100
AcDbEntity
  8
AM_9
100
AcDbLine
 10
-1.32725984
 20
0.0390261811023622
 30
0.0
 11
-1.406
 21
0.0390261811023622
 31
0.0
  0
LINE
  5
162
330
12C
100
AcDbEntity
  8
AM_9
100
AcDbLine
 10
-1.32725984
 20
-0.04667835
 30
0.0
 11
-1.406
 21
-0.04667835
 31
0.0
  0
LINE
  5
163
330
12C
100
AcDbEntity
  8
AM_9
100
AcDbLine
 10
-1.32725984
 20
0.1002437007874016
 30
0.0
 11
-1.406
 21
0.1002437007874016
 31
0.0
  0
LINE
  5
164
330
12C
100
AcDbEntity
  8
AM_9
100
AcDbLine
 10
-1.32725984
 20
0.1124872047244095
 30
0.0
 11
-1.406
 21
0.1124872047244095
 31
0.0
  0
LINE
  5
165
330
12C
100
AcDbEntity
  8
AM_9
100
AcDbLine
 10
-1.32725984
 20
0.1216698818897639
 30
0.0
 11
-1.406
 21
0.1216698818897639
 31
0.0
  0
LINE
  5
166
330
12C
100
AcDbEntity
  8
AM_9
100
AcDbLine
 10
-1.32725984
 20
-0.106365555
 30
0.0
 11
-1.406
 21
-0.106365555
 31
0.0
  0
LINE
  5
167
330
12C
100
AcDbEntity
  8
AM_9
100
AcDbLine
 10
-1.32725984
 20
0.0482088582677166
 30
0.0
 11
-1.406
 21
0.0482088582677166
 31
0.0
  0
LINE
  5
168
330
12C
100
AcDbEntity
  8
AM_9
100
AcDbLine
 10
-1.32725984
 20
-0.055861025
 30
0.0
 11
-1.406
 21
-0.055861025
 31
0.0
  0
LINE
  5
169
330
12C
100
AcDbEntity
  8
AM_9
100
AcDbLine
 10
-1.32725984
 20
0.0910610236220473
 30
0.0
 11
-1.406
 21
0.0910610236220473
 31
0.0
  0
LINE
  5
16A
330
12C
100
AcDbEntity
  8
AM_9
100
AcDbLine
 10
-1.32725984
 20
0.0987133858267717
 30
0.0
 11
-1.406
 21
0.0987133858267717
 31
0.0
  0
LINE
  5
16B
330
12C
100
AcDbEntity
  8
AM_9
100
AcDbLine
 10
-1.32725984
 20
0.0405566929133859
 30
0.0
 11
-1.406
 21
0.0405566929133859
 31
0.0
  0
LINE
  5
16C
330
12C
100
AcDbEntity
  8
AM_9
100
AcDbLine
 10
-1.32725984
 20
0.1140177165354331
 30
0.0
 11
-1.406
 21
0.1140177165354331
 31
0.0
  0
LINE
  5
16D
330
12C
100
AcDbEntity
  8
AM_9
100
AcDbLine
 10
-1.32725984
 20
-0.04820886
 30
0.0
 11
-1.406
 21
-0.04820886
 31
0.0
  0
LINE
  5
16E
330
12C
100
AcDbEntity
  8
AM_9
100
AcDbLine
 10
-1.32725984
 20
-0.034434845
 30
0.0
 11
-1.406
 21
-0.034434845
 31
0.0
  0
LINE
  5
16F
330
12C
100
AcDbEntity
  8
AM_9
100
AcDbLine
 10
-1.32725984
 20
-0.097182875
 30
0.0
 11
-1.406
 21
-0.097182875
 31
0.0
  0
ELLIPSE
  5
170
330
12C
100
AcDbEntity
  8
AM_9
100
AcDbEllipse
 10
-0.9373333333333332
 20
1.808564023096501
 30
0.0
 11
-0.1102362199999999
 21
1.350004339731033E-17
 31
0.0
210
0.0
220
0.0
230
1.0
 40
0.7071067811865472
 41
3.141592653589793
 42
6.283185307179586
  0
ELLIPSE
  5
171
330
12C
100
AcDbEntity
  8
AM_9
100
AcDbEllipse
 10
-0.9373333333333334
 20
1.822483448368429
 30
0.0
 11
-0.11023622
 21
1.350004339731034E-17
 31
0.0
210
0.0
220
0.0
230
1.0
 40
0.7071067811865466
 41
3.753279064763884
 42
5.671460416057678
  0
LINE
  5
172
330
12C
100
AcDbEntity
  8
AM_9
100
AcDbLine
 10
-1.042026419231273
 20
1.900495103068718
 30
0.0
 11
-0.8326376927275609
 21
1.900495103068718
 31
0.0
  0
LINE
  5
173
330
12C
100
AcDbEntity
  8
AM_9
100
AcDbLine
 10
-1.32725984
 20
-0.060452365
 30
0.0
 11
-1.406
 21
-0.060452365
 31
0.0
  0
LINE
  5
174
330
12C
100
AcDbEntity
  8
AM_9
100
AcDbLine
 10
-1.32725984
 20
0.126261220472441
 30
0.0
 11
-1.406
 21
0.126261220472441
 31
0.0
  0
LINE
  5
175
330
12C
100
AcDbEntity
  8
AM_9
100
AcDbLine
 10
-1.32725984
 20
0.0864696850393701
 30
0.0
 11
-1.406
 21
0.0864696850393701
 31
0.0
  0
LINE
  5
176
330
12C
100
AcDbEntity
  8
AM_9
100
AcDbLine
 10
-1.32725984
 20
-0.095652365
 30
0.0
 11
-1.406
 21
-0.095652365
 31
0.0
  0
LINE
  5
177
330
12C
100
AcDbEntity
  8
AM_9
100
AcDbLine
 10
-1.32725984
 20
0.0956523622047245
 30
0.0
 11
-1.406
 21
0.0956523622047245
 31
0.0
  0
LINE
  5
178
330
12C
100
AcDbEntity
  8
AM_9
100
AcDbLine
 10
-1.32725984
 20
-0.051269685
 30
0.0
 11
-1.406
 21
-0.051269685
 31
0.0
  0
LINE
  5
179
330
12C
100
AcDbEntity
  8
AM_9
100
AcDbLine
 10
-1.32725984
 20
0.0436175196850394
 30
0.0
 11
-1.406
 21
0.0436175196850394
 31
0.0
  0
LINE
  5
17A
330
12C
100
AcDbEntity
  8
AM_9
100
AcDbLine
 10
-1.32725984
 20
0.1170785433070867
 30
0.0
 11
-1.406
 21
0.1170785433070867
 31
0.0
  0
LINE
  5
17B
330
12C
100
AcDbEntity
  8
AM_9
100
AcDbLine
 10
-1.32725984
 20
0.0528001968503937
 30
0.0
 11
-1.406
 21
0.0528001968503937
 31
0.0
  0
LINE
  5
17C
330
12C
100
AcDbEntity
  8
AM_9
100
AcDbLine
 10
-1.32725984
 20
-0.104835045
 30
0.0
 11
-1.406
 21
-0.104835045
 31
0.0
  0
LINE
  5
17D
330
12C
100
AcDbEntity
  8
AM_9
100
AcDbLine
 10
-1.32725984
 20
0.1308525590551182
 30
0.0
 11
-1.406
 21
0.1308525590551182
 31
0.0
  0
LINE
  5
17E
330
12C
100
AcDbEntity
  8
AM_9
100
AcDbLine
 10
-1.32725984
 20
0.0573915354330709
 30
0.0
 11
-1.406
 21
0.0573915354330709
 31
0.0
  0
LINE
  5
17F
330
12C
100
AcDbEntity
  8
AM_9
100
AcDbLine
 10
-1.32725984
 20
-0.091061025
 30
0.0
 11
-1.406
 21
-0.091061025
 31
0.0
  0
LINE
  5
180
330
12C
100
AcDbEntity
  8
AM_9
100
AcDbLine
 10
-1.32725984
 20
-0.065043705
 30
0.0
 11
-1.406
 21
-0.065043705
 31
0.0
  0
LINE
  5
181
330
12C
100
AcDbEntity
  8
AM_9
100
AcDbLine
 10
-1.32725984
 20
0.0818785433070867
 30
0.0
 11
-1.406
 21
0.0818785433070867
 31
0.0
  0
LINE
  5
182
330
12C
100
AcDbEntity
  8
AM_9
100
AcDbLine
 10
-1.32725984
 20
0.1645222440944883
 30
0.0
 11
-1.406
 21
0.1645222440944883
 31
0.0
  0
LINE
  5
183
330
12C
100
AcDbEntity
  8
AM_9
100
AcDbLine
 10
-1.32725984
 20
-0.12779154
 30
0.0
 11
-1.406
 21
-0.12779154
 31
0.0
  0
LINE
  5
184
330
12C
100
AcDbEntity
  8
AM_9
100
AcDbLine
 10
-1.32725984
 20
-0.025252165
 30
0.0
 11
-1.406
 21
-0.025252165
 31
0.0
  0
LINE
  5
185
330
12C
100
AcDbEntity
  8
AM_9
100
AcDbLine
 10
-1.32725984
 20
-0.03290453
 30
0.0
 11
-1.406
 21
-0.03290453
 31
0.0
  0
LINE
  5
186
330
12C
100
AcDbEntity
  8
AM_9
100
AcDbLine
 10
-1.32725984
 20
0.1232003937007875
 30
0.0
 11
-1.406
 21
0.1232003937007875
 31
0.0
  0
LINE
  5
187
330
12C
100
AcDbEntity
  8
AM_9
100
AcDbLine
 10
-1.32725984
 20
0.0895307086614174
 30
0.0
 11
-1.406
 21
0.0895307086614174
 31
0.0
  0
LINE
  5
188
330
12C
100
AcDbEntity
  8
AM_9
100
AcDbLine
 10
-1.32725984
 20
-0.057391535
 30
0.0
 11
-1.406
 21
-0.057391535
 31
0.0
  0
LINE
  5
189
330
12C
100
AcDbEntity
  8
AM_9
100
AcDbLine
 10
-1.32725984
 20
0.0497391732283465
 30
0.0
 11
-1.406
 21
0.0497391732283465
 31
0.0
  0
LINE
  5
18A
330
12C
100
AcDbEntity
  8
AM_9
100
AcDbLine
 10
-1.32725984
 20
-0.09871339
 30
0.0
 11
-1.406
 21
-0.09871339
 31
0.0
  0
LINE
  5
18B
330
12C
100
AcDbEntity
  8
AM_9
100
AcDbLine
 10
-1.32725984
 20
0.1293220472440945
 30
0.0
 11
-1.406
 21
0.1293220472440945
 31
0.0
  0
LINE
  5
18C
330
12C
100
AcDbEntity
  8
AM_9
100
AcDbLine
 10
-1.32725984
 20
-0.09259154
 30
0.0
 11
-1.406
 21
-0.09259154
 31
0.0
  0
LINE
  5
18D
330
12C
100
AcDbEntity
  8
AM_9
100
AcDbLine
 10
-1.32725984
 20
-0.06351319
 30
0.0
 11
-1.406
 21
-0.06351319
 31
0.0
  0
LINE
  5
18E
330
12C
100
AcDbEntity
  8
AM_9
100
AcDbLine
 10
-1.32725984
 20
0.0834088582677166
 30
0.0
 11
-1.406
 21
0.0834088582677166
 31
0.0
  0
LINE
  5
18F
330
12C
100
AcDbEntity
  8
AM_9
100
AcDbLine
 10
-1.32725984
 20
0.0558610236220473
 30
0.0
 11
-1.406
 21
0.0558610236220473
 31
0.0
  0
LINE
  5
190
330
12C
100
AcDbEntity
  8
AM_9
100
AcDbLine
 10
-1.32725984
 20
-0.020660825
 30
0.0
 11
-1.406
 21
-0.020660825
 31
0.0
  0
LINE
  5
191
330
12C
100
AcDbEntity
  8
AM_9
100
AcDbLine
 10
-1.32725984
 20
-0.029843505
 30
0.0
 11
-1.406
 21
-0.029843505
 31
0.0
  0
LINE
  5
192
330
12C
100
AcDbEntity
  8
AM_9
100
AcDbLine
 10
-1.32725984
 20
0.0757566929133859
 30
0.0
 11
-1.406
 21
0.0757566929133859
 31
0.0
  0
LINE
  5
193
330
12C
100
AcDbEntity
  8
AM_9
100
AcDbLine
 10
-1.32725984
 20
0.1124872047244095
 30
0.0
 11
-1.32725984
 21
0.1737047244094489
 31
0.0
  0
LINE
  5
194
330
12C
100
AcDbEntity
  8
AM_9
100
AcDbLine
 10
-1.32725984
 20
-0.17370473
 30
0.0
 11
-1.32725984
 21
-0.11860906
 31
0.0
  0
LINE
  5
195
330
12C
100
AcDbEntity
  8
AM_9
100
AcDbLine
 10
-1.32725984
 20
0.1369742125984253
 30
0.0
 11
-1.406
 21
0.1369742125984253
 31
0.0
  0
LINE
  5
196
330
12C
100
AcDbEntity
  8
AM_9
100
AcDbLine
 10
-1.32725984
 20
0.1737047244094489
 30
0.0
 11
-1.406
 21
0.1737047244094489
 31
0.0
  0
LINE
  5
197
330
12C
100
AcDbEntity
  8
AM_9
100
AcDbLine
 10
-1.32725984
 20
-0.106365555
 30
0.0
 11
-1.32725984
 21
-0.04667835
 31
0.0
  0
LINE
  5
198
330
12C
100
AcDbEntity
  8
AM_9
100
AcDbLine
 10
-1.32725984
 20
-0.11860906
 30
0.0
 11
-1.406
 21
-0.11860906
 31
0.0
  0
LINE
  5
199
330
12C
100
AcDbEntity
  8
AM_9
100
AcDbLine
 10
-1.32725984
 20
0.0390261811023622
 30
0.0
 11
-1.32725984
 21
0.1002437007874016
 31
0.0
  0
LINE
  5
19A
330
12C
100
AcDbEntity
  8
AM_9
100
AcDbLine
 10
-1.32725984
 20
0.063513188976378
 30
0.0
 11
-1.406
 21
0.063513188976378
 31
0.0
  0
LINE
  5
19B
330
12C
100
AcDbEntity
  8
AM_9
100
AcDbLine
 10
-1.32725984
 20
-0.084939375
 30
0.0
 11
-1.406
 21
-0.084939375
 31
0.0
  0
LINE
  5
19C
330
12C
100
AcDbEntity
  8
AM_9
100
AcDbLine
 10
-1.32725984
 20
-0.17370473
 30
0.0
 11
-1.406
 21
-0.1737047299999999
 31
0.0
  0
LINE
  5
19D
330
12C
100
AcDbEntity
  8
AM_9
100
AcDbLine
 10
-1.32725984
 20
-0.071165355
 30
0.0
 11
-1.406
 21
-0.071165355
 31
0.0
  0
LINE
  5
19E
330
12C
100
AcDbEntity
  8
AM_9
100
AcDbLine
 10
-1.32725984
 20
0.0176000393700788
 30
0.0
 11
-1.406
 21
0.0176000393700788
 31
0.0
  0
LINE
  5
19F
330
12C
100
AcDbEntity
  8
AM_9
100
AcDbLine
 10
-1.32725984
 20
-0.016069605
 30
0.0
 11
-1.406
 21
-0.016069605
 31
0.0
  0
LINE
  5
1A0
330
12C
100
AcDbEntity
  8
AM_9
100
AcDbLine
 10
-1.32725984
 20
-0.02372185
 30
0.0
 11
-1.406
 21
-0.02372185
 31
0.0
  0
ELLIPSE
  5
1A1
330
12C
100
AcDbEntity
  8
AM_9
100
AcDbEllipse
 10
-0.9373333333333335
 20
1.808564023096501
 30
0.0
 11
-0.1574803200000005
 21
1.928577698167015E-17
 31
0.0
210
0.0
220
0.0
230
1.0
 40
0.7071067811865512
 41
3.992006302696105
 42
5.433013474455329
  0
LINE
  5
1A2
330
12C
100
AcDbEntity
  8
AM_9
100
AcDbLine
 10
-1.32725984
 20
-0.01760004
 30
0.0
 11
-1.406
 21
-0.01760004
 31
0.0
  0
LINE
  5
1A3
330
12C
100
AcDbEntity
  8
AM_9
100
AcDbLine
 10
-1.32725984
 20
-0.009947855
 30
0.0
 11
-1.406
 21
-0.009947855
 31
0.0
  0
LINE
  5
1A4
330
12C
100
AcDbEntity
  8
AM_9
100
AcDbLine
 10
-1.32725984
 20
-0.034434845
 30
0.0
 11
-1.32725984
 21
0.0267826771653544
 31
0.0
  0
LINE
  5
1A5
330
12C
100
AcDbEntity
  8
AM_9
100
AcDbLine
 10
-1.32725984
 20
0.0267826771653544
 30
0.0
 11
-1.406
 21
0.0267826771653543
 31
0.0
  0
LWPOLYLINE
  5
1A6
330
12C
100
AcDbEntity
  8
AM_9
100
AcDbPolyline
 90
       45
 70
     0
 43
0.0
 10
-0.9967808532235464
 20
1.843881703084532
 10
-1.002644095867008
 20
1.847667650308402
 10
-1.007359239864397
 20
1.851424189510866
 10
-1.010914387855278
 20
1.854940284283902
 10
-1.013388898195029
 20
1.858033813610248
 10
-1.014925267537195
 20
1.860554819803008
 10
-1.015723561268681
 20
1.86241294639854
 10
-1.016027215549076
 20
1.86363345678311
 10
-1.016061261122019
 20
1.864549271952549
 10
-1.015847878685699
 20
1.865668347150719
 10
-1.015193972112109
 20
1.867381338918026
 10
-1.013871828793202
 20
1.869733557420114
 10
-1.011719955859703
 20
1.872616722751004
 10
-1.008280832550121
 20
1.876219485243712
 10
-1.003722072688849
 20
1.880024186282331
 10
-0.9980338194530844
 20
1.883857288735829
 10
-0.9912454643063578
 20
1.887550804709115
 10
-0.9834386693346044
 20
1.890940466510764
 10
-0.9747335975606922
 20
1.893879781209108
 10
-0.9652757156031626
 20
1.896246264730831
 10
-0.9552393489758702
 20
1.897940846150619
 10
-0.9448210497003772
 20
1.898891704619315
 10
-0.934232617975887
 20
1.899056990724651
 10
-0.9236940547942232
 20
1.898426641472858
 10
-0.9134329637743438
 20
1.897024632840859
 10
-0.9036641821204032
 20
1.89490876706865
 10
-0.8945852005656488
 20
1.892169068788944
 10
-0.8863699798044608
 20
1.88892610978571
 10
-0.8791605134979058
 20
1.885327923013333
 10
-0.8730582597379154
 20
1.881545050284931
 10
-0.8681176974390175
 20
1.877764641805869
 10
-0.864344973260688
 20
1.87418786988047
 10
-0.8616730242028365
 20
1.87100068160609
 10
-0.8599711483422655
 20
1.8683609251039
 10
-0.8590495858117303
 20
1.866373264011151
 10
-0.8586711650777833
 20
1.865042003829537
 10
-0.8585948993418181
 20
1.864126867473167
 10
-0.8587596028637217
 20
1.863036608833652
 10
-0.8593182886720059
 20
1.861443814586631
 10
-0.8605130503869789
 20
1.859194363974826
 10
-0.8625132364589086
 20
1.856393244668725
 10
-0.8657848772336555
 20
1.852835546601501
 10
-0.8701703719818518
 20
1.849050083180098
 10
-0.8756858020282446
 20
1.845210363034623
 10
-0.8797999825345595
 20
1.842802442889298
  0
ELLIPSE
  5
1A7
330
12C
100
AcDbEntity
  8
AM_9
100
AcDbEllipse
 10
-0.9373333333333321
 20
1.900317052955194
 30
0.0
 11
-0.1003136194418982
 21
1.228487529604063E-17
 31
0.0
210
0.0
220
0.0
230
1.0
 40
0.7071067811865479
 41
1.328169710447868
 42
1.780337697740732
  0
ELLIPSE
  5
1A8
330
12C
100
AcDbEntity
  8
AM_9
100
AcDbEllipse
 10
-0.9373333333333331
 20
1.900317052955194
 30
0.0
 11
-0.1003136194418979
 21
1.228487529604059E-17
 31
0.0
210
0.0
220
0.0
230
1.0
 40
0.7071067811865481
 41
2.047635247818955
 42
7.34125029612956
  0
ELLIPSE
  5
1A9
330
12C
100
AcDbEntity
  8
AM_9
100
AcDbEllipse
 10
-0.9373333333317065
 20
1.915472845334914
 30
0.0
 11
-0.1048775701402983
 21
1.284379805746683E-17
 31
0.0
210
0.0
220
0.0
230
1.0
 40
0.7071067811865476
 41
3.553109444229712
 42
5.871668516552073
  0
LWPOLYLINE
  5
1AA
330
12C
100
AcDbEntity
  8
AM_9
100
AcDbPolyline
 90
        6
 70
     0
 43
0.0
 10
-1.406
 20
1.723775450981157
 10
-1.404704850388943
 20
1.731945940507538
 10
-1.397986880026534
 20
1.743391401574414
 10
-1.38633936996242
 20
1.752486634354537
 10
-1.37132706154906
 20
1.758154560082073
 10
-1.362093467170258
 20
1.759623399466043
  0
LINE
  5
1AB
330
12C
100
AcDbEntity
  8
AM_9
100
AcDbLine
 10
-1.362093467170258
 20
1.28811934144145
 30
0.0
 11
-1.362093467170258
 21
1.923557561981004
 31
0.0
  0
LINE
  5
1AC
330
12C
100
AcDbEntity
  8
AM_9
100
AcDbLine
 10
-0.7029999999999916
 20
1.818004281133724
 30
0.0
 11
-1.362093467170258
 21
1.759623399466043
 31
0.0
  0
LINE
  5
1AD
330
12C
100
AcDbEntity
  8
AM_9
100
AcDbLine
 10
-0.7029999999999981
 20
1.923557561981004
 30
0.0
 11
-0.703000000000007
 21
1.345793596111442
 31
0.0
  0
ELLIPSE
  5
1AE
330
12C
100
AcDbEntity
  8
AM_9
100
AcDbEllipse
 10
-0.9373333333333345
 20
1.72504747146493
 30
0.0
 11
-0.1574803199999981
 21
1.928577698166986E-17
 31
0.0
210
0.0
220
0.0
230
1.0
 40
0.7071067811865518
 41
0.0
 42
6.283185307179586
  0
ELLIPSE
  5
1AF
330
12C
100
AcDbEntity
  8
AM_9
100
AcDbEllipse
 10
-0.9373333333333334
 20
1.72504747146493
 30
0.0
 11
-0.11023622
 21
1.350004339731034E-17
 31
0.0
210
0.0
220
0.0
230
1.0
 40
0.7071067811865486
 41
0.0
 42
6.283185307179586
  0
ELLIPSE
  5
1B0
330
12C
100
AcDbEntity
  8
AM_9
100
AcDbEllipse
 10
-0.9373333333333332
 20
1.711128046193002
 30
0.0
 11
0.1102362200000001
 21
0.0
 31
0.0
210
0.0
220
0.0
230
1.0
 40
0.7071067811865478
 41
0.0
 42
6.283185307179586
  0
LINE
  5
1B1
330
12C
100
AcDbEntity
  8
AM_7
100
AcDbLine
 10
0.0703
 20
0.0
 30
0.0
 11
-2.0919375
 21
0.0
 31
0.0
  0
LINE
  5
1B2
330
12C
100
AcDbEntity
  8
AM_7
100
AcDbLine
 10
0.0703
 20
2.922
 30
0.0
 11
-1.4763
 21
2.922
 31
0.0
  0
LINE
  5
1B3
330
12C
100
AcDbEntity
  8
AM_7
100
AcDbLine
 10
0.0703
 20
-2.922
 30
0.0
 11
-1.4763
 21
-2.922
 31
0.0
  0
LINE
  5
1B4
330
12C
100
AcDbEntity
  8
AM_4
100
AcDbLine
 10
-0.6250000000000001
 20
-3.5315
 30
0.0
 11
0.0
 21
-3.5315
 31
0.0
  0
LINE
  5
1B5
330
12C
100
AcDbEntity
  8
AM_4
100
AcDbLine
 10
0.0
 20
3.5315
 30
0.0
 11
-0.6250000000000001
 21
3.5315
 31
0.0
  0
LINE
  5
1B6
330
12C
100
AcDbEntity
  8
AM_4
100
AcDbLine
 10
-0.6250000000000001
 20
-2.121673912272765
 30
0.0
 11
-0.6250000000000001
 21
-3.5315
 31
0.0
  0
LINE
  5
1B7
330
12C
100
AcDbEntity
  8
AM_4
100
AcDbLine
 10
-0.6250000000000001
 20
3.5315
 30
0.0
 11
-0.6250000000000001
 21
2.121673912272765
 31
0.0
  0
LWPOLYLINE
  5
1B8
330
12C
100
AcDbEntity
  8
AM_4
100
AcDbPolyline
 90
        6
 70
     0
 43
0.0
 10
-0.6689065328297427
 20
-2.065706971156471
 10
-0.6540065074694309
 20
-2.0705131913923
 10
-0.6415366877076292
 20
-2.079813894494243
 10
-0.6318249295370627
 20
-2.093283974979913
 10
-0.6259060554492225
 20
-2.111017858726002
 10
-0.6250000000000001
 20
-2.121673912272765
  0
ARC
  5
1B9
330
12C
100
AcDbEntity
  8
AM_4
100
AcDbCircle
 10
-0.6749999999999998
 20
-2.241313458978222
 30
0.0
 40
0.0499999999999997
100
AcDbArc
 50
0.0
 51
83.0000000000005
  0
LWPOLYLINE
  5
1BA
330
12C
100
AcDbEntity
  8
AM_4
100
AcDbPolyline
 90
        9
 70
     0
 43
0.0
 10
-0.6250000000000001
 20
2.121673912272765
 10
-0.6257815024892909
 20
2.111771588226074
 10
-0.6283365741198776
 20
2.101465638472746
 10
-0.6328132444557424
 20
2.091456009947566
 10
-0.6386327037137796
 20
2.083018837367705
 10
-0.6462529948613472
 20
2.075566642757658
 10
-0.6538556997741344
 20
2.070592444631163
 10
-0.6626268872282738
 20
2.067045052998131
 10
-0.6689065328297429
 20
2.065706971156471
  0
ARC
  5
1BB
330
12C
100
AcDbEntity
  8
AM_4
100
AcDbCircle
 10
-0.6749999999999998
 20
2.241313458978222
 30
0.0
 40
0.05
100
AcDbArc
 50
276.9999999999995
 51
0.0
  0
LINE
  5
1BC
330
12C
100
AcDbEntity
  8
AM_4
100
AcDbLine
 10
0.0
 20
-3.5315
 30
0.0
 11
0.0
 21
-1.890959331717631
 31
0.0
  0
LINE
  5
1BD
330
12C
100
AcDbEntity
  8
AM_4
100
AcDbLine
 10
0.0
 20
-1.890959331717631
 30
0.0
 11
-0.15625
 21
-1.890959331717631
 31
0.0
  0
LINE
  5
1BE
330
12C
100
AcDbEntity
  8
AM_4
100
AcDbLine
 10
-0.15625
 20
1.89095933171763
 30
0.0
 11
0.0
 21
1.89095933171763
 31
0.0
  0
LINE
  5
1BF
330
12C
100
AcDbEntity
  8
AM_4
100
AcDbLine
 10
0.0
 20
1.89095933171763
 30
0.0
 11
0.0
 21
3.5315
 31
0.0
  0
LINE
  5
1C0
330
12C
100
AcDbEntity
  8
AM_4
100
AcDbLine
 10
-0.5357142875660849
 20
2.060967905831342
 30
0.0
 11
-0.702999999999989
 21
2.060967905831342
 31
0.0
  0
LINE
  5
1C1
330
12C
100
AcDbEntity
  8
AM_4
100
AcDbLine
 10
0.0000000000000001
 20
2.706883256902062
 30
0.0
 11
-0.1562499999999999
 21
2.706883256902062
 31
0.0
  0
LINE
  5
1C2
330
12C
100
AcDbEntity
  8
AM_4
100
AcDbLine
 10
0.0
 20
3.251155030800821
 30
0.0
 11
-0.6250000000000001
 21
3.251155030800821
 31
0.0
  0
LINE
  5
1C3
330
12C
100
AcDbEntity
  8
AM_4
100
AcDbLine
 10
-0.6250000000000001
 20
3.228914542764417
 30
0.0
 11
-0.535714287566085
 21
3.228914542764417
 31
0.0
  0
LINE
  5
1C4
330
12C
100
AcDbEntity
  8
AM_4
100
AcDbLine
 10
-0.535714287566085
 20
3.228914542764417
 30
0.0
 11
-0.5357142875660849
 21
1.922845358890375
 31
0.0
  0
LINE
  5
1C5
330
12C
100
AcDbEntity
  8
AM_4
100
AcDbLine
 10
-0.8324732864265111
 20
1.923557561981004
 30
0.0
 11
-0.1562499999999999
 21
1.922845358890375
 31
0.0
  0
LINE
  5
1C6
330
12C
100
AcDbEntity
  8
AM_4
100
AcDbLine
 10
-1.042142771925143
 20
1.923557561981004
 30
0.0
 11
-1.406
 21
1.923557561981004
 31
0.0
  0
LWPOLYLINE
  5
1C7
330
12C
100
AcDbEntity
  8
AM_4
100
AcDbPolyline
 90
        3
 70
     0
 43
0.0
 10
-0.8321105248183355
 20
1.900152450797994
 10
-0.8237839035708863
 20
1.890976623882291
 10
-0.8009513756172314
 20
1.864241724184217
  0
LWPOLYLINE
  5
1C8
330
12C
100
AcDbEntity
  8
AM_4
100
AcDbPolyline
 90
        3
 70
     0
 43
0.0
 10
-1.073715291049435
 20
1.864241724184216
 10
-1.050984964763418
 20
1.890862216420065
 10
-1.042569929803264
 20
1.900137486201132
  0
LWPOLYLINE
  5
1C9
330
12C
100
AcDbEntity
  8
AM_4
100
AcDbPolyline
 90
        3
 70
     0
 43
0.0
 10
-1.11917594362147
 20
1.803948131846296
 10
-1.096547819003091
 20
1.835048580858002
 10
-1.073715291049435
 20
1.864241724184216
  0
LWPOLYLINE
  5
1CA
330
12C
100
AcDbEntity
  8
AM_4
100
AcDbPolyline
 90
        3
 70
     0
 43
0.0
 10
-0.8009513756172314
 20
1.864241724184217
 10
-0.778221049331214
 20
1.835184515332352
 10
-0.7554907230451964
 20
1.803948131846296
  0
LINE
  5
1CB
330
12C
100
AcDbEntity
  8
AM_4
100
AcDbLine
 10
-1.047569553333333
 20
1.822483448368429
 30
0.0
 11
-1.047569553333333
 21
1.808564023096501
 31
0.0
  0
LINE
  5
1CC
330
12C
100
AcDbEntity
  8
AM_4
100
AcDbLine
 10
-0.8270971133333334
 20
1.808564023096501
 30
0.0
 11
-0.8270971133333334
 21
1.822483448368429
 31
0.0
  0
ELLIPSE
  5
1CD
330
12C
100
AcDbEntity
  8
AM_4
100
AcDbEllipse
 10
-0.9373333333333336
 20
1.808564023096501
 30
0.0
 11
-0.1102362200000002
 21
1.350004339731037E-17
 31
0.0
210
0.0
220
0.0
230
1.0
 40
0.7071067811865471
 41
0.0
 42
3.141592653589793
  0
ELLIPSE
  5
1CE
330
12C
100
AcDbEntity
  8
AM_4
100
AcDbEllipse
 10
-0.9373333333333302
 20
1.822483448368427
 30
0.0
 11
-0.1102362200000029
 21
1.350004339731070E-17
 31
0.0
210
0.0
220
0.0
230
1.0
 40
0.7071067811865521
 41
5.671460416057678
 42
10.0364643719435
  0
LINE
  5
1CF
330
12C
100
AcDbEntity
  8
AM_4
100
AcDbLine
 10
-0.8319933347000606
 20
1.900495103068718
 30
0.0
 11
-0.1562499999999999
 21
1.900495103068718
 31
0.0
  0
LINE
  5
1D0
330
12C
100
AcDbEntity
  8
AM_4
100
AcDbLine
 10
-1.406
 20
1.900495103068718
 30
0.0
 11
-1.042697570612211
 21
1.900495103068718
 31
0.0
  0
LWPOLYLINE
  5
1D1
330
12C
100
AcDbEntity
  8
AM_4
100
AcDbPolyline
 90
        3
 70
     0
 43
0.0
 10
-0.7554907230451964
 20
1.803948131846296
 10
-0.778118847663575
 20
1.779621221706863
 10
-0.8009513756172297
 20
1.752886322008789
  0
LWPOLYLINE
  5
1D2
330
12C
100
AcDbEntity
  8
AM_4
100
AcDbPolyline
 90
        3
 70
     0
 43
0.0
 10
-0.8464120281892649
 20
1.618307960539707
 10
-0.8237839035708859
 20
1.642634870679141
 10
-0.8009513756172307
 20
1.669369770377216
  0
LWPOLYLINE
  5
1D3
330
12C
100
AcDbEntity
  8
AM_4
100
AcDbPolyline
 90
        3
 70
     0
 43
0.0
 10
-0.8009513756172307
 20
1.669369770377216
 10
-0.7782210493312135
 20
1.69842697922908
 10
-0.7554907230451964
 20
1.729663362715135
  0
LINE
  5
1D4
330
12C
100
AcDbEntity
  8
AM_4
100
AcDbLine
 10
-0.7554907230451964
 20
1.729663362715135
 30
0.0
 11
-0.7554907230451964
 21
1.803948131846296
 31
0.0
  0
LWPOLYLINE
  5
1D5
330
12C
100
AcDbEntity
  8
AM_4
100
AcDbPolyline
 90
        3
 70
     0
 43
0.0
 10
-1.073715291049437
 20
1.752886322008789
 10
-1.096445617335454
 20
1.779506814244638
 10
-1.11917594362147
 20
1.803948131846296
  0
LINE
  5
1D6
330
12C
100
AcDbEntity
  8
AM_4
100
AcDbLine
 10
-1.11917594362147
 20
1.729663362715135
 30
0.0
 11
-1.11917594362147
 21
1.803948131846296
 31
0.0
  0
LWPOLYLINE
  5
1D7
330
12C
100
AcDbEntity
  8
AM_4
100
AcDbPolyline
 90
        3
 70
     0
 43
0.0
 10
-1.11917594362147
 20
1.729663362715135
 10
-1.096547819003091
 20
1.69856291370343
 10
-1.073715291049436
 20
1.669369770377216
  0
LWPOLYLINE
  5
1D8
330
12C
100
AcDbEntity
  8
AM_4
100
AcDbPolyline
 90
        3
 70
     0
 43
0.0
 10
-1.073715291049436
 20
1.669369770377216
 10
-1.050984964763419
 20
1.642749278141366
 10
-1.028254638477402
 20
1.618307960539707
  0
LINE
  5
1D9
330
12C
100
AcDbEntity
  8
AM_4
100
AcDbLine
 10
-1.028254638477402
 20
1.618307960539707
 30
0.0
 11
-1.028254638477402
 21
1.692592729670869
 31
0.0
  0
LWPOLYLINE
  5
1DA
330
12C
100
AcDbEntity
  8
AM_4
100
AcDbPolyline
 90
        3
 70
     0
 43
0.0
 10
-1.028254638477402
 20
1.618307960539707
 10
-0.9829983892406439
 20
1.614921191103571
 10
-0.9373333333333332
 20
1.613692069289503
  0
LWPOLYLINE
  5
1DB
330
12C
100
AcDbEntity
  8
AM_4
100
AcDbPolyline
 90
        3
 70
     0
 43
0.0
 10
-0.9373333333333332
 20
1.613692069289503
 10
-0.8918726807612991
 20
1.614910427597509
 10
-0.8464120281892649
 20
1.618307960539707
  0
LINE
  5
1DC
330
12C
100
AcDbEntity
  8
AM_4
100
AcDbLine
 10
-0.8464120281892649
 20
1.618307960539707
 30
0.0
 11
-0.8464120281892649
 21
1.692592729670869
 31
0.0
  0
LINE
  5
1DD
330
12C
100
AcDbEntity
  8
AM_4
100
AcDbLine
 10
-1.406
 20
1.410405583578485
 30
0.0
 11
-0.1562499999999999
 21
1.410405583578485
 31
0.0
  0
LINE
  5
1DE
330
12C
100
AcDbEntity
  8
AM_4
100
AcDbLine
 10
-1.406
 20
1.521760985753912
 30
0.0
 11
-0.1562499999999999
 21
1.521760985753912
 31
0.0
  0
LWPOLYLINE
  5
1DF
330
12C
100
AcDbEntity
  8
AM_4
100
AcDbPolyline
 90
        3
 70
     0
 43
0.0
 10
-0.9373333333333332
 20
1.697208620921074
 10
-0.9827939859053674
 20
1.695990262613067
 10
-1.028254638477402
 20
1.692592729670869
  0
ELLIPSE
  5
1E0
330
12C
100
AcDbEntity
  8
AM_4
100
AcDbEllipse
 10
-0.9373333333333332
 20
1.808564023096501
 30
0.0
 11
-0.1574803200000002
 21
1.928577698167012E-17
 31
0.0
210
0.0
220
0.0
230
1.0
 40
0.7071067811865438
 41
5.433013474455321
 42
10.2751916098757
  0
LWPOLYLINE
  5
1E1
330
12C
100
AcDbEntity
  8
AM_4
100
AcDbPolyline
 90
        3
 70
     0
 43
0.0
 10
-1.028254638477402
 20
1.692592729670869
 10
-1.050882763095781
 20
1.723693178682575
 10
-1.073715291049437
 20
1.752886322008789
  0
LWPOLYLINE
  5
1E2
330
12C
100
AcDbEntity
  8
AM_4
100
AcDbPolyline
 90
        3
 70
     0
 43
0.0
 10
-0.8009513756172297
 20
1.752886322008789
 10
-0.8236817019032473
 20
1.723829113156924
 10
-0.8464120281892649
 20
1.692592729670869
  0
LWPOLYLINE
  5
1E3
330
12C
100
AcDbEntity
  8
AM_4
100
AcDbPolyline
 90
        3
 70
     0
 43
0.0
 10
-0.8464120281892649
 20
1.692592729670869
 10
-0.8916682774260228
 20
1.695979499107005
 10
-0.9373333333333332
 20
1.697208620921074
  0
LINE
  5
1E4
330
12C
100
AcDbEntity
  8
AM_4
100
AcDbLine
 10
-0.1562499999999999
 20
1.352515111149444
 30
0.0
 11
-0.5357142875660849
 21
1.352515111149444
 31
0.0
  0
LINE
  5
1E5
330
12C
100
AcDbEntity
  8
AM_4
100
AcDbLine
 10
-0.5357142875660849
 20
1.352515111149444
 30
0.0
 11
-0.5357142875660849
 21
1.181339835728957
 31
0.0
  0
LINE
  5
1E6
330
12C
100
AcDbEntity
  8
AM_4
100
AcDbLine
 10
-0.1562499999999999
 20
2.706883256902062
 30
0.0
 11
-0.1562499999999999
 21
-2.706883256902064
 31
0.0
  0
LINE
  5
1E7
330
12C
100
AcDbEntity
  8
AM_4
100
AcDbLine
 10
-0.5357142875660849
 20
-1.181339835728953
 30
0.0
 11
-0.535714287566085
 21
-3.228914542764416
 31
0.0
  0
LINE
  5
1E8
330
12C
100
AcDbEntity
  8
AM_4
100
AcDbLine
 10
-0.1562499999999999
 20
-2.706883256902064
 30
0.0
 11
0.0000000000000001
 21
-2.706883256902062
 31
0.0
  0
LINE
  5
1E9
330
12C
100
AcDbEntity
  8
AM_4
100
AcDbLine
 10
-0.535714287566085
 20
-3.228914542764416
 30
0.0
 11
-0.6250000000000001
 21
-3.228914542764416
 31
0.0
  0
LINE
  5
1EA
330
12C
100
AcDbEntity
  8
AM_4
100
AcDbLine
 10
0.0
 20
-3.251155030800822
 30
0.0
 11
-0.6250000000000001
 21
-3.251155030800822
 31
0.0
  0
LWPOLYLINE
  5
1EB
330
12C
100
AcDbEntity
  8
AM_4
100
AcDbPolyline
 90
       19
 70
     0
 43
0.0
 10
-0.9373333333333332
 20
1.829382482234228
 10
-0.9305220964634977
 20
1.829545832428231
 10
-0.9181401552405719
 20
1.830689334827072
 10
-0.9059925565784623
 20
1.832919037338474
 10
-0.894240817573113
 20
1.836218934388563
 10
-0.8830403675806148
 20
1.840564828182265
 10
-0.8725469526482065
 20
1.845922573367812
 10
-0.862921778790477
 20
1.852241636307446
 10
-0.8543275606287039
 20
1.859448487131536
 10
-0.8469200668010594
 20
1.867440838101157
 10
-0.8408370337088337
 20
1.876083202589055
 10
-0.8361817607858806
 20
1.88521268361728
 10
-0.8330117702267436
 20
1.894654836384198
 10
-0.8313398876225886
 20
1.904242326232748
 10
-0.8311464696719888
 20
1.913827506730143
 10
-0.8323952188286944
 20
1.923285699265485
 10
-0.8350393868102202
 20
1.932493753667722
 10
-0.8390333322519975
 20
1.941359745331952
 10
-0.841739122816705
 20
1.945978913560829
  0
LWPOLYLINE
  5
1EC
330
12C
100
AcDbEntity
  8
AM_4
100
AcDbPolyline
 90
       19
 70
     0
 43
0.0
 10
-1.034176953933125
 20
1.943942126655319
 10
-1.035642874076566
 20
1.94134197836087
 10
-1.039777066348054
 20
1.932082002317254
 10
-1.042416791207555
 20
1.92257017747867
 10
-1.043562465552185
 20
1.912967833223084
 10
-1.043241372274226
 20
1.903414422278675
 10
-1.04149361998991
 20
1.894031871296844
 10
-1.038367389045178
 20
1.884935022483459
 10
-1.033906146542938
 20
1.8762102110415
 10
-1.028151249073122
 20
1.867943929811402
 10
-1.021152593131637
 20
1.860230778345537
 10
-1.012981728222647
 20
1.853174534179758
 10
-1.003740494014493
 20
1.846881588331595
 10
-0.9935604154505001
 20
1.841450368352892
 10
-0.9825942518264777
 20
1.836962636509108
 10
-0.9710064974444389
 20
1.833480369853913
 10
-0.958966125156913
 20
1.831046593728246
 10
-0.9466359756625443
 20
1.829687470842942
 10
-0.9373333333333332
 20
1.829382482234228
  0
LINE
  5
1ED
330
12C
100
AcDbEntity
  8
AM_4
100
AcDbLine
 10
-1.009499883765663
 20
1.983948778694372
 30
0.0
 11
-1.034176953933125
 21
1.943942126655319
 31
0.0
  0
ELLIPSE
  5
1EE
330
12C
100
AcDbEntity
  8
AM_4
100
AcDbEllipse
 10
-0.9373333333333335
 20
1.915472845334393
 30
0.0
 11
-0.1048775701420833
 21
1.284379805768544E-17
 31
0.0
210
0.0
220
0.0
230
1.0
 40
0.7071067811865488
 41
5.871668516539438
 42
9.836294751409525
  0
LINE
  5
1EF
330
12C
100
AcDbEntity
  8
AM_4
100
AcDbLine
 10
-0.8412114502322717
 20
1.945136697983818
 30
0.0
 11
-0.8651667829010035
 21
1.983948778694372
 31
0.0
  0
LWPOLYLINE
  5
1F0
330
12C
100
AcDbEntity
  8
AM_4
100
AcDbPolyline
 90
        6
 70
     0
 43
0.0
 10
-1.362093467170258
 20
1.28811934144145
 10
-1.37809245118306
 20
1.284716766018112
 10
-1.39160606691618
 20
1.277764374810504
 10
-1.401177494041601
 20
1.268011320136101
 10
-1.405722690663789
 20
1.256483776474895
 10
-1.406
 20
1.25273346713844
  0
LINE
  5
1F1
330
12C
100
AcDbEntity
  8
AM_4
100
AcDbLine
 10
-1.406
 20
-2.05694619045746
 30
0.0
 11
-1.406
 21
2.05694619045746
 31
0.0
  0
ARC
  5
1F2
330
12C
100
AcDbEntity
  8
AM_4
100
AcDbCircle
 10
-1.356
 20
2.05694619045746
 30
0.0
 40
0.0500000000000001
100
AcDbArc
 50
97.0000000000004
 51
180.0
  0
ARC
  5
1F3
330
12C
100
AcDbEntity
  8
AM_4
100
AcDbCircle
 10
-1.356
 20
-2.05694619045746
 30
0.0
 40
0.05
100
AcDbArc
 50
180.0
 51
262.9999999999996
  0
LINE
  5
1F4
330
12C
100
AcDbEntity
  8
AM_4
100
AcDbLine
 10
-1.362093467170258
 20
1.28811934144145
 30
0.0
 11
-0.7029999999999916
 21
1.345793596111442
 31
0.0
  0
LINE
  5
1F5
330
12C
100
AcDbEntity
  8
AM_4
100
AcDbLine
 10
-1.362093467170258
 20
1.923557561981004
 30
0.0
 11
-1.362093467170258
 21
2.106573498039527
 31
0.0
  0
LINE
  5
1F6
330
12C
100
AcDbEntity
  8
AM_4
100
AcDbLine
 10
-0.702999999999989
 20
2.060967905831342
 30
0.0
 11
-0.7029999999999981
 21
1.923557561981004
 31
0.0
  0
LINE
  5
1F7
330
12C
100
AcDbEntity
  8
AM_4
100
AcDbLine
 10
-0.6689065328297429
 20
2.065706971156471
 30
0.0
 11
-0.702999999999989
 21
2.060967905831342
 31
0.0
  0
LINE
  5
1F8
330
12C
100
AcDbEntity
  8
AM_4
100
AcDbLine
 10
-0.6689065328297429
 20
2.065706971156471
 30
0.0
 11
-0.6689065328297429
 21
2.191686151396156
 31
0.0
  0
LINE
  5
1F9
330
12C
100
AcDbEntity
  8
AM_4
100
AcDbLine
 10
-0.7029999999999917
 20
-2.060967905831342
 30
0.0
 11
-0.6689065328297427
 21
-2.065706971156471
 31
0.0
  0
LINE
  5
1FA
330
12C
100
AcDbEntity
  8
AM_4
100
AcDbLine
 10
-1.362093467170258
 20
-2.106573498039527
 30
0.0
 11
-0.6689065328297429
 21
-2.191686151396156
 31
0.0
  0
LINE
  5
1FB
330
12C
100
AcDbEntity
  8
AM_4
100
AcDbLine
 10
-0.6689065328297429
 20
2.191686151396156
 30
0.0
 11
-1.362093467170258
 21
2.106573498039527
 31
0.0
  0
LINE
  5
1FC
330
12C
100
AcDbEntity
  8
AM_4
100
AcDbLine
 10
-1.362093467170258
 20
-2.106573498039527
 30
0.0
 11
-1.362093467170258
 21
1.28811934144145
 31
0.0
  0
LINE
  5
1FD
330
12C
100
AcDbEntity
  8
AM_4
100
AcDbLine
 10
-0.6689065328297429
 20
-2.191686151396156
 30
0.0
 11
-0.6689065328297427
 21
-2.065706971156471
 31
0.0
  0
LINE
  5
1FE
330
12C
100
AcDbEntity
  8
AM_4
100
AcDbLine
 10
-0.1562499999999999
 20
1.181339835728957
 30
0.0
 11
-0.5357142875660849
 21
1.181339835728957
 31
0.0
  0
LINE
  5
1FF
330
12C
100
AcDbEntity
  8
AM_4
100
AcDbLine
 10
-0.5357142875660849
 20
1.345793596111442
 30
0.0
 11
-0.7029999999999916
 21
1.345793596111442
 31
0.0
  0
LINE
  5
200
330
12C
100
AcDbEntity
  8
AM_4
100
AcDbLine
 10
-0.7029999999999916
 20
1.345793596111442
 30
0.0
 11
-0.7029999999999917
 21
-2.060967905831342
 31
0.0
  0
LINE
  5
201
330
12C
100
AcDbEntity
  8
AM_4
100
AcDbLine
 10
-0.5357142875660849
 20
-2.060967905831342
 30
0.0
 11
-0.7029999999999917
 21
-2.060967905831342
 31
0.0
  0
LINE
  5
202
330
12C
100
AcDbEntity
  8
AM_4
100
AcDbLine
 10
-0.1562499999999999
 20
-1.181339835728953
 30
0.0
 11
-0.5357142875660849
 21
-1.181339835728953
 31
0.0
  0
ELLIPSE
  5
203
330
12C
100
AcDbEntity
  8
AM_4
100
AcDbEllipse
 10
-0.9373333333333332
 20
1.961677701087714
 30
0.0
 11
-0.07874016000000006
 21
9.642888490835052E-18
 31
0.0
210
0.0
220
0.0
230
1.0
 40
0.7071067811865457
 41
0.0
 42
6.283185307179586
  0
ENDBLK
  5
12F
330
12C
100
AcDbEntity
  8
0
100
AcDbBlockEnd
  0
ENDSEC
  0
SECTION
  2
ENTITIES
  0
INSERT
  5
6F
330
1F
100
AcDbEntity
  8
0
100
AcDbBlockReference
  2
1_129315_2
 10
0.0
 20
0.0
 30
0.0
  0
POINT
  5
205
330
1F
100
AcDbEntity
  8
ConnectionPoints
100
AcDbPoint
 10
-0.8122499999999999
 20
0.0
 30
0.0000000000000001
  0
POINT
  5
206
330
1F
100
AcDbEntity
  8
ConnectionPoints
100
AcDbPoint
 10
-0.1559999999999999
 20
0.0
 30
0.0000000000000001
  0
POINT
  5
207
330
1F
100
AcDbEntity
  8
ConnectionPoints
100
AcDbPoint
 10
-0.1559999999999999
 20
0.0
 30
0.0
  0
ENDSEC
  0
SECTION
  2
OBJECTS
  0
DICTIONARY
  5
C
330
0
100
AcDbDictionary
281
     1
  3
ACAD_DETAILVIEWSTYLE
350
20F
  3
ACAD_GROUP
350
D
  3
ACAD_LAYOUT
350
1A
  3
ACAD_MATERIAL
350
43
  3
ACAD_MLEADERSTYLE
350
6B
  3
ACAD_MLINESTYLE
350
17
  3
ACAD_PLOTSETTINGS
350
19
  3
ACAD_PLOTSTYLENAME
350
E
  3
ACAD_SCALELIST
350
47
  3
ACAD_SECTIONVIEWSTYLE
350
210
  3
ACAD_TABLESTYLE
350
69
  3
ACAD_VISUALSTYLE
350
2A
  3
ACDB_RECOMPOSE_DATA
350
20C
  3
AcDbVariableDictionary
350
208
  0
SUN
  5
6D
330
29
100
AcDbSun
 90
        1
290
     0
 63
     7
421
 16777215
 40
1.0
291
     1
 91
  2455826
 92
 54000000
292
     0
 70
     2
 71
   256
280
     1
  0
DICTIONARY
  5
20F
102
{ACAD_REACTORS
330
C
102
}
330
C
100
AcDbDictionary
281
     1
  0
DICTIONARY
  5
D
102
{ACAD_REACTORS
330
C
102
}
330
C
100
AcDbDictionary
281
     1
  0
DICTIONARY
  5
1A
102
{ACAD_REACTORS
330
C
102
}
330
C
100
AcDbDictionary
281
     1
  3
Layout1
350
1E
  3
Layout2
350
26
  3
Model
350
22
  0
DICTIONARY
  5
43
102
{ACAD_REACTORS
330
C
102
}
330
C
100
AcDbDictionary
281
     1
  3
ByBlock
350
45
  3
ByLayer
350
44
  3
Global
350
46
  0
DICTIONARY
  5
6B
102
{ACAD_REACTORS
330
C
102
}
330
C
100
AcDbDictionary
281
     1
  3
Standard
350
6C
  0
DICTIONARY
  5
17
102
{ACAD_REACTORS
330
C
102
}
330
C
100
AcDbDictionary
281
     1
  3
Standard
350
18
  0
DICTIONARY
  5
19
102
{ACAD_REACTORS
330
C
102
}
330
C
100
AcDbDictionary
281
     1
  0
ACDBDICTIONARYWDFLT
  5
E
102
{ACAD_REACTORS
330
C
102
}
330
C
100
AcDbDictionary
281
     1
  3
Normal
350
F
100
AcDbDictionaryWithDefault
340
F
  0
DICTIONARY
  5
47
102
{ACAD_REACTORS
330
C
102
}
330
C
100
AcDbDictionary
281
     1
  3
A0
350
48
  3
A1
350
49
  3
A2
350
4A
  3
A3
350
4B
  3
A4
350
4C
  3
A5
350
4D
  3
A6
350
4E
  3
A7
350
4F
  3
A8
350
50
  3
A9
350
51
  3
B0
350
52
  3
B1
350
53
  3
B2
350
54
  3
B3
350
55
  3
B4
350
56
  3
B5
350
57
  3
B6
350
58
  3
B7
350
59
  3
B8
350
5A
  3
B9
350
5B
  3
C0
350
5C
  3
C1
350
5D
  3
C2
350
5E
  3
C3
350
5F
  3
C4
350
60
  3
C5
350
61
  3
C6
350
62
  3
C7
350
63
  3
C8
350
64
  3
C9
350
65
  3
D0
350
66
  3
D1
350
67
  3
D2
350
68
  0
DICTIONARY
  5
210
102
{ACAD_REACTORS
330
C
102
}
330
C
100
AcDbDictionary
281
     1
  0
DICTIONARY
  5
69
102
{ACAD_REACTORS
330
C
102
}
330
C
100
AcDbDictionary
281
     1
  3
Standard
350
6A
  0
DICTIONARY
  5
2A
102
{ACAD_REACTORS
330
C
102
}
330
C
100
AcDbDictionary
281
     1
  3
2dWireframe
350
2F
  3
Basic
350
32
  3
Brighten
350
36
  3
ColorChange
350
3A
  3
Conceptual
350
34
  3
Dim
350
35
  3
EdgeColorOff
350
3D
  3
Facepattern
350
39
  3
Flat
350
2B
  3
FlatWithEdges
350
2C
  3
Gouraud
350
2D
  3
GouraudWithEdges
350
2E
  3
Hidden
350
31
  3
JitterOff
350
3B
  3
Linepattern
350
38
  3
OverhangOff
350
3C
  3
Realistic
350
33
  3
Shaded
350
42
  3
Shaded with edges
350
41
  3
Shades of Gray
350
3E
  3
Sketchy
350
3F
  3
Thicken
350
37
  3
Wireframe
350
30
  3
X-Ray
350
40
  0
XRECORD
  5
20C
102
{ACAD_REACTORS
330
C
102
}
330
C
100
AcDbXrecord
280
     1
 90
        1
330
6A
  0
DICTIONARY
  5
208
102
{ACAD_REACTORS
330
C
102
}
330
C
100
AcDbDictionary
281
     1
  3
CANNOSCALE
350
209
  3
CMLEADERSTYLE
350
20E
  3
CTABLESTYLE
350
20D
  0
LAYOUT
  5
1E
102
{ACAD_REACTORS
330
1A
102
}
330
1A
100
AcDbPlotSettings
  1

  2
none_device
  4

  6

 40
0.0
 41
0.0
 42
0.0
 43
0.0
 44
0.0
 45
0.0
 46
0.0
 47
0.0
 48
0.0
 49
0.0
140
0.0
141
0.0
142
1.0
143
1.0
 70
   688
 72
     0
 73
     0
 74
     5
  7

 75
    16
 76
     0
 77
     2
 78
   300
147
1.0
148
0.0
149
0.0
100
AcDbLayout
  1
Layout1
 70
     1
 71
     1
 10
0.0
 20
0.0
 11
12.0
 21
9.0
 12
0.0
 22
0.0
 32
0.0
 14
1.000000000000000E+20
 24
1.000000000000000E+20
 34
1.000000000000000E+20
 15
-1.000000000000000E+20
 25
-1.000000000000000E+20
 35
-1.000000000000000E+20
146
0.0
 13
0.0
 23
0.0
 33
0.0
 16
1.0
 26
0.0
 36
0.0
 17
0.0
 27
1.0
 37
0.0
 76
     0
330
1B
  0
LAYOUT
  5
26
102
{ACAD_REACTORS
330
1A
102
}
330
1A
100
AcDbPlotSettings
  1

  2
none_device
  4

  6

 40
0.0
 41
0.0
 42
0.0
 43
0.0
 44
0.0
 45
0.0
 46
0.0
 47
0.0
 48
0.0
 49
0.0
140
0.0
141
0.0
142
1.0
143
1.0
 70
   688
 72
     0
 73
     0
 74
     5
  7

 75
    16
 76
     0
 77
     2
 78
   300
147
1.0
148
0.0
149
0.0
100
AcDbLayout
  1
Layout2
 70
     1
 71
     2
 10
0.0
 20
0.0
 11
0.0
 21
0.0
 12
0.0
 22
0.0
 32
0.0
 14
0.0
 24
0.0
 34
0.0
 15
0.0
 25
0.0
 35
0.0
146
0.0
 13
0.0
 23
0.0
 33
0.0
 16
1.0
 26
0.0
 36
0.0
 17
0.0
 27
1.0
 37
0.0
 76
     0
330
23
  0
LAYOUT
  5
22
102
{ACAD_REACTORS
330
1A
102
}
330
1A
100
AcDbPlotSettings
  1

  2
none_device
  4
Letter_(8.50_x_11.00_Inches)
  6

 40
6.35
 41
6.35
 42
6.35000508
 43
6.35000508
 44
215.9
 45
279.4
 46
0.0
 47
0.0
 48
0.0
 49
0.0
140
0.0
141
0.0
142
1.0
143
1.0
 70
  1712
 72
     0
 73
     0
 74
     0
  7

 75
     0
 76
     0
 77
     2
 78
   300
147
1.0
148
0.0
149
0.0
100
AcDbLayout
  1
Model
 70
     1
 71
     0
 10
0.0
 20
0.0
 11
12.0
 21
9.0
 12
0.0
 22
0.0
 32
0.0
 14
1.000000000000000E+20
 24
1.000000000000000E+20
 34
1.000000000000000E+20
 15
-1.000000000000000E+20
 25
-1.000000000000000E+20
 35
-1.000000000000000E+20
146
0.0
 13
0.0
 23
0.0
 33
0.0
 16
1.0
 26
0.0
 36
0.0
 17
0.0
 27
1.0
 37
0.0
 76
     0
330
1F
331
29
  0
MATERIAL
  5
45
102
{ACAD_REACTORS
330
43
102
}
330
43
100
AcDbMaterial
  1
ByBlock
 72
     1
 94
      127
  0
MATERIAL
  5
44
102
{ACAD_REACTORS
330
43
102
}
330
43
100
AcDbMaterial
  1
ByLayer
 72
     1
 94
      127
  0
MATERIAL
  5
46
102
{ACAD_REACTORS
330
43
102
}
330
43
100
AcDbMaterial
  1
Global
 72
     1
 94
      127
  0
MLEADERSTYLE
  5
6C
102
{ACAD_REACTORS
330
6B
102
}
330
6B
100
AcDbMLeaderStyle
179
     2
170
     2
171
     1
172
     0
 90
        2
 40
0.0
 41
0.0
173
     1
 91
-1056964608
340
14
 92
       -2
290
     1
 42
0.09
291
     1
 43
0.36
  3
Standard
341
0
 44
0.18
300

342
11
174
     1
178
     6
175
     1
176
     0
 93
-1056964608
 45
0.18
292
     0
297
     0
 46
0.18
343
0
 94
-1056964608
 47
1.0
 49
1.0
140
1.0
293
     1
141
0.0
294
     1
177
     0
142
1.0
295
     0
296
     0
143
0.125
271
     0
272
     9
273
     9
298
     0
  0
MLINESTYLE
  5
18
102
{ACAD_REACTORS
330
17
102
}
330
17
100
AcDbMlineStyle
  2
Standard
 70
     0
  3

 62
   256
 51
90.0
 52
90.0
 71
     2
 49
0.5
 62
   256
  6
BYLAYER
 49
-0.5
 62
   256
  6
BYLAYER
  0
ACDBPLACEHOLDER
  5
F
102
{ACAD_REACTORS
330
E
102
}
330
E
  0
SCALE
  5
48
102
{ACAD_REACTORS
330
47
102
}
330
47
100
AcDbScale
 70
     0
300
1:1
140
1.0
141
1.0
290
     1
  0
SCALE
  5
49
102
{ACAD_REACTORS
330
47
102
}
330
47
100
AcDbScale
 70
     0
300
1:2
140
1.0
141
2.0
290
     0
  0
SCALE
  5
4A
102
{ACAD_REACTORS
330
47
102
}
330
47
100
AcDbScale
 70
     0
300
1:4
140
1.0
141
4.0
290
     0
  0
SCALE
  5
4B
102
{ACAD_REACTORS
330
47
102
}
330
47
100
AcDbScale
 70
     0
300
1:5
140
1.0
141
5.0
290
     0
  0
SCALE
  5
4C
102
{ACAD_REACTORS
330
47
102
}
330
47
100
AcDbScale
 70
     0
300
1:8
140
1.0
141
8.0
290
     0
  0
SCALE
  5
4D
102
{ACAD_REACTORS
330
47
102
}
330
47
100
AcDbScale
 70
     0
300
1:10
140
1.0
141
10.0
290
     0
  0
SCALE
  5
4E
102
{ACAD_REACTORS
330
47
102
}
330
47
100
AcDbScale
 70
     0
300
1:16
140
1.0
141
16.0
290
     0
  0
SCALE
  5
4F
102
{ACAD_REACTORS
330
47
102
}
330
47
100
AcDbScale
 70
     0
300
1:20
140
1.0
141
20.0
290
     0
  0
SCALE
  5
50
102
{ACAD_REACTORS
330
47
102
}
330
47
100
AcDbScale
 70
     0
300
1:30
140
1.0
141
30.0
290
     0
  0
SCALE
  5
51
102
{ACAD_REACTORS
330
47
102
}
330
47
100
AcDbScale
 70
     0
300
1:40
140
1.0
141
40.0
290
     0
  0
SCALE
  5
52
102
{ACAD_REACTORS
330
47
102
}
330
47
100
AcDbScale
 70
     0
300
1:50
140
1.0
141
50.0
290
     0
  0
SCALE
  5
53
102
{ACAD_REACTORS
330
47
102
}
330
47
100
AcDbScale
 70
     0
300
1:100
140
1.0
141
100.0
290
     0
  0
SCALE
  5
54
102
{ACAD_REACTORS
330
47
102
}
330
47
100
AcDbScale
 70
     0
300
2:1
140
2.0
141
1.0
290
     0
  0
SCALE
  5
55
102
{ACAD_REACTORS
330
47
102
}
330
47
100
AcDbScale
 70
     0
300
4:1
140
4.0
141
1.0
290
     0
  0
SCALE
  5
56
102
{ACAD_REACTORS
330
47
102
}
330
47
100
AcDbScale
 70
     0
300
8:1
140
8.0
141
1.0
290
     0
  0
SCALE
  5
57
102
{ACAD_REACTORS
330
47
102
}
330
47
100
AcDbScale
 70
     0
300
10:1
140
10.0
141
1.0
290
     0
  0
SCALE
  5
58
102
{ACAD_REACTORS
330
47
102
}
330
47
100
AcDbScale
 70
     0
300
100:1
140
100.0
141
1.0
290
     0
  0
SCALE
  5
59
102
{ACAD_REACTORS
330
47
102
}
330
47
100
AcDbScale
 70
     0
300
1/128" = 1'-0"
140
0.0078125
141
12.0
290
     0
  0
SCALE
  5
5A
102
{ACAD_REACTORS
330
47
102
}
330
47
100
AcDbScale
 70
     0
300
1/64" = 1'-0"
140
0.015625
141
12.0
290
     0
  0
SCALE
  5
5B
102
{ACAD_REACTORS
330
47
102
}
330
47
100
AcDbScale
 70
     0
300
1/32" = 1'-0"
140
0.03125
141
12.0
290
     0
  0
SCALE
  5
5C
102
{ACAD_REACTORS
330
47
102
}
330
47
100
AcDbScale
 70
     0
300
1/16" = 1'-0"
140
0.0625
141
12.0
290
     0
  0
SCALE
  5
5D
102
{ACAD_REACTORS
330
47
102
}
330
47
100
AcDbScale
 70
     0
300
3/32" = 1'-0"
140
0.09375
141
12.0
290
     0
  0
SCALE
  5
5E
102
{ACAD_REACTORS
330
47
102
}
330
47
100
AcDbScale
 70
     0
300
1/8" = 1'-0"
140
0.125
141
12.0
290
     0
  0
SCALE
  5
5F
102
{ACAD_REACTORS
330
47
102
}
330
47
100
AcDbScale
 70
     0
300
3/16" = 1'-0"
140
0.1875
141
12.0
290
     0
  0
SCALE
  5
60
102
{ACAD_REACTORS
330
47
102
}
330
47
100
AcDbScale
 70
     0
300
1/4" = 1'-0"
140
0.25
141
12.0
290
     0
  0
SCALE
  5
61
102
{ACAD_REACTORS
330
47
102
}
330
47
100
AcDbScale
 70
     0
300
3/8" = 1'-0"
140
0.375
141
12.0
290
     0
  0
SCALE
  5
62
102
{ACAD_REACTORS
330
47
102
}
330
47
100
AcDbScale
 70
     0
300
1/2" = 1'-0"
140
0.5
141
12.0
290
     0
  0
SCALE
  5
63
102
{ACAD_REACTORS
330
47
102
}
330
47
100
AcDbScale
 70
     0
300
3/4" = 1'-0"
140
0.75
141
12.0
290
     0
  0
SCALE
  5
64
102
{ACAD_REACTORS
330
47
102
}
330
47
100
AcDbScale
 70
     0
300
1" = 1'-0"
140
1.0
141
12.0
290
     0
  0
SCALE
  5
65
102
{ACAD_REACTORS
330
47
102
}
330
47
100
AcDbScale
 70
     0
300
1-1/2" = 1'-0"
140
1.5
141
12.0
290
     0
  0
SCALE
  5
66
102
{ACAD_REACTORS
330
47
102
}
330
47
100
AcDbScale
 70
     0
300
3" = 1'-0"
140
3.0
141
12.0
290
     0
  0
SCALE
  5
67
102
{ACAD_REACTORS
330
47
102
}
330
47
100
AcDbScale
 70
     0
300
6" = 1'-0"
140
6.0
141
12.0
290
     0
  0
SCALE
  5
68
102
{ACAD_REACTORS
330
47
102
}
330
47
100
AcDbScale
 70
     0
300
1'-0" = 1'-0"
140
12.0
141
12.0
290
     0
  0
TABLESTYLE
  5
6A
102
{ACAD_REACTORS
330
69
102
}
102
{ACAD_XDICTIONARY
360
20A
102
}
330
69
100
AcDbTableStyle
  3
Standard
 70
     0
 71
     0
 40
0.06
 41
0.06
280
     0
281
     0
  7
Standard
140
0.18
170
     2
 62
     0
 63
   257
283
     0
 90
        4
 91
        0
  1

274
    -2
284
     1
 64
     0
275
    -2
285
     1
 65
     0
276
    -2
286
     1
 66
     0
277
    -2
287
     1
 67
     0
278
    -2
288
     1
 68
     0
279
    -2
289
     1
 69
     0
  7
Standard
140
0.25
170
     5
 62
     0
 63
   257
283
     0
 90
        4
 91
        0
  1

274
    -2
284
     1
 64
     0
275
    -2
285
     1
 65
     0
276
    -2
286
     1
 66
     0
277
    -2
287
     1
 67
     0
278
    -2
288
     1
 68
     0
279
    -2
289
     1
 69
     0
  7
Standard
140
0.18
170
     5
 62
     0
 63
   257
283
     0
 90
        4
 91
        0
  1

274
    -2
284
     1
 64
     0
275
    -2
285
     1
 65
     0
276
    -2
286
     1
 66
     0
277
    -2
287
     1
 67
     0
278
    -2
288
     1
 68
     0
279
    -2
289
     1
 69
     0
  0
VISUALSTYLE
  5
2F
102
{ACAD_REACTORS
330
2A
102
}
330
2A
100
AcDbVisualStyle
  2
2dWireframe
 70
     4
177
     3
291
     0
 70
    58
 90
        0
176
     1
 90
        2
176
     1
 90
        0
176
     1
 90
        0
176
     1
 40
0.6
176
     1
 40
30.0
176
     1
 62
     7
420
 16777215
176
     1
 90
        1
176
     1
 90
        4
176
     1
 62
     7
176
     1
 62
   257
176
     1
 90
        1
176
     1
 90
        1
176
     1
 40
1.0
176
     1
 90
        0
176
     1
 62
   257
176
     1
 40
1.0
176
     1
 90
        1
176
     1
 90
        6
176
     1
 90
        2
176
     1
 62
     7
176
     1
 90
        5
176
     1
 90
        0
176
     1
 90
        0
176
     1
290
     0
176
     1
 90
        1
176
     1
 40
0.0
176
     1
 90
        0
176
     1
290
     1
176
     1
290
     1
176
     1
290
     0
176
     1
290
     0
176
     1
290
     0
176
     1
290
     0
176
     1
290
     0
176
     1
290
     0
176
     1
290
     0
176
     1
 90
       50
176
     1
 40
0.0
176
     1
 40
1.0
176
     1
 90
        0
176
     1
 62
    18
420
        0
176
     1
 90
       50
176
     1
 90
        3
176
     1
 62
     5
420
      255
176
     1
290
     0
176
     1
 90
       50
176
     1
 90
       50
176
     1
 90
       50
176
     1
290
     0
176
     1
 90
       50
176
     1
 62
   256
176
     0
 40
1.0
176
     0
 90
        2
176
     1
  1
strokes_ogs.tif
176
     1
290
     0
176
     1
 40
1.0
176
     1
 40
1.0
176
     1
  0
VISUALSTYLE
  5
32
102
{ACAD_REACTORS
330
2A
102
}
330
2A
100
AcDbVisualStyle
  2
Basic
 70
     7
177
     3
291
     1
 70
    58
 90
        1
176
     1
 90
        0
176
     1
 90
        1
176
     1
 90
        0
176
     1
 40
0.6
176
     1
 40
30.0
176
     1
 62
     7
420
 16777215
176
     1
 90
        0
176
     1
 90
        4
176
     1
 62
     7
176
     1
 62
   257
176
     1
 90
        1
176
     1
 90
        1
176
     1
 40
1.0
176
     1
 90
        8
176
     1
 62
     7
176
     1
 40
1.0
176
     1
 90
        1
176
     1
 90
        6
176
     1
 90
        2
176
     1
 62
     7
176
     1
 90
        5
176
     1
 90
        0
176
     1
 90
        0
176
     1
290
     0
176
     1
 90
        1
176
     1
 40
0.0
176
     1
 90
        0
176
     1
290
     0
176
     1
290
     1
176
     1
290
     1
176
     1
290
     0
176
     1
290
     0
176
     1
290
     0
176
     1
290
     0
176
     1
290
     0
176
     1
290
     0
176
     1
 90
       50
176
     1
 40
0.0
176
     1
 40
1.0
176
     1
 90
        0
176
     1
 62
    18
420
        0
176
     1
 90
       50
176
     1
 90
        3
176
     1
 62
     5
420
      255
176
     1
290
     0
176
     1
 90
       50
176
     1
 90
       50
176
     1
 90
       50
176
     1
290
     0
176
     1
 90
       50
176
     1
 62
   256
176
     0
 40
1.0
176
     0
 90
        2
176
     1
  1
strokes_ogs.tif
176
     1
290
     0
176
     1
 40
1.0
176
     1
 40
1.0
176
     1
  0
VISUALSTYLE
  5
36
102
{ACAD_REACTORS
330
2A
102
}
330
2A
100
AcDbVisualStyle
  2
Brighten
 70
    12
177
     3
291
     1
 70
    58
 90
        2
176
     1
 90
        2
176
     1
 90
        0
176
     1
 90
        0
176
     1
 40
0.6
176
     1
 40
30.0
176
     1
 62
     7
420
 16777215
176
     1
 90
        1
176
     1
 90
        4
176
     1
 62
     7
176
     1
 62
   257
176
     1
 90
        1
176
     1
 90
        1
176
     1
 40
1.0
176
     1
 90
        8
176
     1
 62
     7
176
     1
 40
1.0
176
     1
 90
        1
176
     1
 90
        6
176
     1
 90
        2
176
     1
 62
     7
176
     1
 90
        5
176
     1
 90
        0
176
     1
 90
        0
176
     1
290
     0
176
     1
 90
        1
176
     1
 40
50.0
176
     1
 90
        0
176
     1
290
     0
176
     1
290
     1
176
     1
290
     1
176
     1
290
     0
176
     1
290
     0
176
     1
290
     0
176
     1
290
     0
176
     1
290
     0
176
     1
290
     0
176
     1
 90
       50
176
     1
 40
0.0
176
     1
 40
1.0
176
     1
 90
        0
176
     1
 62
    18
420
        0
176
     1
 90
       50
176
     1
 90
        3
176
     1
 62
     5
420
      255
176
     1
290
     0
176
     1
 90
       50
176
     1
 90
       50
176
     1
 90
       50
176
     1
290
     0
176
     1
 90
       50
176
     1
 62
   256
176
     0
 40
1.0
176
     0
 90
        2
176
     1
  1
strokes_ogs.tif
176
     1
290
     0
176
     1
 40
1.0
176
     1
 40
1.0
176
     1
  0
VISUALSTYLE
  5
3A
102
{ACAD_REACTORS
330
2A
102
}
330
2A
100
AcDbVisualStyle
  2
ColorChange
 70
    16
177
     3
291
     1
 70
    58
 90
        2
176
     1
 90
        2
176
     1
 90
        3
176
     1
 90
        0
176
     1
 40
0.6
176
     1
 40
30.0
176
     1
 62
     8
420
  8421504
176
     1
 90
        1
176
     1
 90
        4
176
     1
 62
     7
176
     1
 62
   257
176
     1
 90
        1
176
     1
 90
        1
176
     1
 40
1.0
176
     1
 90
        8
176
     1
 62
     8
420
  8421504
176
     1
 40
1.0
176
     1
 90
        1
176
     1
 90
        6
176
     1
 90
        2
176
     1
 62
     7
176
     1
 90
        5
176
     1
 90
        0
176
     1
 90
        0
176
     1
290
     0
176
     1
 90
        1
176
     1
 40
0.0
176
     1
 90
        0
176
     1
290
     0
176
     1
290
     1
176
     1
290
     1
176
     1
290
     0
176
     1
290
     0
176
     1
290
     0
176
     1
290
     0
176
     1
290
     0
176
     1
290
     0
176
     1
 90
       50
176
     1
 40
0.0
176
     1
 40
1.0
176
     1
 90
        0
176
     1
 62
    18
420
        0
176
     1
 90
       50
176
     1
 90
        3
176
     1
 62
     5
420
      255
176
     1
290
     0
176
     1
 90
       50
176
     1
 90
       50
176
     1
 90
       50
176
     1
290
     0
176
     1
 90
       50
176
     1
 62
   256
176
     0
 40
1.0
176
     0
 90
        2
176
     1
  1
strokes_ogs.tif
176
     1
290
     0
176
     1
 40
1.0
176
     1
 40
1.0
176
     1
  0
VISUALSTYLE
  5
34
102
{ACAD_REACTORS
330
2A
102
}
330
2A
100
AcDbVisualStyle
  2
Conceptual
 70
     9
177
     3
291
     0
 70
    58
 90
        3
176
     1
 90
        2
176
     1
 90
        0
176
     1
 90
        0
176
     1
 40
0.6
176
     1
 40
30.0
176
     1
 62
     7
420
 16777215
176
     1
 90
        2
176
     1
 90
        2
176
     1
 62
     7
176
     1
 62
   257
176
     1
 90
        1
176
     1
 90
        1
176
     1
 40
179.0
176
     1
 90
        8
176
     1
 62
     7
176
     1
 40
1.0
176
     1
 90
        1
176
     1
 90
        6
176
     1
 90
        2
176
     1
 62
     7
176
     1
 90
        3
176
     1
 90
        0
176
     1
 90
        0
176
     1
290
     0
176
     1
 90
        1
176
     1
 40
0.0
176
     1
 90
        0
176
     1
290
     0
176
     1
290
     1
176
     1
290
     1
176
     1
290
     0
176
     1
290
     0
176
     1
290
     0
176
     1
290
     0
176
     1
290
     0
176
     1
290
     0
176
     1
 90
       50
176
     1
 40
0.0
176
     1
 40
1.0
176
     1
 90
        0
176
     1
 62
    18
420
        0
176
     1
 90
       50
176
     1
 90
        3
176
     1
 62
     5
420
      255
176
     1
290
     0
176
     1
 90
       50
176
     1
 90
       50
176
     1
 90
       50
176
     1
290
     0
176
     1
 90
       50
176
     1
 62
   256
176
     0
 40
1.0
176
     0
 90
        2
176
     1
  1
strokes_ogs.tif
176
     1
290
     0
176
     1
 40
1.0
176
     1
 40
1.0
176
     1
  0
VISUALSTYLE
  5
35
102
{ACAD_REACTORS
330
2A
102
}
330
2A
100
AcDbVisualStyle
  2
Dim
 70
    11
177
     3
291
     1
 70
    58
 90
        2
176
     1
 90
        2
176
     1
 90
        0
176
     1
 90
        0
176
     1
 40
0.6
176
     1
 40
30.0
176
     1
 62
     7
420
 16777215
176
     1
 90
        1
176
     1
 90
        4
176
     1
 62
     7
176
     1
 62
   257
176
     1
 90
        1
176
     1
 90
        1
176
     1
 40
1.0
176
     1
 90
        8
176
     1
 62
     7
176
     1
 40
1.0
176
     1
 90
        1
176
     1
 90
        6
176
     1
 90
        2
176
     1
 62
     7
176
     1
 90
        5
176
     1
 90
        0
176
     1
 90
        0
176
     1
290
     0
176
     1
 90
        1
176
     1
 40
-50.0
176
     1
 90
        0
176
     1
290
     0
176
     1
290
     1
176
     1
290
     1
176
     1
290
     0
176
     1
290
     0
176
     1
290
     0
176
     1
290
     0
176
     1
290
     0
176
     1
290
     0
176
     1
 90
       50
176
     1
 40
0.0
176
     1
 40
1.0
176
     1
 90
        0
176
     1
 62
    18
420
        0
176
     1
 90
       50
176
     1
 90
        3
176
     1
 62
     5
420
      255
176
     1
290
     0
176
     1
 90
       50
176
     1
 90
       50
176
     1
 90
       50
176
     1
290
     0
176
     1
 90
       50
176
     1
 62
   256
176
     0
 40
1.0
176
     0
 90
        2
176
     1
  1
strokes_ogs.tif
176
     1
290
     0
176
     1
 40
1.0
176
     1
 40
1.0
176
     1
  0
VISUALSTYLE
  5
3D
102
{ACAD_REACTORS
330
2A
102
}
330
2A
100
AcDbVisualStyle
  2
EdgeColorOff
 70
    22
177
     3
291
     1
 70
    58
 90
        2
176
     0
 90
        2
176
     0
 90
        0
176
     0
 90
        0
176
     0
 40
0.6
176
     0
 40
30.0
176
     0
 62
     7
420
 16777215
176
     0
 90
        1
176
     0
 90
        4
176
     0
 62
     7
176
     0
 62
   257
176
     0
 90
        1
176
     0
 90
        1
176
     0
 40
1.0
176
     0
 90
        8
176
     2
 62
     7
176
     0
 40
1.0
176
     0
 90
        1
176
     0
 90
        6
176
     0
 90
        2
176
     0
 62
     7
176
     0
 90
        5
176
     0
 90
        0
176
     0
 90
        0
176
     0
290
     0
176
     0
 90
        1
176
     0
 40
0.0
176
     0
 90
        0
176
     0
290
     0
176
     0
290
     1
176
     0
290
     1
176
     0
290
     0
176
     0
290
     0
176
     0
290
     0
176
     0
290
     0
176
     0
290
     0
176
     0
290
     0
176
     0
 90
       50
176
     0
 40
0.0
176
     0
 40
1.0
176
     0
 90
        0
176
     0
 62
    18
420
        0
176
     0
 90
       50
176
     0
 90
        3
176
     0
 62
     5
420
      255
176
     0
290
     0
176
     0
 90
       50
176
     0
 90
       50
176
     0
 90
       50
176
     0
290
     0
176
     0
 90
       50
176
     0
 62
   256
176
     0
 40
1.0
176
     0
 90
        2
176
     0
  1
strokes_ogs.tif
176
     0
290
     0
176
     0
 40
1.0
176
     0
 40
1.0
176
     0
  0
VISUALSTYLE
  5
39
102
{ACAD_REACTORS
330
2A
102
}
330
2A
100
AcDbVisualStyle
  2
Facepattern
 70
    15
177
     3
291
     1
 70
    58
 90
        2
176
     1
 90
        2
176
     1
 90
        0
176
     1
 90
        0
176
     1
 40
0.6
176
     1
 40
30.0
176
     1
 62
     7
420
 16777215
176
     1
 90
        1
176
     1
 90
        4
176
     1
 62
     7
176
     1
 62
   257
176
     1
 90
        1
176
     1
 90
        1
176
     1
 40
1.0
176
     1
 90
        8
176
     1
 62
     7
176
     1
 40
1.0
176
     1
 90
        1
176
     1
 90
        6
176
     1
 90
        2
176
     1
 62
     7
176
     1
 90
        5
176
     1
 90
        0
176
     1
 90
        0
176
     1
290
     0
176
     1
 90
        1
176
     1
 40
0.0
176
     1
 90
        0
176
     1
290
     0
176
     1
290
     1
176
     1
290
     1
176
     1
290
     0
176
     1
290
     0
176
     1
290
     0
176
     1
290
     0
176
     1
290
     0
176
     1
290
     0
176
     1
 90
       50
176
     1
 40
0.0
176
     1
 40
1.0
176
     1
 90
        0
176
     1
 62
    18
420
        0
176
     1
 90
       50
176
     1
 90
        3
176
     1
 62
     5
420
      255
176
     1
290
     0
176
     1
 90
       50
176
     1
 90
       50
176
     1
 90
       50
176
     1
290
     0
176
     1
 90
       50
176
     1
 62
   256
176
     0
 40
1.0
176
     0
 90
        2
176
     1
  1
strokes_ogs.tif
176
     1
290
     0
176
     1
 40
1.0
176
     1
 40
1.0
176
     1
  0
VISUALSTYLE
  5
2B
102
{ACAD_REACTORS
330
2A
102
}
330
2A
100
AcDbVisualStyle
  2
Flat
 70
     0
177
     3
291
     1
 70
    58
 90
        2
176
     1
 90
        1
176
     1
 90
        1
176
     1
 90
        2
176
     1
 40
0.6
176
     1
 40
30.0
176
     1
 62
     7
420
 16777215
176
     1
 90
        0
176
     1
 90
        0
176
     1
 62
     7
176
     1
 62
   257
176
     1
 90
        1
176
     1
 90
        1
176
     1
 40
1.0
176
     1
 90
        8
176
     1
 62
     7
176
     1
 40
1.0
176
     1
 90
        1
176
     1
 90
        6
176
     1
 90
        2
176
     1
 62
     7
176
     1
 90
        5
176
     1
 90
        0
176
     1
 90
        0
176
     1
290
     0
176
     1
 90
       13
176
     1
 40
0.0
176
     1
 90
        0
176
     1
290
     0
176
     1
290
     1
176
     1
290
     1
176
     1
290
     0
176
     1
290
     0
176
     1
290
     0
176
     1
290
     0
176
     1
290
     0
176
     1
290
     0
176
     1
 90
       50
176
     1
 40
0.0
176
     1
 40
1.0
176
     1
 90
        0
176
     1
 62
    18
420
        0
176
     1
 90
       50
176
     1
 90
        3
176
     1
 62
     5
420
      255
176
     1
290
     0
176
     1
 90
       50
176
     1
 90
       50
176
     1
 90
       50
176
     1
290
     0
176
     1
 90
       50
176
     1
 62
   256
176
     0
 40
1.0
176
     0
 90
        2
176
     1
  1
strokes_ogs.tif
176
     1
290
     0
176
     1
 40
1.0
176
     1
 40
1.0
176
     1
  0
VISUALSTYLE
  5
2C
102
{ACAD_REACTORS
330
2A
102
}
330
2A
100
AcDbVisualStyle
  2
FlatWithEdges
 70
     1
177
     3
291
     1
 70
    58
 90
        2
176
     1
 90
        1
176
     1
 90
        1
176
     1
 90
        2
176
     1
 40
0.6
176
     1
 40
30.0
176
     1
 62
     7
420
 16777215
176
     1
 90
        1
176
     1
 90
        0
176
     1
 62
     7
176
     1
 62
   257
176
     1
 90
        1
176
     1
 90
        1
176
     1
 40
1.0
176
     1
 90
        0
176
     1
 62
   257
176
     1
 40
1.0
176
     1
 90
        1
176
     1
 90
        6
176
     1
 90
        2
176
     1
 62
     7
176
     1
 90
        5
176
     1
 90
        0
176
     1
 90
        0
176
     1
290
     0
176
     1
 90
       13
176
     1
 40
0.0
176
     1
 90
        0
176
     1
290
     0
176
     1
290
     1
176
     1
290
     1
176
     1
290
     0
176
     1
290
     0
176
     1
290
     0
176
     1
290
     0
176
     1
290
     0
176
     1
290
     0
176
     1
 90
       50
176
     1
 40
0.0
176
     1
 40
1.0
176
     1
 90
        0
176
     1
 62
    18
420
        0
176
     1
 90
       50
176
     1
 90
        3
176
     1
 62
     5
420
      255
176
     1
290
     0
176
     1
 90
       50
176
     1
 90
       50
176
     1
 90
       50
176
     1
290
     0
176
     1
 90
       50
176
     1
 62
   256
176
     0
 40
1.0
176
     0
 90
        2
176
     1
  1
strokes_ogs.tif
176
     1
290
     0
176
     1
 40
1.0
176
     1
 40
1.0
176
     1
  0
VISUALSTYLE
  5
2D
102
{ACAD_REACTORS
330
2A
102
}
330
2A
100
AcDbVisualStyle
  2
Gouraud
 70
     2
177
     3
291
     1
 70
    58
 90
        2
176
     1
 90
        2
176
     1
 90
        1
176
     1
 90
        2
176
     1
 40
0.6
176
     1
 40
30.0
176
     1
 62
     7
420
 16777215
176
     1
 90
        0
176
     1
 90
        0
176
     1
 62
     7
176
     1
 62
   257
176
     1
 90
        1
176
     1
 90
        1
176
     1
 40
1.0
176
     1
 90
        0
176
     1
 62
     7
176
     1
 40
1.0
176
     1
 90
        1
176
     1
 90
        6
176
     1
 90
        2
176
     1
 62
     7
176
     1
 90
        5
176
     1
 90
        0
176
     1
 90
        0
176
     1
290
     0
176
     1
 90
       13
176
     1
 40
0.0
176
     1
 90
        0
176
     1
290
     0
176
     1
290
     1
176
     1
290
     1
176
     1
290
     0
176
     1
290
     0
176
     1
290
     0
176
     1
290
     0
176
     1
290
     0
176
     1
290
     0
176
     1
 90
       50
176
     1
 40
0.0
176
     1
 40
1.0
176
     1
 90
        0
176
     1
 62
    18
420
        0
176
     1
 90
       50
176
     1
 90
        3
176
     1
 62
     5
420
      255
176
     1
290
     0
176
     1
 90
       50
176
     1
 90
       50
176
     1
 90
       50
176
     1
290
     0
176
     1
 90
       50
176
     1
 62
   256
176
     0
 40
1.0
176
     0
 90
        2
176
     1
  1
strokes_ogs.tif
176
     1
290
     0
176
     1
 40
1.0
176
     1
 40
1.0
176
     1
  0
VISUALSTYLE
  5
2E
102
{ACAD_REACTORS
330
2A
102
}
330
2A
100
AcDbVisualStyle
  2
GouraudWithEdges
 70
     3
177
     3
291
     1
 70
    58
 90
        2
176
     1
 90
        2
176
     1
 90
        1
176
     1
 90
        2
176
     1
 40
0.6
176
     1
 40
30.0
176
     1
 62
     7
420
 16777215
176
     1
 90
        1
176
     1
 90
        0
176
     1
 62
     7
176
     1
 62
   257
176
     1
 90
        1
176
     1
 90
        1
176
     1
 40
1.0
176
     1
 90
        0
176
     1
 62
   257
176
     1
 40
1.0
176
     1
 90
        1
176
     1
 90
        6
176
     1
 90
        2
176
     1
 62
     7
176
     1
 90
        5
176
     1
 90
        0
176
     1
 90
        0
176
     1
290
     0
176
     1
 90
       13
176
     1
 40
0.0
176
     1
 90
        0
176
     1
290
     0
176
     1
290
     1
176
     1
290
     1
176
     1
290
     0
176
     1
290
     0
176
     1
290
     0
176
     1
290
     0
176
     1
290
     0
176
     1
290
     0
176
     1
 90
       50
176
     1
 40
0.0
176
     1
 40
1.0
176
     1
 90
        0
176
     1
 62
    18
420
        0
176
     1
 90
       50
176
     1
 90
        3
176
     1
 62
     5
420
      255
176
     1
290
     0
176
     1
 90
       50
176
     1
 90
       50
176
     1
 90
       50
176
     1
290
     0
176
     1
 90
       50
176
     1
 62
   256
176
     0
 40
1.0
176
     0
 90
        2
176
     1
  1
strokes_ogs.tif
176
     1
290
     0
176
     1
 40
1.0
176
     1
 40
1.0
176
     1
  0
VISUALSTYLE
  5
31
102
{ACAD_REACTORS
330
2A
102
}
330
2A
100
AcDbVisualStyle
  2
Hidden
 70
     6
177
     3
291
     0
 70
    58
 90
        1
176
     1
 90
        2
176
     1
 90
        2
176
     1
 90
        0
176
     1
 40
0.6
176
     1
 40
30.0
176
     1
 62
     7
420
 16777215
176
     1
 90
        2
176
     1
 90
        2
176
     1
 62
     7
176
     1
 62
   257
176
     1
 90
        2
176
     1
 90
        1
176
     1
 40
40.0
176
     1
 90
        0
176
     1
 62
   257
176
     1
 40
1.0
176
     1
 90
        1
176
     1
 90
        6
176
     1
 90
        2
176
     1
 62
     7
176
     1
 90
        3
176
     1
 90
        0
176
     1
 90
        0
176
     1
290
     0
176
     1
 90
        1
176
     1
 40
0.0
176
     1
 90
        0
176
     1
290
     0
176
     1
290
     1
176
     1
290
     1
176
     1
290
     0
176
     1
290
     0
176
     1
290
     0
176
     1
290
     0
176
     1
290
     0
176
     1
290
     0
176
     1
 90
       50
176
     1
 40
0.0
176
     1
 40
1.0
176
     1
 90
        0
176
     1
 62
    18
420
        0
176
     1
 90
       50
176
     1
 90
        3
176
     1
 62
     5
420
      255
176
     1
290
     0
176
     1
 90
       50
176
     1
 90
       50
176
     1
 90
       50
176
     1
290
     0
176
     1
 90
       50
176
     1
 62
   256
176
     0
 40
1.0
176
     0
 90
        2
176
     1
  1
strokes_ogs.tif
176
     1
290
     0
176
     1
 40
1.0
176
     1
 40
1.0
176
     1
  0
VISUALSTYLE
  5
3B
102
{ACAD_REACTORS
330
2A
102
}
330
2A
100
AcDbVisualStyle
  2
JitterOff
 70
    20
177
     3
291
     1
 70
    58
 90
        2
176
     0
 90
        2
176
     0
 90
        0
176
     0
 90
        0
176
     0
 40
0.6
176
     0
 40
30.0
176
     0
 62
     7
420
 16777215
176
     0
 90
        1
176
     0
 90
        4
176
     0
 62
     7
176
     0
 62
   257
176
     0
 90
        1
176
     0
 90
        1
176
     0
 40
1.0
176
     0
 90
       10
176
     2
 62
     7
176
     0
 40
1.0
176
     0
 90
        1
176
     0
 90
        6
176
     0
 90
        2
176
     0
 62
     7
176
     0
 90
        5
176
     0
 90
        0
176
     0
 90
        0
176
     0
290
     0
176
     0
 90
        1
176
     0
 40
0.0
176
     0
 90
        0
176
     0
290
     0
176
     0
290
     1
176
     0
290
     1
176
     0
290
     0
176
     0
290
     0
176
     0
290
     0
176
     0
290
     0
176
     0
290
     0
176
     0
290
     0
176
     0
 90
       50
176
     0
 40
0.0
176
     0
 40
1.0
176
     0
 90
        0
176
     0
 62
    18
420
        0
176
     0
 90
       50
176
     0
 90
        3
176
     0
 62
     5
420
      255
176
     0
290
     0
176
     0
 90
       50
176
     0
 90
       50
176
     0
 90
       50
176
     0
290
     0
176
     0
 90
       50
176
     0
 62
   256
176
     0
 40
1.0
176
     0
 90
        2
176
     0
  1
strokes_ogs.tif
176
     0
290
     0
176
     0
 40
1.0
176
     0
 40
1.0
176
     0
  0
VISUALSTYLE
  5
38
102
{ACAD_REACTORS
330
2A
102
}
330
2A
100
AcDbVisualStyle
  2
Linepattern
 70
    14
177
     3
291
     1
 70
    58
 90
        2
176
     1
 90
        2
176
     1
 90
        0
176
     1
 90
        0
176
     1
 40
0.6
176
     1
 40
30.0
176
     1
 62
     7
420
 16777215
176
     1
 90
        1
176
     1
 90
        4
176
     1
 62
     7
176
     1
 62
   257
176
     1
 90
        7
176
     1
 90
        7
176
     1
 40
1.0
176
     1
 90
        8
176
     1
 62
     7
176
     1
 40
1.0
176
     1
 90
        1
176
     1
 90
        6
176
     1
 90
        2
176
     1
 62
     7
176
     1
 90
        5
176
     1
 90
        0
176
     1
 90
        0
176
     1
290
     0
176
     1
 90
        1
176
     1
 40
0.0
176
     1
 90
        0
176
     1
290
     0
176
     1
290
     1
176
     1
290
     1
176
     1
290
     0
176
     1
290
     0
176
     1
290
     0
176
     1
290
     0
176
     1
290
     0
176
     1
290
     0
176
     1
 90
       50
176
     1
 40
0.0
176
     1
 40
1.0
176
     1
 90
        0
176
     1
 62
    18
420
        0
176
     1
 90
       50
176
     1
 90
        3
176
     1
 62
     5
420
      255
176
     1
290
     0
176
     1
 90
       50
176
     1
 90
       50
176
     1
 90
       50
176
     1
290
     0
176
     1
 90
       50
176
     1
 62
   256
176
     0
 40
1.0
176
     0
 90
        2
176
     1
  1
strokes_ogs.tif
176
     1
290
     0
176
     1
 40
1.0
176
     1
 40
1.0
176
     1
  0
VISUALSTYLE
  5
3C
102
{ACAD_REACTORS
330
2A
102
}
330
2A
100
AcDbVisualStyle
  2
OverhangOff
 70
    21
177
     3
291
     1
 70
    58
 90
        2
176
     0
 90
        2
176
     0
 90
        0
176
     0
 90
        0
176
     0
 40
0.6
176
     0
 40
30.0
176
     0
 62
     7
420
 16777215
176
     0
 90
        1
176
     0
 90
        4
176
     0
 62
     7
176
     0
 62
   257
176
     0
 90
        1
176
     0
 90
        1
176
     0
 40
1.0
176
     0
 90
        9
176
     2
 62
     7
176
     0
 40
1.0
176
     0
 90
        1
176
     0
 90
        6
176
     0
 90
        2
176
     0
 62
     7
176
     0
 90
        5
176
     0
 90
        0
176
     0
 90
        0
176
     0
290
     0
176
     0
 90
        1
176
     0
 40
0.0
176
     0
 90
        0
176
     0
290
     0
176
     0
290
     1
176
     0
290
     1
176
     0
290
     0
176
     0
290
     0
176
     0
290
     0
176
     0
290
     0
176
     0
290
     0
176
     0
290
     0
176
     0
 90
       50
176
     0
 40
0.0
176
     0
 40
1.0
176
     0
 90
        0
176
     0
 62
    18
420
        0
176
     0
 90
       50
176
     0
 90
        3
176
     0
 62
     5
420
      255
176
     0
290
     0
176
     0
 90
       50
176
     0
 90
       50
176
     0
 90
       50
176
     0
290
     0
176
     0
 90
       50
176
     0
 62
   256
176
     0
 40
1.0
176
     0
 90
        2
176
     0
  1
strokes_ogs.tif
176
     0
290
     0
176
     0
 40
1.0
176
     0
 40
1.0
176
     0
  0
VISUALSTYLE
  5
33
102
{ACAD_REACTORS
330
2A
102
}
330
2A
100
AcDbVisualStyle
  2
Realistic
 70
     8
177
     3
291
     0
 70
    58
 90
        2
176
     1
 90
        3
176
     1
 90
        0
176
     1
 90
        2
176
     1
 40
0.6
176
     1
 40
30.0
176
     1
 62
     7
420
 16777215
176
     1
 90
        0
176
     1
 90
        0
176
     1
 62
     7
176
     1
 62
   257
176
     1
 90
        1
176
     1
 90
        1
176
     1
 40
1.0
176
     1
 90
        8
176
     1
 62
   257
176
     1
 40
1.0
176
     1
 90
        1
176
     1
 90
        6
176
     1
 90
        2
176
     1
 62
     7
176
     1
 90
        3
176
     1
 90
        0
176
     1
 90
        0
176
     1
290
     0
176
     1
 90
       13
176
     1
 40
0.0
176
     1
 90
        0
176
     1
290
     0
176
     1
290
     1
176
     1
290
     1
176
     1
290
     0
176
     1
290
     0
176
     1
290
     0
176
     1
290
     0
176
     1
290
     0
176
     1
290
     0
176
     1
 90
       50
176
     1
 40
0.0
176
     1
 40
1.0
176
     1
 90
        0
176
     1
 62
    18
420
        0
176
     1
 90
       50
176
     1
 90
        3
176
     1
 62
     5
420
      255
176
     1
290
     0
176
     1
 90
       50
176
     1
 90
       50
176
     1
 90
       50
176
     1
290
     0
176
     1
 90
       50
176
     1
 62
   256
176
     0
 40
1.0
176
     0
 90
        2
176
     1
  1
strokes_ogs.tif
176
     1
290
     0
176
     1
 40
1.0
176
     1
 40
1.0
176
     1
  0
VISUALSTYLE
  5
42
102
{ACAD_REACTORS
330
2A
102
}
330
2A
100
AcDbVisualStyle
  2
Shaded
 70
    27
177
     3
291
     0
 70
    58
 90
        2
176
     1
 90
        2
176
     1
 90
        1
176
     1
 90
        2
176
     1
 40
0.6
176
     1
 40
30.0
176
     1
 62
     7
420
 16777215
176
     1
 90
        0
176
     1
 90
        4
176
     1
 62
     7
176
     1
 62
   257
176
     1
 90
        1
176
     1
 90
        1
176
     1
 40
1.0
176
     1
 90
        8
176
     1
 62
   257
176
     1
 40
1.0
176
     1
 90
        1
176
     1
 90
        6
176
     1
 90
        2
176
     1
 62
     8
420
  7895160
176
     1
 90
        3
176
     1
 90
        0
176
     1
 90
        0
176
     1
290
     0
176
     1
 90
        5
176
     1
 40
0.0
176
     1
 90
        0
176
     1
290
     0
176
     1
290
     1
176
     1
290
     1
176
     1
290
     0
176
     1
290
     0
176
     1
290
     0
176
     1
290
     0
176
     1
290
     0
176
     1
290
     0
176
     1
 90
       50
176
     1
 40
0.0
176
     1
 40
1.0
176
     1
 90
        0
176
     1
 62
    18
420
        0
176
     1
 90
       50
176
     1
 90
        3
176
     1
 62
     5
420
      255
176
     1
290
     0
176
     1
 90
       50
176
     1
 90
       50
176
     1
 90
       50
176
     1
290
     0
176
     1
 90
       50
176
     1
 62
   256
176
     0
 40
1.0
176
     0
 90
        2
176
     1
  1
strokes_ogs.tif
176
     1
290
     0
176
     1
 40
1.0
176
     1
 40
1.0
176
     1
  0
VISUALSTYLE
  5
41
102
{ACAD_REACTORS
330
2A
102
}
330
2A
100
AcDbVisualStyle
  2
Shaded with edges
 70
    26
177
     3
291
     0
 70
    58
 90
        2
176
     1
 90
        2
176
     1
 90
        1
176
     1
 90
        2
176
     1
 40
0.6
176
     1
 40
30.0
176
     1
 62
     7
420
 16777215
176
     1
 90
        1
176
     1
 90
       10
176
     1
 62
     7
176
     1
 62
   257
176
     1
 90
        2
176
     1
 90
        1
176
     1
 40
1.0
176
     1
 90
        8
176
     1
 62
   257
176
     1
 40
1.0
176
     1
 90
        1
176
     1
 90
        6
176
     1
 90
        2
176
     1
 62
     7
176
     1
 90
        3
176
     1
 90
        0
176
     1
 90
        0
176
     1
290
     0
176
     1
 90
        5
176
     1
 40
0.0
176
     1
 90
        0
176
     1
290
     0
176
     1
290
     1
176
     1
290
     1
176
     1
290
     0
176
     1
290
     0
176
     1
290
     0
176
     1
290
     0
176
     1
290
     0
176
     1
290
     0
176
     1
 90
       50
176
     1
 40
0.0
176
     1
 40
1.0
176
     1
 90
        0
176
     1
 62
    18
420
        0
176
     1
 90
       50
176
     1
 90
        3
176
     1
 62
     5
420
      255
176
     1
290
     0
176
     1
 90
       50
176
     1
 90
       50
176
     1
 90
       50
176
     1
290
     0
176
     1
 90
       50
176
     1
 62
   256
176
     0
 40
1.0
176
     0
 90
        2
176
     1
  1
strokes_ogs.tif
176
     1
290
     0
176
     1
 40
1.0
176
     1
 40
1.0
176
     1
  0
VISUALSTYLE
  5
3E
102
{ACAD_REACTORS
330
2A
102
}
330
2A
100
AcDbVisualStyle
  2
Shades of Gray
 70
    23
177
     3
291
     0
 70
    58
 90
        2
176
     1
 90
        2
176
     1
 90
        3
176
     1
 90
        0
176
     1
 40
0.6
176
     1
 40
30.0
176
     1
 62
     7
420
 16777215
176
     1
 90
        2
176
     1
 90
        2
176
     1
 62
     7
176
     1
 62
     7
176
     1
 90
        1
176
     1
 90
        1
176
     1
 40
40.0
176
     1
 90
        8
176
     1
 62
     7
176
     1
 40
1.0
176
     1
 90
        1
176
     1
 90
        6
176
     1
 90
        2
176
     1
 62
     7
176
     1
 90
        3
176
     1
 90
        0
176
     1
 90
        0
176
     1
290
     0
176
     1
 90
        1
176
     1
 40
0.0
176
     1
 90
        0
176
     1
290
     0
176
     1
290
     1
176
     1
290
     1
176
     1
290
     0
176
     1
290
     0
176
     1
290
     0
176
     1
290
     0
176
     1
290
     0
176
     1
290
     0
176
     1
 90
       50
176
     1
 40
0.0
176
     1
 40
1.0
176
     1
 90
        0
176
     1
 62
    18
420
        0
176
     1
 90
       50
176
     1
 90
        3
176
     1
 62
     5
420
      255
176
     1
290
     0
176
     1
 90
       50
176
     1
 90
       50
176
     1
 90
       50
176
     1
290
     0
176
     1
 90
       50
176
     1
 62
   256
176
     0
 40
1.0
176
     0
 90
        2
176
     1
  1
strokes_ogs.tif
176
     1
290
     0
176
     1
 40
1.0
176
     1
 40
1.0
176
     1
  0
VISUALSTYLE
  5
3F
102
{ACAD_REACTORS
330
2A
102
}
330
2A
100
AcDbVisualStyle
  2
Sketchy
 70
    24
177
     3
291
     0
 70
    58
 90
        1
176
     1
 90
        2
176
     1
 90
        2
176
     1
 90
        0
176
     1
 40
0.6
176
     1
 40
30.0
176
     1
 62
     7
420
 16777215
176
     1
 90
        2
176
     1
 90
        2
176
     1
 62
     7
176
     1
 62
     7
176
     1
 90
        1
176
     1
 90
        1
176
     1
 40
40.0
176
     1
 90
       11
176
     1
 62
     7
176
     1
 40
1.0
176
     1
 90
        1
176
     1
 90
        6
176
     1
 90
        2
176
     1
 62
     7
176
     1
 90
        6
176
     1
 90
        0
176
     1
 90
        0
176
     1
290
     0
176
     1
 90
        1
176
     1
 40
0.0
176
     1
 90
        0
176
     1
290
     0
176
     1
290
     1
176
     1
290
     1
176
     1
290
     0
176
     1
290
     0
176
     1
290
     0
176
     1
290
     0
176
     1
290
     0
176
     1
290
     0
176
     1
 90
       50
176
     1
 40
0.0
176
     1
 40
1.0
176
     1
 90
        0
176
     1
 62
    18
420
        0
176
     1
 90
       50
176
     1
 90
        3
176
     1
 62
     5
420
      255
176
     1
290
     0
176
     1
 90
       50
176
     1
 90
       50
176
     1
 90
       50
176
     1
290
     0
176
     1
 90
       50
176
     1
 62
   256
176
     0
 40
1.0
176
     0
 90
        2
176
     1
  1
strokes_ogs.tif
176
     1
290
     0
176
     1
 40
1.0
176
     1
 40
1.0
176
     1
  0
VISUALSTYLE
  5
37
102
{ACAD_REACTORS
330
2A
102
}
330
2A
100
AcDbVisualStyle
  2
Thicken
 70
    13
177
     3
291
     1
 70
    58
 90
        2
176
     1
 90
        2
176
     1
 90
        0
176
     1
 90
        0
176
     1
 40
0.6
176
     1
 40
30.0
176
     1
 62
     7
420
 16777215
176
     1
 90
        1
176
     1
 90
        4
176
     1
 62
     7
176
     1
 62
   257
176
     1
 90
        1
176
     1
 90
        1
176
     1
 40
1.0
176
     1
 90
       12
176
     1
 62
     7
176
     1
 40
1.0
176
     1
 90
        1
176
     1
 90
        6
176
     1
 90
        2
176
     1
 62
     7
176
     1
 90
        5
176
     1
 90
        0
176
     1
 90
        0
176
     1
290
     0
176
     1
 90
        1
176
     1
 40
0.0
176
     1
 90
        0
176
     1
290
     0
176
     1
290
     1
176
     1
290
     1
176
     1
290
     0
176
     1
290
     0
176
     1
290
     0
176
     1
290
     0
176
     1
290
     0
176
     1
290
     0
176
     1
 90
       50
176
     1
 40
0.0
176
     1
 40
1.0
176
     1
 90
        0
176
     1
 62
    18
420
        0
176
     1
 90
       50
176
     1
 90
        3
176
     1
 62
     5
420
      255
176
     1
290
     0
176
     1
 90
       50
176
     1
 90
       50
176
     1
 90
       50
176
     1
290
     0
176
     1
 90
       50
176
     1
 62
   256
176
     0
 40
1.0
176
     0
 90
        2
176
     1
  1
strokes_ogs.tif
176
     1
290
     0
176
     1
 40
1.0
176
     1
 40
1.0
176
     1
  0
VISUALSTYLE
  5
30
102
{ACAD_REACTORS
330
2A
102
}
330
2A
100
AcDbVisualStyle
  2
Wireframe
 70
     5
177
     3
291
     0
 70
    58
 90
        0
176
     1
 90
        2
176
     1
 90
        0
176
     1
 90
        0
176
     1
 40
0.6
176
     1
 40
30.0
176
     1
 62
     7
420
 16777215
176
     1
 90
        1
176
     1
 90
        4
176
     1
 62
     7
176
     1
 62
   257
176
     1
 90
        1
176
     1
 90
        1
176
     1
 40
1.0
176
     1
 90
        0
176
     1
 62
   257
176
     1
 40
1.0
176
     1
 90
        1
176
     1
 90
        6
176
     1
 90
        2
176
     1
 62
     7
176
     1
 90
        3
176
     1
 90
        0
176
     1
 90
        0
176
     1
290
     0
176
     1
 90
        1
176
     1
 40
0.0
176
     1
 90
        0
176
     1
290
     0
176
     1
290
     1
176
     1
290
     1
176
     1
290
     0
176
     1
290
     0
176
     1
290
     0
176
     1
290
     0
176
     1
290
     0
176
     1
290
     0
176
     1
 90
       50
176
     1
 40
0.0
176
     1
 40
1.0
176
     1
 90
        0
176
     1
 62
    18
420
        0
176
     1
 90
       50
176
     1
 90
        3
176
     1
 62
     5
420
      255
176
     1
290
     0
176
     1
 90
       50
176
     1
 90
       50
176
     1
 90
       50
176
     1
290
     0
176
     1
 90
       50
176
     1
 62
   256
176
     0
 40
1.0
176
     0
 90
        2
176
     1
  1
strokes_ogs.tif
176
     1
290
     0
176
     1
 40
1.0
176
     1
 40
1.0
176
     1
  0
VISUALSTYLE
  5
40
102
{ACAD_REACTORS
330
2A
102
}
330
2A
100
AcDbVisualStyle
  2
X-Ray
 70
    25
177
     3
291
     0
 70
    58
 90
        2
176
     1
 90
        2
176
     1
 90
        1
176
     1
 90
        1
176
     1
 40
0.5
176
     1
 40
30.0
176
     1
 62
     7
420
 16777215
176
     1
 90
        1
176
     1
 90
        0
176
     1
 62
     7
176
     1
 62
   257
176
     1
 90
        1
176
     1
 90
        1
176
     1
 40
1.0
176
     1
 90
        8
176
     1
 62
     7
176
     1
 40
1.0
176
     1
 90
        1
176
     1
 90
        6
176
     1
 90
        2
176
     1
 62
     7
176
     1
 90
        3
176
     1
 90
        0
176
     1
 90
        0
176
     1
290
     0
176
     1
 90
       13
176
     1
 40
0.0
176
     1
 90
        0
176
     1
290
     0
176
     1
290
     1
176
     1
290
     1
176
     1
290
     0
176
     1
290
     0
176
     1
290
     0
176
     1
290
     0
176
     1
290
     0
176
     1
290
     0
176
     1
 90
       50
176
     1
 40
0.0
176
     1
 40
1.0
176
     1
 90
        0
176
     1
 62
    18
420
        0
176
     1
 90
       50
176
     1
 90
        3
176
     1
 62
     5
420
      255
176
     1
290
     0
176
     1
 90
       50
176
     1
 90
       50
176
     1
 90
       50
176
     1
290
     0
176
     1
 90
       50
176
     1
 62
   256
176
     0
 40
1.0
176
     0
 90
        2
176
     1
  1
strokes_ogs.tif
176
     1
290
     0
176
     1
 40
1.0
176
     1
 40
1.0
176
     1
  0
DICTIONARYVAR
  5
209
102
{ACAD_REACTORS
330
208
102
}
330
208
100
DictionaryVariables
280
     0
  1
1:1
  0
DICTIONARYVAR
  5
20E
102
{ACAD_REACTORS
330
208
102
}
330
208
100
DictionaryVariables
280
     0
  1
Standard
  0
DICTIONARYVAR
  5
20D
102
{ACAD_REACTORS
330
208
102
}
330
208
100
DictionaryVariables
280
     0
  1
Standard
  0
DICTIONARY
  5
20A
330
6A
100
AcDbDictionary
280
     1
281
     1
  3
ACAD_ROUNDTRIP_2008_TABLESTYLE_CELLSTYLEMAP
360
20B
  0
CELLSTYLEMAP
  5
20B
102
{ACAD_REACTORS
330
20A
102
}
330
20A
100
AcDbCellStyleMap
 90
        3
300
CELLSTYLE
  1
TABLEFORMAT_BEGIN
 90
        5
170
     1
 91
        0
 92
    32768
 62
   257
 93
        1
300
CONTENTFORMAT
  1
CONTENTFORMAT_BEGIN
 90
        0
 91
        0
 92
        4
 93
        0
300

 40
0.0
140
1.0
 94
        5
 62
     0
340
11
144
0.25
309
CONTENTFORMAT_END
171
     1
301
MARGIN
  1
CELLMARGIN_BEGIN
 40
0.06
 40
0.06
 40
0.06
 40
0.06
 40
0.06
 40
0.06
309
CELLMARGIN_END
 94
        6
 95
        1
302
GRIDFORMAT
  1
GRIDFORMAT_BEGIN
 90
        0
 91
        1
 62
     0
 92
       -2
340
14
 93
        0
 40
0.045
309
GRIDFORMAT_END
 95
        2
302
GRIDFORMAT
  1
GRIDFORMAT_BEGIN
 90
        0
 91
        1
 62
     0
 92
       -2
340
14
 93
        0
 40
0.045
309
GRIDFORMAT_END
 95
        4
302
GRIDFORMAT
  1
GRIDFORMAT_BEGIN
 90
        0
 91
        1
 62
     0
 92
       -2
340
14
 93
        0
 40
0.045
309
GRIDFORMAT_END
 95
        8
302
GRIDFORMAT
  1
GRIDFORMAT_BEGIN
 90
        0
 91
        1
 62
     0
 92
       -2
340
14
 93
        0
 40
0.045
309
GRIDFORMAT_END
 95
       16
302
GRIDFORMAT
  1
GRIDFORMAT_BEGIN
 90
        0
 91
        1
 62
     0
 92
       -2
340
14
 93
        0
 40
0.045
309
GRIDFORMAT_END
 95
       32
302
GRIDFORMAT
  1
GRIDFORMAT_BEGIN
 90
        0
 91
        1
 62
     0
 92
       -2
340
14
 93
        0
 40
0.045
309
GRIDFORMAT_END
309
TABLEFORMAT_END
  1
CELLSTYLE_BEGIN
 90
        1
 91
        1
300
_TITLE
309
CELLSTYLE_END
300
CELLSTYLE
  1
TABLEFORMAT_BEGIN
 90
        5
170
     1
 91
        0
 92
        0
 62
   257
 93
        1
300
CONTENTFORMAT
  1
CONTENTFORMAT_BEGIN
 90
        0
 91
        0
 92
        4
 93
        0
300

 40
0.0
140
1.0
 94
        5
 62
     0
340
11
144
0.18
309
CONTENTFORMAT_END
171
     1
301
MARGIN
  1
CELLMARGIN_BEGIN
 40
0.06
 40
0.06
 40
0.06
 40
0.06
 40
0.06
 40
0.06
309
CELLMARGIN_END
 94
        6
 95
        1
302
GRIDFORMAT
  1
GRIDFORMAT_BEGIN
 90
        0
 91
        1
 62
     0
 92
       -2
340
14
 93
        0
 40
0.045
309
GRIDFORMAT_END
 95
        2
302
GRIDFORMAT
  1
GRIDFORMAT_BEGIN
 90
        0
 91
        1
 62
     0
 92
       -2
340
14
 93
        0
 40
0.045
309
GRIDFORMAT_END
 95
        4
302
GRIDFORMAT
  1
GRIDFORMAT_BEGIN
 90
        0
 91
        1
 62
     0
 92
       -2
340
14
 93
        0
 40
0.045
309
GRIDFORMAT_END
 95
        8
302
GRIDFORMAT
  1
GRIDFORMAT_BEGIN
 90
        0
 91
        1
 62
     0
 92
       -2
340
14
 93
        0
 40
0.045
309
GRIDFORMAT_END
 95
       16
302
GRIDFORMAT
  1
GRIDFORMAT_BEGIN
 90
        0
 91
        1
 62
     0
 92
       -2
340
14
 93
        0
 40
0.045
309
GRIDFORMAT_END
 95
       32
302
GRIDFORMAT
  1
GRIDFORMAT_BEGIN
 90
        0
 91
        1
 62
     0
 92
       -2
340
14
 93
        0
 40
0.045
309
GRIDFORMAT_END
309
TABLEFORMAT_END
  1
CELLSTYLE_BEGIN
 90
        2
 91
        1
300
_HEADER
309
CELLSTYLE_END
300
CELLSTYLE
  1
TABLEFORMAT_BEGIN
 90
        5
170
     1
 91
        0
 92
        0
 62
   257
 93
        1
300
CONTENTFORMAT
  1
CONTENTFORMAT_BEGIN
 90
        0
 91
        0
 92
        4
 93
        0
300

 40
0.0
140
1.0
 94
        2
 62
     0
340
11
144
0.18
309
CONTENTFORMAT_END
171
     1
301
MARGIN
  1
CELLMARGIN_BEGIN
 40
0.06
 40
0.06
 40
0.06
 40
0.06
 40
0.06
 40
0.06
309
CELLMARGIN_END
 94
        6
 95
        1
302
GRIDFORMAT
  1
GRIDFORMAT_BEGIN
 90
        0
 91
        1
 62
     0
 92
       -2
340
14
 93
        0
 40
0.045
309
GRIDFORMAT_END
 95
        2
302
GRIDFORMAT
  1
GRIDFORMAT_BEGIN
 90
        0
 91
        1
 62
     0
 92
       -2
340
14
 93
        0
 40
0.045
309
GRIDFORMAT_END
 95
        4
302
GRIDFORMAT
  1
GRIDFORMAT_BEGIN
 90
        0
 91
        1
 62
     0
 92
       -2
340
14
 93
        0
 40
0.045
309
GRIDFORMAT_END
 95
        8
302
GRIDFORMAT
  1
GRIDFORMAT_BEGIN
 90
        0
 91
        1
 62
     0
 92
       -2
340
14
 93
        0
 40
0.045
309
GRIDFORMAT_END
 95
       16
302
GRIDFORMAT
  1
GRIDFORMAT_BEGIN
 90
        0
 91
        1
 62
     0
 92
       -2
340
14
 93
        0
 40
0.045
309
GRIDFORMAT_END
 95
       32
302
GRIDFORMAT
  1
GRIDFORMAT_BEGIN
 90
        0
 91
        1
 62
     0
 92
       -2
340
14
 93
        0
 40
0.045
309
GRIDFORMAT_END
309
TABLEFORMAT_END
  1
CELLSTYLE_BEGIN
 90
        3
 91
        2
300
_DATA
309
CELLSTYLE_END
  0
ENDSEC
  0
EOF