0
SECTION
  2
HEADER
  9
$ACADVER
  1
AC1027
  9
$ACADMAINTVER
 70
     8
  9
$DWGCODEPAGE
  3
ANSI_1252
  9
$REQUIREDVERSIONS
160
                 0
  9
$COMMENTS
  1
File was created by Cadenas
  9
$CUSTOMPROPERTYTAG
  1
NN
  9
$CUSTOMPROPERTY
  1
Grip Tight Two-Bolt Flange Inch Bore
  9
$CUSTOMPROPERTYTAG
  1
NT
  9
$CUSTOMPROPERTY
  1
GT Normal Duty 2 Bolt Flange Bearings
  9
$CUSTOMPROPERTYTAG
  1
NB
  9
$CUSTOMPROPERTY
  1
129309
  9
$CUSTOMPROPERTYTAG
  1
NBSYN
  9
$CUSTOMPROPERTY
  1
$PN.$LUBE.
  9
$CUSTOMPROPERTYTAG
  1
LINA
  9
$CUSTOMPROPERTY
  1
129309
  9
$CUSTOMPROPERTYTAG
  1
SERIES
  9
$CUSTOMPROPERTY
  1
206
  9
$CUSTOMPROPERTYTAG
  1
SS
  9
$CUSTOMPROPERTY
  1
1-1/4
  9
$CUSTOMPROPERTYTAG
  1
PN
  9
$CUSTOMPROPERTY
  1
129309
  9
$CUSTOMPROPERTYTAG
  1
DESCRIPTION
  9
$CUSTOMPROPERTY
  1
F2B-GT-104S
  9
$CUSTOMPROPERTYTAG
  1
A
  9
$CUSTOMPROPERTY
  1
1-39/64
  9
$CUSTOMPROPERTYTAG
  1
B
  9
$CUSTOMPROPERTY
  1
5-9/16
  9
$CUSTOMPROPERTYTAG
  1
C
  9
$CUSTOMPROPERTY
  1
1-45/64
  9
$CUSTOMPROPERTYTAG
  1
D
  9
$CUSTOMPROPERTY
  1
4-19/32
  9
$CUSTOMPROPERTYTAG
  1
F
  9
$CUSTOMPROPERTY
  1
7/16
  9
$CUSTOMPROPERTYTAG
  1
H
  9
$CUSTOMPROPERTY
  1
1/2
  9
$CUSTOMPROPERTYTAG
  1
J
  9
$CUSTOMPROPERTY
  1
19/32
  9
$CUSTOMPROPERTYTAG
  1
L
  9
$CUSTOMPROPERTY
  1
2
  9
$CUSTOMPROPERTYTAG
  1
M
  9
$CUSTOMPROPERTY
  1
3-1/8
  9
$CUSTOMPROPERTYTAG
  1
N
  9
$CUSTOMPROPERTY
  1
1-9/16
  9
$CUSTOMPROPERTYTAG
  1
Z
  9
$CUSTOMPROPERTY
  1
1-21/32
  9
$CUSTOMPROPERTYTAG
  1
COMPANY
  9
$CUSTOMPROPERTY
  1
baldor
  9
$INSBASE
 10
0.0
 20
0.0
 30
0.0
  9
$EXTMIN
 10
1.000000000000000E+20
 20
1.000000000000000E+20
 30
1.000000000000000E+20
  9
$EXTMAX
 10
-1.000000000000000E+20
 20
-1.000000000000000E+20
 30
-1.000000000000000E+20
  9
$LIMMIN
 10
0.0
 20
0.0
  9
$LIMMAX
 10
12.0
 20
9.0
  9
$ORTHOMODE
 70
     0
  9
$REGENMODE
 70
     1
  9
$FILLMODE
 70
     1
  9
$QTEXTMODE
 70
     0
  9
$MIRRTEXT
 70
     1
  9
$LTSCALE
 40
1.0
  9
$ATTMODE
 70
     1
  9
$TEXTSIZE
 40
0.2
  9
$TRACEWID
 40
0.05
  9
$TEXTSTYLE
  7
Standard
  9
$CLAYER
  8
0
  9
$CELTYPE
  6
ByLayer
  9
$CECOLOR
 62
   256
  9
$CELTSCALE
 40
1.0
  9
$DISPSILH
 70
     0
  9
$DIMSCALE
 40
1.0
  9
$DIMASZ
 40
0.18
  9
$DIMEXO
 40
0.0625
  9
$DIMDLI
 40
0.38
  9
$DIMRND
 40
0.0
  9
$DIMDLE
 40
0.0
  9
$DIMEXE
 40
0.18
  9
$DIMTP
 40
0.0
  9
$DIMTM
 40
0.0
  9
$DIMTXT
 40
0.18
  9
$DIMCEN
 40
0.09
  9
$DIMTSZ
 40
0.0
  9
$DIMTOL
 70
     0
  9
$DIMLIM
 70
     0
  9
$DIMTIH
 70
     1
  9
$DIMTOH
 70
     1
  9
$DIMSE1
 70
     0
  9
$DIMSE2
 70
     0
  9
$DIMTAD
 70
     0
  9
$DIMZIN
 70
     0
  9
$DIMBLK
  1

  9
$DIMASO
 70
     1
  9
$DIMSHO
 70
     1
  9
$DIMPOST
  1

  9
$DIMAPOST
  1

  9
$DIMALT
 70
     0
  9
$DIMALTD
 70
     2
  9
$DIMALTF
 40
25.4
  9
$DIMLFAC
 40
1.0
  9
$DIMTOFL
 70
     0
  9
$DIMTVP
 40
0.0
  9
$DIMTIX
 70
     0
  9
$DIMSOXD
 70
     0
  9
$DIMSAH
 70
     0
  9
$DIMBLK1
  1

  9
$DIMBLK2
  1

  9
$DIMSTYLE
  2
Standard
  9
$DIMCLRD
 70
     0
  9
$DIMCLRE
 70
     0
  9
$DIMCLRT
 70
     0
  9
$DIMTFAC
 40
1.0
  9
$DIMGAP
 40
0.09
  9
$DIMJUST
 70
     0
  9
$DIMSD1
 70
     0
  9
$DIMSD2
 70
     0
  9
$DIMTOLJ
 70
     1
  9
$DIMTZIN
 70
     0
  9
$DIMALTZ
 70
     0
  9
$DIMALTTZ
 70
     0
  9
$DIMUPT
 70
     0
  9
$DIMDEC
 70
     4
  9
$DIMTDEC
 70
     4
  9
$DIMALTU
 70
     2
  9
$DIMALTTD
 70
     2
  9
$DIMTXSTY
  7
Standard
  9
$DIMAUNIT
 70
     0
  9
$DIMADEC
 70
     0
  9
$DIMALTRND
 40
0.0
  9
$DIMAZIN
 70
     0
  9
$DIMDSEP
 70
    46
  9
$DIMATFIT
 70
     3
  9
$DIMFRAC
 70
     0
  9
$DIMLDRBLK
  1

  9
$DIMLUNIT
 70
     2
  9
$DIMLWD
 70
    -2
  9
$DIMLWE
 70
    -2
  9
$DIMTMOVE
 70
     0
  9
$DIMFXL
 40
1.0
  9
$DIMFXLON
 70
     0
  9
$DIMJOGANG
 40
0.7853981633974483
  9
$DIMTFILL
 70
     0
  9
$DIMTFILLCLR
 70
     0
  9
$DIMARCSYM
 70
     0
  9
$DIMLTYPE
  6

  9
$DIMLTEX1
  6

  9
$DIMLTEX2
  6

  9
$DIMTXTDIRECTION
 70
     0
  9
$LUNITS
 70
     2
  9
$LUPREC
 70
     4
  9
$SKETCHINC
 40
0.1
  9
$FILLETRAD
 40
0.5
  9
$AUNITS
 70
     0
  9
$AUPREC
 70
     0
  9
$MENU
  1
.
  9
$ELEVATION
 40
0.0
  9
$PELEVATION
 40
0.0
  9
$THICKNESS
 40
0.0
  9
$LIMCHECK
 70
     0
  9
$CHAMFERA
 40
0.0
  9
$CHAMFERB
 40
0.0
  9
$CHAMFERC
 40
0.0
  9
$CHAMFERD
 40
0.0
  9
$SKPOLY
 70
     0
  9
$TDCREATE
 40
2458168.995879051
  9
$TDUCREATE
 40
2458168.954212384
  9
$TDUPDATE
 40
2458168.995879225
  9
$TDUUPDATE
 40
2458168.954212558
  9
$TDINDWG
 40
0.0000000116
  9
$TDUSRTIMER
 40
0.0000000116
  9
$USRTIMER
 70
     1
  9
$ANGBASE
 50
0.0
  9
$ANGDIR
 70
     0
  9
$PDMODE
 70
     0
  9
$PDSIZE
 40
0.0
  9
$PLINEWID
 40
0.0
  9
$SPLFRAME
 70
     0
  9
$SPLINETYPE
 70
     6
  9
$SPLINESEGS
 70
     8
  9
$HANDSEED
  5
1F3
  9
$SURFTAB1
 70
     6
  9
$SURFTAB2
 70
     6
  9
$SURFTYPE
 70
     6
  9
$SURFU
 70
     6
  9
$SURFV
 70
     6
  9
$UCSBASE
  2

  9
$UCSNAME
  2

  9
$UCSORG
 10
0.0
 20
0.0
 30
0.0
  9
$UCSXDIR
 10
1.0
 20
0.0
 30
0.0
  9
$UCSYDIR
 10
0.0
 20
1.0
 30
0.0
  9
$UCSORTHOREF
  2

  9
$UCSORTHOVIEW
 70
     0
  9
$UCSORGTOP
 10
0.0
 20
0.0
 30
0.0
  9
$UCSORGBOTTOM
 10
0.0
 20
0.0
 30
0.0
  9
$UCSORGLEFT
 10
0.0
 20
0.0
 30
0.0
  9
$UCSORGRIGHT
 10
0.0
 20
0.0
 30
0.0
  9
$UCSORGFRONT
 10
0.0
 20
0.0
 30
0.0
  9
$UCSORGBACK
 10
0.0
 20
0.0
 30
0.0
  9
$PUCSBASE
  2

  9
$PUCSNAME
  2

  9
$PUCSORG
 10
0.0
 20
0.0
 30
0.0
  9
$PUCSXDIR
 10
1.0
 20
0.0
 30
0.0
  9
$PUCSYDIR
 10
0.0
 20
1.0
 30
0.0
  9
$PUCSORTHOREF
  2

  9
$PUCSORTHOVIEW
 70
     0
  9
$PUCSORGTOP
 10
0.0
 20
0.0
 30
0.0
  9
$PUCSORGBOTTOM
 10
0.0
 20
0.0
 30
0.0
  9
$PUCSORGLEFT
 10
0.0
 20
0.0
 30
0.0
  9
$PUCSORGRIGHT
 10
0.0
 20
0.0
 30
0.0
  9
$PUCSORGFRONT
 10
0.0
 20
0.0
 30
0.0
  9
$PUCSORGBACK
 10
0.0
 20
0.0
 30
0.0
  9
$USERI1
 70
     0
  9
$USERI2
 70
     0
  9
$USERI3
 70
     0
  9
$USERI4
 70
     0
  9
$USERI5
 70
     0
  9
$USERR1
 40
0.0
  9
$USERR2
 40
0.0
  9
$USERR3
 40
0.0
  9
$USERR4
 40
0.0
  9
$USERR5
 40
0.0
  9
$WORLDVIEW
 70
     1
  9
$SHADEDGE
 70
     3
  9
$SHADEDIF
 70
    70
  9
$TILEMODE
 70
     1
  9
$MAXACTVP
 70
    64
  9
$PINSBASE
 10
0.0
 20
0.0
 30
0.0
  9
$PLIMCHECK
 70
     0
  9
$PEXTMIN
 10
1.000000000000000E+20
 20
1.000000000000000E+20
 30
1.000000000000000E+20
  9
$PEXTMAX
 10
-1.000000000000000E+20
 20
-1.000000000000000E+20
 30
-1.000000000000000E+20
  9
$PLIMMIN
 10
0.0
 20
0.0
  9
$PLIMMAX
 10
12.0
 20
9.0
  9
$UNITMODE
 70
     0
  9
$VISRETAIN
 70
     1
  9
$PLINEGEN
 70
     0
  9
$PSLTSCALE
 70
     1
  9
$TREEDEPTH
 70
  3020
  9
$CMLSTYLE
  2
Standard
  9
$CMLJUST
 70
     0
  9
$CMLSCALE
 40
1.0
  9
$PROXYGRAPHICS
 70
     1
  9
$MEASUREMENT
 70
     0
  9
$CELWEIGHT
370
    -1
  9
$ENDCAPS
280
     0
  9
$JOINSTYLE
280
     0
  9
$LWDISPLAY
290
     0
  9
$INSUNITS
 70
     1
  9
$HYPERLINKBASE
  1

  9
$STYLESHEET
  1

  9
$XEDIT
290
     1
  9
$CEPSNTYPE
380
     0
  9
$PSTYLEMODE
290
     1
  9
$FINGERPRINTGUID
  2
{2B9F2391-FED2-46A5-8D9C-48F3F4422B2D}
  9
$VERSIONGUID
  2
{FAEB1C32-E019-11D5-929B-00C0DF256EC4}
  9
$EXTNAMES
290
     1
  9
$PSVPSCALE
 40
0.0
  9
$OLESTARTUP
290
     0
  9
$SORTENTS
280
   127
  9
$INDEXCTL
280
     0
  9
$HIDETEXT
280
     1
  9
$XCLIPFRAME
280
     2
  9
$HALOGAP
280
     0
  9
$OBSCOLOR
 70
   257
  9
$OBSLTYPE
280
     0
  9
$INTERSECTIONDISPLAY
280
     0
  9
$INTERSECTIONCOLOR
 70
   257
  9
$DIMASSOC
280
     2
  9
$PROJECTNAME
  1

  9
$CAMERADISPLAY
290
     0
  9
$LENSLENGTH
 40
50.0
  9
$CAMERAHEIGHT
 40
0.0
  9
$STEPSPERSEC
 40
2.0
  9
$STEPSIZE
 40
6.0
  9
$3DDWFPREC
 40
2.0
  9
$PSOLWIDTH
 40
0.25
  9
$PSOLHEIGHT
 40
4.0
  9
$LOFTANG1
 40
1.570796326794897
  9
$LOFTANG2
 40
1.570796326794897
  9
$LOFTMAG1
 40
0.0
  9
$LOFTMAG2
 40
0.0
  9
$LOFTPARAM
 70
     7
  9
$LOFTNORMALS
280
     1
  9
$LATITUDE
 40
37.795
  9
$LONGITUDE
 40
-122.394
  9
$NORTHDIRECTION
 40
0.0
  9
$TIMEZONE
 70
 -8000
  9
$LIGHTGLYPHDISPLAY
280
     1
  9
$TILEMODELIGHTSYNCH
280
     1
  9
$CMATERIAL
347
44
  9
$SOLIDHIST
280
     0
  9
$SHOWHIST
280
     1
  9
$DWFFRAME
280
     2
  9
$DGNFRAME
280
     2
  9
$REALWORLDSCALE
290
     1
  9
$INTERFERECOLOR
 62
   256
  9
$CSHADOW
280
     0
  9
$SHADOWPLANELOCATION
 40
0.0
  0
ENDSEC
  0
SECTION
  2
CLASSES
  0
CLASS
  1
ACDBDICTIONARYWDFLT
  2
AcDbDictionaryWithDefault
  3
ObjectDBX Classes
 90
        0
 91
        4
280
     0
281
     0
  0
CLASS
  1
VISUALSTYLE
  2
AcDbVisualStyle
  3
ObjectDBX Classes
 90
     4095
 91
        4
280
     0
281
     0
  0
CLASS
  1
MATERIAL
  2
AcDbMaterial
  3
ObjectDBX Classes
 90
     1153
 91
        4
280
     0
281
     0
  0
CLASS
  1
SCALE
  2
AcDbScale
  3
ObjectDBX Classes
 90
     1153
 91
        4
280
     0
281
     0
  0
CLASS
  1
TABLESTYLE
  2
AcDbTableStyle
  3
ObjectDBX Classes
 90
     4095
 91
        4
280
     0
281
     0
  0
CLASS
  1
MLEADERSTYLE
  2
AcDbMLeaderStyle
  3
ACDB_MLEADERSTYLE_CLASS
 90
     4095
 91
        4
280
     0
281
     0
  0
CLASS
  1
SUN
  2
AcDbSun
  3
SCENEOE
 90
     1153
 91
        4
280
     0
281
     0
  0
CLASS
  1
DICTIONARYVAR
  2
AcDbDictionaryVar
  3
ObjectDBX Classes
 90
        0
 91
        4
280
     0
281
     0
  0
CLASS
  1
CELLSTYLEMAP
  2
AcDbCellStyleMap
  3
ObjectDBX Classes
 90
     1152
 91
        4
280
     0
281
     0
  0
ENDSEC
  0
SECTION
  2
TABLES
  0
TABLE
  2
VPORT
  5
8
330
0
100
AcDbSymbolTable
 70
     1
  0
VPORT
  5
29
330
8
100
AcDbSymbolTableRecord
100
AcDbViewportTableRecord
  2
*Active
 70
     0
 10
0.0
 20
0.0
 11
1.0
 21
1.0
 12
0.0002499999999994
 22
0.0
 13
0.0
 23
0.0
 14
0.5
 24
0.5
 15
0.5
 25
0.5
 16
0.0
 26
0.0
 36
1.0
 17
0.0
 27
0.0
 37
0.0
 40
5.674259999999999
 41
0.5618371382347653
 42
50.0
 43
0.0
 44
0.0
 50
0.0
 51
0.0
 71
     0
 72
   100
 73
     1
 74
     3
 75
     0
 76
     0
 77
     0
 78
     0
281
     0
 65
     1
110
0.0
120
0.0
130
0.0
111
1.0
121
0.0
131
0.0
112
0.0
122
1.0
132
0.0
 79
     0
146
0.0
348
2F
 60
     3
 61
     5
292
     1
282
     1
141
0.0
142
0.0
 63
   250
361
6D
  0
ENDTAB
  0
TABLE
  2
LTYPE
  5
5
330
0
100
AcDbSymbolTable
 70
     3
  0
LTYPE
  5
14
330
5
100
AcDbSymbolTableRecord
100
AcDbLinetypeTableRecord
  2
ByBlock
 70
     0
  3

 72
    65
 73
     0
 40
0.0
  0
LTYPE
  5
15
330
5
100
AcDbSymbolTableRecord
100
AcDbLinetypeTableRecord
  2
ByLayer
 70
     0
  3

 72
    65
 73
     0
 40
0.0
  0
LTYPE
  5
16
330
5
100
AcDbSymbolTableRecord
100
AcDbLinetypeTableRecord
  2
Continuous
 70
     0
  3
Solid line
 72
    65
 73
     0
 40
0.0
  0
LTYPE
  5
9E
330
5
100
AcDbSymbolTableRecord
100
AcDbLinetypeTableRecord
  2
Dashed
 70
     0
  3

 72
    65
 73
     2
 40
2.0
 49
1.0
 74
     0
 49
-1.0
 74
     0
  0
LTYPE
  5
10F
330
5
100
AcDbSymbolTableRecord
100
AcDbLinetypeTableRecord
  2
Center
 70
     0
  3

 72
    65
 73
     4
 40
1.5
 49
0.45
 74
     0
 49
-0.5
 74
     0
 49
0.05
 74
     0
 49
-0.5
 74
     0
  0
ENDTAB
  0
TABLE
  2
LAYER
  5
2
330
0
100
AcDbSymbolTable
 70
     7
  0
LAYER
  5
10
330
2
100
AcDbSymbolTableRecord
100
AcDbLayerTableRecord
  2
0
 70
     0
 62
     7
  6
Continuous
370
    -3
390
F
347
46
348
0
  0
LAYER
  5
72
330
2
100
AcDbSymbolTableRecord
100
AcDbLayerTableRecord
  2
AM_6
 70
     0
 62
    -2
  6
Continuous
370
    35
390
F
347
46
348
0
  0
LAYER
  5
9F
330
2
100
AcDbSymbolTableRecord
100
AcDbLayerTableRecord
  2
AM_9
 70
     0
 62
     6
  6
Dashed
370
    25
390
F
347
46
348
0
  0
LAYER
  5
A7
330
2
100
AcDbSymbolTableRecord
100
AcDbLayerTableRecord
  2
AM_4
 70
     0
 62
     3
  6
Continuous
370
    25
390
F
347
46
348
0
  0
LAYER
  5
D8
330
2
100
AcDbSymbolTableRecord
100
AcDbLayerTableRecord
  2
AM_5
 70
     0
 62
     3
  6
Continuous
370
    25
390
F
347
46
348
0
  0
LAYER
  5
110
330
2
100
AcDbSymbolTableRecord
100
AcDbLayerTableRecord
  2
AM_7
 70
     0
 62
     7
  6
Center
370
    25
390
F
347
46
348
0
  0
LAYER
  5
1E6
330
2
100
AcDbSymbolTableRecord
100
AcDbLayerTableRecord
  2
ConnectionPoints
 70
     0
 62
     7
  6
Continuous
370
    50
390
F
347
46
348
0
  0
ENDTAB
  0
TABLE
  2
STYLE
  5
3
330
0
100
AcDbSymbolTable
 70
     1
  0
STYLE
  5
11
330
3
100
AcDbSymbolTableRecord
100
AcDbTextStyleTableRecord
  2
Standard
 70
     0
 40
0.0
 41
1.0
 50
0.0
 71
     0
 42
0.2
  3
txt
  4

  0
ENDTAB
  0
TABLE
  2
VIEW
  5
6
330
0
100
AcDbSymbolTable
 70
     0
  0
ENDTAB
  0
TABLE
  2
UCS
  5
7
330
0
100
AcDbSymbolTable
 70
     0
  0
ENDTAB
  0
TABLE
  2
APPID
  5
9
330
0
100
AcDbSymbolTable
 70
     1
  0
APPID
  5
12
330
9
100
AcDbSymbolTableRecord
100
AcDbRegAppTableRecord
  2
ACAD
 70
     0
  0
ENDTAB
  0
TABLE
  2
DIMSTYLE
  5
A
330
0
100
AcDbSymbolTable
 70
     1
100
AcDbDimStyleTable
  0
DIMSTYLE
105
27
330
A
100
AcDbSymbolTableRecord
100
AcDbDimStyleTableRecord
  2
Standard
 70
     0
178
     0
340
11
  0
ENDTAB
  0
TABLE
  2
BLOCK_RECORD
  5
1
330
0
100
AcDbSymbolTable
 70
     5
  0
BLOCK_RECORD
  5
1F
330
1
100
AcDbSymbolTableRecord
100
AcDbBlockTableRecord
  2
*Model_Space
340
22
 70
     0
280
     1
281
     0
  0
BLOCK_RECORD
  5
1B
330
1
100
AcDbSymbolTableRecord
100
AcDbBlockTableRecord
  2
*Paper_Space
340
1E
 70
     0
280
     1
281
     0
  0
BLOCK_RECORD
  5
23
330
1
100
AcDbSymbolTableRecord
100
AcDbBlockTableRecord
  2
*Paper_Space0
340
26
 70
     0
280
     1
281
     0
  0
BLOCK_RECORD
  5
6E
330
1
100
AcDbSymbolTableRecord
100
AcDbBlockTableRecord
  2
1_129309_0
340
0
102
{BLKREFS
331
6F
102
}
 70
     0
280
     1
281
     0
  0
BLOCK_RECORD
  5
88
330
1
100
AcDbSymbolTableRecord
100
AcDbBlockTableRecord
  2
2_129519I_0_in_129309_0
340
0
102
{BLKREFS
331
89
102
}
 70
     0
280
     1
281
     0
  0
BLOCK_RECORD
  5
AD
330
1
100
AcDbSymbolTableRecord
100
AcDbBlockTableRecord
  2
3_129910_0_in_129309_0
340
0
102
{BLKREFS
331
AE
102
}
 70
     0
280
     1
281
     0
  0
BLOCK_RECORD
  5
F1
330
1
100
AcDbSymbolTableRecord
100
AcDbBlockTableRecord
  2
4_129493I_0_in_129309_0
340
0
102
{BLKREFS
331
F2
102
}
 70
     0
280
     1
281
     0
  0
ENDTAB
  0
ENDSEC
  0
SECTION
  2
BLOCKS
  0
BLOCK
  5
20
330
1F
100
AcDbEntity
  8
0
100
AcDbBlockBegin
  2
*Model_Space
 70
     0
 10
0.0
 20
0.0
 30
0.0
  3
*Model_Space
  1

  0
ENDBLK
  5
21
330
1F
100
AcDbEntity
  8
0
100
AcDbBlockEnd
  0
BLOCK
  5
1C
330
1B
100
AcDbEntity
 67
     1
  8
0
100
AcDbBlockBegin
  2
*Paper_Space
 70
     0
 10
0.0
 20
0.0
 30
0.0
  3
*Paper_Space
  1

  0
ENDBLK
  5
1D
330
1B
100
AcDbEntity
 67
     1
  8
0
100
AcDbBlockEnd
  0
BLOCK
  5
24
330
23
100
AcDbEntity
  8
0
100
AcDbBlockBegin
  2
*Paper_Space0
 70
     0
 10
0.0
 20
0.0
 30
0.0
  3
*Paper_Space0
  1

  0
ENDBLK
  5
25
330
23
100
AcDbEntity
  8
0
100
AcDbBlockEnd
  0
BLOCK
  5
70
330
6E
100
AcDbEntity
  8
0
100
AcDbBlockBegin
  2
1_129309_0
 70
     2
 10
0.0
 20
0.0
 30
0.0
  3
1_129309_0
  1

  0
ATTDEF
  5
73
330
6E
100
AcDbEntity
  8
AM_6
100
AcDbText
 10
6.563000000000001
 20
2.781046055335314
 30
0.0
 40
0.5
  1
Grip Tight Two-Bolt Flange Inch Bore
100
AcDbAttributeDefinition
  3

  2
NN
 70
     8
280
     0
  0
ATTDEF
  5
74
330
6E
100
AcDbEntity
  8
AM_6
100
AcDbText
 10
6.563000000000001
 20
2.281046055335314
 30
0.0
 40
0.5
  1
GT Normal Duty 2 Bolt Flange Bearings
100
AcDbAttributeDefinition
  3

  2
NT
 70
     8
280
     0
  0
ATTDEF
  5
75
330
6E
100
AcDbEntity
  8
AM_6
100
AcDbText
 10
6.563000000000001
 20
1.781046055335314
 30
0.0
 40
0.5
  1
129309
100
AcDbAttributeDefinition
  3

  2
NB
 70
     8
280
     0
  0
ATTDEF
  5
76
330
6E
100
AcDbEntity
  8
AM_6
100
AcDbText
 10
6.563000000000001
 20
1.281046055335314
 30
0.0
 40
0.5
  1
$PN.$LUBE.
100
AcDbAttributeDefinition
  3

  2
NBSYN
 70
     8
280
     0
  0
ATTDEF
  5
77
330
6E
100
AcDbEntity
  8
AM_6
100
AcDbText
 10
6.563000000000001
 20
0.781046055335314
 30
0.0
 40
0.5
  1
129309
100
AcDbAttributeDefinition
  3

  2
LINA
 70
     8
280
     0
  0
ATTDEF
  5
78
330
6E
100
AcDbEntity
  8
AM_6
100
AcDbText
 10
6.563000000000001
 20
0.281046055335314
 30
0.0
 40
0.5
  1
206
100
AcDbAttributeDefinition
  3

  2
SERIES
 70
     8
280
     0
  0
ATTDEF
  5
79
330
6E
100
AcDbEntity
  8
AM_6
100
AcDbText
 10
6.563000000000001
 20
-0.218953944664686
 30
0.0
 40
0.5
  1
1-1/4
100
AcDbAttributeDefinition
  3

  2
SS
 70
     8
280
     0
  0
ATTDEF
  5
7A
330
6E
100
AcDbEntity
  8
AM_6
100
AcDbText
 10
6.563000000000001
 20
-0.718953944664686
 30
0.0
 40
0.5
  1
129309
100
AcDbAttributeDefinition
  3

  2
PN
 70
     8
280
     0
  0
ATTDEF
  5
7B
330
6E
100
AcDbEntity
  8
AM_6
100
AcDbText
 10
6.563000000000001
 20
-1.218953944664686
 30
0.0
 40
0.5
  1
F2B-GT-104S
100
AcDbAttributeDefinition
  3

  2
DESCRIPTION
 70
     8
280
     0
  0
ATTDEF
  5
7C
330
6E
100
AcDbEntity
  8
AM_6
100
AcDbText
 10
6.563000000000001
 20
-1.718953944664686
 30
0.0
 40
0.5
  1
1-39/64
100
AcDbAttributeDefinition
  3

  2
A
 70
     8
280
     0
  0
ATTDEF
  5
7D
330
6E
100
AcDbEntity
  8
AM_6
100
AcDbText
 10
6.563000000000001
 20
-2.218953944664686
 30
0.0
 40
0.5
  1
5-9/16
100
AcDbAttributeDefinition
  3

  2
B
 70
     8
280
     0
  0
ATTDEF
  5
7E
330
6E
100
AcDbEntity
  8
AM_6
100
AcDbText
 10
6.563000000000001
 20
-2.718953944664686
 30
0.0
 40
0.5
  1
1-45/64
100
AcDbAttributeDefinition
  3

  2
C
 70
     8
280
     0
  0
ATTDEF
  5
7F
330
6E
100
AcDbEntity
  8
AM_6
100
AcDbText
 10
6.563000000000001
 20
-3.218953944664686
 30
0.0
 40
0.5
  1
4-19/32
100
AcDbAttributeDefinition
  3

  2
D
 70
     8
280
     0
  0
ATTDEF
  5
80
330
6E
100
AcDbEntity
  8
AM_6
100
AcDbText
 10
6.563000000000001
 20
-3.718953944664686
 30
0.0
 40
0.5
  1
7/16
100
AcDbAttributeDefinition
  3

  2
F
 70
     8
280
     0
  0
ATTDEF
  5
81
330
6E
100
AcDbEntity
  8
AM_6
100
AcDbText
 10
6.563000000000001
 20
-4.218953944664686
 30
0.0
 40
0.5
  1
1/2
100
AcDbAttributeDefinition
  3

  2
H
 70
     8
280
     0
  0
ATTDEF
  5
82
330
6E
100
AcDbEntity
  8
AM_6
100
AcDbText
 10
6.563000000000001
 20
-4.718953944664686
 30
0.0
 40
0.5
  1
19/32
100
AcDbAttributeDefinition
  3

  2
J
 70
     8
280
     0
  0
ATTDEF
  5
83
330
6E
100
AcDbEntity
  8
AM_6
100
AcDbText
 10
6.563000000000001
 20
-5.218953944664686
 30
0.0
 40
0.5
  1
2
100
AcDbAttributeDefinition
  3

  2
L
 70
     8
280
     0
  0
ATTDEF
  5
84
330
6E
100
AcDbEntity
  8
AM_6
100
AcDbText
 10
6.563000000000001
 20
-5.718953944664686
 30
0.0
 40
0.5
  1
3-1/8
100
AcDbAttributeDefinition
  3

  2
M
 70
     8
280
     0
  0
ATTDEF
  5
85
330
6E
100
AcDbEntity
  8
AM_6
100
AcDbText
 10
6.563000000000001
 20
-6.218953944664686
 30
0.0
 40
0.5
  1
1-9/16
100
AcDbAttributeDefinition
  3

  2
N
 70
     8
280
     0
  0
ATTDEF
  5
86
330
6E
100
AcDbEntity
  8
AM_6
100
AcDbText
 10
6.563000000000001
 20
-6.718953944664686
 30
0.0
 40
0.5
  1
1-21/32
100
AcDbAttributeDefinition
  3

  2
Z
 70
     8
280
     0
  0
ATTDEF
  5
87
330
6E
100
AcDbEntity
  8
AM_6
100
AcDbText
 10
6.563000000000001
 20
-7.218953944664686
 30
0.0
 40
0.5
  1
baldor
100
AcDbAttributeDefinition
  3

  2
COMPANY
 70
     8
280
     0
  0
INSERT
  5
89
330
6E
100
AcDbEntity
  8
0
100
AcDbBlockReference
  2
2_129519I_0_in_129309_0
 10
0.0
 20
0.0
 30
0.0
  0
INSERT
  5
AE
330
6E
100
AcDbEntity
  8
0
100
AcDbBlockReference
  2
3_129910_0_in_129309_0
 10
0.0
 20
0.0
 30
0.0
  0
INSERT
  5
F2
330
6E
100
AcDbEntity
  8
0
100
AcDbBlockReference
  2
4_129493I_0_in_129309_0
 10
0.0
 20
0.0
 30
0.0
  0
ENDBLK
  5
71
330
6E
100
AcDbEntity
  8
0
100
AcDbBlockEnd
  0
BLOCK
  5
8A
330
88
100
AcDbEntity
  8
0
100
AcDbBlockBegin
  2
2_129519I_0_in_129309_0
 70
     2
 10
0.0
 20
0.0
 30
0.0
  3
2_129519I_0_in_129309_0
  1

  0
ATTDEF
  5
8C
330
88
100
AcDbEntity
  8
AM_6
100
AcDbText
 10
6.212109406709537
 20
1.212109406709537
 30
0.0
 40
0.5
  1
INS-GT B
100
AcDbAttributeDefinition
  3

  2
NN
 70
     8
280
     0
  0
ATTDEF
  5
8D
330
88
100
AcDbEntity
  8
AM_6
100
AcDbText
 10
6.212109406709537
 20
0.7121094067095366
 30
0.0
 40
0.5
  1
GT Normal Duty Bearing Inserts
100
AcDbAttributeDefinition
  3

  2
NT
 70
     8
280
     0
  0
ATTDEF
  5
8E
330
88
100
AcDbEntity
  8
AM_6
100
AcDbText
 10
6.212109406709537
 20
0.2121094067095366
 30
0.0
 40
0.5
  1
129519I
100
AcDbAttributeDefinition
  3

  2
NB
 70
     8
280
     0
  0
ATTDEF
  5
8F
330
88
100
AcDbEntity
  8
AM_6
100
AcDbText
 10
6.212109406709537
 20
-0.2878905932904634
 30
0.0
 40
0.5
  1
$PN.I
100
AcDbAttributeDefinition
  3

  2
NBSYN
 70
     8
280
     0
  0
ATTDEF
  5
90
330
88
100
AcDbEntity
  8
AM_6
100
AcDbText
 10
6.212109406709537
 20
-0.7878905932904634
 30
0.0
 40
0.5
  1
129519
100
AcDbAttributeDefinition
  3

  2
LINA
 70
     8
280
     0
  0
ATTDEF
  5
91
330
88
100
AcDbEntity
  8
AM_6
100
AcDbText
 10
6.212109406709537
 20
-1.287890593290463
 30
0.0
 40
0.5
  1
206
100
AcDbAttributeDefinition
  3

  2
SERIES
 70
     8
280
     0
  0
ATTDEF
  5
92
330
88
100
AcDbEntity
  8
AM_6
100
AcDbText
 10
6.212109406709537
 20
-1.787890593290463
 30
0.0
 40
0.5
  1
129519
100
AcDbAttributeDefinition
  3

  2
PN
 70
     8
280
     0
  0
ATTDEF
  5
93
330
88
100
AcDbEntity
  8
AM_6
100
AcDbText
 10
6.212109406709537
 20
-2.287890593290463
 30
0.0
 40
0.5
  1
INS-GT-06
100
AcDbAttributeDefinition
  3

  2
DESCRIPTION
 70
     8
280
     0
  0
ATTDEF
  5
94
330
88
100
AcDbEntity
  8
AM_6
100
AcDbText
 10
6.212109406709537
 20
-2.787890593290463
 30
0.0
 40
0.5
  1
1.61
100
AcDbAttributeDefinition
  3

  2
A
 70
     8
280
     0
  0
ATTDEF
  5
95
330
88
100
AcDbEntity
  8
AM_6
100
AcDbText
 10
6.212109406709537
 20
-3.287890593290463
 30
0.0
 40
0.5
  1
0.69
100
AcDbAttributeDefinition
  3

  2
C
 70
     8
280
     0
  0
ATTDEF
  5
96
330
88
100
AcDbEntity
  8
AM_6
100
AcDbText
 10
6.212109406709537
 20
-3.787890593290463
 30
0.0
 40
0.5
  1
2.4409
100
AcDbAttributeDefinition
  3

  2
D
 70
     8
280
     0
  0
ATTDEF
  5
97
330
88
100
AcDbEntity
  8
AM_6
100
AcDbText
 10
6.212109406709537
 20
-4.287890593290463
 30
0.0
 40
0.5
  1
0.16
100
AcDbAttributeDefinition
  3

  2
J
 70
     8
280
     0
  0
ATTDEF
  5
98
330
88
100
AcDbEntity
  8
AM_6
100
AcDbText
 10
6.212109406709537
 20
-4.787890593290463
 30
0.0
 40
0.5
  1
2.08
100
AcDbAttributeDefinition
  3

  2
L
 70
     8
280
     0
  0
ATTDEF
  5
99
330
88
100
AcDbEntity
  8
AM_6
100
AcDbText
 10
6.212109406709537
 20
-5.287890593290463
 30
0.0
 40
0.5
  1
#10 - 32 x 1/4
100
AcDbAttributeDefinition
  3

  2
N
 70
     8
280
     0
  0
ATTDEF
  5
9A
330
88
100
AcDbEntity
  8
AM_6
100
AcDbText
 10
6.212109406709537
 20
-5.787890593290463
 30
0.0
 40
0.5
  1
0.52000
100
AcDbAttributeDefinition
  3

  2
W
 70
     8
280
     0
  0
ATTDEF
  5
9B
330
88
100
AcDbEntity
  8
AM_6
100
AcDbText
 10
6.212109406709537
 20
-6.287890593290463
 30
0.0
 40
0.5
  1
1.13
100
AcDbAttributeDefinition
  3

  2
X
 70
     8
280
     0
  0
ATTDEF
  5
9C
330
88
100
AcDbEntity
  8
AM_6
100
AcDbText
 10
6.212109406709537
 20
-6.787890593290463
 30
0.0
 40
0.5
  1
1.09
100
AcDbAttributeDefinition
  3

  2
Y
 70
     8
280
     0
  0
ATTDEF
  5
9D
330
88
100
AcDbEntity
  8
AM_6
100
AcDbText
 10
6.212109406709537
 20
-7.287890593290463
 30
0.0
 40
0.5
  1
baldor
100
AcDbAttributeDefinition
  3

  2
COMPANY
 70
     8
280
     0
  0
CIRCLE
  5
A0
330
88
100
AcDbEntity
  8
AM_9
100
AcDbCircle
 10
0.0000000000000001
 20
0.0
 30
0.0
 40
0.8070135275812623
  0
CIRCLE
  5
A1
330
88
100
AcDbEntity
  8
AM_9
100
AcDbCircle
 10
0.0000000000000001
 20
0.0
 30
0.0
 40
1.15145
  0
CIRCLE
  5
A2
330
88
100
AcDbEntity
  8
AM_9
100
AcDbCircle
 10
0.0000000000000001
 20
0.0
 30
0.0
 40
1.191042531088183
  0
CIRCLE
  5
A3
330
88
100
AcDbEntity
  8
AM_9
100
AcDbCircle
 10
0.0000000000000001
 20
0.0
 30
0.0
 40
0.8501587004444445
  0
CIRCLE
  5
A4
330
88
100
AcDbEntity
  8
AM_9
100
AcDbCircle
 10
0.0000000000000001
 20
0.0
 30
0.0
 40
0.9244444444444444
  0
CIRCLE
  5
A5
330
88
100
AcDbEntity
  8
AM_9
100
AcDbCircle
 10
-0.0000000000000001
 20
0.0000000000000002
 30
0.0
 40
0.7758729564444444
  0
CIRCLE
  5
A6
330
88
100
AcDbEntity
  8
AM_9
100
AcDbCircle
 10
-0.0000000000000002
 20
0.0000000000000001
 30
0.0
 40
0.8968444444444444
  0
CIRCLE
  5
A8
330
88
100
AcDbEntity
  8
AM_4
100
AcDbCircle
 10
0.0000000000000001
 20
0.0
 30
0.0
 40
1.205273565119463
  0
CIRCLE
  5
A9
330
88
100
AcDbEntity
  8
AM_4
100
AcDbCircle
 10
0.0000000000000001
 20
0.0
 30
0.0
 40
1.212109406709537
  0
CIRCLE
  5
AA
330
88
100
AcDbEntity
  8
AM_4
100
AcDbCircle
 10
0.0000000000000001
 20
0.0
 30
0.0
 40
1.197768054584991
  0
CIRCLE
  5
AB
330
88
100
AcDbEntity
  8
AM_4
100
AcDbCircle
 10
0.0000000000000001
 20
0.0
 30
0.0
 40
1.13284088208356
  0
CIRCLE
  5
AC
330
88
100
AcDbEntity
  8
AM_4
100
AcDbCircle
 10
0.0000000000000001
 20
0.0
 30
0.0
 40
1.158535826874395
  0
ENDBLK
  5
8B
330
88
100
AcDbEntity
  8
0
100
AcDbBlockEnd
  0
BLOCK
  5
AF
330
AD
100
AcDbEntity
  8
0
100
AcDbBlockBegin
  2
3_129910_0_in_129309_0
 70
     2
 10
0.0
 20
0.0
 30
0.0
  3
3_129910_0_in_129309_0
  1

  0
ATTDEF
  5
B1
330
AD
100
AcDbEntity
  8
AM_6
100
AcDbText
 10
5.995477272467835
 20
0.9999907698236257
 30
0.0
 40
0.5
  1
Grip Tight Normal Duty Adapter and Nut Inch Bore
100
AcDbAttributeDefinition
  3

  2
NN
 70
     8
280
     0
  0
ATTDEF
  5
B2
330
AD
100
AcDbEntity
  8
AM_6
100
AcDbText
 10
5.995477272467835
 20
0.4999907698236257
 30
0.0
 40
0.5
  1
GT and GTM Adapter & Lock Nut Assemblies
100
AcDbAttributeDefinition
  3

  2
NT
 70
     8
280
     0
  0
ATTDEF
  5
B3
330
AD
100
AcDbEntity
  8
AM_6
100
AcDbText
 10
5.995477272467835
 20
-0.0000092301763743
 30
0.0
 40
0.5
  1
129910
100
AcDbAttributeDefinition
  3

  2
NB
 70
     8
280
     0
  0
ATTDEF
  5
B4
330
AD
100
AcDbEntity
  8
AM_6
100
AcDbText
 10
5.995477272467835
 20
-0.5000092301763743
 30
0.0
 40
0.5
  1
$PN.
100
AcDbAttributeDefinition
  3

  2
NBSYN
 70
     8
280
     0
  0
ATTDEF
  5
B5
330
AD
100
AcDbEntity
  8
AM_6
100
AcDbText
 10
5.995477272467835
 20
-1.000009230176374
 30
0.0
 40
0.5
  1
129910
100
AcDbAttributeDefinition
  3

  2
LINA
 70
     8
280
     0
  0
ATTDEF
  5
B6
330
AD
100
AcDbEntity
  8
AM_6
100
AcDbText
 10
5.995477272467835
 20
-1.500009230176374
 30
0.0
 40
0.5
  1
206
100
AcDbAttributeDefinition
  3

  2
SERIES
 70
     8
280
     0
  0
ATTDEF
  5
B7
330
AD
100
AcDbEntity
  8
AM_6
100
AcDbText
 10
5.995477272467835
 20
-2.000009230176374
 30
0.0
 40
0.5
  1
1-1/4
100
AcDbAttributeDefinition
  3

  2
SS
 70
     8
280
     0
  0
ATTDEF
  5
B8
330
AD
100
AcDbEntity
  8
AM_6
100
AcDbText
 10
5.995477272467835
 20
-2.500009230176374
 30
0.0
 40
0.5
  1
129910
100
AcDbAttributeDefinition
  3

  2
PN
 70
     8
280
     0
  0
ATTDEF
  5
B9
330
AD
100
AcDbEntity
  8
AM_6
100
AcDbText
 10
5.995477272467835
 20
-3.000009230176374
 30
0.0
 40
0.5
  1
AN-GT-06-104S
100
AcDbAttributeDefinition
  3

  2
DESCRIPTION
 70
     8
280
     0
  0
ATTDEF
  5
BA
330
AD
100
AcDbEntity
  8
AM_6
100
AcDbText
 10
5.995477272467835
 20
-3.500009230176374
 30
0.0
 40
0.5
  1
1-39/64
100
AcDbAttributeDefinition
  3

  2
A
 70
     8
280
     0
  0
ATTDEF
  5
BB
330
AD
100
AcDbEntity
  8
AM_6
100
AcDbText
 10
5.995477272467835
 20
-4.000009230176374
 30
0.0
 40
0.5
  1
0.7087
100
AcDbAttributeDefinition
  3

  2
C
 70
     8
280
     0
  0
ATTDEF
  5
BC
330
AD
100
AcDbEntity
  8
AM_6
100
AcDbText
 10
5.995477272467835
 20
-4.500009230176374
 30
0.0
 40
0.5
  1
2.4409
100
AcDbAttributeDefinition
  3

  2
D
 70
     8
280
     0
  0
ATTDEF
  5
BD
330
AD
100
AcDbEntity
  8
AM_6
100
AcDbText
 10
5.995477272467835
 20
-5.000009230176374
 30
0.0
 40
0.5
  1
0.190
100
AcDbAttributeDefinition
  3

  2
J
 70
     8
280
     0
  0
ATTDEF
  5
BE
330
AD
100
AcDbEntity
  8
AM_6
100
AcDbText
 10
5.995477272467835
 20
-5.500009230176374
 30
0.0
 40
0.5
  1
2
100
AcDbAttributeDefinition
  3

  2
L
 70
     8
280
     0
  0
ATTDEF
  5
BF
330
AD
100
AcDbEntity
  8
AM_6
100
AcDbText
 10
5.995477272467835
 20
-6.000009230176374
 30
0.0
 40
0.5
  1
10 - 32 x 1/4
100
AcDbAttributeDefinition
  3

  2
N
 70
     8
280
     0
  0
ATTDEF
  5
C0
330
AD
100
AcDbEntity
  8
AM_6
100
AcDbText
 10
5.995477272467835
 20
-6.500009230176374
 30
0.0
 40
0.5
  1
17/32
100
AcDbAttributeDefinition
  3

  2
W
 70
     8
280
     0
  0
ATTDEF
  5
C1
330
AD
100
AcDbEntity
  8
AM_6
100
AcDbText
 10
5.995477272467835
 20
-7.000009230176374
 30
0.0
 40
0.5
  1
1-1/32
100
AcDbAttributeDefinition
  3

  2
X
 70
     8
280
     0
  0
ATTDEF
  5
C2
330
AD
100
AcDbEntity
  8
AM_6
100
AcDbText
 10
5.995477272467835
 20
-7.500009230176374
 30
0.0
 40
0.5
  1
1-5/64
100
AcDbAttributeDefinition
  3

  2
Y
 70
     8
280
     0
  0
ATTDEF
  5
C3
330
AD
100
AcDbEntity
  8
AM_6
100
AcDbText
 10
5.995477272467835
 20
-8.000009230176374
 30
0.0
 40
0.5
  1
baldor
100
AcDbAttributeDefinition
  3

  2
COMPANY
 70
     8
280
     0
  0
LINE
  5
C4
330
AD
100
AcDbEntity
  8
AM_9
100
AcDbLine
 10
0.0500000000000001
 20
0.7460409281219607
 30
0.0
 11
0.0500000000000001
 21
0.7764797570067602
 31
0.0
  0
LINE
  5
C5
330
AD
100
AcDbEntity
  8
AM_9
100
AcDbLine
 10
-0.0499999999999999
 20
0.7460409281219607
 30
0.0
 11
-0.0499999999999999
 21
0.7764797570067602
 31
0.0
  0
ARC
  5
C6
330
AD
100
AcDbEntity
  8
AM_9
100
AcDbCircle
 10
0.0000000000000001
 20
-0.0000000000000001
 30
0.0
 40
0.7780879211511238
100
AcDbArc
 50
93.68437061446721
 51
86.3156293855328
  0
CIRCLE
  5
C7
330
AD
100
AcDbEntity
  8
AM_9
100
AcDbCircle
 10
0.0000000000000001
 20
0.0
 30
0.0
 40
0.8174603174603172
  0
CIRCLE
  5
C8
330
AD
100
AcDbEntity
  8
AM_9
100
AcDbCircle
 10
0.0000000000000001
 20
0.0
 30
0.0
 40
0.8888888888888888
  0
LINE
  5
C9
330
AD
100
AcDbEntity
  8
AM_9
100
AcDbLine
 10
-0.9774499999999999
 20
-0.0724499999999999
 30
0.0
 11
-0.77255
 21
-0.0724499999999999
 31
0.0
  0
LINE
  5
CA
330
AD
100
AcDbEntity
  8
AM_9
100
AcDbLine
 10
-0.77255
 20
0.0724499999999999
 30
0.0
 11
-0.9774499999999999
 21
0.0724499999999999
 31
0.0
  0
LINE
  5
CB
330
AD
100
AcDbEntity
  8
AM_9
100
AcDbLine
 10
-0.77255
 20
-0.0724499999999999
 30
0.0
 11
-0.7499999999999999
 21
-0.0949999999999999
 31
0.0
  0
LINE
  5
CC
330
AD
100
AcDbEntity
  8
AM_9
100
AcDbLine
 10
-0.7499999999999999
 20
0.0949999999999999
 30
0.0
 11
-0.77255
 21
0.0724499999999999
 31
0.0
  0
LINE
  5
CD
330
AD
100
AcDbEntity
  8
AM_9
100
AcDbLine
 10
-0.7499999999999999
 20
0.0949999999999999
 30
0.0
 11
-0.7499999999999999
 21
-0.0949999999999999
 31
0.0
  0
LINE
  5
CE
330
AD
100
AcDbEntity
  8
AM_9
100
AcDbLine
 10
-0.77255
 20
0.0724499999999999
 30
0.0
 11
-0.77255
 21
-0.0724499999999999
 31
0.0
  0
LINE
  5
CF
330
AD
100
AcDbEntity
  8
AM_9
100
AcDbLine
 10
-0.9774499999999999
 20
0.0724499999999999
 30
0.0
 11
-0.9957278928553001
 21
0.0907278928552999
 31
0.0
  0
LINE
  5
D0
330
AD
100
AcDbEntity
  8
AM_9
100
AcDbLine
 10
-0.995729231502416
 20
-0.0907292315024159
 30
0.0
 11
-0.9774499999999999
 21
-0.0724499999999999
 31
0.0
  0
LINE
  5
D1
330
AD
100
AcDbEntity
  8
AM_9
100
AcDbLine
 10
-0.9774499999999999
 20
0.0724499999999999
 30
0.0
 11
-0.9774499999999999
 21
-0.0724499999999999
 31
0.0
  0
LINE
  5
D2
330
AD
100
AcDbEntity
  8
AM_9
100
AcDbLine
 10
-0.996085922269504
 20
0.0883902452565437
 30
0.0
 11
-0.9958633683052623
 21
0.0908633681287304
 31
0.0
  0
LWPOLYLINE
  5
D3
330
AD
100
AcDbEntity
  8
AM_9
100
AcDbPolyline
 90
        8
 70
     0
 43
0.0
 10
-0.9998693768914899
 20
0.0161625850229357
 10
-0.9998324452714662
 20
0.01830522828267
 10
-0.9994722729581027
 20
0.0324834663785133
 10
-0.9983472187042113
 20
0.0574702610535726
 10
-0.9976842878305199
 20
0.0680151587229514
 10
-0.997034751708831
 20
0.0769526080448845
 10
-0.9964758542286121
 20
0.0838801045502303
 10
-0.996085922269504
 20
0.0883902452565437
  0
LINE
  5
D4
330
AD
100
AcDbEntity
  8
AM_9
100
AcDbLine
 10
-0.9998931914721281
 20
0.0146152539383317
 30
0.0
 11
-0.9998693768914899
 21
0.0161625850229357
 31
0.0
  0
LINE
  5
D5
330
AD
100
AcDbEntity
  8
AM_9
100
AcDbLine
 10
-0.9998483496896221
 20
-0.0174148678702781
 30
0.0
 11
-0.999892220741083
 21
-0.014681515639244
 31
0.0
  0
LWPOLYLINE
  5
D6
330
AD
100
AcDbEntity
  8
AM_9
100
AcDbPolyline
 90
        6
 70
     0
 43
0.0
 10
-0.9960953030839456
 20
-0.0882844673433705
 10
-0.9965111997381882
 20
-0.0834591444741486
 10
-0.9971301569669586
 20
-0.0757063409963025
 10
-0.9978235427435297
 20
-0.0659407123615683
 10
-0.9985561031975955
 20
-0.0537187934230935
 10
-0.9986396450419636
 20
-0.0521426826166527
  0
LINE
  5
D7
330
AD
100
AcDbEntity
  8
AM_9
100
AcDbLine
 10
-0.9958633683016898
 20
-0.0908633681678859
 30
0.0
 11
-0.9960953030839456
 21
-0.0882844673433705
 31
0.0
  0
LINE
  5
D9
330
AD
100
AcDbEntity
  8
AM_5
100
AcDbLine
 10
-0.9954772724678349
 20
-0.0949999999999999
 30
0.0
 11
-0.7499999999999999
 21
-0.0949999999999999
 31
0.0
  0
LINE
  5
DA
330
AD
100
AcDbEntity
  8
AM_5
100
AcDbLine
 10
-0.9954772724678349
 20
0.0950000000000001
 30
0.0
 11
-0.7499999999999999
 21
0.0950000000000001
 31
0.0
  0
LINE
  5
DB
330
AD
100
AcDbEntity
  8
AM_4
100
AcDbLine
 10
0.9954772724678349
 20
0.095
 30
0.0
 11
0.9333331639996614
 21
0.095
 31
0.0
  0
LINE
  5
DC
330
AD
100
AcDbEntity
  8
AM_4
100
AcDbLine
 10
-0.3843941686403092
 20
0.8557902302182141
 30
0.0
 11
-0.4154662228743962
 21
0.9096086068471881
 31
0.0
  0
ARC
  5
DD
330
AD
100
AcDbEntity
  8
AM_4
100
AcDbCircle
 10
0.0
 20
-0.0000000000000001
 30
0.0
 40
1.0
100
AcDbArc
 50
5.45131981241778
 51
114.5486801875822
  0
LINE
  5
DE
330
AD
100
AcDbEntity
  8
AM_4
100
AcDbLine
 10
-0.4154662228743955
 20
-0.9096086068471885
 30
0.0
 11
-0.3843941686403087
 21
-0.8557902302182143
 31
0.0
  0
ARC
  5
DF
330
AD
100
AcDbEntity
  8
AM_4
100
AcDbCircle
 10
0.0
 20
0.0
 30
0.0
 40
1.0
100
AcDbArc
 50
245.4513198124178
 51
354.5486801875822
  0
LINE
  5
E0
330
AD
100
AcDbEntity
  8
AM_4
100
AcDbLine
 10
0.9333331639996614
 20
-0.095
 30
0.0
 11
0.9954772724678349
 21
-0.095
 31
0.0
  0
LINE
  5
E1
330
AD
100
AcDbEntity
  8
AM_4
100
AcDbLine
 10
0.0500000000000001
 20
0.6229967897188556
 30
0.0
 11
0.0500000000000001
 21
0.7460317460317459
 31
0.0
  0
LINE
  5
E2
330
AD
100
AcDbEntity
  8
AM_4
100
AcDbLine
 10
-0.0499999999999999
 20
0.6229967897188556
 30
0.0
 11
-0.0499999999999999
 21
0.7460317460317459
 31
0.0
  0
LINE
  5
E3
330
AD
100
AcDbEntity
  8
AM_4
100
AcDbLine
 10
0.9333331639996614
 20
0.095
 30
0.0
 11
0.9333331639996614
 21
-0.095
 31
0.0
  0
LINE
  5
E4
330
AD
100
AcDbEntity
  8
AM_4
100
AcDbLine
 10
-0.0499999999999999
 20
0.7460317460317459
 30
0.0
 11
0.0500000000000001
 21
0.7460317460317459
 31
0.0
  0
ARC
  5
E5
330
AD
100
AcDbEntity
  8
AM_4
100
AcDbCircle
 10
0.0
 20
0.0000000000000002
 30
0.0
 40
0.971652
100
AcDbArc
 50
5.610865412998182
 51
114.3891345870018
  0
LINE
  5
E6
330
AD
100
AcDbEntity
  8
AM_4
100
AcDbLine
 10
-0.5489389953593525
 20
0.7607902302182141
 30
0.0
 11
-0.3843941686403092
 21
0.8557902302182141
 31
0.0
  0
LINE
  5
E7
330
AD
100
AcDbEntity
  8
AM_4
100
AcDbLine
 10
-0.5800110495934395
 20
0.8146086068471882
 30
0.0
 11
-0.5489389953593525
 21
0.7607902302182141
 31
0.0
  0
LINE
  5
E8
330
AD
100
AcDbEntity
  8
AM_4
100
AcDbLine
 10
-0.5489389953593521
 20
-0.7607902302182145
 30
0.0
 11
-0.5800110495934389
 21
-0.8146086068471885
 31
0.0
  0
LINE
  5
E9
330
AD
100
AcDbEntity
  8
AM_4
100
AcDbLine
 10
-0.3843941686403087
 20
-0.8557902302182143
 30
0.0
 11
-0.5489389953593521
 21
-0.7607902302182145
 31
0.0
  0
ARC
  5
EA
330
AD
100
AcDbEntity
  8
AM_4
100
AcDbCircle
 10
-0.0000000000000002
 20
0.0000000000000002
 30
0.0
 40
0.9716520000000001
100
AcDbArc
 50
245.6108654129982
 51
354.3891345870018
  0
ARC
  5
EB
330
AD
100
AcDbEntity
  8
AM_4
100
AcDbCircle
 10
0.0000000000000003
 20
-0.0000000000000003
 30
0.0
 40
1.0
100
AcDbArc
 50
125.4513198124178
 51
179.0906600083979
  0
LINE
  5
EC
330
AD
100
AcDbEntity
  8
AM_4
100
AcDbLine
 10
-0.9998740586901647
 20
0.01587031059739
 30
0.0
 11
-0.9998740586901644
 21
-0.0158703105973893
 31
0.0
  0
ARC
  5
ED
330
AD
100
AcDbEntity
  8
AM_4
100
AcDbCircle
 10
0.0000000000000009
 20
0.0000000000000004
 30
0.0
 40
1.000000000000001
100
AcDbArc
 50
180.9093399916026
 51
234.5486801875822
  0
ARC
  5
EE
330
AD
100
AcDbEntity
  8
AM_4
100
AcDbCircle
 10
0.0000000000000001
 20
-0.0000000000000001
 30
0.0
 40
0.971652
100
AcDbArc
 50
125.6108654129982
 51
234.3891345870018
  0
ARC
  5
EF
330
AD
100
AcDbEntity
  8
AM_4
100
AcDbCircle
 10
0.0000000000000001
 20
0.0000000000000001
 30
0.0
 40
0.6249999999999999
100
AcDbArc
 50
94.58856573578582
 51
85.41143426421417
  0
ARC
  5
F0
330
AD
100
AcDbEntity
  8
AM_4
100
AcDbCircle
 10
0.0000000000000001
 20
0.0000000000000001
 30
0.0
 40
0.7460317460317459
100
AcDbArc
 50
93.84291692518897
 51
86.15708307481106
  0
ENDBLK
  5
B0
330
AD
100
AcDbEntity
  8
0
100
AcDbBlockEnd
  0
BLOCK
  5
F3
330
F1
100
AcDbEntity
  8
0
100
AcDbBlockBegin
  2
4_129493I_0_in_129309_0
 70
     2
 10
0.0
 20
0.0
 30
0.0
  3
4_129493I_0_in_129309_0
  1

  0
ATTDEF
  5
F5
330
F1
100
AcDbEntity
  8
AM_6
100
AcDbText
 10
6.563000000000001
 20
2.781046055335314
 30
0.0
 40
0.5
  1
F2B-GT-B
100
AcDbAttributeDefinition
  3

  2
NN
 70
     8
280
     0
  0
ATTDEF
  5
F6
330
F1
100
AcDbEntity
  8
AM_6
100
AcDbText
 10
6.563000000000001
 20
2.281046055335314
 30
0.0
 40
0.5
  1
GT Normal Duty 2 Bolt Flange Bearings
100
AcDbAttributeDefinition
  3

  2
NT
 70
     8
280
     0
  0
ATTDEF
  5
F7
330
F1
100
AcDbEntity
  8
AM_6
100
AcDbText
 10
6.563000000000001
 20
1.781046055335314
 30
0.0
 40
0.5
  1
129493I
100
AcDbAttributeDefinition
  3

  2
NB
 70
     8
280
     0
  0
ATTDEF
  5
F8
330
F1
100
AcDbEntity
  8
AM_6
100
AcDbText
 10
6.563000000000001
 20
1.281046055335314
 30
0.0
 40
0.5
  1
$PN.$LUBE.I
100
AcDbAttributeDefinition
  3

  2
NBSYN
 70
     8
280
     0
  0
ATTDEF
  5
F9
330
F1
100
AcDbEntity
  8
AM_6
100
AcDbText
 10
6.563000000000001
 20
0.781046055335314
 30
0.0
 40
0.5
  1
129493
100
AcDbAttributeDefinition
  3

  2
LINA
 70
     8
280
     0
  0
ATTDEF
  5
FA
330
F1
100
AcDbEntity
  8
AM_6
100
AcDbText
 10
6.563000000000001
 20
0.281046055335314
 30
0.0
 40
0.5
  1
206
100
AcDbAttributeDefinition
  3

  2
SERIES
 70
     8
280
     0
  0
ATTDEF
  5
FB
330
F1
100
AcDbEntity
  8
AM_6
100
AcDbText
 10
6.563000000000001
 20
-0.218953944664686
 30
0.0
 40
0.5
  1
129493
100
AcDbAttributeDefinition
  3

  2
PN
 70
     8
280
     0
  0
ATTDEF
  5
FC
330
F1
100
AcDbEntity
  8
AM_6
100
AcDbText
 10
6.563000000000001
 20
-0.718953944664686
 30
0.0
 40
0.5
  1
F2B-GT-06
100
AcDbAttributeDefinition
  3

  2
DESCRIPTION
 70
     8
280
     0
  0
ATTDEF
  5
FD
330
F1
100
AcDbEntity
  8
AM_6
100
AcDbText
 10
6.563000000000001
 20
-1.218953944664686
 30
0.0
 40
0.5
  1
1-39/64
100
AcDbAttributeDefinition
  3

  2
A
 70
     8
280
     0
  0
ATTDEF
  5
FE
330
F1
100
AcDbEntity
  8
AM_6
100
AcDbText
 10
6.563000000000001
 20
-1.718953944664686
 30
0.0
 40
0.5
  1
5-9/16
100
AcDbAttributeDefinition
  3

  2
B
 70
     8
280
     0
  0
ATTDEF
  5
FF
330
F1
100
AcDbEntity
  8
AM_6
100
AcDbText
 10
6.563000000000001
 20
-2.218953944664686
 30
0.0
 40
0.5
  1
1-45/64
100
AcDbAttributeDefinition
  3

  2
C
 70
     8
280
     0
  0
ATTDEF
  5
100
330
F1
100
AcDbEntity
  8
AM_6
100
AcDbText
 10
6.563000000000001
 20
-2.718953944664686
 30
0.0
 40
0.5
  1
4-19/32
100
AcDbAttributeDefinition
  3

  2
D
 70
     8
280
     0
  0
ATTDEF
  5
101
330
F1
100
AcDbEntity
  8
AM_6
100
AcDbText
 10
6.563000000000001
 20
-3.218953944664686
 30
0.0
 40
0.5
  1
7/16
100
AcDbAttributeDefinition
  3

  2
F
 70
     8
280
     0
  0
ATTDEF
  5
102
330
F1
100
AcDbEntity
  8
AM_6
100
AcDbText
 10
6.563000000000001
 20
-3.718953944664686
 30
0.0
 40
0.5
  1
1/2
100
AcDbAttributeDefinition
  3

  2
H
 70
     8
280
     0
  0
ATTDEF
  5
103
330
F1
100
AcDbEntity
  8
AM_6
100
AcDbText
 10
6.563000000000001
 20
-4.218953944664686
 30
0.0
 40
0.5
  1
19/32
100
AcDbAttributeDefinition
  3

  2
J
 70
     8
280
     0
  0
ATTDEF
  5
104
330
F1
100
AcDbEntity
  8
AM_6
100
AcDbText
 10
6.563000000000001
 20
-4.718953944664686
 30
0.0
 40
0.5
  1
2
100
AcDbAttributeDefinition
  3

  2
L
 70
     8
280
     0
  0
ATTDEF
  5
105
330
F1
100
AcDbEntity
  8
AM_6
100
AcDbText
 10
6.563000000000001
 20
-5.218953944664686
 30
0.0
 40
0.5
  1
3-1/8
100
AcDbAttributeDefinition
  3

  2
M
 70
     8
280
     0
  0
ATTDEF
  5
106
330
F1
100
AcDbEntity
  8
AM_6
100
AcDbText
 10
6.563000000000001
 20
-5.718953944664686
 30
0.0
 40
0.5
  1
1-9/16
100
AcDbAttributeDefinition
  3

  2
N
 70
     8
280
     0
  0
ATTDEF
  5
107
330
F1
100
AcDbEntity
  8
AM_6
100
AcDbText
 10
6.563000000000001
 20
-6.218953944664686
 30
0.0
 40
0.5
  1
1-21/32
100
AcDbAttributeDefinition
  3

  2
Z
 70
     8
280
     0
  0
ATTDEF
  5
108
330
F1
100
AcDbEntity
  8
AM_6
100
AcDbText
 10
6.563000000000001
 20
-6.718953944664686
 30
0.0
 40
0.5
  1
baldor
100
AcDbAttributeDefinition
  3

  2
COMPANY
 70
     8
280
     0
  0
ARC
  5
109
330
F1
100
AcDbEntity
  8
AM_9
100
AcDbCircle
 10
0.0000000000000003
 20
0.0000000000000024
 30
0.0
 40
1.394800000000002
100
AcDbArc
 50
261.2003608020061
 51
278.7996400636508
  0
ARC
  5
10A
330
F1
100
AcDbEntity
  8
AM_9
100
AcDbCircle
 10
0.2836548265283623
 20
1.832374846855075
 30
0.0
 40
0.4593999999999997
100
AcDbArc
 50
261.2003625645995
 51
17.74418787330046
  0
ARC
  5
10B
330
F1
100
AcDbEntity
  8
AM_9
100
AcDbCircle
 10
-0.0000000000000015
 20
0.0000000000000147
 30
0.0
 40
1.394799999999985
100
AcDbArc
 50
81.20035907069209
 51
98.79964006365088
  0
ARC
  5
10C
330
F1
100
AcDbEntity
  8
AM_9
100
AcDbCircle
 10
0.283654826528361
 20
-1.832374846855077
 30
0.0
 40
0.4594000000000003
100
AcDbArc
 50
342.2558121266995
 51
98.79964006365071
  0
ARC
  5
10D
330
F1
100
AcDbEntity
  8
AM_9
100
AcDbCircle
 10
-0.2836548265283619
 20
-1.832374846855076
 30
0.0
 40
0.4594000000000001
100
AcDbArc
 50
81.2003573080987
 51
197.7441878733006
  0
ARC
  5
10E
330
F1
100
AcDbEntity
  8
AM_9
100
AcDbCircle
 10
-0.2836548265283615
 20
1.832374846855077
 30
0.0
 40
0.4594
100
AcDbArc
 50
162.2558121266995
 51
278.7996400636508
  0
LINE
  5
111
330
F1
100
AcDbEntity
  8
AM_7
100
AcDbLine
 10
-0.22995
 20
2.297
 30
0.0
 11
0.22995
 21
2.297
 31
0.0
  0
LINE
  5
112
330
F1
100
AcDbEntity
  8
AM_7
100
AcDbLine
 10
0.0
 20
2.06705
 30
0.0
 11
0.0
 21
2.52695
 31
0.0
  0
LINE
  5
113
330
F1
100
AcDbEntity
  8
AM_7
100
AcDbLine
 10
-0.22995
 20
-2.297
 30
0.0
 11
0.22995
 21
-2.297
 31
0.0
  0
LINE
  5
114
330
F1
100
AcDbEntity
  8
AM_7
100
AcDbLine
 10
0.0
 20
-2.52695
 30
0.0
 11
0.0
 21
-2.06705
 31
0.0
  0
LINE
  5
115
330
F1
100
AcDbEntity
  8
AM_7
100
AcDbLine
 10
-1.2814725
 20
0.0
 30
0.0
 11
1.2814725
 21
0.0
 31
0.0
  0
LINE
  5
116
330
F1
100
AcDbEntity
  8
AM_7
100
AcDbLine
 10
0.0
 20
-1.2814725
 30
0.0
 11
0.0
 21
1.2814725
 31
0.0
  0
LINE
  5
117
330
F1
100
AcDbEntity
  8
AM_7
100
AcDbLine
 10
1.170300905197768
 20
1.281656307373195
 30
0.0
 11
1.55253544680178
 21
1.663890848977208
 31
0.0
  0
LINE
  5
118
330
F1
100
AcDbEntity
  8
AM_4
100
AcDbLine
 10
1.256229164376301
 20
0.9656905866172997
 30
0.0
 11
1.379741642873761
 21
0.7332934262080988
 31
0.0
  0
LINE
  5
119
330
F1
100
AcDbEntity
  8
AM_4
100
AcDbLine
 10
1.379741642873762
 20
-0.7332934262080975
 30
0.0
 11
0.4278302886222961
 21
-2.524379625598606
 31
0.0
  0
LINE
  5
11A
330
F1
100
AcDbEntity
  8
AM_4
100
AcDbLine
 10
0.4278302886222956
 20
2.524379625598606
 30
0.0
 11
0.9772880192739802
 21
1.490537394257091
 31
0.0
  0
LINE
  5
11B
330
F1
100
AcDbEntity
  8
AM_4
100
AcDbLine
 10
-1.379741642873763
 20
0.733293426208098
 30
0.0
 11
-0.4278302886222958
 21
2.524379625598606
 31
0.0
  0
LINE
  5
11C
330
F1
100
AcDbEntity
  8
AM_4
100
AcDbLine
 10
-0.4278302886222958
 20
-2.524379625598606
 30
0.0
 11
-1.379741642873763
 21
-0.7332934262080975
 31
0.0
  0
LINE
  5
11D
330
F1
100
AcDbEntity
  8
AM_4
100
AcDbLine
 10
0.443417215671221
 20
2.495051758246725
 30
0.0
 11
0.6313433513409795
 21
1.429269681591805
 31
0.0
  0
LINE
  5
11E
330
F1
100
AcDbEntity
  8
AM_4
100
AcDbLine
 10
-0.63134335134098
 20
1.429269681591805
 30
0.0
 11
-0.4434172156712199
 21
2.495051758246727
 31
0.0
  0
CIRCLE
  5
11F
330
F1
100
AcDbEntity
  8
AM_4
100
AcDbCircle
 10
0.0
 20
2.297
 30
0.0
 40
0.219
  0
ARC
  5
120
330
F1
100
AcDbEntity
  8
AM_4
100
AcDbCircle
 10
-0.0000000000000001
 20
2.297000000000001
 30
0.0
 40
0.4844999999999989
100
AcDbArc
 50
27.98937324478493
 51
152.0106267552151
  0
LINE
  5
121
330
F1
100
AcDbEntity
  8
AM_4
100
AcDbLine
 10
-0.4434172156712199
 20
-2.495051758246728
 30
0.0
 11
-0.6313433513409799
 21
-1.429269681591806
 31
0.0
  0
LINE
  5
122
330
F1
100
AcDbEntity
  8
AM_4
100
AcDbLine
 10
0.6313433513409801
 20
-1.429269681591805
 30
0.0
 11
0.4434172156712197
 21
-2.495051758246728
 31
0.0
  0
CIRCLE
  5
123
330
F1
100
AcDbEntity
  8
AM_4
100
AcDbCircle
 10
0.0
 20
-2.297
 30
0.0
 40
0.219
  0
ARC
  5
124
330
F1
100
AcDbEntity
  8
AM_4
100
AcDbCircle
 10
0.0000000000000001
 20
-2.297
 30
0.0
 40
0.4844999999999995
100
AcDbArc
 50
207.989373244785
 51
332.010626755215
  0
ARC
  5
125
330
F1
100
AcDbEntity
  8
AM_4
100
AcDbCircle
 10
-0.0000000000000672
 20
-0.0000000000001248
 30
0.0
 40
1.562500000000141
100
AcDbArc
 50
58.43076205676213
 51
66.16778067223242
  0
ARC
  5
126
330
F1
100
AcDbEntity
  8
AM_4
100
AcDbCircle
 10
-0.0000000000000002
 20
-0.0000000000000016
 30
0.0
 40
1.610542584615789
100
AcDbArc
 50
67.30583974102545
 51
112.6941602589745
  0
ARC
  5
127
330
F1
100
AcDbEntity
  8
AM_4
100
AcDbCircle
 10
0.0000000000000004
 20
0.0
 30
0.0
 40
1.5625
100
AcDbArc
 50
113.8322193277672
 51
246.1677806722328
  0
ARC
  5
128
330
F1
100
AcDbEntity
  8
AM_4
100
AcDbCircle
 10
-0.0000000000000003
 20
0.0000000000000007
 30
0.0
 40
1.610542584615788
100
AcDbArc
 50
247.3058397410255
 51
292.6941602589745
  0
ARC
  5
129
330
F1
100
AcDbEntity
  8
AM_4
100
AcDbCircle
 10
-0.0000000000000016
 20
0.0
 30
0.0
 40
1.562500000000001
100
AcDbArc
 50
293.8322193277672
 51
37.44471677025078
  0
LINE
  5
12A
330
F1
100
AcDbEntity
  8
AM_4
100
AcDbLine
 10
1.563
 20
1.563
 30
0.0
 11
1.451644597824572
 21
1.674355402175428
 31
0.0
  0
LINE
  5
12B
330
F1
100
AcDbEntity
  8
AM_4
100
AcDbLine
 10
1.451644597824572
 20
1.674355402175428
 30
0.0
 11
1.386957802117131
 21
1.646632486376229
 31
0.0
  0
LINE
  5
12C
330
F1
100
AcDbEntity
  8
AM_4
100
AcDbLine
 10
1.535277084200801
 20
1.498313204292558
 30
0.0
 11
1.563
 21
1.563
 31
0.0
  0
LINE
  5
12D
330
F1
100
AcDbEntity
  8
AM_4
100
AcDbLine
 10
1.535277084200801
 20
1.498313204292558
 30
0.0
 11
1.386957802117131
 21
1.646632486376229
 31
0.0
  0
ARC
  5
12E
330
F1
100
AcDbEntity
  8
AM_4
100
AcDbCircle
 10
1.394712120058802
 20
1.628539080034107
 30
0.0
 40
0.0196850400000018
100
AcDbArc
 50
113.1985930228108
 51
180.8429083339688
  0
ARC
  5
12F
330
F1
100
AcDbEntity
  8
AM_4
100
AcDbCircle
 10
1.51718367785868
 20
1.506067522234227
 30
0.0
 40
0.0196850399999998
100
AcDbArc
 50
269.1570916660265
 51
336.8014069771921
  0
LINE
  5
130
330
F1
100
AcDbEntity
  8
AM_4
100
AcDbLine
 10
1.516894091332499
 20
1.486384612402461
 30
0.0
 11
1.375029210227033
 21
1.628249493507926
 31
0.0
  0
ARC
  5
131
330
F1
100
AcDbEntity
  8
AM_4
100
AcDbCircle
 10
1.303924693568601
 20
1.6272033526244
 30
0.0
 40
0.0711122120312498
100
AcDbArc
 50
258.8550321711144
 51
0.8429159758887952
  0
ARC
  5
132
330
F1
100
AcDbEntity
  8
AM_4
100
AcDbCircle
 10
1.515847950448974
 20
1.415280095744028
 30
0.0
 40
0.0711122120312505
100
AcDbArc
 50
89.15708402411227
 51
191.1449678288855
  0
LINE
  5
133
330
F1
100
AcDbEntity
  8
AM_4
100
AcDbLine
 10
1.446076824887374
 20
1.401534669674057
 30
0.0
 11
1.29017926749863
 21
1.557432227062801
 31
0.0
  0
LINE
  5
134
330
F1
100
AcDbEntity
  8
AM_4
100
AcDbLine
 10
1.29017926749863
 20
1.557432227062801
 30
0.0
 11
1.276259842226702
 21
1.543512801790873
 31
0.0
  0
LINE
  5
135
330
F1
100
AcDbEntity
  8
AM_4
100
AcDbLine
 10
1.432157399615445
 20
1.387615244402129
 30
0.0
 11
1.446076824887374
 21
1.401534669674057
 31
0.0
  0
LINE
  5
136
330
F1
100
AcDbEntity
  8
AM_4
100
AcDbLine
 10
1.192743290595131
 20
1.459996250159302
 30
0.0
 11
1.178823865323202
 21
1.446076824887374
 31
0.0
  0
LINE
  5
137
330
F1
100
AcDbEntity
  8
AM_4
100
AcDbLine
 10
1.334721422711947
 20
1.29017926749863
 30
0.0
 11
1.348640847983875
 21
1.304098692770558
 31
0.0
  0
LINE
  5
138
330
F1
100
AcDbEntity
  8
AM_4
100
AcDbLine
 10
1.38204747146493
 20
1.270692069289503
 30
0.0
 11
1.159336667114075
 21
1.493402873640358
 31
0.0
  0
LINE
  5
139
330
F1
100
AcDbEntity
  8
AM_4
100
AcDbLine
 10
1.159336667114075
 20
1.493402873640358
 30
0.0
 11
1.242853218745647
 21
1.576919425271929
 31
0.0
  0
LINE
  5
13A
330
F1
100
AcDbEntity
  8
AM_4
100
AcDbLine
 10
1.465564023096501
 20
1.354208620921074
 30
0.0
 11
1.242853218745647
 21
1.576919425271929
 31
0.0
  0
LINE
  5
13B
330
F1
100
AcDbEntity
  8
AM_4
100
AcDbLine
 10
1.465564023096501
 20
1.354208620921074
 30
0.0
 11
1.38204747146493
 21
1.270692069289503
 31
0.0
  0
LWPOLYLINE
  5
13C
330
F1
100
AcDbEntity
  8
AM_4
100
AcDbPolyline
 90
        3
 70
     0
 43
0.0
 10
1.298530919833359
 20
1.521241724184216
 10
1.269473710981496
 20
1.547862216420065
 10
1.238237327495441
 20
1.572303534021724
  0
LWPOLYLINE
  5
13D
330
F1
100
AcDbEntity
  8
AM_4
100
AcDbPolyline
 90
        3
 70
     0
 43
0.0
 10
1.16395255836428
 20
1.498018764890563
 10
1.188279468503713
 20
1.466918315878857
 10
1.215014368201789
 20
1.437725172552644
  0
LWPOLYLINE
  5
13E
330
F1
100
AcDbEntity
  8
AM_4
100
AcDbPolyline
 90
        3
 70
     0
 43
0.0
 10
1.460948131846296
 20
1.349592729670869
 10
1.436621221706862
 20
1.380693178682575
 10
1.409886322008786
 20
1.409886322008789
  0
LINE
  5
13F
330
F1
100
AcDbEntity
  8
AM_4
100
AcDbLine
 10
1.275307960539707
 20
1.386663362715135
 30
0.0
 11
1.349592729670869
 21
1.460948131846296
 31
0.0
  0
LWPOLYLINE
  5
140
330
F1
100
AcDbEntity
  8
AM_4
100
AcDbPolyline
 90
        3
 70
     0
 43
0.0
 10
1.326369770377216
 20
1.326369770377217
 10
1.35542697922908
 20
1.299749278141366
 10
1.386663362715135
 20
1.275307960539708
  0
LWPOLYLINE
  5
141
330
F1
100
AcDbEntity
  8
AM_4
100
AcDbPolyline
 90
        3
 70
     0
 43
0.0
 10
1.275307960539707
 20
1.386663362715135
 10
1.299634870679141
 20
1.35556291370343
 10
1.326369770377216
 20
1.326369770377217
  0
LWPOLYLINE
  5
142
330
F1
100
AcDbEntity
  8
AM_4
100
AcDbPolyline
 90
        3
 70
     0
 43
0.0
 10
1.215014368201789
 20
1.437725172552644
 10
1.244071577053652
 20
1.411104680316794
 10
1.275307960539707
 20
1.386663362715135
  0
LWPOLYLINE
  5
143
330
F1
100
AcDbEntity
  8
AM_4
100
AcDbPolyline
 90
        3
 70
     0
 43
0.0
 10
1.409886322008786
 20
1.409886322008789
 10
1.380829113156923
 20
1.436506814244638
 10
1.349592729670869
 20
1.460948131846296
  0
LWPOLYLINE
  5
144
330
F1
100
AcDbEntity
  8
AM_4
100
AcDbPolyline
 90
        3
 70
     0
 43
0.0
 10
1.349592729670869
 20
1.460948131846296
 10
1.325265819531435
 20
1.492048580858002
 10
1.298530919833359
 20
1.521241724184216
  0
ARC
  5
145
330
F1
100
AcDbEntity
  8
AM_4
100
AcDbCircle
 10
0.0000000000000001
 20
-0.0000000000000001
 30
0.0
 40
1.560915277033721
100
AcDbArc
 50
58.44465343888034
 51
37.43700141154477
  0
LINE
  5
146
330
F1
100
AcDbEntity
  8
AM_4
100
AcDbLine
 10
1.2942425275
 20
0.0176000393700788
 30
0.0
 11
1.243257095964567
 21
0.0176000393700788
 31
0.0
  0
LINE
  5
147
330
F1
100
AcDbEntity
  8
AM_4
100
AcDbLine
 10
1.2942425275
 20
-0.009947855
 30
0.0
 11
1.2942425275
 21
0.0176000393700788
 31
0.0
  0
LINE
  5
148
330
F1
100
AcDbEntity
  8
AM_4
100
AcDbLine
 10
1.2927858375
 20
-0.016069605
 30
0.0
 11
1.2942425275
 21
-0.009947855
 31
0.0
  0
LINE
  5
149
330
F1
100
AcDbEntity
  8
AM_4
100
AcDbLine
 10
1.2898722525
 20
-0.020660825
 30
0.0
 11
1.2927858375
 21
-0.016069605
 31
0.0
  0
LINE
  5
14A
330
F1
100
AcDbEntity
  8
AM_4
100
AcDbLine
 10
1.2855021575
 20
-0.02372185
 30
0.0
 11
1.2898722525
 21
-0.020660825
 31
0.0
  0
LINE
  5
14B
330
F1
100
AcDbEntity
  8
AM_4
100
AcDbLine
 10
1.2796752475
 20
-0.025252165
 30
0.0
 11
1.2855021575
 21
-0.02372185
 31
0.0
  0
LINE
  5
14C
330
F1
100
AcDbEntity
  8
AM_4
100
AcDbLine
 10
1.257824379429134
 20
-0.025252165
 30
0.0
 11
1.2796752475
 21
-0.025252165
 31
0.0
  0
LINE
  5
14D
330
F1
100
AcDbEntity
  8
AM_4
100
AcDbLine
 10
1.251997469980315
 20
-0.02372185
 30
0.0
 11
1.257824379429134
 21
-0.025252165
 31
0.0
  0
LINE
  5
14E
330
F1
100
AcDbEntity
  8
AM_4
100
AcDbLine
 10
1.247627371555118
 20
-0.020660825
 30
0.0
 11
1.251997469980315
 21
-0.02372185
 31
0.0
  0
LINE
  5
14F
330
F1
100
AcDbEntity
  8
AM_4
100
AcDbLine
 10
1.244713788877953
 20
-0.016069605
 30
0.0
 11
1.247627371555118
 21
-0.020660825
 31
0.0
  0
LINE
  5
150
330
F1
100
AcDbEntity
  8
AM_4
100
AcDbLine
 10
1.243257095964567
 20
-0.009947855
 30
0.0
 11
1.244713788877953
 21
-0.016069605
 31
0.0
  0
LINE
  5
151
330
F1
100
AcDbEntity
  8
AM_4
100
AcDbLine
 10
1.243257095964567
 20
0.0176000393700788
 30
0.0
 11
1.243257095964567
 21
-0.009947855
 31
0.0
  0
LINE
  5
152
330
F1
100
AcDbEntity
  8
AM_4
100
AcDbLine
 10
1.251574379429134
 20
0.0910610236220473
 30
0.0
 11
1.245747469980315
 21
0.0895307086614174
 31
0.0
  0
LINE
  5
153
330
F1
100
AcDbEntity
  8
AM_4
100
AcDbLine
 10
1.2734252475
 20
0.0910610236220473
 30
0.0
 11
1.251574379429134
 21
0.0910610236220473
 31
0.0
  0
LINE
  5
154
330
F1
100
AcDbEntity
  8
AM_4
100
AcDbLine
 10
1.238463788877953
 20
0.0818785433070867
 30
0.0
 11
1.237007095964567
 21
0.0757566929133859
 31
0.0
  0
LINE
  5
155
330
F1
100
AcDbEntity
  8
AM_4
100
AcDbLine
 10
1.245747469980315
 20
0.0895307086614174
 30
0.0
 11
1.241377371555118
 21
0.0864696850393701
 31
0.0
  0
LINE
  5
156
330
F1
100
AcDbEntity
  8
AM_4
100
AcDbLine
 10
1.2792521575
 20
0.0497391732283465
 30
0.0
 11
1.2836222525
 21
0.0528001968503937
 31
0.0
  0
LINE
  5
157
330
F1
100
AcDbEntity
  8
AM_4
100
AcDbLine
 10
1.237007095964567
 20
0.0757566929133859
 30
0.0
 11
1.237007095964567
 21
0.0635131889763781
 31
0.0
  0
LINE
  5
158
330
F1
100
AcDbEntity
  8
AM_4
100
AcDbLine
 10
1.237007095964567
 20
0.0635131889763781
 30
0.0
 11
1.238463788877953
 21
0.0573915354330709
 31
0.0
  0
LINE
  5
159
330
F1
100
AcDbEntity
  8
AM_4
100
AcDbLine
 10
1.238463788877953
 20
0.0573915354330709
 30
0.0
 11
1.241377371555118
 21
0.0528001968503937
 31
0.0
  0
LINE
  5
15A
330
F1
100
AcDbEntity
  8
AM_4
100
AcDbLine
 10
1.241377371555118
 20
0.0528001968503937
 30
0.0
 11
1.245747469980315
 21
0.0497391732283465
 31
0.0
  0
LINE
  5
15B
330
F1
100
AcDbEntity
  8
AM_4
100
AcDbLine
 10
1.245747469980315
 20
0.0497391732283465
 30
0.0
 11
1.251574379429134
 21
0.0482088582677166
 31
0.0
  0
LINE
  5
15C
330
F1
100
AcDbEntity
  8
AM_4
100
AcDbLine
 10
1.251574379429134
 20
0.0482088582677166
 30
0.0
 11
1.2734252475
 21
0.0482088582677166
 31
0.0
  0
LINE
  5
15D
330
F1
100
AcDbEntity
  8
AM_4
100
AcDbLine
 10
1.2734252475
 20
0.0482088582677166
 30
0.0
 11
1.2792521575
 21
0.0497391732283465
 31
0.0
  0
LINE
  5
15E
330
F1
100
AcDbEntity
  8
AM_4
100
AcDbLine
 10
1.2836222525
 20
0.0528001968503937
 30
0.0
 11
1.2865358375
 21
0.0573915354330709
 31
0.0
  0
LINE
  5
15F
330
F1
100
AcDbEntity
  8
AM_4
100
AcDbLine
 10
1.2865358375
 20
0.0573915354330709
 30
0.0
 11
1.2879925275
 21
0.063513188976378
 31
0.0
  0
LINE
  5
160
330
F1
100
AcDbEntity
  8
AM_4
100
AcDbLine
 10
1.2879925275
 20
0.063513188976378
 30
0.0
 11
1.2879925275
 21
0.0757566929133859
 31
0.0
  0
LINE
  5
161
330
F1
100
AcDbEntity
  8
AM_4
100
AcDbLine
 10
1.2879925275
 20
0.0757566929133859
 30
0.0
 11
1.2865358375
 21
0.0818785433070867
 31
0.0
  0
LINE
  5
162
330
F1
100
AcDbEntity
  8
AM_4
100
AcDbLine
 10
1.2865358375
 20
0.0818785433070867
 30
0.0
 11
1.2836222525
 21
0.0864696850393701
 31
0.0
  0
LINE
  5
163
330
F1
100
AcDbEntity
  8
AM_4
100
AcDbLine
 10
1.2836222525
 20
0.0864696850393701
 30
0.0
 11
1.2792521575
 21
0.0895307086614174
 31
0.0
  0
LINE
  5
164
330
F1
100
AcDbEntity
  8
AM_4
100
AcDbLine
 10
1.2792521575
 20
0.0895307086614174
 30
0.0
 11
1.2734252475
 21
0.0910610236220473
 31
0.0
  0
LINE
  5
165
330
F1
100
AcDbEntity
  8
AM_4
100
AcDbLine
 10
1.241377371555118
 20
0.0864696850393701
 30
0.0
 11
1.238463788877953
 21
0.0818785433070867
 31
0.0
  0
LINE
  5
166
330
F1
100
AcDbEntity
  8
AM_4
100
AcDbLine
 10
1.2879925275
 20
0.1645222440944883
 30
0.0
 11
1.237007095964567
 21
0.1645222440944883
 31
0.0
  0
LINE
  5
167
330
F1
100
AcDbEntity
  8
AM_4
100
AcDbLine
 10
1.2879925275
 20
0.1369742125984253
 30
0.0
 11
1.2879925275
 21
0.1645222440944883
 31
0.0
  0
LINE
  5
168
330
F1
100
AcDbEntity
  8
AM_4
100
AcDbLine
 10
1.2865358375
 20
0.1308525590551182
 30
0.0
 11
1.2879925275
 21
0.1369742125984253
 31
0.0
  0
LINE
  5
169
330
F1
100
AcDbEntity
  8
AM_4
100
AcDbLine
 10
1.2836222525
 20
0.126261220472441
 30
0.0
 11
1.2865358375
 21
0.1308525590551182
 31
0.0
  0
LINE
  5
16A
330
F1
100
AcDbEntity
  8
AM_4
100
AcDbLine
 10
1.245747469980315
 20
0.1232003937007875
 30
0.0
 11
1.251574379429134
 21
0.1216698818897639
 31
0.0
  0
LINE
  5
16B
330
F1
100
AcDbEntity
  8
AM_4
100
AcDbLine
 10
1.241377371555118
 20
0.126261220472441
 30
0.0
 11
1.245747469980315
 21
0.1232003937007875
 31
0.0
  0
LINE
  5
16C
330
F1
100
AcDbEntity
  8
AM_4
100
AcDbLine
 10
1.238463788877953
 20
0.1308525590551182
 30
0.0
 11
1.241377371555118
 21
0.126261220472441
 31
0.0
  0
LINE
  5
16D
330
F1
100
AcDbEntity
  8
AM_4
100
AcDbLine
 10
1.237007095964567
 20
0.1369742125984253
 30
0.0
 11
1.238463788877953
 21
0.1308525590551182
 31
0.0
  0
LINE
  5
16E
330
F1
100
AcDbEntity
  8
AM_4
100
AcDbLine
 10
1.237007095964567
 20
0.1645222440944883
 30
0.0
 11
1.237007095964567
 21
0.1369742125984253
 31
0.0
  0
LINE
  5
16F
330
F1
100
AcDbEntity
  8
AM_4
100
AcDbLine
 10
1.2792521575
 20
0.1232003937007875
 30
0.0
 11
1.2836222525
 21
0.126261220472441
 31
0.0
  0
LINE
  5
170
330
F1
100
AcDbEntity
  8
AM_4
100
AcDbLine
 10
1.2734252475
 20
0.1216698818897639
 30
0.0
 11
1.2792521575
 21
0.1232003937007875
 31
0.0
  0
LINE
  5
171
330
F1
100
AcDbEntity
  8
AM_4
100
AcDbLine
 10
1.251574379429134
 20
0.1216698818897639
 30
0.0
 11
1.2734252475
 21
0.1216698818897639
 31
0.0
  0
LINE
  5
172
330
F1
100
AcDbEntity
  8
AM_4
100
AcDbLine
 10
1.228266741633858
 20
-0.084939375
 30
0.0
 11
1.229723434547244
 21
-0.09259154
 31
0.0
  0
LINE
  5
173
330
F1
100
AcDbEntity
  8
AM_4
100
AcDbLine
 10
1.229723434547244
 20
-0.09259154
 30
0.0
 11
1.232637017224409
 21
-0.09871339
 31
0.0
  0
LINE
  5
174
330
F1
100
AcDbEntity
  8
AM_4
100
AcDbLine
 10
1.241377371555118
 20
-0.095652365
 30
0.0
 11
1.238463788877953
 21
-0.091061025
 31
0.0
  0
LINE
  5
175
330
F1
100
AcDbEntity
  8
AM_4
100
AcDbLine
 10
1.232637017224409
 20
-0.09871339
 30
0.0
 11
1.238463788877953
 21
-0.104835045
 31
0.0
  0
LINE
  5
176
330
F1
100
AcDbEntity
  8
AM_4
100
AcDbLine
 10
1.238463788877953
 20
-0.104835045
 30
0.0
 11
1.24429075738189
 21
-0.106365555
 31
0.0
  0
LINE
  5
177
330
F1
100
AcDbEntity
  8
AM_4
100
AcDbLine
 10
1.245747469980315
 20
-0.097182875
 30
0.0
 11
1.241377371555118
 21
-0.095652365
 31
0.0
  0
LINE
  5
178
330
F1
100
AcDbEntity
  8
AM_4
100
AcDbLine
 10
1.2879925275
 20
-0.084939375
 30
0.0
 11
1.2865358375
 21
-0.091061025
 31
0.0
  0
LINE
  5
179
330
F1
100
AcDbEntity
  8
AM_4
100
AcDbLine
 10
1.2865358375
 20
-0.091061025
 30
0.0
 11
1.2836222525
 21
-0.095652365
 31
0.0
  0
LINE
  5
17A
330
F1
100
AcDbEntity
  8
AM_4
100
AcDbLine
 10
1.257401269192913
 20
-0.08340886
 30
0.0
 11
1.257401269192913
 21
-0.097182875
 31
0.0
  0
LINE
  5
17B
330
F1
100
AcDbEntity
  8
AM_4
100
AcDbLine
 10
1.257401269192913
 20
-0.097182875
 30
0.0
 11
1.245747469980315
 21
-0.097182875
 31
0.0
  0
LINE
  5
17C
330
F1
100
AcDbEntity
  8
AM_4
100
AcDbLine
 10
1.24429075738189
 20
-0.106365555
 30
0.0
 11
1.2661416225
 21
-0.106365555
 31
0.0
  0
LINE
  5
17D
330
F1
100
AcDbEntity
  8
AM_4
100
AcDbLine
 10
1.2661416225
 20
-0.106365555
 30
0.0
 11
1.2661416225
 21
-0.08340886
 31
0.0
  0
LINE
  5
17E
330
F1
100
AcDbEntity
  8
AM_4
100
AcDbLine
 10
1.2661416225
 20
-0.08340886
 30
0.0
 11
1.257401269192913
 21
-0.08340886
 31
0.0
  0
LINE
  5
17F
330
F1
100
AcDbEntity
  8
AM_4
100
AcDbLine
 10
1.2967328825
 20
0.1369742125984253
 30
0.0
 11
1.2967328825
 21
0.1737047244094489
 31
0.0
  0
LINE
  5
180
330
F1
100
AcDbEntity
  8
AM_4
100
AcDbLine
 10
1.2923626075
 20
0.1232003937007875
 30
0.0
 11
1.2952761925
 21
0.1293220472440945
 31
0.0
  0
LINE
  5
181
330
F1
100
AcDbEntity
  8
AM_4
100
AcDbLine
 10
1.2952761925
 20
0.1293220472440945
 30
0.0
 11
1.2967328825
 21
0.1369742125984253
 31
0.0
  0
LINE
  5
182
330
F1
100
AcDbEntity
  8
AM_4
100
AcDbLine
 10
1.229723434547244
 20
0.0558610236220473
 30
0.0
 11
1.232637017224409
 21
0.0497391732283465
 31
0.0
  0
LINE
  5
183
330
F1
100
AcDbEntity
  8
AM_4
100
AcDbLine
 10
1.232637017224409
 20
0.0497391732283465
 30
0.0
 11
1.238463788877953
 21
0.0436175196850394
 31
0.0
  0
LINE
  5
184
330
F1
100
AcDbEntity
  8
AM_4
100
AcDbLine
 10
1.238463788877953
 20
0.0436175196850394
 30
0.0
 11
1.24429075738189
 21
0.0405566929133859
 31
0.0
  0
LINE
  5
185
330
F1
100
AcDbEntity
  8
AM_4
100
AcDbLine
 10
1.24429075738189
 20
0.0405566929133859
 30
0.0
 11
1.251574379429134
 21
0.0390261811023622
 31
0.0
  0
LINE
  5
186
330
F1
100
AcDbEntity
  8
AM_4
100
AcDbLine
 10
1.251574379429134
 20
0.0390261811023622
 30
0.0
 11
1.2734252475
 21
0.0390261811023622
 31
0.0
  0
LINE
  5
187
330
F1
100
AcDbEntity
  8
AM_4
100
AcDbLine
 10
1.2734252475
 20
0.0390261811023622
 30
0.0
 11
1.2807088675
 21
0.0405566929133859
 31
0.0
  0
LINE
  5
188
330
F1
100
AcDbEntity
  8
AM_4
100
AcDbLine
 10
1.2807088675
 20
0.0405566929133859
 30
0.0
 11
1.2865358375
 21
0.0436175196850394
 31
0.0
  0
LINE
  5
189
330
F1
100
AcDbEntity
  8
AM_4
100
AcDbLine
 10
1.2865358375
 20
0.0436175196850394
 30
0.0
 11
1.2923626075
 21
0.0497391732283465
 31
0.0
  0
LINE
  5
18A
330
F1
100
AcDbEntity
  8
AM_4
100
AcDbLine
 10
1.2923626075
 20
0.0497391732283465
 30
0.0
 11
1.2952761925
 21
0.0558610236220473
 31
0.0
  0
LINE
  5
18B
330
F1
100
AcDbEntity
  8
AM_4
100
AcDbLine
 10
1.2952761925
 20
0.0558610236220473
 30
0.0
 11
1.2967328825
 21
0.063513188976378
 31
0.0
  0
LINE
  5
18C
330
F1
100
AcDbEntity
  8
AM_4
100
AcDbLine
 10
1.2967328825
 20
0.063513188976378
 30
0.0
 11
1.2967328825
 21
0.0757566929133859
 31
0.0
  0
LINE
  5
18D
330
F1
100
AcDbEntity
  8
AM_4
100
AcDbLine
 10
1.2967328825
 20
0.0757566929133859
 30
0.0
 11
1.2952761925
 21
0.0834088582677166
 31
0.0
  0
LINE
  5
18E
330
F1
100
AcDbEntity
  8
AM_4
100
AcDbLine
 10
1.237007095964567
 20
-0.084939375
 30
0.0
 11
1.237007095964567
 21
-0.071165355
 31
0.0
  0
LINE
  5
18F
330
F1
100
AcDbEntity
  8
AM_4
100
AcDbLine
 10
1.237007095964567
 20
-0.071165355
 30
0.0
 11
1.238463788877953
 21
-0.065043705
 31
0.0
  0
LINE
  5
190
330
F1
100
AcDbEntity
  8
AM_4
100
AcDbLine
 10
1.238463788877953
 20
-0.065043705
 30
0.0
 11
1.241377371555118
 21
-0.060452365
 31
0.0
  0
LINE
  5
191
330
F1
100
AcDbEntity
  8
AM_4
100
AcDbLine
 10
1.241377371555118
 20
-0.060452365
 30
0.0
 11
1.245747469980315
 21
-0.057391535
 31
0.0
  0
LINE
  5
192
330
F1
100
AcDbEntity
  8
AM_4
100
AcDbLine
 10
1.245747469980315
 20
-0.057391535
 30
0.0
 11
1.251574379429134
 21
-0.055861025
 31
0.0
  0
LINE
  5
193
330
F1
100
AcDbEntity
  8
AM_4
100
AcDbLine
 10
1.251574379429134
 20
-0.055861025
 30
0.0
 11
1.2734252475
 21
-0.055861025
 31
0.0
  0
LINE
  5
194
330
F1
100
AcDbEntity
  8
AM_4
100
AcDbLine
 10
1.2734252475
 20
-0.055861025
 30
0.0
 11
1.2792521575
 21
-0.057391535
 31
0.0
  0
LINE
  5
195
330
F1
100
AcDbEntity
  8
AM_4
100
AcDbLine
 10
1.2792521575
 20
-0.057391535
 30
0.0
 11
1.2836222525
 21
-0.060452365
 31
0.0
  0
LINE
  5
196
330
F1
100
AcDbEntity
  8
AM_4
100
AcDbLine
 10
1.2836222525
 20
-0.060452365
 30
0.0
 11
1.2865358375
 21
-0.065043705
 31
0.0
  0
CIRCLE
  5
197
330
F1
100
AcDbEntity
  8
AM_4
100
AcDbCircle
 10
0.0
 20
0.0
 30
0.0
 40
1.22045
  0
LINE
  5
198
330
F1
100
AcDbEntity
  8
AM_4
100
AcDbLine
 10
1.228266741633858
 20
-0.11860906
 30
0.0
 11
1.228266741633858
 21
-0.17370473
 31
0.0
  0
LINE
  5
199
330
F1
100
AcDbEntity
  8
AM_4
100
AcDbLine
 10
1.2967328825
 20
-0.11860906
 30
0.0
 11
1.228266741633858
 21
-0.11860906
 31
0.0
  0
LINE
  5
19A
330
F1
100
AcDbEntity
  8
AM_4
100
AcDbLine
 10
1.2967328825
 20
-0.1737047299999999
 30
0.0
 11
1.2967328825
 21
-0.11860906
 31
0.0
  0
LINE
  5
19B
330
F1
100
AcDbEntity
  8
AM_4
100
AcDbLine
 10
1.2879925275
 20
-0.17370473
 30
0.0
 11
1.2967328825
 21
-0.1737047299999999
 31
0.0
  0
LINE
  5
19C
330
F1
100
AcDbEntity
  8
AM_4
100
AcDbLine
 10
1.2879925275
 20
-0.12779154
 30
0.0
 11
1.2879925275
 21
-0.17370473
 31
0.0
  0
LINE
  5
19D
330
F1
100
AcDbEntity
  8
AM_4
100
AcDbLine
 10
1.2690550675
 20
-0.12779154
 30
0.0
 11
1.2879925275
 21
-0.12779154
 31
0.0
  0
LINE
  5
19E
330
F1
100
AcDbEntity
  8
AM_4
100
AcDbLine
 10
1.2690550675
 20
-0.167583075
 30
0.0
 11
1.2690550675
 21
-0.12779154
 31
0.0
  0
LINE
  5
19F
330
F1
100
AcDbEntity
  8
AM_4
100
AcDbLine
 10
1.260314733759843
 20
-0.167583075
 30
0.0
 11
1.2690550675
 21
-0.167583075
 31
0.0
  0
LINE
  5
1A0
330
F1
100
AcDbEntity
  8
AM_4
100
AcDbLine
 10
1.260314733759843
 20
-0.12779154
 30
0.0
 11
1.260314733759843
 21
-0.167583075
 31
0.0
  0
LINE
  5
1A1
330
F1
100
AcDbEntity
  8
AM_4
100
AcDbLine
 10
1.237007095964567
 20
-0.12779154
 30
0.0
 11
1.260314733759843
 21
-0.12779154
 31
0.0
  0
LINE
  5
1A2
330
F1
100
AcDbEntity
  8
AM_4
100
AcDbLine
 10
1.237007095964567
 20
-0.17370473
 30
0.0
 11
1.237007095964567
 21
-0.12779154
 31
0.0
  0
LINE
  5
1A3
330
F1
100
AcDbEntity
  8
AM_4
100
AcDbLine
 10
1.228266741633858
 20
-0.17370473
 30
0.0
 11
1.237007095964567
 21
-0.17370473
 31
0.0
  0
LINE
  5
1A4
330
F1
100
AcDbEntity
  8
AM_4
100
AcDbLine
 10
1.228266741633858
 20
-0.071165355
 30
0.0
 11
1.228266741633858
 21
-0.084939375
 31
0.0
  0
LINE
  5
1A5
330
F1
100
AcDbEntity
  8
AM_4
100
AcDbLine
 10
1.229723434547244
 20
-0.0635131899999999
 30
0.0
 11
1.228266741633858
 21
-0.071165355
 31
0.0
  0
LINE
  5
1A6
330
F1
100
AcDbEntity
  8
AM_4
100
AcDbLine
 10
1.232637017224409
 20
-0.057391535
 30
0.0
 11
1.229723434547244
 21
-0.0635131899999999
 31
0.0
  0
LINE
  5
1A7
330
F1
100
AcDbEntity
  8
AM_4
100
AcDbLine
 10
1.238463788877953
 20
-0.051269685
 30
0.0
 11
1.232637017224409
 21
-0.057391535
 31
0.0
  0
LINE
  5
1A8
330
F1
100
AcDbEntity
  8
AM_4
100
AcDbLine
 10
1.24429075738189
 20
-0.04820886
 30
0.0
 11
1.238463788877953
 21
-0.051269685
 31
0.0
  0
LINE
  5
1A9
330
F1
100
AcDbEntity
  8
AM_4
100
AcDbLine
 10
1.251574379429134
 20
-0.04667835
 30
0.0
 11
1.24429075738189
 21
-0.04820886
 31
0.0
  0
LINE
  5
1AA
330
F1
100
AcDbEntity
  8
AM_4
100
AcDbLine
 10
1.2734252475
 20
-0.04667835
 30
0.0
 11
1.251574379429134
 21
-0.04667835
 31
0.0
  0
LINE
  5
1AB
330
F1
100
AcDbEntity
  8
AM_4
100
AcDbLine
 10
1.2807088675
 20
-0.04820886
 30
0.0
 11
1.2734252475
 21
-0.04667835
 31
0.0
  0
LINE
  5
1AC
330
F1
100
AcDbEntity
  8
AM_4
100
AcDbLine
 10
1.2865358375
 20
-0.051269685
 30
0.0
 11
1.2807088675
 21
-0.04820886
 31
0.0
  0
LINE
  5
1AD
330
F1
100
AcDbEntity
  8
AM_4
100
AcDbLine
 10
1.2923626075
 20
-0.057391535
 30
0.0
 11
1.2865358375
 21
-0.051269685
 31
0.0
  0
LINE
  5
1AE
330
F1
100
AcDbEntity
  8
AM_4
100
AcDbLine
 10
1.2952761925
 20
-0.06351319
 30
0.0
 11
1.2923626075
 21
-0.057391535
 31
0.0
  0
LINE
  5
1AF
330
F1
100
AcDbEntity
  8
AM_4
100
AcDbLine
 10
1.2967328825
 20
-0.071165355
 30
0.0
 11
1.2952761925
 21
-0.06351319
 31
0.0
  0
LINE
  5
1B0
330
F1
100
AcDbEntity
  8
AM_4
100
AcDbLine
 10
1.2967328825
 20
-0.084939375
 30
0.0
 11
1.2967328825
 21
-0.071165355
 31
0.0
  0
LINE
  5
1B1
330
F1
100
AcDbEntity
  8
AM_4
100
AcDbLine
 10
1.2952761925
 20
-0.09259154
 30
0.0
 11
1.2967328825
 21
-0.084939375
 31
0.0
  0
LINE
  5
1B2
330
F1
100
AcDbEntity
  8
AM_4
100
AcDbLine
 10
1.2923626075
 20
-0.09871339
 30
0.0
 11
1.2952761925
 21
-0.09259154
 31
0.0
  0
LINE
  5
1B3
330
F1
100
AcDbEntity
  8
AM_4
100
AcDbLine
 10
1.2865358375
 20
-0.104835045
 30
0.0
 11
1.2923626075
 21
-0.09871339
 31
0.0
  0
LINE
  5
1B4
330
F1
100
AcDbEntity
  8
AM_4
100
AcDbLine
 10
1.2792521575
 20
-0.106365555
 30
0.0
 11
1.2865358375
 21
-0.104835045
 31
0.0
  0
LINE
  5
1B5
330
F1
100
AcDbEntity
  8
AM_4
100
AcDbLine
 10
1.2792521575
 20
-0.097182875
 30
0.0
 11
1.2792521575
 21
-0.106365555
 31
0.0
  0
LINE
  5
1B6
330
F1
100
AcDbEntity
  8
AM_4
100
AcDbLine
 10
1.2836222525
 20
-0.095652365
 30
0.0
 11
1.2792521575
 21
-0.097182875
 31
0.0
  0
LINE
  5
1B7
330
F1
100
AcDbEntity
  8
AM_4
100
AcDbLine
 10
1.2879925275
 20
-0.071165355
 30
0.0
 11
1.2879925275
 21
-0.084939375
 31
0.0
  0
LINE
  5
1B8
330
F1
100
AcDbEntity
  8
AM_4
100
AcDbLine
 10
1.2865358375
 20
-0.065043705
 30
0.0
 11
1.2879925275
 21
-0.071165355
 31
0.0
  0
LINE
  5
1B9
330
F1
100
AcDbEntity
  8
AM_4
100
AcDbLine
 10
1.238463788877953
 20
-0.091061025
 30
0.0
 11
1.237007095964567
 21
-0.084939375
 31
0.0
  0
LINE
  5
1BA
330
F1
100
AcDbEntity
  8
AM_4
100
AcDbLine
 10
1.234516741633858
 20
-0.009947855
 30
0.0
 11
1.235973434547244
 21
-0.01760004
 31
0.0
  0
LINE
  5
1BB
330
F1
100
AcDbEntity
  8
AM_4
100
AcDbLine
 10
1.234516741633858
 20
0.0267826771653543
 30
0.0
 11
1.234516741633858
 21
-0.009947855
 31
0.0
  0
LINE
  5
1BC
330
F1
100
AcDbEntity
  8
AM_4
100
AcDbLine
 10
1.3029828825
 20
0.0267826771653542
 30
0.0
 11
1.234516741633858
 21
0.0267826771653543
 31
0.0
  0
LINE
  5
1BD
330
F1
100
AcDbEntity
  8
AM_4
100
AcDbLine
 10
1.3029828825
 20
-0.009947855
 30
0.0
 11
1.3029828825
 21
0.0267826771653542
 31
0.0
  0
LINE
  5
1BE
330
F1
100
AcDbEntity
  8
AM_4
100
AcDbLine
 10
1.3015261925
 20
-0.01760004
 30
0.0
 11
1.3029828825
 21
-0.009947855
 31
0.0
  0
LINE
  5
1BF
330
F1
100
AcDbEntity
  8
AM_4
100
AcDbLine
 10
1.2986126075
 20
-0.02372185
 30
0.0
 11
1.3015261925
 21
-0.01760004
 31
0.0
  0
LINE
  5
1C0
330
F1
100
AcDbEntity
  8
AM_4
100
AcDbLine
 10
1.2927858375
 20
-0.029843505
 30
0.0
 11
1.2986126075
 21
-0.02372185
 31
0.0
  0
LINE
  5
1C1
330
F1
100
AcDbEntity
  8
AM_4
100
AcDbLine
 10
1.2869588675
 20
-0.03290453
 30
0.0
 11
1.2927858375
 21
-0.029843505
 31
0.0
  0
LINE
  5
1C2
330
F1
100
AcDbEntity
  8
AM_4
100
AcDbLine
 10
1.2796752475
 20
-0.034434845
 30
0.0
 11
1.2869588675
 21
-0.03290453
 31
0.0
  0
LINE
  5
1C3
330
F1
100
AcDbEntity
  8
AM_4
100
AcDbLine
 10
1.257824379429134
 20
-0.034434845
 30
0.0
 11
1.2796752475
 21
-0.034434845
 31
0.0
  0
LINE
  5
1C4
330
F1
100
AcDbEntity
  8
AM_4
100
AcDbLine
 10
1.25054075738189
 20
-0.03290453
 30
0.0
 11
1.257824379429134
 21
-0.034434845
 31
0.0
  0
LINE
  5
1C5
330
F1
100
AcDbEntity
  8
AM_4
100
AcDbLine
 10
1.244713788877953
 20
-0.029843505
 30
0.0
 11
1.25054075738189
 21
-0.03290453
 31
0.0
  0
LINE
  5
1C6
330
F1
100
AcDbEntity
  8
AM_4
100
AcDbLine
 10
1.238887017224409
 20
-0.02372185
 30
0.0
 11
1.244713788877953
 21
-0.029843505
 31
0.0
  0
LINE
  5
1C7
330
F1
100
AcDbEntity
  8
AM_4
100
AcDbLine
 10
1.235973434547244
 20
-0.01760004
 30
0.0
 11
1.238887017224409
 21
-0.02372185
 31
0.0
  0
LINE
  5
1C8
330
F1
100
AcDbEntity
  8
AM_4
100
AcDbLine
 10
1.228266741633858
 20
0.0757566929133859
 30
0.0
 11
1.228266741633858
 21
0.063513188976378
 31
0.0
  0
LINE
  5
1C9
330
F1
100
AcDbEntity
  8
AM_4
100
AcDbLine
 10
1.229723434547244
 20
0.0834088582677166
 30
0.0
 11
1.228266741633858
 21
0.0757566929133859
 31
0.0
  0
LINE
  5
1CA
330
F1
100
AcDbEntity
  8
AM_4
100
AcDbLine
 10
1.232637017224409
 20
0.0895307086614172
 30
0.0
 11
1.229723434547244
 21
0.0834088582677166
 31
0.0
  0
LINE
  5
1CB
330
F1
100
AcDbEntity
  8
AM_4
100
AcDbLine
 10
1.238463788877953
 20
0.0956523622047245
 30
0.0
 11
1.232637017224409
 21
0.0895307086614172
 31
0.0
  0
LINE
  5
1CC
330
F1
100
AcDbEntity
  8
AM_4
100
AcDbLine
 10
1.24429075738189
 20
0.0987133858267717
 30
0.0
 11
1.238463788877953
 21
0.0956523622047245
 31
0.0
  0
LINE
  5
1CD
330
F1
100
AcDbEntity
  8
AM_4
100
AcDbLine
 10
1.251574379429134
 20
0.1002437007874016
 30
0.0
 11
1.24429075738189
 21
0.0987133858267717
 31
0.0
  0
LINE
  5
1CE
330
F1
100
AcDbEntity
  8
AM_4
100
AcDbLine
 10
1.2734252475
 20
0.1002437007874016
 30
0.0
 11
1.251574379429134
 21
0.1002437007874016
 31
0.0
  0
LINE
  5
1CF
330
F1
100
AcDbEntity
  8
AM_4
100
AcDbLine
 10
1.2807088675
 20
0.0987133858267717
 30
0.0
 11
1.2734252475
 21
0.1002437007874016
 31
0.0
  0
LINE
  5
1D0
330
F1
100
AcDbEntity
  8
AM_4
100
AcDbLine
 10
1.2865358375
 20
0.0956523622047245
 30
0.0
 11
1.2807088675
 21
0.0987133858267717
 31
0.0
  0
LINE
  5
1D1
330
F1
100
AcDbEntity
  8
AM_4
100
AcDbLine
 10
1.2923626075
 20
0.0895307086614174
 30
0.0
 11
1.2865358375
 21
0.0956523622047245
 31
0.0
  0
LINE
  5
1D2
330
F1
100
AcDbEntity
  8
AM_4
100
AcDbLine
 10
1.2952761925
 20
0.0834088582677166
 30
0.0
 11
1.2923626075
 21
0.0895307086614174
 31
0.0
  0
LINE
  5
1D3
330
F1
100
AcDbEntity
  8
AM_4
100
AcDbLine
 10
1.228266741633858
 20
0.063513188976378
 30
0.0
 11
1.229723434547244
 21
0.0558610236220473
 31
0.0
  0
LINE
  5
1D4
330
F1
100
AcDbEntity
  8
AM_4
100
AcDbLine
 10
1.228266741633858
 20
0.1737047244094489
 30
0.0
 11
1.228266741633858
 21
0.1369742125984253
 31
0.0
  0
LINE
  5
1D5
330
F1
100
AcDbEntity
  8
AM_4
100
AcDbLine
 10
1.2967328825
 20
0.1737047244094489
 30
0.0
 11
1.228266741633858
 21
0.1737047244094489
 31
0.0
  0
LINE
  5
1D6
330
F1
100
AcDbEntity
  8
AM_4
100
AcDbLine
 10
1.2865358375
 20
0.1170785433070867
 30
0.0
 11
1.2923626075
 21
0.1232003937007875
 31
0.0
  0
LINE
  5
1D7
330
F1
100
AcDbEntity
  8
AM_4
100
AcDbLine
 10
1.2807088675
 20
0.1140177165354331
 30
0.0
 11
1.2865358375
 21
0.1170785433070867
 31
0.0
  0
LINE
  5
1D8
330
F1
100
AcDbEntity
  8
AM_4
100
AcDbLine
 10
1.2734252475
 20
0.1124872047244095
 30
0.0
 11
1.2807088675
 21
0.1140177165354331
 31
0.0
  0
LINE
  5
1D9
330
F1
100
AcDbEntity
  8
AM_4
100
AcDbLine
 10
1.251574379429134
 20
0.1124872047244095
 30
0.0
 11
1.2734252475
 21
0.1124872047244095
 31
0.0
  0
LINE
  5
1DA
330
F1
100
AcDbEntity
  8
AM_4
100
AcDbLine
 10
1.24429075738189
 20
0.1140177165354331
 30
0.0
 11
1.251574379429134
 21
0.1124872047244095
 31
0.0
  0
LINE
  5
1DB
330
F1
100
AcDbEntity
  8
AM_4
100
AcDbLine
 10
1.238463788877953
 20
0.1170785433070867
 30
0.0
 11
1.24429075738189
 21
0.1140177165354331
 31
0.0
  0
LINE
  5
1DC
330
F1
100
AcDbEntity
  8
AM_4
100
AcDbLine
 10
1.232637017224409
 20
0.1232003937007875
 30
0.0
 11
1.238463788877953
 21
0.1170785433070867
 31
0.0
  0
LINE
  5
1DD
330
F1
100
AcDbEntity
  8
AM_4
100
AcDbLine
 10
1.229723434547244
 20
0.1293220472440945
 30
0.0
 11
1.232637017224409
 21
0.1232003937007875
 31
0.0
  0
LINE
  5
1DE
330
F1
100
AcDbEntity
  8
AM_4
100
AcDbLine
 10
1.228266741633858
 20
0.1369742125984253
 30
0.0
 11
1.229723434547244
 21
0.1293220472440945
 31
0.0
  0
LINE
  5
1DF
330
F1
100
AcDbEntity
  8
AM_4
100
AcDbLine
 10
1.162420200439347
 20
0.8718816226803451
 30
0.0
 11
1.402041932897075
 21
1.111503355138074
 31
0.0
  0
ARC
  5
1E0
330
F1
100
AcDbEntity
  8
AM_4
100
AcDbCircle
 10
1.346364231809362
 20
1.167181056225787
 30
0.0
 40
0.0787401599999997
100
AcDbArc
 50
314.9999999999998
 51
45.00000000000023
  0
LINE
  5
1E1
330
F1
100
AcDbEntity
  8
AM_4
100
AcDbLine
 10
1.402041932897075
 20
1.222858757313501
 30
0.0
 11
1.111503358701447
 21
1.51339733150913
 31
0.0
  0
ARC
  5
1E2
330
F1
100
AcDbEntity
  8
AM_4
100
AcDbCircle
 10
1.055825657613733
 20
1.457719630421416
 30
0.0
 40
0.0787401599999999
100
AcDbArc
 50
44.99999999999977
 51
134.9999999999999
  0
LINE
  5
1E3
330
F1
100
AcDbEntity
  8
AM_4
100
AcDbLine
 10
1.000147956526019
 20
1.51339733150913
 30
0.0
 11
0.7382838072698688
 21
1.25153318225298
 31
0.0
  0
ARC
  5
1E4
330
F1
100
AcDbEntity
  8
AM_4
100
AcDbCircle
 10
0.0000000000000002
 20
-0.0000000000000005
 30
0.0
 40
1.502692442514827
100
AcDbArc
 50
58.97594853785767
 51
37.14215202465061
  0
ARC
  5
1E5
330
F1
100
AcDbEntity
  8
AM_4
100
AcDbCircle
 10
0.0000000000000001
 20
-0.0000000000000002
 30
0.0
 40
1.453065134932761
100
AcDbArc
 50
59.46349659156985
 51
36.8719945016925
  0
ENDBLK
  5
F4
330
F1
100
AcDbEntity
  8
0
100
AcDbBlockEnd
  0
ENDSEC
  0
SECTION
  2
ENTITIES
  0
INSERT
  5
6F
330
1F
100
AcDbEntity
  8
0
100
AcDbBlockReference
  2
1_129309_0
 10
0.0
 20
0.0
 30
0.0
  0
POINT
  5
1E7
330
1F
100
AcDbEntity
  8
ConnectionPoints
100
AcDbPoint
 10
0.0000000000000001
 20
0.0
 30
0.6252500000000001
  0
POINT
  5
1E8
330
1F
100
AcDbEntity
  8
ConnectionPoints
100
AcDbPoint
 10
0.0000000000000001
 20
0.0
 30
0.0940000000000001
  0
POINT
  5
1E9
330
1F
100
AcDbEntity
  8
ConnectionPoints
100
AcDbPoint
 10
0.0
 20
0.0
 30
0.0940000000000001
  0
ENDSEC
  0
SECTION
  2
OBJECTS
  0
DICTIONARY
  5
C
330
0
100
AcDbDictionary
281
     1
  3
ACAD_DETAILVIEWSTYLE
350
1F1
  3
ACAD_GROUP
350
D
  3
ACAD_LAYOUT
350
1A
  3
ACAD_MATERIAL
350
43
  3
ACAD_MLEADERSTYLE
350
6B
  3
ACAD_MLINESTYLE
350
17
  3
ACAD_PLOTSETTINGS
350
19
  3
ACAD_PLOTSTYLENAME
350
E
  3
ACAD_SCALELIST
350
47
  3
ACAD_SECTIONVIEWSTYLE
350
1F2
  3
ACAD_TABLESTYLE
350
69
  3
ACAD_VISUALSTYLE
350
2A
  3
ACDB_RECOMPOSE_DATA
350
1EE
  3
AcDbVariableDictionary
350
1EA
  0
SUN
  5
6D
330
29
100
AcDbSun
 90
        1
290
     0
 63
     7
421
 16777215
 40
1.0
291
     1
 91
  2455826
 92
 54000000
292
     0
 70
     2
 71
   256
280
     1
  0
DICTIONARY
  5
1F1
102
{ACAD_REACTORS
330
C
102
}
330
C
100
AcDbDictionary
281
     1
  0
DICTIONARY
  5
D
102
{ACAD_REACTORS
330
C
102
}
330
C
100
AcDbDictionary
281
     1
  0
DICTIONARY
  5
1A
102
{ACAD_REACTORS
330
C
102
}
330
C
100
AcDbDictionary
281
     1
  3
Layout1
350
1E
  3
Layout2
350
26
  3
Model
350
22
  0
DICTIONARY
  5
43
102
{ACAD_REACTORS
330
C
102
}
330
C
100
AcDbDictionary
281
     1
  3
ByBlock
350
45
  3
ByLayer
350
44
  3
Global
350
46
  0
DICTIONARY
  5
6B
102
{ACAD_REACTORS
330
C
102
}
330
C
100
AcDbDictionary
281
     1
  3
Standard
350
6C
  0
DICTIONARY
  5
17
102
{ACAD_REACTORS
330
C
102
}
330
C
100
AcDbDictionary
281
     1
  3
Standard
350
18
  0
DICTIONARY
  5
19
102
{ACAD_REACTORS
330
C
102
}
330
C
100
AcDbDictionary
281
     1
  0
ACDBDICTIONARYWDFLT
  5
E
102
{ACAD_REACTORS
330
C
102
}
330
C
100
AcDbDictionary
281
     1
  3
Normal
350
F
100
AcDbDictionaryWithDefault
340
F
  0
DICTIONARY
  5
47
102
{ACAD_REACTORS
330
C
102
}
330
C
100
AcDbDictionary
281
     1
  3
A0
350
48
  3
A1
350
49
  3
A2
350
4A
  3
A3
350
4B
  3
A4
350
4C
  3
A5
350
4D
  3
A6
350
4E
  3
A7
350
4F
  3
A8
350
50
  3
A9
350
51
  3
B0
350
52
  3
B1
350
53
  3
B2
350
54
  3
B3
350
55
  3
B4
350
56
  3
B5
350
57
  3
B6
350
58
  3
B7
350
59
  3
B8
350
5A
  3
B9
350
5B
  3
C0
350
5C
  3
C1
350
5D
  3
C2
350
5E
  3
C3
350
5F
  3
C4
350
60
  3
C5
350
61
  3
C6
350
62
  3
C7
350
63
  3
C8
350
64
  3
C9
350
65
  3
D0
350
66
  3
D1
350
67
  3
D2
350
68
  0
DICTIONARY
  5
1F2
102
{ACAD_REACTORS
330
C
102
}
330
C
100
AcDbDictionary
281
     1
  0
DICTIONARY
  5
69
102
{ACAD_REACTORS
330
C
102
}
330
C
100
AcDbDictionary
281
     1
  3
Standard
350
6A
  0
DICTIONARY
  5
2A
102
{ACAD_REACTORS
330
C
102
}
330
C
100
AcDbDictionary
281
     1
  3
2dWireframe
350
2F
  3
Basic
350
32
  3
Brighten
350
36
  3
ColorChange
350
3A
  3
Conceptual
350
34
  3
Dim
350
35
  3
EdgeColorOff
350
3D
  3
Facepattern
350
39
  3
Flat
350
2B
  3
FlatWithEdges
350
2C
  3
Gouraud
350
2D
  3
GouraudWithEdges
350
2E
  3
Hidden
350
31
  3
JitterOff
350
3B
  3
Linepattern
350
38
  3
OverhangOff
350
3C
  3
Realistic
350
33
  3
Shaded
350
42
  3
Shaded with edges
350
41
  3
Shades of Gray
350
3E
  3
Sketchy
350
3F
  3
Thicken
350
37
  3
Wireframe
350
30
  3
X-Ray
350
40
  0
XRECORD
  5
1EE
102
{ACAD_REACTORS
330
C
102
}
330
C
100
AcDbXrecord
280
     1
 90
        1
330
6A
  0
DICTIONARY
  5
1EA
102
{ACAD_REACTORS
330
C
102
}
330
C
100
AcDbDictionary
281
     1
  3
CANNOSCALE
350
1EB
  3
CMLEADERSTYLE
350
1F0
  3
CTABLESTYLE
350
1EF
  0
LAYOUT
  5
1E
102
{ACAD_REACTORS
330
1A
102
}
330
1A
100
AcDbPlotSettings
  1

  2
none_device
  4

  6

 40
0.0
 41
0.0
 42
0.0
 43
0.0
 44
0.0
 45
0.0
 46
0.0
 47
0.0
 48
0.0
 49
0.0
140
0.0
141
0.0
142
1.0
143
1.0
 70
   688
 72
     0
 73
     0
 74
     5
  7

 75
    16
 76
     0
 77
     2
 78
   300
147
1.0
148
0.0
149
0.0
100
AcDbLayout
  1
Layout1
 70
     1
 71
     1
 10
0.0
 20
0.0
 11
12.0
 21
9.0
 12
0.0
 22
0.0
 32
0.0
 14
1.000000000000000E+20
 24
1.000000000000000E+20
 34
1.000000000000000E+20
 15
-1.000000000000000E+20
 25
-1.000000000000000E+20
 35
-1.000000000000000E+20
146
0.0
 13
0.0
 23
0.0
 33
0.0
 16
1.0
 26
0.0
 36
0.0
 17
0.0
 27
1.0
 37
0.0
 76
     0
330
1B
  0
LAYOUT
  5
26
102
{ACAD_REACTORS
330
1A
102
}
330
1A
100
AcDbPlotSettings
  1

  2
none_device
  4

  6

 40
0.0
 41
0.0
 42
0.0
 43
0.0
 44
0.0
 45
0.0
 46
0.0
 47
0.0
 48
0.0
 49
0.0
140
0.0
141
0.0
142
1.0
143
1.0
 70
   688
 72
     0
 73
     0
 74
     5
  7

 75
    16
 76
     0
 77
     2
 78
   300
147
1.0
148
0.0
149
0.0
100
AcDbLayout
  1
Layout2
 70
     1
 71
     2
 10
0.0
 20
0.0
 11
0.0
 21
0.0
 12
0.0
 22
0.0
 32
0.0
 14
0.0
 24
0.0
 34
0.0
 15
0.0
 25
0.0
 35
0.0
146
0.0
 13
0.0
 23
0.0
 33
0.0
 16
1.0
 26
0.0
 36
0.0
 17
0.0
 27
1.0
 37
0.0
 76
     0
330
23
  0
LAYOUT
  5
22
102
{ACAD_REACTORS
330
1A
102
}
330
1A
100
AcDbPlotSettings
  1

  2
none_device
  4
Letter_(8.50_x_11.00_Inches)
  6

 40
6.35
 41
6.35
 42
6.35000508
 43
6.35000508
 44
215.9
 45
279.4
 46
0.0
 47
0.0
 48
0.0
 49
0.0
140
0.0
141
0.0
142
1.0
143
1.0
 70
  1712
 72
     0
 73
     0
 74
     0
  7

 75
     0
 76
     0
 77
     2
 78
   300
147
1.0
148
0.0
149
0.0
100
AcDbLayout
  1
Model
 70
     1
 71
     0
 10
0.0
 20
0.0
 11
12.0
 21
9.0
 12
0.0
 22
0.0
 32
0.0
 14
1.000000000000000E+20
 24
1.000000000000000E+20
 34
1.000000000000000E+20
 15
-1.000000000000000E+20
 25
-1.000000000000000E+20
 35
-1.000000000000000E+20
146
0.0
 13
0.0
 23
0.0
 33
0.0
 16
1.0
 26
0.0
 36
0.0
 17
0.0
 27
1.0
 37
0.0
 76
     0
330
1F
331
29
  0
MATERIAL
  5
45
102
{ACAD_REACTORS
330
43
102
}
330
43
100
AcDbMaterial
  1
ByBlock
 72
     1
 94
      127
  0
MATERIAL
  5
44
102
{ACAD_REACTORS
330
43
102
}
330
43
100
AcDbMaterial
  1
ByLayer
 72
     1
 94
      127
  0
MATERIAL
  5
46
102
{ACAD_REACTORS
330
43
102
}
330
43
100
AcDbMaterial
  1
Global
 72
     1
 94
      127
  0
MLEADERSTYLE
  5
6C
102
{ACAD_REACTORS
330
6B
102
}
330
6B
100
AcDbMLeaderStyle
179
     2
170
     2
171
     1
172
     0
 90
        2
 40
0.0
 41
0.0
173
     1
 91
-1056964608
340
14
 92
       -2
290
     1
 42
0.09
291
     1
 43
0.36
  3
Standard
341
0
 44
0.18
300

342
11
174
     1
178
     6
175
     1
176
     0
 93
-1056964608
 45
0.18
292
     0
297
     0
 46
0.18
343
0
 94
-1056964608
 47
1.0
 49
1.0
140
1.0
293
     1
141
0.0
294
     1
177
     0
142
1.0
295
     0
296
     0
143
0.125
271
     0
272
     9
273
     9
298
     0
  0
MLINESTYLE
  5
18
102
{ACAD_REACTORS
330
17
102
}
330
17
100
AcDbMlineStyle
  2
Standard
 70
     0
  3

 62
   256
 51
90.0
 52
90.0
 71
     2
 49
0.5
 62
   256
  6
BYLAYER
 49
-0.5
 62
   256
  6
BYLAYER
  0
ACDBPLACEHOLDER
  5
F
102
{ACAD_REACTORS
330
E
102
}
330
E
  0
SCALE
  5
48
102
{ACAD_REACTORS
330
47
102
}
330
47
100
AcDbScale
 70
     0
300
1:1
140
1.0
141
1.0
290
     1
  0
SCALE
  5
49
102
{ACAD_REACTORS
330
47
102
}
330
47
100
AcDbScale
 70
     0
300
1:2
140
1.0
141
2.0
290
     0
  0
SCALE
  5
4A
102
{ACAD_REACTORS
330
47
102
}
330
47
100
AcDbScale
 70
     0
300
1:4
140
1.0
141
4.0
290
     0
  0
SCALE
  5
4B
102
{ACAD_REACTORS
330
47
102
}
330
47
100
AcDbScale
 70
     0
300
1:5
140
1.0
141
5.0
290
     0
  0
SCALE
  5
4C
102
{ACAD_REACTORS
330
47
102
}
330
47
100
AcDbScale
 70
     0
300
1:8
140
1.0
141
8.0
290
     0
  0
SCALE
  5
4D
102
{ACAD_REACTORS
330
47
102
}
330
47
100
AcDbScale
 70
     0
300
1:10
140
1.0
141
10.0
290
     0
  0
SCALE
  5
4E
102
{ACAD_REACTORS
330
47
102
}
330
47
100
AcDbScale
 70
     0
300
1:16
140
1.0
141
16.0
290
     0
  0
SCALE
  5
4F
102
{ACAD_REACTORS
330
47
102
}
330
47
100
AcDbScale
 70
     0
300
1:20
140
1.0
141
20.0
290
     0
  0
SCALE
  5
50
102
{ACAD_REACTORS
330
47
102
}
330
47
100
AcDbScale
 70
     0
300
1:30
140
1.0
141
30.0
290
     0
  0
SCALE
  5
51
102
{ACAD_REACTORS
330
47
102
}
330
47
100
AcDbScale
 70
     0
300
1:40
140
1.0
141
40.0
290
     0
  0
SCALE
  5
52
102
{ACAD_REACTORS
330
47
102
}
330
47
100
AcDbScale
 70
     0
300
1:50
140
1.0
141
50.0
290
     0
  0
SCALE
  5
53
102
{ACAD_REACTORS
330
47
102
}
330
47
100
AcDbScale
 70
     0
300
1:100
140
1.0
141
100.0
290
     0
  0
SCALE
  5
54
102
{ACAD_REACTORS
330
47
102
}
330
47
100
AcDbScale
 70
     0
300
2:1
140
2.0
141
1.0
290
     0
  0
SCALE
  5
55
102
{ACAD_REACTORS
330
47
102
}
330
47
100
AcDbScale
 70
     0
300
4:1
140
4.0
141
1.0
290
     0
  0
SCALE
  5
56
102
{ACAD_REACTORS
330
47
102
}
330
47
100
AcDbScale
 70
     0
300
8:1
140
8.0
141
1.0
290
     0
  0
SCALE
  5
57
102
{ACAD_REACTORS
330
47
102
}
330
47
100
AcDbScale
 70
     0
300
10:1
140
10.0
141
1.0
290
     0
  0
SCALE
  5
58
102
{ACAD_REACTORS
330
47
102
}
330
47
100
AcDbScale
 70
     0
300
100:1
140
100.0
141
1.0
290
     0
  0
SCALE
  5
59
102
{ACAD_REACTORS
330
47
102
}
330
47
100
AcDbScale
 70
     0
300
1/128" = 1'-0"
140
0.0078125
141
12.0
290
     0
  0
SCALE
  5
5A
102
{ACAD_REACTORS
330
47
102
}
330
47
100
AcDbScale
 70
     0
300
1/64" = 1'-0"
140
0.015625
141
12.0
290
     0
  0
SCALE
  5
5B
102
{ACAD_REACTORS
330
47
102
}
330
47
100
AcDbScale
 70
     0
300
1/32" = 1'-0"
140
0.03125
141
12.0
290
     0
  0
SCALE
  5
5C
102
{ACAD_REACTORS
330
47
102
}
330
47
100
AcDbScale
 70
     0
300
1/16" = 1'-0"
140
0.0625
141
12.0
290
     0
  0
SCALE
  5
5D
102
{ACAD_REACTORS
330
47
102
}
330
47
100
AcDbScale
 70
     0
300
3/32" = 1'-0"
140
0.09375
141
12.0
290
     0
  0
SCALE
  5
5E
102
{ACAD_REACTORS
330
47
102
}
330
47
100
AcDbScale
 70
     0
300
1/8" = 1'-0"
140
0.125
141
12.0
290
     0
  0
SCALE
  5
5F
102
{ACAD_REACTORS
330
47
102
}
330
47
100
AcDbScale
 70
     0
300
3/16" = 1'-0"
140
0.1875
141
12.0
290
     0
  0
SCALE
  5
60
102
{ACAD_REACTORS
330
47
102
}
330
47
100
AcDbScale
 70
     0
300
1/4" = 1'-0"
140
0.25
141
12.0
290
     0
  0
SCALE
  5
61
102
{ACAD_REACTORS
330
47
102
}
330
47
100
AcDbScale
 70
     0
300
3/8" = 1'-0"
140
0.375
141
12.0
290
     0
  0
SCALE
  5
62
102
{ACAD_REACTORS
330
47
102
}
330
47
100
AcDbScale
 70
     0
300
1/2" = 1'-0"
140
0.5
141
12.0
290
     0
  0
SCALE
  5
63
102
{ACAD_REACTORS
330
47
102
}
330
47
100
AcDbScale
 70
     0
300
3/4" = 1'-0"
140
0.75
141
12.0
290
     0
  0
SCALE
  5
64
102
{ACAD_REACTORS
330
47
102
}
330
47
100
AcDbScale
 70
     0
300
1" = 1'-0"
140
1.0
141
12.0
290
     0
  0
SCALE
  5
65
102
{ACAD_REACTORS
330
47
102
}
330
47
100
AcDbScale
 70
     0
300
1-1/2" = 1'-0"
140
1.5
141
12.0
290
     0
  0
SCALE
  5
66
102
{ACAD_REACTORS
330
47
102
}
330
47
100
AcDbScale
 70
     0
300
3" = 1'-0"
140
3.0
141
12.0
290
     0
  0
SCALE
  5
67
102
{ACAD_REACTORS
330
47
102
}
330
47
100
AcDbScale
 70
     0
300
6" = 1'-0"
140
6.0
141
12.0
290
     0
  0
SCALE
  5
68
102
{ACAD_REACTORS
330
47
102
}
330
47
100
AcDbScale
 70
     0
300
1'-0" = 1'-0"
140
12.0
141
12.0
290
     0
  0
TABLESTYLE
  5
6A
102
{ACAD_REACTORS
330
69
102
}
102
{ACAD_XDICTIONARY
360
1EC
102
}
330
69
100
AcDbTableStyle
  3
Standard
 70
     0
 71
     0
 40
0.06
 41
0.06
280
     0
281
     0
  7
Standard
140
0.18
170
     2
 62
     0
 63
   257
283
     0
 90
        4
 91
        0
  1

274
    -2
284
     1
 64
     0
275
    -2
285
     1
 65
     0
276
    -2
286
     1
 66
     0
277
    -2
287
     1
 67
     0
278
    -2
288
     1
 68
     0
279
    -2
289
     1
 69
     0
  7
Standard
140
0.25
170
     5
 62
     0
 63
   257
283
     0
 90
        4
 91
        0
  1

274
    -2
284
     1
 64
     0
275
    -2
285
     1
 65
     0
276
    -2
286
     1
 66
     0
277
    -2
287
     1
 67
     0
278
    -2
288
     1
 68
     0
279
    -2
289
     1
 69
     0
  7
Standard
140
0.18
170
     5
 62
     0
 63
   257
283
     0
 90
        4
 91
        0
  1

274
    -2
284
     1
 64
     0
275
    -2
285
     1
 65
     0
276
    -2
286
     1
 66
     0
277
    -2
287
     1
 67
     0
278
    -2
288
     1
 68
     0
279
    -2
289
     1
 69
     0
  0
VISUALSTYLE
  5
2F
102
{ACAD_REACTORS
330
2A
102
}
330
2A
100
AcDbVisualStyle
  2
2dWireframe
 70
     4
177
     3
291
     0
 70
    58
 90
        0
176
     1
 90
        2
176
     1
 90
        0
176
     1
 90
        0
176
     1
 40
0.6
176
     1
 40
30.0
176
     1
 62
     7
420
 16777215
176
     1
 90
        1
176
     1
 90
        4
176
     1
 62
     7
176
     1
 62
   257
176
     1
 90
        1
176
     1
 90
        1
176
     1
 40
1.0
176
     1
 90
        0
176
     1
 62
   257
176
     1
 40
1.0
176
     1
 90
        1
176
     1
 90
        6
176
     1
 90
        2
176
     1
 62
     7
176
     1
 90
        5
176
     1
 90
        0
176
     1
 90
        0
176
     1
290
     0
176
     1
 90
        1
176
     1
 40
0.0
176
     1
 90
        0
176
     1
290
     1
176
     1
290
     1
176
     1
290
     0
176
     1
290
     0
176
     1
290
     0
176
     1
290
     0
176
     1
290
     0
176
     1
290
     0
176
     1
290
     0
176
     1
 90
       50
176
     1
 40
0.0
176
     1
 40
1.0
176
     1
 90
        0
176
     1
 62
    18
420
        0
176
     1
 90
       50
176
     1
 90
        3
176
     1
 62
     5
420
      255
176
     1
290
     0
176
     1
 90
       50
176
     1
 90
       50
176
     1
 90
       50
176
     1
290
     0
176
     1
 90
       50
176
     1
 62
   256
176
     0
 40
1.0
176
     0
 90
        2
176
     1
  1
strokes_ogs.tif
176
     1
290
     0
176
     1
 40
1.0
176
     1
 40
1.0
176
     1
  0
VISUALSTYLE
  5
32
102
{ACAD_REACTORS
330
2A
102
}
330
2A
100
AcDbVisualStyle
  2
Basic
 70
     7
177
     3
291
     1
 70
    58
 90
        1
176
     1
 90
        0
176
     1
 90
        1
176
     1
 90
        0
176
     1
 40
0.6
176
     1
 40
30.0
176
     1
 62
     7
420
 16777215
176
     1
 90
        0
176
     1
 90
        4
176
     1
 62
     7
176
     1
 62
   257
176
     1
 90
        1
176
     1
 90
        1
176
     1
 40
1.0
176
     1
 90
        8
176
     1
 62
     7
176
     1
 40
1.0
176
     1
 90
        1
176
     1
 90
        6
176
     1
 90
        2
176
     1
 62
     7
176
     1
 90
        5
176
     1
 90
        0
176
     1
 90
        0
176
     1
290
     0
176
     1
 90
        1
176
     1
 40
0.0
176
     1
 90
        0
176
     1
290
     0
176
     1
290
     1
176
     1
290
     1
176
     1
290
     0
176
     1
290
     0
176
     1
290
     0
176
     1
290
     0
176
     1
290
     0
176
     1
290
     0
176
     1
 90
       50
176
     1
 40
0.0
176
     1
 40
1.0
176
     1
 90
        0
176
     1
 62
    18
420
        0
176
     1
 90
       50
176
     1
 90
        3
176
     1
 62
     5
420
      255
176
     1
290
     0
176
     1
 90
       50
176
     1
 90
       50
176
     1
 90
       50
176
     1
290
     0
176
     1
 90
       50
176
     1
 62
   256
176
     0
 40
1.0
176
     0
 90
        2
176
     1
  1
strokes_ogs.tif
176
     1
290
     0
176
     1
 40
1.0
176
     1
 40
1.0
176
     1
  0
VISUALSTYLE
  5
36
102
{ACAD_REACTORS
330
2A
102
}
330
2A
100
AcDbVisualStyle
  2
Brighten
 70
    12
177
     3
291
     1
 70
    58
 90
        2
176
     1
 90
        2
176
     1
 90
        0
176
     1
 90
        0
176
     1
 40
0.6
176
     1
 40
30.0
176
     1
 62
     7
420
 16777215
176
     1
 90
        1
176
     1
 90
        4
176
     1
 62
     7
176
     1
 62
   257
176
     1
 90
        1
176
     1
 90
        1
176
     1
 40
1.0
176
     1
 90
        8
176
     1
 62
     7
176
     1
 40
1.0
176
     1
 90
        1
176
     1
 90
        6
176
     1
 90
        2
176
     1
 62
     7
176
     1
 90
        5
176
     1
 90
        0
176
     1
 90
        0
176
     1
290
     0
176
     1
 90
        1
176
     1
 40
50.0
176
     1
 90
        0
176
     1
290
     0
176
     1
290
     1
176
     1
290
     1
176
     1
290
     0
176
     1
290
     0
176
     1
290
     0
176
     1
290
     0
176
     1
290
     0
176
     1
290
     0
176
     1
 90
       50
176
     1
 40
0.0
176
     1
 40
1.0
176
     1
 90
        0
176
     1
 62
    18
420
        0
176
     1
 90
       50
176
     1
 90
        3
176
     1
 62
     5
420
      255
176
     1
290
     0
176
     1
 90
       50
176
     1
 90
       50
176
     1
 90
       50
176
     1
290
     0
176
     1
 90
       50
176
     1
 62
   256
176
     0
 40
1.0
176
     0
 90
        2
176
     1
  1
strokes_ogs.tif
176
     1
290
     0
176
     1
 40
1.0
176
     1
 40
1.0
176
     1
  0
VISUALSTYLE
  5
3A
102
{ACAD_REACTORS
330
2A
102
}
330
2A
100
AcDbVisualStyle
  2
ColorChange
 70
    16
177
     3
291
     1
 70
    58
 90
        2
176
     1
 90
        2
176
     1
 90
        3
176
     1
 90
        0
176
     1
 40
0.6
176
     1
 40
30.0
176
     1
 62
     8
420
  8421504
176
     1
 90
        1
176
     1
 90
        4
176
     1
 62
     7
176
     1
 62
   257
176
     1
 90
        1
176
     1
 90
        1
176
     1
 40
1.0
176
     1
 90
        8
176
     1
 62
     8
420
  8421504
176
     1
 40
1.0
176
     1
 90
        1
176
     1
 90
        6
176
     1
 90
        2
176
     1
 62
     7
176
     1
 90
        5
176
     1
 90
        0
176
     1
 90
        0
176
     1
290
     0
176
     1
 90
        1
176
     1
 40
0.0
176
     1
 90
        0
176
     1
290
     0
176
     1
290
     1
176
     1
290
     1
176
     1
290
     0
176
     1
290
     0
176
     1
290
     0
176
     1
290
     0
176
     1
290
     0
176
     1
290
     0
176
     1
 90
       50
176
     1
 40
0.0
176
     1
 40
1.0
176
     1
 90
        0
176
     1
 62
    18
420
        0
176
     1
 90
       50
176
     1
 90
        3
176
     1
 62
     5
420
      255
176
     1
290
     0
176
     1
 90
       50
176
     1
 90
       50
176
     1
 90
       50
176
     1
290
     0
176
     1
 90
       50
176
     1
 62
   256
176
     0
 40
1.0
176
     0
 90
        2
176
     1
  1
strokes_ogs.tif
176
     1
290
     0
176
     1
 40
1.0
176
     1
 40
1.0
176
     1
  0
VISUALSTYLE
  5
34
102
{ACAD_REACTORS
330
2A
102
}
330
2A
100
AcDbVisualStyle
  2
Conceptual
 70
     9
177
     3
291
     0
 70
    58
 90
        3
176
     1
 90
        2
176
     1
 90
        0
176
     1
 90
        0
176
     1
 40
0.6
176
     1
 40
30.0
176
     1
 62
     7
420
 16777215
176
     1
 90
        2
176
     1
 90
        2
176
     1
 62
     7
176
     1
 62
   257
176
     1
 90
        1
176
     1
 90
        1
176
     1
 40
179.0
176
     1
 90
        8
176
     1
 62
     7
176
     1
 40
1.0
176
     1
 90
        1
176
     1
 90
        6
176
     1
 90
        2
176
     1
 62
     7
176
     1
 90
        3
176
     1
 90
        0
176
     1
 90
        0
176
     1
290
     0
176
     1
 90
        1
176
     1
 40
0.0
176
     1
 90
        0
176
     1
290
     0
176
     1
290
     1
176
     1
290
     1
176
     1
290
     0
176
     1
290
     0
176
     1
290
     0
176
     1
290
     0
176
     1
290
     0
176
     1
290
     0
176
     1
 90
       50
176
     1
 40
0.0
176
     1
 40
1.0
176
     1
 90
        0
176
     1
 62
    18
420
        0
176
     1
 90
       50
176
     1
 90
        3
176
     1
 62
     5
420
      255
176
     1
290
     0
176
     1
 90
       50
176
     1
 90
       50
176
     1
 90
       50
176
     1
290
     0
176
     1
 90
       50
176
     1
 62
   256
176
     0
 40
1.0
176
     0
 90
        2
176
     1
  1
strokes_ogs.tif
176
     1
290
     0
176
     1
 40
1.0
176
     1
 40
1.0
176
     1
  0
VISUALSTYLE
  5
35
102
{ACAD_REACTORS
330
2A
102
}
330
2A
100
AcDbVisualStyle
  2
Dim
 70
    11
177
     3
291
     1
 70
    58
 90
        2
176
     1
 90
        2
176
     1
 90
        0
176
     1
 90
        0
176
     1
 40
0.6
176
     1
 40
30.0
176
     1
 62
     7
420
 16777215
176
     1
 90
        1
176
     1
 90
        4
176
     1
 62
     7
176
     1
 62
   257
176
     1
 90
        1
176
     1
 90
        1
176
     1
 40
1.0
176
     1
 90
        8
176
     1
 62
     7
176
     1
 40
1.0
176
     1
 90
        1
176
     1
 90
        6
176
     1
 90
        2
176
     1
 62
     7
176
     1
 90
        5
176
     1
 90
        0
176
     1
 90
        0
176
     1
290
     0
176
     1
 90
        1
176
     1
 40
-50.0
176
     1
 90
        0
176
     1
290
     0
176
     1
290
     1
176
     1
290
     1
176
     1
290
     0
176
     1
290
     0
176
     1
290
     0
176
     1
290
     0
176
     1
290
     0
176
     1
290
     0
176
     1
 90
       50
176
     1
 40
0.0
176
     1
 40
1.0
176
     1
 90
        0
176
     1
 62
    18
420
        0
176
     1
 90
       50
176
     1
 90
        3
176
     1
 62
     5
420
      255
176
     1
290
     0
176
     1
 90
       50
176
     1
 90
       50
176
     1
 90
       50
176
     1
290
     0
176
     1
 90
       50
176
     1
 62
   256
176
     0
 40
1.0
176
     0
 90
        2
176
     1
  1
strokes_ogs.tif
176
     1
290
     0
176
     1
 40
1.0
176
     1
 40
1.0
176
     1
  0
VISUALSTYLE
  5
3D
102
{ACAD_REACTORS
330
2A
102
}
330
2A
100
AcDbVisualStyle
  2
EdgeColorOff
 70
    22
177
     3
291
     1
 70
    58
 90
        2
176
     0
 90
        2
176
     0
 90
        0
176
     0
 90
        0
176
     0
 40
0.6
176
     0
 40
30.0
176
     0
 62
     7
420
 16777215
176
     0
 90
        1
176
     0
 90
        4
176
     0
 62
     7
176
     0
 62
   257
176
     0
 90
        1
176
     0
 90
        1
176
     0
 40
1.0
176
     0
 90
        8
176
     2
 62
     7
176
     0
 40
1.0
176
     0
 90
        1
176
     0
 90
        6
176
     0
 90
        2
176
     0
 62
     7
176
     0
 90
        5
176
     0
 90
        0
176
     0
 90
        0
176
     0
290
     0
176
     0
 90
        1
176
     0
 40
0.0
176
     0
 90
        0
176
     0
290
     0
176
     0
290
     1
176
     0
290
     1
176
     0
290
     0
176
     0
290
     0
176
     0
290
     0
176
     0
290
     0
176
     0
290
     0
176
     0
290
     0
176
     0
 90
       50
176
     0
 40
0.0
176
     0
 40
1.0
176
     0
 90
        0
176
     0
 62
    18
420
        0
176
     0
 90
       50
176
     0
 90
        3
176
     0
 62
     5
420
      255
176
     0
290
     0
176
     0
 90
       50
176
     0
 90
       50
176
     0
 90
       50
176
     0
290
     0
176
     0
 90
       50
176
     0
 62
   256
176
     0
 40
1.0
176
     0
 90
        2
176
     0
  1
strokes_ogs.tif
176
     0
290
     0
176
     0
 40
1.0
176
     0
 40
1.0
176
     0
  0
VISUALSTYLE
  5
39
102
{ACAD_REACTORS
330
2A
102
}
330
2A
100
AcDbVisualStyle
  2
Facepattern
 70
    15
177
     3
291
     1
 70
    58
 90
        2
176
     1
 90
        2
176
     1
 90
        0
176
     1
 90
        0
176
     1
 40
0.6
176
     1
 40
30.0
176
     1
 62
     7
420
 16777215
176
     1
 90
        1
176
     1
 90
        4
176
     1
 62
     7
176
     1
 62
   257
176
     1
 90
        1
176
     1
 90
        1
176
     1
 40
1.0
176
     1
 90
        8
176
     1
 62
     7
176
     1
 40
1.0
176
     1
 90
        1
176
     1
 90
        6
176
     1
 90
        2
176
     1
 62
     7
176
     1
 90
        5
176
     1
 90
        0
176
     1
 90
        0
176
     1
290
     0
176
     1
 90
        1
176
     1
 40
0.0
176
     1
 90
        0
176
     1
290
     0
176
     1
290
     1
176
     1
290
     1
176
     1
290
     0
176
     1
290
     0
176
     1
290
     0
176
     1
290
     0
176
     1
290
     0
176
     1
290
     0
176
     1
 90
       50
176
     1
 40
0.0
176
     1
 40
1.0
176
     1
 90
        0
176
     1
 62
    18
420
        0
176
     1
 90
       50
176
     1
 90
        3
176
     1
 62
     5
420
      255
176
     1
290
     0
176
     1
 90
       50
176
     1
 90
       50
176
     1
 90
       50
176
     1
290
     0
176
     1
 90
       50
176
     1
 62
   256
176
     0
 40
1.0
176
     0
 90
        2
176
     1
  1
strokes_ogs.tif
176
     1
290
     0
176
     1
 40
1.0
176
     1
 40
1.0
176
     1
  0
VISUALSTYLE
  5
2B
102
{ACAD_REACTORS
330
2A
102
}
330
2A
100
AcDbVisualStyle
  2
Flat
 70
     0
177
     3
291
     1
 70
    58
 90
        2
176
     1
 90
        1
176
     1
 90
        1
176
     1
 90
        2
176
     1
 40
0.6
176
     1
 40
30.0
176
     1
 62
     7
420
 16777215
176
     1
 90
        0
176
     1
 90
        0
176
     1
 62
     7
176
     1
 62
   257
176
     1
 90
        1
176
     1
 90
        1
176
     1
 40
1.0
176
     1
 90
        8
176
     1
 62
     7
176
     1
 40
1.0
176
     1
 90
        1
176
     1
 90
        6
176
     1
 90
        2
176
     1
 62
     7
176
     1
 90
        5
176
     1
 90
        0
176
     1
 90
        0
176
     1
290
     0
176
     1
 90
       13
176
     1
 40
0.0
176
     1
 90
        0
176
     1
290
     0
176
     1
290
     1
176
     1
290
     1
176
     1
290
     0
176
     1
290
     0
176
     1
290
     0
176
     1
290
     0
176
     1
290
     0
176
     1
290
     0
176
     1
 90
       50
176
     1
 40
0.0
176
     1
 40
1.0
176
     1
 90
        0
176
     1
 62
    18
420
        0
176
     1
 90
       50
176
     1
 90
        3
176
     1
 62
     5
420
      255
176
     1
290
     0
176
     1
 90
       50
176
     1
 90
       50
176
     1
 90
       50
176
     1
290
     0
176
     1
 90
       50
176
     1
 62
   256
176
     0
 40
1.0
176
     0
 90
        2
176
     1
  1
strokes_ogs.tif
176
     1
290
     0
176
     1
 40
1.0
176
     1
 40
1.0
176
     1
  0
VISUALSTYLE
  5
2C
102
{ACAD_REACTORS
330
2A
102
}
330
2A
100
AcDbVisualStyle
  2
FlatWithEdges
 70
     1
177
     3
291
     1
 70
    58
 90
        2
176
     1
 90
        1
176
     1
 90
        1
176
     1
 90
        2
176
     1
 40
0.6
176
     1
 40
30.0
176
     1
 62
     7
420
 16777215
176
     1
 90
        1
176
     1
 90
        0
176
     1
 62
     7
176
     1
 62
   257
176
     1
 90
        1
176
     1
 90
        1
176
     1
 40
1.0
176
     1
 90
        0
176
     1
 62
   257
176
     1
 40
1.0
176
     1
 90
        1
176
     1
 90
        6
176
     1
 90
        2
176
     1
 62
     7
176
     1
 90
        5
176
     1
 90
        0
176
     1
 90
        0
176
     1
290
     0
176
     1
 90
       13
176
     1
 40
0.0
176
     1
 90
        0
176
     1
290
     0
176
     1
290
     1
176
     1
290
     1
176
     1
290
     0
176
     1
290
     0
176
     1
290
     0
176
     1
290
     0
176
     1
290
     0
176
     1
290
     0
176
     1
 90
       50
176
     1
 40
0.0
176
     1
 40
1.0
176
     1
 90
        0
176
     1
 62
    18
420
        0
176
     1
 90
       50
176
     1
 90
        3
176
     1
 62
     5
420
      255
176
     1
290
     0
176
     1
 90
       50
176
     1
 90
       50
176
     1
 90
       50
176
     1
290
     0
176
     1
 90
       50
176
     1
 62
   256
176
     0
 40
1.0
176
     0
 90
        2
176
     1
  1
strokes_ogs.tif
176
     1
290
     0
176
     1
 40
1.0
176
     1
 40
1.0
176
     1
  0
VISUALSTYLE
  5
2D
102
{ACAD_REACTORS
330
2A
102
}
330
2A
100
AcDbVisualStyle
  2
Gouraud
 70
     2
177
     3
291
     1
 70
    58
 90
        2
176
     1
 90
        2
176
     1
 90
        1
176
     1
 90
        2
176
     1
 40
0.6
176
     1
 40
30.0
176
     1
 62
     7
420
 16777215
176
     1
 90
        0
176
     1
 90
        0
176
     1
 62
     7
176
     1
 62
   257
176
     1
 90
        1
176
     1
 90
        1
176
     1
 40
1.0
176
     1
 90
        0
176
     1
 62
     7
176
     1
 40
1.0
176
     1
 90
        1
176
     1
 90
        6
176
     1
 90
        2
176
     1
 62
     7
176
     1
 90
        5
176
     1
 90
        0
176
     1
 90
        0
176
     1
290
     0
176
     1
 90
       13
176
     1
 40
0.0
176
     1
 90
        0
176
     1
290
     0
176
     1
290
     1
176
     1
290
     1
176
     1
290
     0
176
     1
290
     0
176
     1
290
     0
176
     1
290
     0
176
     1
290
     0
176
     1
290
     0
176
     1
 90
       50
176
     1
 40
0.0
176
     1
 40
1.0
176
     1
 90
        0
176
     1
 62
    18
420
        0
176
     1
 90
       50
176
     1
 90
        3
176
     1
 62
     5
420
      255
176
     1
290
     0
176
     1
 90
       50
176
     1
 90
       50
176
     1
 90
       50
176
     1
290
     0
176
     1
 90
       50
176
     1
 62
   256
176
     0
 40
1.0
176
     0
 90
        2
176
     1
  1
strokes_ogs.tif
176
     1
290
     0
176
     1
 40
1.0
176
     1
 40
1.0
176
     1
  0
VISUALSTYLE
  5
2E
102
{ACAD_REACTORS
330
2A
102
}
330
2A
100
AcDbVisualStyle
  2
GouraudWithEdges
 70
     3
177
     3
291
     1
 70
    58
 90
        2
176
     1
 90
        2
176
     1
 90
        1
176
     1
 90
        2
176
     1
 40
0.6
176
     1
 40
30.0
176
     1
 62
     7
420
 16777215
176
     1
 90
        1
176
     1
 90
        0
176
     1
 62
     7
176
     1
 62
   257
176
     1
 90
        1
176
     1
 90
        1
176
     1
 40
1.0
176
     1
 90
        0
176
     1
 62
   257
176
     1
 40
1.0
176
     1
 90
        1
176
     1
 90
        6
176
     1
 90
        2
176
     1
 62
     7
176
     1
 90
        5
176
     1
 90
        0
176
     1
 90
        0
176
     1
290
     0
176
     1
 90
       13
176
     1
 40
0.0
176
     1
 90
        0
176
     1
290
     0
176
     1
290
     1
176
     1
290
     1
176
     1
290
     0
176
     1
290
     0
176
     1
290
     0
176
     1
290
     0
176
     1
290
     0
176
     1
290
     0
176
     1
 90
       50
176
     1
 40
0.0
176
     1
 40
1.0
176
     1
 90
        0
176
     1
 62
    18
420
        0
176
     1
 90
       50
176
     1
 90
        3
176
     1
 62
     5
420
      255
176
     1
290
     0
176
     1
 90
       50
176
     1
 90
       50
176
     1
 90
       50
176
     1
290
     0
176
     1
 90
       50
176
     1
 62
   256
176
     0
 40
1.0
176
     0
 90
        2
176
     1
  1
strokes_ogs.tif
176
     1
290
     0
176
     1
 40
1.0
176
     1
 40
1.0
176
     1
  0
VISUALSTYLE
  5
31
102
{ACAD_REACTORS
330
2A
102
}
330
2A
100
AcDbVisualStyle
  2
Hidden
 70
     6
177
     3
291
     0
 70
    58
 90
        1
176
     1
 90
        2
176
     1
 90
        2
176
     1
 90
        0
176
     1
 40
0.6
176
     1
 40
30.0
176
     1
 62
     7
420
 16777215
176
     1
 90
        2
176
     1
 90
        2
176
     1
 62
     7
176
     1
 62
   257
176
     1
 90
        2
176
     1
 90
        1
176
     1
 40
40.0
176
     1
 90
        0
176
     1
 62
   257
176
     1
 40
1.0
176
     1
 90
        1
176
     1
 90
        6
176
     1
 90
        2
176
     1
 62
     7
176
     1
 90
        3
176
     1
 90
        0
176
     1
 90
        0
176
     1
290
     0
176
     1
 90
        1
176
     1
 40
0.0
176
     1
 90
        0
176
     1
290
     0
176
     1
290
     1
176
     1
290
     1
176
     1
290
     0
176
     1
290
     0
176
     1
290
     0
176
     1
290
     0
176
     1
290
     0
176
     1
290
     0
176
     1
 90
       50
176
     1
 40
0.0
176
     1
 40
1.0
176
     1
 90
        0
176
     1
 62
    18
420
        0
176
     1
 90
       50
176
     1
 90
        3
176
     1
 62
     5
420
      255
176
     1
290
     0
176
     1
 90
       50
176
     1
 90
       50
176
     1
 90
       50
176
     1
290
     0
176
     1
 90
       50
176
     1
 62
   256
176
     0
 40
1.0
176
     0
 90
        2
176
     1
  1
strokes_ogs.tif
176
     1
290
     0
176
     1
 40
1.0
176
     1
 40
1.0
176
     1
  0
VISUALSTYLE
  5
3B
102
{ACAD_REACTORS
330
2A
102
}
330
2A
100
AcDbVisualStyle
  2
JitterOff
 70
    20
177
     3
291
     1
 70
    58
 90
        2
176
     0
 90
        2
176
     0
 90
        0
176
     0
 90
        0
176
     0
 40
0.6
176
     0
 40
30.0
176
     0
 62
     7
420
 16777215
176
     0
 90
        1
176
     0
 90
        4
176
     0
 62
     7
176
     0
 62
   257
176
     0
 90
        1
176
     0
 90
        1
176
     0
 40
1.0
176
     0
 90
       10
176
     2
 62
     7
176
     0
 40
1.0
176
     0
 90
        1
176
     0
 90
        6
176
     0
 90
        2
176
     0
 62
     7
176
     0
 90
        5
176
     0
 90
        0
176
     0
 90
        0
176
     0
290
     0
176
     0
 90
        1
176
     0
 40
0.0
176
     0
 90
        0
176
     0
290
     0
176
     0
290
     1
176
     0
290
     1
176
     0
290
     0
176
     0
290
     0
176
     0
290
     0
176
     0
290
     0
176
     0
290
     0
176
     0
290
     0
176
     0
 90
       50
176
     0
 40
0.0
176
     0
 40
1.0
176
     0
 90
        0
176
     0
 62
    18
420
        0
176
     0
 90
       50
176
     0
 90
        3
176
     0
 62
     5
420
      255
176
     0
290
     0
176
     0
 90
       50
176
     0
 90
       50
176
     0
 90
       50
176
     0
290
     0
176
     0
 90
       50
176
     0
 62
   256
176
     0
 40
1.0
176
     0
 90
        2
176
     0
  1
strokes_ogs.tif
176
     0
290
     0
176
     0
 40
1.0
176
     0
 40
1.0
176
     0
  0
VISUALSTYLE
  5
38
102
{ACAD_REACTORS
330
2A
102
}
330
2A
100
AcDbVisualStyle
  2
Linepattern
 70
    14
177
     3
291
     1
 70
    58
 90
        2
176
     1
 90
        2
176
     1
 90
        0
176
     1
 90
        0
176
     1
 40
0.6
176
     1
 40
30.0
176
     1
 62
     7
420
 16777215
176
     1
 90
        1
176
     1
 90
        4
176
     1
 62
     7
176
     1
 62
   257
176
     1
 90
        7
176
     1
 90
        7
176
     1
 40
1.0
176
     1
 90
        8
176
     1
 62
     7
176
     1
 40
1.0
176
     1
 90
        1
176
     1
 90
        6
176
     1
 90
        2
176
     1
 62
     7
176
     1
 90
        5
176
     1
 90
        0
176
     1
 90
        0
176
     1
290
     0
176
     1
 90
        1
176
     1
 40
0.0
176
     1
 90
        0
176
     1
290
     0
176
     1
290
     1
176
     1
290
     1
176
     1
290
     0
176
     1
290
     0
176
     1
290
     0
176
     1
290
     0
176
     1
290
     0
176
     1
290
     0
176
     1
 90
       50
176
     1
 40
0.0
176
     1
 40
1.0
176
     1
 90
        0
176
     1
 62
    18
420
        0
176
     1
 90
       50
176
     1
 90
        3
176
     1
 62
     5
420
      255
176
     1
290
     0
176
     1
 90
       50
176
     1
 90
       50
176
     1
 90
       50
176
     1
290
     0
176
     1
 90
       50
176
     1
 62
   256
176
     0
 40
1.0
176
     0
 90
        2
176
     1
  1
strokes_ogs.tif
176
     1
290
     0
176
     1
 40
1.0
176
     1
 40
1.0
176
     1
  0
VISUALSTYLE
  5
3C
102
{ACAD_REACTORS
330
2A
102
}
330
2A
100
AcDbVisualStyle
  2
OverhangOff
 70
    21
177
     3
291
     1
 70
    58
 90
        2
176
     0
 90
        2
176
     0
 90
        0
176
     0
 90
        0
176
     0
 40
0.6
176
     0
 40
30.0
176
     0
 62
     7
420
 16777215
176
     0
 90
        1
176
     0
 90
        4
176
     0
 62
     7
176
     0
 62
   257
176
     0
 90
        1
176
     0
 90
        1
176
     0
 40
1.0
176
     0
 90
        9
176
     2
 62
     7
176
     0
 40
1.0
176
     0
 90
        1
176
     0
 90
        6
176
     0
 90
        2
176
     0
 62
     7
176
     0
 90
        5
176
     0
 90
        0
176
     0
 90
        0
176
     0
290
     0
176
     0
 90
        1
176
     0
 40
0.0
176
     0
 90
        0
176
     0
290
     0
176
     0
290
     1
176
     0
290
     1
176
     0
290
     0
176
     0
290
     0
176
     0
290
     0
176
     0
290
     0
176
     0
290
     0
176
     0
290
     0
176
     0
 90
       50
176
     0
 40
0.0
176
     0
 40
1.0
176
     0
 90
        0
176
     0
 62
    18
420
        0
176
     0
 90
       50
176
     0
 90
        3
176
     0
 62
     5
420
      255
176
     0
290
     0
176
     0
 90
       50
176
     0
 90
       50
176
     0
 90
       50
176
     0
290
     0
176
     0
 90
       50
176
     0
 62
   256
176
     0
 40
1.0
176
     0
 90
        2
176
     0
  1
strokes_ogs.tif
176
     0
290
     0
176
     0
 40
1.0
176
     0
 40
1.0
176
     0
  0
VISUALSTYLE
  5
33
102
{ACAD_REACTORS
330
2A
102
}
330
2A
100
AcDbVisualStyle
  2
Realistic
 70
     8
177
     3
291
     0
 70
    58
 90
        2
176
     1
 90
        3
176
     1
 90
        0
176
     1
 90
        2
176
     1
 40
0.6
176
     1
 40
30.0
176
     1
 62
     7
420
 16777215
176
     1
 90
        0
176
     1
 90
        0
176
     1
 62
     7
176
     1
 62
   257
176
     1
 90
        1
176
     1
 90
        1
176
     1
 40
1.0
176
     1
 90
        8
176
     1
 62
   257
176
     1
 40
1.0
176
     1
 90
        1
176
     1
 90
        6
176
     1
 90
        2
176
     1
 62
     7
176
     1
 90
        3
176
     1
 90
        0
176
     1
 90
        0
176
     1
290
     0
176
     1
 90
       13
176
     1
 40
0.0
176
     1
 90
        0
176
     1
290
     0
176
     1
290
     1
176
     1
290
     1
176
     1
290
     0
176
     1
290
     0
176
     1
290
     0
176
     1
290
     0
176
     1
290
     0
176
     1
290
     0
176
     1
 90
       50
176
     1
 40
0.0
176
     1
 40
1.0
176
     1
 90
        0
176
     1
 62
    18
420
        0
176
     1
 90
       50
176
     1
 90
        3
176
     1
 62
     5
420
      255
176
     1
290
     0
176
     1
 90
       50
176
     1
 90
       50
176
     1
 90
       50
176
     1
290
     0
176
     1
 90
       50
176
     1
 62
   256
176
     0
 40
1.0
176
     0
 90
        2
176
     1
  1
strokes_ogs.tif
176
     1
290
     0
176
     1
 40
1.0
176
     1
 40
1.0
176
     1
  0
VISUALSTYLE
  5
42
102
{ACAD_REACTORS
330
2A
102
}
330
2A
100
AcDbVisualStyle
  2
Shaded
 70
    27
177
     3
291
     0
 70
    58
 90
        2
176
     1
 90
        2
176
     1
 90
        1
176
     1
 90
        2
176
     1
 40
0.6
176
     1
 40
30.0
176
     1
 62
     7
420
 16777215
176
     1
 90
        0
176
     1
 90
        4
176
     1
 62
     7
176
     1
 62
   257
176
     1
 90
        1
176
     1
 90
        1
176
     1
 40
1.0
176
     1
 90
        8
176
     1
 62
   257
176
     1
 40
1.0
176
     1
 90
        1
176
     1
 90
        6
176
     1
 90
        2
176
     1
 62
     8
420
  7895160
176
     1
 90
        3
176
     1
 90
        0
176
     1
 90
        0
176
     1
290
     0
176
     1
 90
        5
176
     1
 40
0.0
176
     1
 90
        0
176
     1
290
     0
176
     1
290
     1
176
     1
290
     1
176
     1
290
     0
176
     1
290
     0
176
     1
290
     0
176
     1
290
     0
176
     1
290
     0
176
     1
290
     0
176
     1
 90
       50
176
     1
 40
0.0
176
     1
 40
1.0
176
     1
 90
        0
176
     1
 62
    18
420
        0
176
     1
 90
       50
176
     1
 90
        3
176
     1
 62
     5
420
      255
176
     1
290
     0
176
     1
 90
       50
176
     1
 90
       50
176
     1
 90
       50
176
     1
290
     0
176
     1
 90
       50
176
     1
 62
   256
176
     0
 40
1.0
176
     0
 90
        2
176
     1
  1
strokes_ogs.tif
176
     1
290
     0
176
     1
 40
1.0
176
     1
 40
1.0
176
     1
  0
VISUALSTYLE
  5
41
102
{ACAD_REACTORS
330
2A
102
}
330
2A
100
AcDbVisualStyle
  2
Shaded with edges
 70
    26
177
     3
291
     0
 70
    58
 90
        2
176
     1
 90
        2
176
     1
 90
        1
176
     1
 90
        2
176
     1
 40
0.6
176
     1
 40
30.0
176
     1
 62
     7
420
 16777215
176
     1
 90
        1
176
     1
 90
       10
176
     1
 62
     7
176
     1
 62
   257
176
     1
 90
        2
176
     1
 90
        1
176
     1
 40
1.0
176
     1
 90
        8
176
     1
 62
   257
176
     1
 40
1.0
176
     1
 90
        1
176
     1
 90
        6
176
     1
 90
        2
176
     1
 62
     7
176
     1
 90
        3
176
     1
 90
        0
176
     1
 90
        0
176
     1
290
     0
176
     1
 90
        5
176
     1
 40
0.0
176
     1
 90
        0
176
     1
290
     0
176
     1
290
     1
176
     1
290
     1
176
     1
290
     0
176
     1
290
     0
176
     1
290
     0
176
     1
290
     0
176
     1
290
     0
176
     1
290
     0
176
     1
 90
       50
176
     1
 40
0.0
176
     1
 40
1.0
176
     1
 90
        0
176
     1
 62
    18
420
        0
176
     1
 90
       50
176
     1
 90
        3
176
     1
 62
     5
420
      255
176
     1
290
     0
176
     1
 90
       50
176
     1
 90
       50
176
     1
 90
       50
176
     1
290
     0
176
     1
 90
       50
176
     1
 62
   256
176
     0
 40
1.0
176
     0
 90
        2
176
     1
  1
strokes_ogs.tif
176
     1
290
     0
176
     1
 40
1.0
176
     1
 40
1.0
176
     1
  0
VISUALSTYLE
  5
3E
102
{ACAD_REACTORS
330
2A
102
}
330
2A
100
AcDbVisualStyle
  2
Shades of Gray
 70
    23
177
     3
291
     0
 70
    58
 90
        2
176
     1
 90
        2
176
     1
 90
        3
176
     1
 90
        0
176
     1
 40
0.6
176
     1
 40
30.0
176
     1
 62
     7
420
 16777215
176
     1
 90
        2
176
     1
 90
        2
176
     1
 62
     7
176
     1
 62
     7
176
     1
 90
        1
176
     1
 90
        1
176
     1
 40
40.0
176
     1
 90
        8
176
     1
 62
     7
176
     1
 40
1.0
176
     1
 90
        1
176
     1
 90
        6
176
     1
 90
        2
176
     1
 62
     7
176
     1
 90
        3
176
     1
 90
        0
176
     1
 90
        0
176
     1
290
     0
176
     1
 90
        1
176
     1
 40
0.0
176
     1
 90
        0
176
     1
290
     0
176
     1
290
     1
176
     1
290
     1
176
     1
290
     0
176
     1
290
     0
176
     1
290
     0
176
     1
290
     0
176
     1
290
     0
176
     1
290
     0
176
     1
 90
       50
176
     1
 40
0.0
176
     1
 40
1.0
176
     1
 90
        0
176
     1
 62
    18
420
        0
176
     1
 90
       50
176
     1
 90
        3
176
     1
 62
     5
420
      255
176
     1
290
     0
176
     1
 90
       50
176
     1
 90
       50
176
     1
 90
       50
176
     1
290
     0
176
     1
 90
       50
176
     1
 62
   256
176
     0
 40
1.0
176
     0
 90
        2
176
     1
  1
strokes_ogs.tif
176
     1
290
     0
176
     1
 40
1.0
176
     1
 40
1.0
176
     1
  0
VISUALSTYLE
  5
3F
102
{ACAD_REACTORS
330
2A
102
}
330
2A
100
AcDbVisualStyle
  2
Sketchy
 70
    24
177
     3
291
     0
 70
    58
 90
        1
176
     1
 90
        2
176
     1
 90
        2
176
     1
 90
        0
176
     1
 40
0.6
176
     1
 40
30.0
176
     1
 62
     7
420
 16777215
176
     1
 90
        2
176
     1
 90
        2
176
     1
 62
     7
176
     1
 62
     7
176
     1
 90
        1
176
     1
 90
        1
176
     1
 40
40.0
176
     1
 90
       11
176
     1
 62
     7
176
     1
 40
1.0
176
     1
 90
        1
176
     1
 90
        6
176
     1
 90
        2
176
     1
 62
     7
176
     1
 90
        6
176
     1
 90
        0
176
     1
 90
        0
176
     1
290
     0
176
     1
 90
        1
176
     1
 40
0.0
176
     1
 90
        0
176
     1
290
     0
176
     1
290
     1
176
     1
290
     1
176
     1
290
     0
176
     1
290
     0
176
     1
290
     0
176
     1
290
     0
176
     1
290
     0
176
     1
290
     0
176
     1
 90
       50
176
     1
 40
0.0
176
     1
 40
1.0
176
     1
 90
        0
176
     1
 62
    18
420
        0
176
     1
 90
       50
176
     1
 90
        3
176
     1
 62
     5
420
      255
176
     1
290
     0
176
     1
 90
       50
176
     1
 90
       50
176
     1
 90
       50
176
     1
290
     0
176
     1
 90
       50
176
     1
 62
   256
176
     0
 40
1.0
176
     0
 90
        2
176
     1
  1
strokes_ogs.tif
176
     1
290
     0
176
     1
 40
1.0
176
     1
 40
1.0
176
     1
  0
VISUALSTYLE
  5
37
102
{ACAD_REACTORS
330
2A
102
}
330
2A
100
AcDbVisualStyle
  2
Thicken
 70
    13
177
     3
291
     1
 70
    58
 90
        2
176
     1
 90
        2
176
     1
 90
        0
176
     1
 90
        0
176
     1
 40
0.6
176
     1
 40
30.0
176
     1
 62
     7
420
 16777215
176
     1
 90
        1
176
     1
 90
        4
176
     1
 62
     7
176
     1
 62
   257
176
     1
 90
        1
176
     1
 90
        1
176
     1
 40
1.0
176
     1
 90
       12
176
     1
 62
     7
176
     1
 40
1.0
176
     1
 90
        1
176
     1
 90
        6
176
     1
 90
        2
176
     1
 62
     7
176
     1
 90
        5
176
     1
 90
        0
176
     1
 90
        0
176
     1
290
     0
176
     1
 90
        1
176
     1
 40
0.0
176
     1
 90
        0
176
     1
290
     0
176
     1
290
     1
176
     1
290
     1
176
     1
290
     0
176
     1
290
     0
176
     1
290
     0
176
     1
290
     0
176
     1
290
     0
176
     1
290
     0
176
     1
 90
       50
176
     1
 40
0.0
176
     1
 40
1.0
176
     1
 90
        0
176
     1
 62
    18
420
        0
176
     1
 90
       50
176
     1
 90
        3
176
     1
 62
     5
420
      255
176
     1
290
     0
176
     1
 90
       50
176
     1
 90
       50
176
     1
 90
       50
176
     1
290
     0
176
     1
 90
       50
176
     1
 62
   256
176
     0
 40
1.0
176
     0
 90
        2
176
     1
  1
strokes_ogs.tif
176
     1
290
     0
176
     1
 40
1.0
176
     1
 40
1.0
176
     1
  0
VISUALSTYLE
  5
30
102
{ACAD_REACTORS
330
2A
102
}
330
2A
100
AcDbVisualStyle
  2
Wireframe
 70
     5
177
     3
291
     0
 70
    58
 90
        0
176
     1
 90
        2
176
     1
 90
        0
176
     1
 90
        0
176
     1
 40
0.6
176
     1
 40
30.0
176
     1
 62
     7
420
 16777215
176
     1
 90
        1
176
     1
 90
        4
176
     1
 62
     7
176
     1
 62
   257
176
     1
 90
        1
176
     1
 90
        1
176
     1
 40
1.0
176
     1
 90
        0
176
     1
 62
   257
176
     1
 40
1.0
176
     1
 90
        1
176
     1
 90
        6
176
     1
 90
        2
176
     1
 62
     7
176
     1
 90
        3
176
     1
 90
        0
176
     1
 90
        0
176
     1
290
     0
176
     1
 90
        1
176
     1
 40
0.0
176
     1
 90
        0
176
     1
290
     0
176
     1
290
     1
176
     1
290
     1
176
     1
290
     0
176
     1
290
     0
176
     1
290
     0
176
     1
290
     0
176
     1
290
     0
176
     1
290
     0
176
     1
 90
       50
176
     1
 40
0.0
176
     1
 40
1.0
176
     1
 90
        0
176
     1
 62
    18
420
        0
176
     1
 90
       50
176
     1
 90
        3
176
     1
 62
     5
420
      255
176
     1
290
     0
176
     1
 90
       50
176
     1
 90
       50
176
     1
 90
       50
176
     1
290
     0
176
     1
 90
       50
176
     1
 62
   256
176
     0
 40
1.0
176
     0
 90
        2
176
     1
  1
strokes_ogs.tif
176
     1
290
     0
176
     1
 40
1.0
176
     1
 40
1.0
176
     1
  0
VISUALSTYLE
  5
40
102
{ACAD_REACTORS
330
2A
102
}
330
2A
100
AcDbVisualStyle
  2
X-Ray
 70
    25
177
     3
291
     0
 70
    58
 90
        2
176
     1
 90
        2
176
     1
 90
        1
176
     1
 90
        1
176
     1
 40
0.5
176
     1
 40
30.0
176
     1
 62
     7
420
 16777215
176
     1
 90
        1
176
     1
 90
        0
176
     1
 62
     7
176
     1
 62
   257
176
     1
 90
        1
176
     1
 90
        1
176
     1
 40
1.0
176
     1
 90
        8
176
     1
 62
     7
176
     1
 40
1.0
176
     1
 90
        1
176
     1
 90
        6
176
     1
 90
        2
176
     1
 62
     7
176
     1
 90
        3
176
     1
 90
        0
176
     1
 90
        0
176
     1
290
     0
176
     1
 90
       13
176
     1
 40
0.0
176
     1
 90
        0
176
     1
290
     0
176
     1
290
     1
176
     1
290
     1
176
     1
290
     0
176
     1
290
     0
176
     1
290
     0
176
     1
290
     0
176
     1
290
     0
176
     1
290
     0
176
     1
 90
       50
176
     1
 40
0.0
176
     1
 40
1.0
176
     1
 90
        0
176
     1
 62
    18
420
        0
176
     1
 90
       50
176
     1
 90
        3
176
     1
 62
     5
420
      255
176
     1
290
     0
176
     1
 90
       50
176
     1
 90
       50
176
     1
 90
       50
176
     1
290
     0
176
     1
 90
       50
176
     1
 62
   256
176
     0
 40
1.0
176
     0
 90
        2
176
     1
  1
strokes_ogs.tif
176
     1
290
     0
176
     1
 40
1.0
176
     1
 40
1.0
176
     1
  0
DICTIONARYVAR
  5
1EB
102
{ACAD_REACTORS
330
1EA
102
}
330
1EA
100
DictionaryVariables
280
     0
  1
1:1
  0
DICTIONARYVAR
  5
1F0
102
{ACAD_REACTORS
330
1EA
102
}
330
1EA
100
DictionaryVariables
280
     0
  1
Standard
  0
DICTIONARYVAR
  5
1EF
102
{ACAD_REACTORS
330
1EA
102
}
330
1EA
100
DictionaryVariables
280
     0
  1
Standard
  0
DICTIONARY
  5
1EC
330
6A
100
AcDbDictionary
280
     1
281
     1
  3
ACAD_ROUNDTRIP_2008_TABLESTYLE_CELLSTYLEMAP
360
1ED
  0
CELLSTYLEMAP
  5
1ED
102
{ACAD_REACTORS
330
1EC
102
}
330
1EC
100
AcDbCellStyleMap
 90
        3
300
CELLSTYLE
  1
TABLEFORMAT_BEGIN
 90
        5
170
     1
 91
        0
 92
    32768
 62
   257
 93
        1
300
CONTENTFORMAT
  1
CONTENTFORMAT_BEGIN
 90
        0
 91
        0
 92
        4
 93
        0
300

 40
0.0
140
1.0
 94
        5
 62
     0
340
11
144
0.25
309
CONTENTFORMAT_END
171
     1
301
MARGIN
  1
CELLMARGIN_BEGIN
 40
0.06
 40
0.06
 40
0.06
 40
0.06
 40
0.06
 40
0.06
309
CELLMARGIN_END
 94
        6
 95
        1
302
GRIDFORMAT
  1
GRIDFORMAT_BEGIN
 90
        0
 91
        1
 62
     0
 92
       -2
340
14
 93
        0
 40
0.045
309
GRIDFORMAT_END
 95
        2
302
GRIDFORMAT
  1
GRIDFORMAT_BEGIN
 90
        0
 91
        1
 62
     0
 92
       -2
340
14
 93
        0
 40
0.045
309
GRIDFORMAT_END
 95
        4
302
GRIDFORMAT
  1
GRIDFORMAT_BEGIN
 90
        0
 91
        1
 62
     0
 92
       -2
340
14
 93
        0
 40
0.045
309
GRIDFORMAT_END
 95
        8
302
GRIDFORMAT
  1
GRIDFORMAT_BEGIN
 90
        0
 91
        1
 62
     0
 92
       -2
340
14
 93
        0
 40
0.045
309
GRIDFORMAT_END
 95
       16
302
GRIDFORMAT
  1
GRIDFORMAT_BEGIN
 90
        0
 91
        1
 62
     0
 92
       -2
340
14
 93
        0
 40
0.045
309
GRIDFORMAT_END
 95
       32
302
GRIDFORMAT
  1
GRIDFORMAT_BEGIN
 90
        0
 91
        1
 62
     0
 92
       -2
340
14
 93
        0
 40
0.045
309
GRIDFORMAT_END
309
TABLEFORMAT_END
  1
CELLSTYLE_BEGIN
 90
        1
 91
        1
300
_TITLE
309
CELLSTYLE_END
300
CELLSTYLE
  1
TABLEFORMAT_BEGIN
 90
        5
170
     1
 91
        0
 92
        0
 62
   257
 93
        1
300
CONTENTFORMAT
  1
CONTENTFORMAT_BEGIN
 90
        0
 91
        0
 92
        4
 93
        0
300

 40
0.0
140
1.0
 94
        5
 62
     0
340
11
144
0.18
309
CONTENTFORMAT_END
171
     1
301
MARGIN
  1
CELLMARGIN_BEGIN
 40
0.06
 40
0.06
 40
0.06
 40
0.06
 40
0.06
 40
0.06
309
CELLMARGIN_END
 94
        6
 95
        1
302
GRIDFORMAT
  1
GRIDFORMAT_BEGIN
 90
        0
 91
        1
 62
     0
 92
       -2
340
14
 93
        0
 40
0.045
309
GRIDFORMAT_END
 95
        2
302
GRIDFORMAT
  1
GRIDFORMAT_BEGIN
 90
        0
 91
        1
 62
     0
 92
       -2
340
14
 93
        0
 40
0.045
309
GRIDFORMAT_END
 95
        4
302
GRIDFORMAT
  1
GRIDFORMAT_BEGIN
 90
        0
 91
        1
 62
     0
 92
       -2
340
14
 93
        0
 40
0.045
309
GRIDFORMAT_END
 95
        8
302
GRIDFORMAT
  1
GRIDFORMAT_BEGIN
 90
        0
 91
        1
 62
     0
 92
       -2
340
14
 93
        0
 40
0.045
309
GRIDFORMAT_END
 95
       16
302
GRIDFORMAT
  1
GRIDFORMAT_BEGIN
 90
        0
 91
        1
 62
     0
 92
       -2
340
14
 93
        0
 40
0.045
309
GRIDFORMAT_END
 95
       32
302
GRIDFORMAT
  1
GRIDFORMAT_BEGIN
 90
        0
 91
        1
 62
     0
 92
       -2
340
14
 93
        0
 40
0.045
309
GRIDFORMAT_END
309
TABLEFORMAT_END
  1
CELLSTYLE_BEGIN
 90
        2
 91
        1
300
_HEADER
309
CELLSTYLE_END
300
CELLSTYLE
  1
TABLEFORMAT_BEGIN
 90
        5
170
     1
 91
        0
 92
        0
 62
   257
 93
        1
300
CONTENTFORMAT
  1
CONTENTFORMAT_BEGIN
 90
        0
 91
        0
 92
        4
 93
        0
300

 40
0.0
140
1.0
 94
        2
 62
     0
340
11
144
0.18
309
CONTENTFORMAT_END
171
     1
301
MARGIN
  1
CELLMARGIN_BEGIN
 40
0.06
 40
0.06
 40
0.06
 40
0.06
 40
0.06
 40
0.06
309
CELLMARGIN_END
 94
        6
 95
        1
302
GRIDFORMAT
  1
GRIDFORMAT_BEGIN
 90
        0
 91
        1
 62
     0
 92
       -2
340
14
 93
        0
 40
0.045
309
GRIDFORMAT_END
 95
        2
302
GRIDFORMAT
  1
GRIDFORMAT_BEGIN
 90
        0
 91
        1
 62
     0
 92
       -2
340
14
 93
        0
 40
0.045
309
GRIDFORMAT_END
 95
        4
302
GRIDFORMAT
  1
GRIDFORMAT_BEGIN
 90
        0
 91
        1
 62
     0
 92
       -2
340
14
 93
        0
 40
0.045
309
GRIDFORMAT_END
 95
        8
302
GRIDFORMAT
  1
GRIDFORMAT_BEGIN
 90
        0
 91
        1
 62
     0
 92
       -2
340
14
 93
        0
 40
0.045
309
GRIDFORMAT_END
 95
       16
302
GRIDFORMAT
  1
GRIDFORMAT_BEGIN
 90
        0
 91
        1
 62
     0
 92
       -2
340
14
 93
        0
 40
0.045
309
GRIDFORMAT_END
 95
       32
302
GRIDFORMAT
  1
GRIDFORMAT_BEGIN
 90
        0
 91
        1
 62
     0
 92
       -2
340
14
 93
        0
 40
0.045
309
GRIDFORMAT_END
309
TABLEFORMAT_END
  1
CELLSTYLE_BEGIN
 90
        3
 91
        2
300
_DATA
309
CELLSTYLE_END
  0
ENDSEC
  0
EOF