0
SECTION
  2
HEADER
  9
$ACADVER
  1
AC1027
  9
$ACADMAINTVER
 70
     8
  9
$DWGCODEPAGE
  3
ANSI_1252
  9
$REQUIREDVERSIONS
160
                 0
  9
$COMMENTS
  1
File was created by Cadenas
  9
$CUSTOMPROPERTYTAG
  1
NN
  9
$CUSTOMPROPERTY
  1
Grip Tight Two-Bolt Flange Inch Bore
  9
$CUSTOMPROPERTYTAG
  1
NT
  9
$CUSTOMPROPERTY
  1
GT Normal Duty 2 Bolt Flange Bearings
  9
$CUSTOMPROPERTYTAG
  1
NB
  9
$CUSTOMPROPERTY
  1
129303
  9
$CUSTOMPROPERTYTAG
  1
NBSYN
  9
$CUSTOMPROPERTY
  1
$PN.$LUBE.
  9
$CUSTOMPROPERTYTAG
  1
LINA
  9
$CUSTOMPROPERTY
  1
129303
  9
$CUSTOMPROPERTYTAG
  1
SERIES
  9
$CUSTOMPROPERTY
  1
204
  9
$CUSTOMPROPERTYTAG
  1
SS
  9
$CUSTOMPROPERTY
  1
3/4
  9
$CUSTOMPROPERTYTAG
  1
PN
  9
$CUSTOMPROPERTY
  1
129303
  9
$CUSTOMPROPERTYTAG
  1
DESCRIPTION
  9
$CUSTOMPROPERTY
  1
F2B-GT-012
  9
$CUSTOMPROPERTYTAG
  1
A
  9
$CUSTOMPROPERTY
  1
1-15/32
  9
$CUSTOMPROPERTYTAG
  1
B
  9
$CUSTOMPROPERTY
  1
4-13/32
  9
$CUSTOMPROPERTYTAG
  1
C
  9
$CUSTOMPROPERTY
  1
1-39/64
  9
$CUSTOMPROPERTYTAG
  1
D
  9
$CUSTOMPROPERTY
  1
3-17/32
  9
$CUSTOMPROPERTYTAG
  1
F
  9
$CUSTOMPROPERTY
  1
3/8
  9
$CUSTOMPROPERTYTAG
  1
H
  9
$CUSTOMPROPERTY
  1
1/2
  9
$CUSTOMPROPERTYTAG
  1
J
  9
$CUSTOMPROPERTY
  1
5/8
  9
$CUSTOMPROPERTYTAG
  1
L
  9
$CUSTOMPROPERTY
  1
1-1/2
  9
$CUSTOMPROPERTYTAG
  1
M
  9
$CUSTOMPROPERTY
  1
2-3/8
  9
$CUSTOMPROPERTYTAG
  1
N
  9
$CUSTOMPROPERTY
  1
1-1/2
  9
$CUSTOMPROPERTYTAG
  1
Z
  9
$CUSTOMPROPERTY
  1
1-39/64
  9
$CUSTOMPROPERTYTAG
  1
COMPANY
  9
$CUSTOMPROPERTY
  1
baldor
  9
$INSBASE
 10
0.0
 20
0.0
 30
0.0
  9
$EXTMIN
 10
1.000000000000000E+20
 20
1.000000000000000E+20
 30
1.000000000000000E+20
  9
$EXTMAX
 10
-1.000000000000000E+20
 20
-1.000000000000000E+20
 30
-1.000000000000000E+20
  9
$LIMMIN
 10
0.0
 20
0.0
  9
$LIMMAX
 10
12.0
 20
9.0
  9
$ORTHOMODE
 70
     0
  9
$REGENMODE
 70
     1
  9
$FILLMODE
 70
     1
  9
$QTEXTMODE
 70
     0
  9
$MIRRTEXT
 70
     1
  9
$LTSCALE
 40
1.0
  9
$ATTMODE
 70
     1
  9
$TEXTSIZE
 40
0.2
  9
$TRACEWID
 40
0.05
  9
$TEXTSTYLE
  7
Standard
  9
$CLAYER
  8
0
  9
$CELTYPE
  6
ByLayer
  9
$CECOLOR
 62
   256
  9
$CELTSCALE
 40
1.0
  9
$DISPSILH
 70
     0
  9
$DIMSCALE
 40
1.0
  9
$DIMASZ
 40
0.18
  9
$DIMEXO
 40
0.0625
  9
$DIMDLI
 40
0.38
  9
$DIMRND
 40
0.0
  9
$DIMDLE
 40
0.0
  9
$DIMEXE
 40
0.18
  9
$DIMTP
 40
0.0
  9
$DIMTM
 40
0.0
  9
$DIMTXT
 40
0.18
  9
$DIMCEN
 40
0.09
  9
$DIMTSZ
 40
0.0
  9
$DIMTOL
 70
     0
  9
$DIMLIM
 70
     0
  9
$DIMTIH
 70
     1
  9
$DIMTOH
 70
     1
  9
$DIMSE1
 70
     0
  9
$DIMSE2
 70
     0
  9
$DIMTAD
 70
     0
  9
$DIMZIN
 70
     0
  9
$DIMBLK
  1

  9
$DIMASO
 70
     1
  9
$DIMSHO
 70
     1
  9
$DIMPOST
  1

  9
$DIMAPOST
  1

  9
$DIMALT
 70
     0
  9
$DIMALTD
 70
     2
  9
$DIMALTF
 40
25.4
  9
$DIMLFAC
 40
1.0
  9
$DIMTOFL
 70
     0
  9
$DIMTVP
 40
0.0
  9
$DIMTIX
 70
     0
  9
$DIMSOXD
 70
     0
  9
$DIMSAH
 70
     0
  9
$DIMBLK1
  1

  9
$DIMBLK2
  1

  9
$DIMSTYLE
  2
Standard
  9
$DIMCLRD
 70
     0
  9
$DIMCLRE
 70
     0
  9
$DIMCLRT
 70
     0
  9
$DIMTFAC
 40
1.0
  9
$DIMGAP
 40
0.09
  9
$DIMJUST
 70
     0
  9
$DIMSD1
 70
     0
  9
$DIMSD2
 70
     0
  9
$DIMTOLJ
 70
     1
  9
$DIMTZIN
 70
     0
  9
$DIMALTZ
 70
     0
  9
$DIMALTTZ
 70
     0
  9
$DIMUPT
 70
     0
  9
$DIMDEC
 70
     4
  9
$DIMTDEC
 70
     4
  9
$DIMALTU
 70
     2
  9
$DIMALTTD
 70
     2
  9
$DIMTXSTY
  7
Standard
  9
$DIMAUNIT
 70
     0
  9
$DIMADEC
 70
     0
  9
$DIMALTRND
 40
0.0
  9
$DIMAZIN
 70
     0
  9
$DIMDSEP
 70
    46
  9
$DIMATFIT
 70
     3
  9
$DIMFRAC
 70
     0
  9
$DIMLDRBLK
  1

  9
$DIMLUNIT
 70
     2
  9
$DIMLWD
 70
    -2
  9
$DIMLWE
 70
    -2
  9
$DIMTMOVE
 70
     0
  9
$DIMFXL
 40
1.0
  9
$DIMFXLON
 70
     0
  9
$DIMJOGANG
 40
0.7853981633974483
  9
$DIMTFILL
 70
     0
  9
$DIMTFILLCLR
 70
     0
  9
$DIMARCSYM
 70
     0
  9
$DIMLTYPE
  6

  9
$DIMLTEX1
  6

  9
$DIMLTEX2
  6

  9
$DIMTXTDIRECTION
 70
     0
  9
$LUNITS
 70
     2
  9
$LUPREC
 70
     4
  9
$SKETCHINC
 40
0.1
  9
$FILLETRAD
 40
0.5
  9
$AUNITS
 70
     0
  9
$AUPREC
 70
     0
  9
$MENU
  1
.
  9
$ELEVATION
 40
0.0
  9
$PELEVATION
 40
0.0
  9
$THICKNESS
 40
0.0
  9
$LIMCHECK
 70
     0
  9
$CHAMFERA
 40
0.0
  9
$CHAMFERB
 40
0.0
  9
$CHAMFERC
 40
0.0
  9
$CHAMFERD
 40
0.0
  9
$SKPOLY
 70
     0
  9
$TDCREATE
 40
2458168.993818889
  9
$TDUCREATE
 40
2458168.952152222
  9
$TDUPDATE
 40
2458168.993818889
  9
$TDUUPDATE
 40
2458168.952152222
  9
$TDINDWG
 40
0.0000000116
  9
$TDUSRTIMER
 40
0.0000000116
  9
$USRTIMER
 70
     1
  9
$ANGBASE
 50
0.0
  9
$ANGDIR
 70
     0
  9
$PDMODE
 70
     0
  9
$PDSIZE
 40
0.0
  9
$PLINEWID
 40
0.0
  9
$SPLFRAME
 70
     0
  9
$SPLINETYPE
 70
     6
  9
$SPLINESEGS
 70
     8
  9
$HANDSEED
  5
1E8
  9
$SURFTAB1
 70
     6
  9
$SURFTAB2
 70
     6
  9
$SURFTYPE
 70
     6
  9
$SURFU
 70
     6
  9
$SURFV
 70
     6
  9
$UCSBASE
  2

  9
$UCSNAME
  2

  9
$UCSORG
 10
0.0
 20
0.0
 30
0.0
  9
$UCSXDIR
 10
1.0
 20
0.0
 30
0.0
  9
$UCSYDIR
 10
0.0
 20
1.0
 30
0.0
  9
$UCSORTHOREF
  2

  9
$UCSORTHOVIEW
 70
     0
  9
$UCSORGTOP
 10
0.0
 20
0.0
 30
0.0
  9
$UCSORGBOTTOM
 10
0.0
 20
0.0
 30
0.0
  9
$UCSORGLEFT
 10
0.0
 20
0.0
 30
0.0
  9
$UCSORGRIGHT
 10
0.0
 20
0.0
 30
0.0
  9
$UCSORGFRONT
 10
0.0
 20
0.0
 30
0.0
  9
$UCSORGBACK
 10
0.0
 20
0.0
 30
0.0
  9
$PUCSBASE
  2

  9
$PUCSNAME
  2

  9
$PUCSORG
 10
0.0
 20
0.0
 30
0.0
  9
$PUCSXDIR
 10
1.0
 20
0.0
 30
0.0
  9
$PUCSYDIR
 10
0.0
 20
1.0
 30
0.0
  9
$PUCSORTHOREF
  2

  9
$PUCSORTHOVIEW
 70
     0
  9
$PUCSORGTOP
 10
0.0
 20
0.0
 30
0.0
  9
$PUCSORGBOTTOM
 10
0.0
 20
0.0
 30
0.0
  9
$PUCSORGLEFT
 10
0.0
 20
0.0
 30
0.0
  9
$PUCSORGRIGHT
 10
0.0
 20
0.0
 30
0.0
  9
$PUCSORGFRONT
 10
0.0
 20
0.0
 30
0.0
  9
$PUCSORGBACK
 10
0.0
 20
0.0
 30
0.0
  9
$USERI1
 70
     0
  9
$USERI2
 70
     0
  9
$USERI3
 70
     0
  9
$USERI4
 70
     0
  9
$USERI5
 70
     0
  9
$USERR1
 40
0.0
  9
$USERR2
 40
0.0
  9
$USERR3
 40
0.0
  9
$USERR4
 40
0.0
  9
$USERR5
 40
0.0
  9
$WORLDVIEW
 70
     1
  9
$SHADEDGE
 70
     3
  9
$SHADEDIF
 70
    70
  9
$TILEMODE
 70
     1
  9
$MAXACTVP
 70
    64
  9
$PINSBASE
 10
0.0
 20
0.0
 30
0.0
  9
$PLIMCHECK
 70
     0
  9
$PEXTMIN
 10
1.000000000000000E+20
 20
1.000000000000000E+20
 30
1.000000000000000E+20
  9
$PEXTMAX
 10
-1.000000000000000E+20
 20
-1.000000000000000E+20
 30
-1.000000000000000E+20
  9
$PLIMMIN
 10
0.0
 20
0.0
  9
$PLIMMAX
 10
12.0
 20
9.0
  9
$UNITMODE
 70
     0
  9
$VISRETAIN
 70
     1
  9
$PLINEGEN
 70
     0
  9
$PSLTSCALE
 70
     1
  9
$TREEDEPTH
 70
  3020
  9
$CMLSTYLE
  2
Standard
  9
$CMLJUST
 70
     0
  9
$CMLSCALE
 40
1.0
  9
$PROXYGRAPHICS
 70
     1
  9
$MEASUREMENT
 70
     0
  9
$CELWEIGHT
370
    -1
  9
$ENDCAPS
280
     0
  9
$JOINSTYLE
280
     0
  9
$LWDISPLAY
290
     0
  9
$INSUNITS
 70
     1
  9
$HYPERLINKBASE
  1

  9
$STYLESHEET
  1

  9
$XEDIT
290
     1
  9
$CEPSNTYPE
380
     0
  9
$PSTYLEMODE
290
     1
  9
$FINGERPRINTGUID
  2
{90E217C7-AAD5-422B-A823-7F8AC245E7A1}
  9
$VERSIONGUID
  2
{FAEB1C32-E019-11D5-929B-00C0DF256EC4}
  9
$EXTNAMES
290
     1
  9
$PSVPSCALE
 40
0.0
  9
$OLESTARTUP
290
     0
  9
$SORTENTS
280
   127
  9
$INDEXCTL
280
     0
  9
$HIDETEXT
280
     1
  9
$XCLIPFRAME
280
     2
  9
$HALOGAP
280
     0
  9
$OBSCOLOR
 70
   257
  9
$OBSLTYPE
280
     0
  9
$INTERSECTIONDISPLAY
280
     0
  9
$INTERSECTIONCOLOR
 70
   257
  9
$DIMASSOC
280
     2
  9
$PROJECTNAME
  1

  9
$CAMERADISPLAY
290
     0
  9
$LENSLENGTH
 40
50.0
  9
$CAMERAHEIGHT
 40
0.0
  9
$STEPSPERSEC
 40
2.0
  9
$STEPSIZE
 40
6.0
  9
$3DDWFPREC
 40
2.0
  9
$PSOLWIDTH
 40
0.25
  9
$PSOLHEIGHT
 40
4.0
  9
$LOFTANG1
 40
1.570796326794897
  9
$LOFTANG2
 40
1.570796326794897
  9
$LOFTMAG1
 40
0.0
  9
$LOFTMAG2
 40
0.0
  9
$LOFTPARAM
 70
     7
  9
$LOFTNORMALS
280
     1
  9
$LATITUDE
 40
37.795
  9
$LONGITUDE
 40
-122.394
  9
$NORTHDIRECTION
 40
0.0
  9
$TIMEZONE
 70
 -8000
  9
$LIGHTGLYPHDISPLAY
280
     1
  9
$TILEMODELIGHTSYNCH
280
     1
  9
$CMATERIAL
347
44
  9
$SOLIDHIST
280
     0
  9
$SHOWHIST
280
     1
  9
$DWFFRAME
280
     2
  9
$DGNFRAME
280
     2
  9
$REALWORLDSCALE
290
     1
  9
$INTERFERECOLOR
 62
   256
  9
$CSHADOW
280
     0
  9
$SHADOWPLANELOCATION
 40
0.0
  0
ENDSEC
  0
SECTION
  2
CLASSES
  0
CLASS
  1
ACDBDICTIONARYWDFLT
  2
AcDbDictionaryWithDefault
  3
ObjectDBX Classes
 90
        0
 91
        4
280
     0
281
     0
  0
CLASS
  1
VISUALSTYLE
  2
AcDbVisualStyle
  3
ObjectDBX Classes
 90
     4095
 91
        4
280
     0
281
     0
  0
CLASS
  1
MATERIAL
  2
AcDbMaterial
  3
ObjectDBX Classes
 90
     1153
 91
        4
280
     0
281
     0
  0
CLASS
  1
SCALE
  2
AcDbScale
  3
ObjectDBX Classes
 90
     1153
 91
        4
280
     0
281
     0
  0
CLASS
  1
TABLESTYLE
  2
AcDbTableStyle
  3
ObjectDBX Classes
 90
     4095
 91
        4
280
     0
281
     0
  0
CLASS
  1
MLEADERSTYLE
  2
AcDbMLeaderStyle
  3
ACDB_MLEADERSTYLE_CLASS
 90
     4095
 91
        4
280
     0
281
     0
  0
CLASS
  1
SUN
  2
AcDbSun
  3
SCENEOE
 90
     1153
 91
        4
280
     0
281
     0
  0
CLASS
  1
DICTIONARYVAR
  2
AcDbDictionaryVar
  3
ObjectDBX Classes
 90
        0
 91
        4
280
     0
281
     0
  0
CLASS
  1
CELLSTYLEMAP
  2
AcDbCellStyleMap
  3
ObjectDBX Classes
 90
     1152
 91
        4
280
     0
281
     0
  0
ENDSEC
  0
SECTION
  2
TABLES
  0
TABLE
  2
VPORT
  5
8
330
0
100
AcDbSymbolTable
 70
     1
  0
VPORT
  5
29
330
8
100
AcDbSymbolTableRecord
100
AcDbViewportTableRecord
  2
*Active
 70
     0
 10
0.0
 20
0.0
 11
1.0
 21
1.0
 12
0.1562499999999982
 22
0.0
 13
0.0
 23
0.0
 14
0.5
 24
0.5
 15
0.5
 25
0.5
 16
0.0
 26
0.0
 36
1.0
 17
0.0
 27
0.0
 37
0.0
 40
4.494120000000001
 41
0.6099636858828876
 42
50.0
 43
0.0
 44
0.0
 50
0.0
 51
0.0
 71
     0
 72
   100
 73
     1
 74
     3
 75
     0
 76
     0
 77
     0
 78
     0
281
     0
 65
     1
110
0.0
120
0.0
130
0.0
111
1.0
121
0.0
131
0.0
112
0.0
122
1.0
132
0.0
 79
     0
146
0.0
348
2F
 60
     3
 61
     5
292
     1
282
     1
141
0.0
142
0.0
 63
   250
361
6D
  0
ENDTAB
  0
TABLE
  2
LTYPE
  5
5
330
0
100
AcDbSymbolTable
 70
     3
  0
LTYPE
  5
14
330
5
100
AcDbSymbolTableRecord
100
AcDbLinetypeTableRecord
  2
ByBlock
 70
     0
  3

 72
    65
 73
     0
 40
0.0
  0
LTYPE
  5
15
330
5
100
AcDbSymbolTableRecord
100
AcDbLinetypeTableRecord
  2
ByLayer
 70
     0
  3

 72
    65
 73
     0
 40
0.0
  0
LTYPE
  5
16
330
5
100
AcDbSymbolTableRecord
100
AcDbLinetypeTableRecord
  2
Continuous
 70
     0
  3
Solid line
 72
    65
 73
     0
 40
0.0
  0
LTYPE
  5
9E
330
5
100
AcDbSymbolTableRecord
100
AcDbLinetypeTableRecord
  2
Dashed
 70
     0
  3

 72
    65
 73
     2
 40
2.0
 49
1.0
 74
     0
 49
-1.0
 74
     0
  0
LTYPE
  5
105
330
5
100
AcDbSymbolTableRecord
100
AcDbLinetypeTableRecord
  2
Center
 70
     0
  3

 72
    65
 73
     4
 40
1.5
 49
0.45
 74
     0
 49
-0.5
 74
     0
 49
0.05
 74
     0
 49
-0.5
 74
     0
  0
ENDTAB
  0
TABLE
  2
LAYER
  5
2
330
0
100
AcDbSymbolTable
 70
     7
  0
LAYER
  5
10
330
2
100
AcDbSymbolTableRecord
100
AcDbLayerTableRecord
  2
0
 70
     0
 62
     7
  6
Continuous
370
    -3
390
F
347
46
348
0
  0
LAYER
  5
72
330
2
100
AcDbSymbolTableRecord
100
AcDbLayerTableRecord
  2
AM_6
 70
     0
 62
    -2
  6
Continuous
370
    35
390
F
347
46
348
0
  0
LAYER
  5
9F
330
2
100
AcDbSymbolTableRecord
100
AcDbLayerTableRecord
  2
AM_9
 70
     0
 62
     6
  6
Dashed
370
    25
390
F
347
46
348
0
  0
LAYER
  5
A7
330
2
100
AcDbSymbolTableRecord
100
AcDbLayerTableRecord
  2
AM_4
 70
     0
 62
     3
  6
Continuous
370
    25
390
F
347
46
348
0
  0
LAYER
  5
D1
330
2
100
AcDbSymbolTableRecord
100
AcDbLayerTableRecord
  2
AM_5
 70
     0
 62
     3
  6
Continuous
370
    25
390
F
347
46
348
0
  0
LAYER
  5
106
330
2
100
AcDbSymbolTableRecord
100
AcDbLayerTableRecord
  2
AM_7
 70
     0
 62
     7
  6
Center
370
    25
390
F
347
46
348
0
  0
LAYER
  5
1DB
330
2
100
AcDbSymbolTableRecord
100
AcDbLayerTableRecord
  2
ConnectionPoints
 70
     0
 62
     7
  6
Continuous
370
    50
390
F
347
46
348
0
  0
ENDTAB
  0
TABLE
  2
STYLE
  5
3
330
0
100
AcDbSymbolTable
 70
     1
  0
STYLE
  5
11
330
3
100
AcDbSymbolTableRecord
100
AcDbTextStyleTableRecord
  2
Standard
 70
     0
 40
0.0
 41
1.0
 50
0.0
 71
     0
 42
0.2
  3
txt
  4

  0
ENDTAB
  0
TABLE
  2
VIEW
  5
6
330
0
100
AcDbSymbolTable
 70
     0
  0
ENDTAB
  0
TABLE
  2
UCS
  5
7
330
0
100
AcDbSymbolTable
 70
     0
  0
ENDTAB
  0
TABLE
  2
APPID
  5
9
330
0
100
AcDbSymbolTable
 70
     1
  0
APPID
  5
12
330
9
100
AcDbSymbolTableRecord
100
AcDbRegAppTableRecord
  2
ACAD
 70
     0
  0
ENDTAB
  0
TABLE
  2
DIMSTYLE
  5
A
330
0
100
AcDbSymbolTable
 70
     1
100
AcDbDimStyleTable
  0
DIMSTYLE
105
27
330
A
100
AcDbSymbolTableRecord
100
AcDbDimStyleTableRecord
  2
Standard
 70
     0
178
     0
340
11
  0
ENDTAB
  0
TABLE
  2
BLOCK_RECORD
  5
1
330
0
100
AcDbSymbolTable
 70
     5
  0
BLOCK_RECORD
  5
1F
330
1
100
AcDbSymbolTableRecord
100
AcDbBlockTableRecord
  2
*Model_Space
340
22
 70
     0
280
     1
281
     0
  0
BLOCK_RECORD
  5
1B
330
1
100
AcDbSymbolTableRecord
100
AcDbBlockTableRecord
  2
*Paper_Space
340
1E
 70
     0
280
     1
281
     0
  0
BLOCK_RECORD
  5
23
330
1
100
AcDbSymbolTableRecord
100
AcDbBlockTableRecord
  2
*Paper_Space0
340
26
 70
     0
280
     1
281
     0
  0
BLOCK_RECORD
  5
6E
330
1
100
AcDbSymbolTableRecord
100
AcDbBlockTableRecord
  2
1_129303_0
340
0
102
{BLKREFS
331
6F
102
}
 70
     0
280
     1
281
     0
  0
BLOCK_RECORD
  5
88
330
1
100
AcDbSymbolTableRecord
100
AcDbBlockTableRecord
  2
2_129517I_0_in_129303_0
340
0
102
{BLKREFS
331
89
102
}
 70
     0
280
     1
281
     0
  0
BLOCK_RECORD
  5
AE
330
1
100
AcDbSymbolTableRecord
100
AcDbBlockTableRecord
  2
3_129904_0_in_129303_0
340
0
102
{BLKREFS
331
AF
102
}
 70
     0
280
     1
281
     0
  0
BLOCK_RECORD
  5
E7
330
1
100
AcDbSymbolTableRecord
100
AcDbBlockTableRecord
  2
4_129491I_0_in_129303_0
340
0
102
{BLKREFS
331
E8
102
}
 70
     0
280
     1
281
     0
  0
ENDTAB
  0
ENDSEC
  0
SECTION
  2
BLOCKS
  0
BLOCK
  5
20
330
1F
100
AcDbEntity
  8
0
100
AcDbBlockBegin
  2
*Model_Space
 70
     0
 10
0.0
 20
0.0
 30
0.0
  3
*Model_Space
  1

  0
ENDBLK
  5
21
330
1F
100
AcDbEntity
  8
0
100
AcDbBlockEnd
  0
BLOCK
  5
1C
330
1B
100
AcDbEntity
 67
     1
  8
0
100
AcDbBlockBegin
  2
*Paper_Space
 70
     0
 10
0.0
 20
0.0
 30
0.0
  3
*Paper_Space
  1

  0
ENDBLK
  5
1D
330
1B
100
AcDbEntity
 67
     1
  8
0
100
AcDbBlockEnd
  0
BLOCK
  5
24
330
23
100
AcDbEntity
  8
0
100
AcDbBlockBegin
  2
*Paper_Space0
 70
     0
 10
0.0
 20
0.0
 30
0.0
  3
*Paper_Space0
  1

  0
ENDBLK
  5
25
330
23
100
AcDbEntity
  8
0
100
AcDbBlockEnd
  0
BLOCK
  5
70
330
6E
100
AcDbEntity
  8
0
100
AcDbBlockBegin
  2
1_129303_0
 70
     2
 10
0.0
 20
0.0
 30
0.0
  3
1_129303_0
  1

  0
ATTDEF
  5
73
330
6E
100
AcDbEntity
  8
AM_6
100
AcDbText
 10
6.5
 20
2.203000000000001
 30
0.0
 40
0.5
  1
Grip Tight Two-Bolt Flange Inch Bore
100
AcDbAttributeDefinition
  3

  2
NN
 70
     8
280
     0
  0
ATTDEF
  5
74
330
6E
100
AcDbEntity
  8
AM_6
100
AcDbText
 10
6.5
 20
1.703000000000001
 30
0.0
 40
0.5
  1
GT Normal Duty 2 Bolt Flange Bearings
100
AcDbAttributeDefinition
  3

  2
NT
 70
     8
280
     0
  0
ATTDEF
  5
75
330
6E
100
AcDbEntity
  8
AM_6
100
AcDbText
 10
6.5
 20
1.203000000000001
 30
0.0
 40
0.5
  1
129303
100
AcDbAttributeDefinition
  3

  2
NB
 70
     8
280
     0
  0
ATTDEF
  5
76
330
6E
100
AcDbEntity
  8
AM_6
100
AcDbText
 10
6.5
 20
0.7030000000000007
 30
0.0
 40
0.5
  1
$PN.$LUBE.
100
AcDbAttributeDefinition
  3

  2
NBSYN
 70
     8
280
     0
  0
ATTDEF
  5
77
330
6E
100
AcDbEntity
  8
AM_6
100
AcDbText
 10
6.5
 20
0.2030000000000007
 30
0.0
 40
0.5
  1
129303
100
AcDbAttributeDefinition
  3

  2
LINA
 70
     8
280
     0
  0
ATTDEF
  5
78
330
6E
100
AcDbEntity
  8
AM_6
100
AcDbText
 10
6.5
 20
-0.2969999999999993
 30
0.0
 40
0.5
  1
204
100
AcDbAttributeDefinition
  3

  2
SERIES
 70
     8
280
     0
  0
ATTDEF
  5
79
330
6E
100
AcDbEntity
  8
AM_6
100
AcDbText
 10
6.5
 20
-0.7969999999999993
 30
0.0
 40
0.5
  1
3/4
100
AcDbAttributeDefinition
  3

  2
SS
 70
     8
280
     0
  0
ATTDEF
  5
7A
330
6E
100
AcDbEntity
  8
AM_6
100
AcDbText
 10
6.5
 20
-1.296999999999999
 30
0.0
 40
0.5
  1
129303
100
AcDbAttributeDefinition
  3

  2
PN
 70
     8
280
     0
  0
ATTDEF
  5
7B
330
6E
100
AcDbEntity
  8
AM_6
100
AcDbText
 10
6.5
 20
-1.796999999999999
 30
0.0
 40
0.5
  1
F2B-GT-012
100
AcDbAttributeDefinition
  3

  2
DESCRIPTION
 70
     8
280
     0
  0
ATTDEF
  5
7C
330
6E
100
AcDbEntity
  8
AM_6
100
AcDbText
 10
6.5
 20
-2.296999999999999
 30
0.0
 40
0.5
  1
1-15/32
100
AcDbAttributeDefinition
  3

  2
A
 70
     8
280
     0
  0
ATTDEF
  5
7D
330
6E
100
AcDbEntity
  8
AM_6
100
AcDbText
 10
6.5
 20
-2.796999999999999
 30
0.0
 40
0.5
  1
4-13/32
100
AcDbAttributeDefinition
  3

  2
B
 70
     8
280
     0
  0
ATTDEF
  5
7E
330
6E
100
AcDbEntity
  8
AM_6
100
AcDbText
 10
6.5
 20
-3.296999999999999
 30
0.0
 40
0.5
  1
1-39/64
100
AcDbAttributeDefinition
  3

  2
C
 70
     8
280
     0
  0
ATTDEF
  5
7F
330
6E
100
AcDbEntity
  8
AM_6
100
AcDbText
 10
6.5
 20
-3.796999999999999
 30
0.0
 40
0.5
  1
3-17/32
100
AcDbAttributeDefinition
  3

  2
D
 70
     8
280
     0
  0
ATTDEF
  5
80
330
6E
100
AcDbEntity
  8
AM_6
100
AcDbText
 10
6.5
 20
-4.296999999999999
 30
0.0
 40
0.5
  1
3/8
100
AcDbAttributeDefinition
  3

  2
F
 70
     8
280
     0
  0
ATTDEF
  5
81
330
6E
100
AcDbEntity
  8
AM_6
100
AcDbText
 10
6.5
 20
-4.796999999999999
 30
0.0
 40
0.5
  1
1/2
100
AcDbAttributeDefinition
  3

  2
H
 70
     8
280
     0
  0
ATTDEF
  5
82
330
6E
100
AcDbEntity
  8
AM_6
100
AcDbText
 10
6.5
 20
-5.296999999999999
 30
0.0
 40
0.5
  1
5/8
100
AcDbAttributeDefinition
  3

  2
J
 70
     8
280
     0
  0
ATTDEF
  5
83
330
6E
100
AcDbEntity
  8
AM_6
100
AcDbText
 10
6.5
 20
-5.796999999999999
 30
0.0
 40
0.5
  1
1-1/2
100
AcDbAttributeDefinition
  3

  2
L
 70
     8
280
     0
  0
ATTDEF
  5
84
330
6E
100
AcDbEntity
  8
AM_6
100
AcDbText
 10
6.5
 20
-6.296999999999999
 30
0.0
 40
0.5
  1
2-3/8
100
AcDbAttributeDefinition
  3

  2
M
 70
     8
280
     0
  0
ATTDEF
  5
85
330
6E
100
AcDbEntity
  8
AM_6
100
AcDbText
 10
6.5
 20
-6.796999999999999
 30
0.0
 40
0.5
  1
1-1/2
100
AcDbAttributeDefinition
  3

  2
N
 70
     8
280
     0
  0
ATTDEF
  5
86
330
6E
100
AcDbEntity
  8
AM_6
100
AcDbText
 10
6.5
 20
-7.296999999999999
 30
0.0
 40
0.5
  1
1-39/64
100
AcDbAttributeDefinition
  3

  2
Z
 70
     8
280
     0
  0
ATTDEF
  5
87
330
6E
100
AcDbEntity
  8
AM_6
100
AcDbText
 10
6.5
 20
-7.796999999999999
 30
0.0
 40
0.5
  1
baldor
100
AcDbAttributeDefinition
  3

  2
COMPANY
 70
     8
280
     0
  0
INSERT
  5
89
330
6E
100
AcDbEntity
  8
0
100
AcDbBlockReference
  2
2_129517I_0_in_129303_0
 10
0.0
 20
0.0
 30
0.0
  0
INSERT
  5
AF
330
6E
100
AcDbEntity
  8
0
100
AcDbBlockReference
  2
3_129904_0_in_129303_0
 10
0.0
 20
0.0
 30
0.0
  0
INSERT
  5
E8
330
6E
100
AcDbEntity
  8
0
100
AcDbBlockReference
  2
4_129491I_0_in_129303_0
 10
0.0
 20
0.0
 30
0.0
  0
ENDBLK
  5
71
330
6E
100
AcDbEntity
  8
0
100
AcDbBlockEnd
  0
BLOCK
  5
8A
330
88
100
AcDbEntity
  8
0
100
AcDbBlockBegin
  2
2_129517I_0_in_129303_0
 70
     2
 10
0.0
 20
0.0
 30
0.0
  3
2_129517I_0_in_129303_0
  1

  0
ATTDEF
  5
8C
330
88
100
AcDbEntity
  8
AM_6
100
AcDbText
 10
5.916365335968386
 20
0.9163653359683859
 30
0.0
 40
0.5
  1
INS-GT B
100
AcDbAttributeDefinition
  3

  2
NN
 70
     8
280
     0
  0
ATTDEF
  5
8D
330
88
100
AcDbEntity
  8
AM_6
100
AcDbText
 10
5.916365335968386
 20
0.4163653359683859
 30
0.0
 40
0.5
  1
GT Normal Duty Bearing Inserts
100
AcDbAttributeDefinition
  3

  2
NT
 70
     8
280
     0
  0
ATTDEF
  5
8E
330
88
100
AcDbEntity
  8
AM_6
100
AcDbText
 10
5.916365335968386
 20
-0.0836346640316141
 30
0.0
 40
0.5
  1
129517I
100
AcDbAttributeDefinition
  3

  2
NB
 70
     8
280
     0
  0
ATTDEF
  5
8F
330
88
100
AcDbEntity
  8
AM_6
100
AcDbText
 10
5.916365335968386
 20
-0.5836346640316141
 30
0.0
 40
0.5
  1
$PN.I
100
AcDbAttributeDefinition
  3

  2
NBSYN
 70
     8
280
     0
  0
ATTDEF
  5
90
330
88
100
AcDbEntity
  8
AM_6
100
AcDbText
 10
5.916365335968386
 20
-1.083634664031614
 30
0.0
 40
0.5
  1
129517
100
AcDbAttributeDefinition
  3

  2
LINA
 70
     8
280
     0
  0
ATTDEF
  5
91
330
88
100
AcDbEntity
  8
AM_6
100
AcDbText
 10
5.916365335968386
 20
-1.583634664031614
 30
0.0
 40
0.5
  1
204
100
AcDbAttributeDefinition
  3

  2
SERIES
 70
     8
280
     0
  0
ATTDEF
  5
92
330
88
100
AcDbEntity
  8
AM_6
100
AcDbText
 10
5.916365335968386
 20
-2.083634664031614
 30
0.0
 40
0.5
  1
129517
100
AcDbAttributeDefinition
  3

  2
PN
 70
     8
280
     0
  0
ATTDEF
  5
93
330
88
100
AcDbEntity
  8
AM_6
100
AcDbText
 10
5.916365335968386
 20
-2.583634664031614
 30
0.0
 40
0.5
  1
INS-GT-04
100
AcDbAttributeDefinition
  3

  2
DESCRIPTION
 70
     8
280
     0
  0
ATTDEF
  5
94
330
88
100
AcDbEntity
  8
AM_6
100
AcDbText
 10
5.916365335968386
 20
-3.083634664031614
 30
0.0
 40
0.5
  1
1.48
100
AcDbAttributeDefinition
  3

  2
A
 70
     8
280
     0
  0
ATTDEF
  5
95
330
88
100
AcDbEntity
  8
AM_6
100
AcDbText
 10
5.916365335968386
 20
-3.583634664031614
 30
0.0
 40
0.5
  1
0.58
100
AcDbAttributeDefinition
  3

  2
C
 70
     8
280
     0
  0
ATTDEF
  5
96
330
88
100
AcDbEntity
  8
AM_6
100
AcDbText
 10
5.916365335968386
 20
-4.083634664031614
 30
0.0
 40
0.5
  1
1.8504
100
AcDbAttributeDefinition
  3

  2
D
 70
     8
280
     0
  0
ATTDEF
  5
97
330
88
100
AcDbEntity
  8
AM_6
100
AcDbText
 10
5.916365335968386
 20
-4.583634664031614
 30
0.0
 40
0.5
  1
0.15
100
AcDbAttributeDefinition
  3

  2
J
 70
     8
280
     0
  0
ATTDEF
  5
98
330
88
100
AcDbEntity
  8
AM_6
100
AcDbText
 10
5.916365335968386
 20
-5.083634664031614
 30
0.0
 40
0.5
  1
1.50
100
AcDbAttributeDefinition
  3

  2
L
 70
     8
280
     0
  0
ATTDEF
  5
99
330
88
100
AcDbEntity
  8
AM_6
100
AcDbText
 10
5.916365335968386
 20
-5.583634664031614
 30
0.0
 40
0.5
  1
#10 - 32 x 1/4
100
AcDbAttributeDefinition
  3

  2
N
 70
     8
280
     0
  0
ATTDEF
  5
9A
330
88
100
AcDbEntity
  8
AM_6
100
AcDbText
 10
5.916365335968386
 20
-6.083634664031614
 30
0.0
 40
0.5
  1
0.46000
100
AcDbAttributeDefinition
  3

  2
W
 70
     8
280
     0
  0
ATTDEF
  5
9B
330
88
100
AcDbEntity
  8
AM_6
100
AcDbText
 10
5.916365335968386
 20
-6.583634664031614
 30
0.0
 40
0.5
  1
1.03
100
AcDbAttributeDefinition
  3

  2
X
 70
     8
280
     0
  0
ATTDEF
  5
9C
330
88
100
AcDbEntity
  8
AM_6
100
AcDbText
 10
5.916365335968386
 20
-7.083634664031614
 30
0.0
 40
0.5
  1
1.02
100
AcDbAttributeDefinition
  3

  2
Y
 70
     8
280
     0
  0
ATTDEF
  5
9D
330
88
100
AcDbEntity
  8
AM_6
100
AcDbText
 10
5.916365335968386
 20
-7.583634664031614
 30
0.0
 40
0.5
  1
baldor
100
AcDbAttributeDefinition
  3

  2
COMPANY
 70
     8
280
     0
  0
CIRCLE
  5
A0
330
88
100
AcDbEntity
  8
AM_9
100
AcDbCircle
 10
0.0000000000000001
 20
0.0
 30
0.0
 40
0.5874690896124627
  0
CIRCLE
  5
A1
330
88
100
AcDbEntity
  8
AM_9
100
AcDbCircle
 10
0.0000000000000001
 20
0.0
 30
0.0
 40
0.8672
  0
CIRCLE
  5
A2
330
88
100
AcDbEntity
  8
AM_9
100
AcDbCircle
 10
0.0000000000000001
 20
0.0
 30
0.0
 40
0.895963133720252
  0
CIRCLE
  5
A3
330
88
100
AcDbEntity
  8
AM_9
100
AcDbCircle
 10
0.0000000000000001
 20
0.0
 30
0.0
 40
0.6130952166666666
  0
ARC
  5
A4
330
88
100
AcDbEntity
  8
AM_9
100
AcDbCircle
 10
0.0000000000000013
 20
0.0
 30
0.0
 40
0.5595237666666668
100
AcDbArc
 50
95.11847743015946
 51
84.91125392664341
  0
CIRCLE
  5
A5
330
88
100
AcDbEntity
  8
AM_9
100
AcDbCircle
 10
0.0000000000000001
 20
0.0
 30
0.0
 40
0.6434666666666665
  0
CIRCLE
  5
A6
330
88
100
AcDbEntity
  8
AM_9
100
AcDbCircle
 10
0.0000000000000001
 20
0.0
 30
0.0
 40
0.6666666666666666
  0
CIRCLE
  5
A8
330
88
100
AcDbEntity
  8
AM_4
100
AcDbCircle
 10
0.0000000000000001
 20
0.0
 30
0.0
 40
0.9106332965183636
  0
CIRCLE
  5
A9
330
88
100
AcDbEntity
  8
AM_4
100
AcDbCircle
 10
0.0000000000000001
 20
0.0
 30
0.0
 40
0.9163653359683859
  0
CIRCLE
  5
AA
330
88
100
AcDbEntity
  8
AM_4
100
AcDbCircle
 10
0.0000000000000001
 20
0.0
 30
0.0
 40
0.9015814525863005
  0
CIRCLE
  5
AB
330
88
100
AcDbEntity
  8
AM_4
100
AcDbCircle
 10
0.0000000000000001
 20
0.0
 30
0.0
 40
0.8731562055337044
  0
CIRCLE
  5
AC
330
88
100
AcDbEntity
  8
AM_4
100
AcDbCircle
 10
0.0000000000000001
 20
0.0
 30
0.0
 40
0.8515575530557445
  0
ARC
  5
AD
330
88
100
AcDbEntity
  8
AM_4
100
AcDbCircle
 10
0.0000000000000001
 20
-0.0000000000000017
 30
0.0
 40
0.5595237666666684
100
AcDbArc
 50
84.9112539266433
 51
95.11847743015932
  0
ENDBLK
  5
8B
330
88
100
AcDbEntity
  8
0
100
AcDbBlockEnd
  0
BLOCK
  5
B0
330
AE
100
AcDbEntity
  8
0
100
AcDbBlockBegin
  2
3_129904_0_in_129303_0
 70
     2
 10
0.0
 20
0.0
 30
0.0
  3
3_129904_0_in_129303_0
  1

  0
ATTDEF
  5
B2
330
AE
100
AcDbEntity
  8
AM_6
100
AcDbText
 10
5.746139397163827
 20
0.7499773726724239
 30
0.0
 40
0.5
  1
Grip Tight Normal Duty Adapter and Nut Inch Bore
100
AcDbAttributeDefinition
  3

  2
NN
 70
     8
280
     0
  0
ATTDEF
  5
B3
330
AE
100
AcDbEntity
  8
AM_6
100
AcDbText
 10
5.746139397163827
 20
0.2499773726724239
 30
0.0
 40
0.5
  1
GT and GTM Adapter & Lock Nut Assemblies
100
AcDbAttributeDefinition
  3

  2
NT
 70
     8
280
     0
  0
ATTDEF
  5
B4
330
AE
100
AcDbEntity
  8
AM_6
100
AcDbText
 10
5.746139397163827
 20
-0.2500226273275761
 30
0.0
 40
0.5
  1
129904
100
AcDbAttributeDefinition
  3

  2
NB
 70
     8
280
     0
  0
ATTDEF
  5
B5
330
AE
100
AcDbEntity
  8
AM_6
100
AcDbText
 10
5.746139397163827
 20
-0.7500226273275761
 30
0.0
 40
0.5
  1
$PN.
100
AcDbAttributeDefinition
  3

  2
NBSYN
 70
     8
280
     0
  0
ATTDEF
  5
B6
330
AE
100
AcDbEntity
  8
AM_6
100
AcDbText
 10
5.746139397163827
 20
-1.250022627327576
 30
0.0
 40
0.5
  1
129904
100
AcDbAttributeDefinition
  3

  2
LINA
 70
     8
280
     0
  0
ATTDEF
  5
B7
330
AE
100
AcDbEntity
  8
AM_6
100
AcDbText
 10
5.746139397163827
 20
-1.750022627327576
 30
0.0
 40
0.5
  1
204
100
AcDbAttributeDefinition
  3

  2
SERIES
 70
     8
280
     0
  0
ATTDEF
  5
B8
330
AE
100
AcDbEntity
  8
AM_6
100
AcDbText
 10
5.746139397163827
 20
-2.250022627327576
 30
0.0
 40
0.5
  1
3/4
100
AcDbAttributeDefinition
  3

  2
SS
 70
     8
280
     0
  0
ATTDEF
  5
B9
330
AE
100
AcDbEntity
  8
AM_6
100
AcDbText
 10
5.746139397163827
 20
-2.750022627327576
 30
0.0
 40
0.5
  1
129904
100
AcDbAttributeDefinition
  3

  2
PN
 70
     8
280
     0
  0
ATTDEF
  5
BA
330
AE
100
AcDbEntity
  8
AM_6
100
AcDbText
 10
5.746139397163827
 20
-3.250022627327576
 30
0.0
 40
0.5
  1
AN-GT-04-012
100
AcDbAttributeDefinition
  3

  2
DESCRIPTION
 70
     8
280
     0
  0
ATTDEF
  5
BB
330
AE
100
AcDbEntity
  8
AM_6
100
AcDbText
 10
5.746139397163827
 20
-3.750022627327576
 30
0.0
 40
0.5
  1
1-15/32
100
AcDbAttributeDefinition
  3

  2
A
 70
     8
280
     0
  0
ATTDEF
  5
BC
330
AE
100
AcDbEntity
  8
AM_6
100
AcDbText
 10
5.746139397163827
 20
-4.250022627327576
 30
0.0
 40
0.5
  1
0.5906
100
AcDbAttributeDefinition
  3

  2
C
 70
     8
280
     0
  0
ATTDEF
  5
BD
330
AE
100
AcDbEntity
  8
AM_6
100
AcDbText
 10
5.746139397163827
 20
-4.750022627327576
 30
0.0
 40
0.5
  1
1.8504
100
AcDbAttributeDefinition
  3

  2
D
 70
     8
280
     0
  0
ATTDEF
  5
BE
330
AE
100
AcDbEntity
  8
AM_6
100
AcDbText
 10
5.746139397163827
 20
-5.250022627327576
 30
0.0
 40
0.5
  1
0.152
100
AcDbAttributeDefinition
  3

  2
J
 70
     8
280
     0
  0
ATTDEF
  5
BF
330
AE
100
AcDbEntity
  8
AM_6
100
AcDbText
 10
5.746139397163827
 20
-5.750022627327576
 30
0.0
 40
0.5
  1
1-1/2
100
AcDbAttributeDefinition
  3

  2
L
 70
     8
280
     0
  0
ATTDEF
  5
C0
330
AE
100
AcDbEntity
  8
AM_6
100
AcDbText
 10
5.746139397163827
 20
-6.250022627327576
 30
0.0
 40
0.5
  1
10 - 32 x 1/4
100
AcDbAttributeDefinition
  3

  2
N
 70
     8
280
     0
  0
ATTDEF
  5
C1
330
AE
100
AcDbEntity
  8
AM_6
100
AcDbText
 10
5.746139397163827
 20
-6.750022627327576
 30
0.0
 40
0.5
  1
31/64
100
AcDbAttributeDefinition
  3

  2
W
 70
     8
280
     0
  0
ATTDEF
  5
C2
330
AE
100
AcDbEntity
  8
AM_6
100
AcDbText
 10
5.746139397163827
 20
-7.250022627327576
 30
0.0
 40
0.5
  1
63/64
100
AcDbAttributeDefinition
  3

  2
X
 70
     8
280
     0
  0
ATTDEF
  5
C3
330
AE
100
AcDbEntity
  8
AM_6
100
AcDbText
 10
5.746139397163827
 20
-7.750022627327576
 30
0.0
 40
0.5
  1
63/64
100
AcDbAttributeDefinition
  3

  2
Y
 70
     8
280
     0
  0
ATTDEF
  5
C4
330
AE
100
AcDbEntity
  8
AM_6
100
AcDbText
 10
5.746139397163827
 20
-8.250022627327576
 30
0.0
 40
0.5
  1
baldor
100
AcDbAttributeDefinition
  3

  2
COMPANY
 70
     8
280
     0
  0
LINE
  5
C5
330
AE
100
AcDbEntity
  8
AM_9
100
AcDbLine
 10
0.0500000000000001
 20
0.5595494500621679
 30
0.0
 11
0.0500000000000001
 21
0.5872043456905109
 31
0.0
  0
LINE
  5
C6
330
AE
100
AcDbEntity
  8
AM_9
100
AcDbLine
 10
-0.0499999999999999
 20
0.5595494500621679
 30
0.0
 11
-0.0499999999999999
 21
0.5872043456905109
 31
0.0
  0
ARC
  5
C7
330
AE
100
AcDbEntity
  8
AM_9
100
AcDbCircle
 10
0.0000000000000001
 20
0.0
 30
0.0
 40
0.5893292319220396
100
AcDbArc
 50
94.86695193339413
 51
85.13304806660588
  0
LINE
  5
C8
330
AE
100
AcDbEntity
  8
AM_9
100
AcDbLine
 10
-0.72745
 20
-0.0724499999999999
 30
0.0
 11
-0.5850499999999998
 21
-0.0724499999999999
 31
0.0
  0
LINE
  5
C9
330
AE
100
AcDbEntity
  8
AM_9
100
AcDbLine
 10
-0.5850499999999998
 20
0.0724499999999999
 30
0.0
 11
-0.72745
 21
0.0724499999999999
 31
0.0
  0
LINE
  5
CA
330
AE
100
AcDbEntity
  8
AM_9
100
AcDbLine
 10
-0.5850499999999998
 20
-0.0724499999999999
 30
0.0
 11
-0.5624999999999999
 21
-0.0949999999999999
 31
0.0
  0
LINE
  5
CB
330
AE
100
AcDbEntity
  8
AM_9
100
AcDbLine
 10
-0.5624999999999999
 20
0.0949999999999999
 30
0.0
 11
-0.5850499999999998
 21
0.0724499999999999
 31
0.0
  0
LINE
  5
CC
330
AE
100
AcDbEntity
  8
AM_9
100
AcDbLine
 10
-0.5624999999999999
 20
0.0949999999999999
 30
0.0
 11
-0.5624999999999999
 21
-0.0949999999999999
 31
0.0
  0
LINE
  5
CD
330
AE
100
AcDbEntity
  8
AM_9
100
AcDbLine
 10
-0.5850499999999998
 20
0.0724499999999999
 30
0.0
 11
-0.5850499999999998
 21
-0.0724499999999999
 31
0.0
  0
LINE
  5
CE
330
AE
100
AcDbEntity
  8
AM_9
100
AcDbLine
 10
-0.72745
 20
0.0724499999999999
 30
0.0
 11
-0.7444810466880065
 21
0.0894810466880065
 31
0.0
  0
LINE
  5
CF
330
AE
100
AcDbEntity
  8
AM_9
100
AcDbLine
 10
-0.744510217355016
 20
-0.0895102173550161
 30
0.0
 11
-0.72745
 21
-0.0724499999999999
 31
0.0
  0
LINE
  5
D0
330
AE
100
AcDbEntity
  8
AM_9
100
AcDbLine
 10
-0.72745
 20
0.0724499999999999
 30
0.0
 11
-0.72745
 21
-0.0724499999999999
 31
0.0
  0
LINE
  5
D2
330
AE
100
AcDbEntity
  8
AM_5
100
AcDbLine
 10
-0.7439590042468739
 20
-0.0949999999999999
 30
0.0
 11
-0.5624999999999999
 21
-0.0949999999999999
 31
0.0
  0
LINE
  5
D3
330
AE
100
AcDbEntity
  8
AM_5
100
AcDbLine
 10
-0.7439590042468739
 20
0.0950000000000001
 30
0.0
 11
-0.5624999999999999
 21
0.0950000000000001
 31
0.0
  0
LINE
  5
D4
330
AE
100
AcDbEntity
  8
AM_4
100
AcDbLine
 10
-0.3072517678942963
 20
-0.6841756727082815
 30
0.0
 11
-0.2841820058122555
 21
-0.6442176726636608
 31
0.0
  0
LINE
  5
D5
330
AE
100
AcDbEntity
  8
AM_4
100
AcDbLine
 10
0.6999998729997459
 20
-0.076
 30
0.0
 11
0.7461393971638274
 21
-0.076
 31
0.0
  0
ARC
  5
D6
330
AE
100
AcDbEntity
  8
AM_4
100
AcDbCircle
 10
-0.0000000000000001
 20
-0.0000000000000001
 30
0.0
 40
0.7499999999999999
100
AcDbArc
 50
245.8159549046887
 51
354.1840450953113
  0
LINE
  5
D7
330
AE
100
AcDbEntity
  8
AM_4
100
AcDbLine
 10
-0.4388876292695315
 20
0.6081756727082812
 30
0.0
 11
-0.4158178671874905
 21
0.5682176726636604
 31
0.0
  0
LINE
  5
D8
330
AE
100
AcDbEntity
  8
AM_4
100
AcDbLine
 10
-0.4158178671874901
 20
-0.5682176726636607
 30
0.0
 11
-0.438887629269531
 21
-0.6081756727082814
 31
0.0
  0
ARC
  5
D9
330
AE
100
AcDbEntity
  8
AM_4
100
AcDbCircle
 10
0.0000000000000002
 20
0.0000000000000001
 30
0.0
 40
0.7500000000000001
100
AcDbArc
 50
125.8159549046887
 51
234.1840450953113
  0
LINE
  5
DA
330
AE
100
AcDbEntity
  8
AM_4
100
AcDbLine
 10
-0.2841820058122558
 20
0.6442176726636606
 30
0.0
 11
-0.3072517678942966
 21
0.6841756727082814
 31
0.0
  0
LINE
  5
DB
330
AE
100
AcDbEntity
  8
AM_4
100
AcDbLine
 10
0.7461393971638276
 20
0.076
 30
0.0
 11
0.6999998729997459
 21
0.076
 31
0.0
  0
ARC
  5
DC
330
AE
100
AcDbEntity
  8
AM_4
100
AcDbCircle
 10
0.0
 20
0.0000000000000001
 30
0.0
 40
0.7500000000000001
100
AcDbArc
 50
5.81595490468878
 51
114.1840450953113
  0
LINE
  5
DD
330
AE
100
AcDbEntity
  8
AM_4
100
AcDbLine
 10
0.0500000000000001
 20
0.5595238095238095
 30
0.0
 11
0.0500000000000001
 21
0.3716517186829625
 31
0.0
  0
ARC
  5
DE
330
AE
100
AcDbEntity
  8
AM_4
100
AcDbCircle
 10
0.0000000000000001
 20
0.0
 30
0.0
 40
0.3749999999999999
100
AcDbArc
 50
97.66225566076608
 51
82.33774433923394
  0
LINE
  5
DF
330
AE
100
AcDbEntity
  8
AM_4
100
AcDbLine
 10
-0.0499999999999999
 20
0.5595238095238095
 30
0.0
 11
-0.0499999999999999
 21
0.3716517186829625
 31
0.0
  0
LINE
  5
E0
330
AE
100
AcDbEntity
  8
AM_4
100
AcDbLine
 10
0.0500000000000001
 20
0.5595238095238095
 30
0.0
 11
-0.0499999999999999
 21
0.5595238095238095
 31
0.0
  0
LINE
  5
E1
330
AE
100
AcDbEntity
  8
AM_4
100
AcDbLine
 10
0.6999998729997459
 20
0.076
 30
0.0
 11
0.6999998729997459
 21
-0.076
 31
0.0
  0
ARC
  5
E2
330
AE
100
AcDbEntity
  8
AM_4
100
AcDbCircle
 10
0.0000000000000003
 20
0.0000000000000006
 30
0.0
 40
0.7263759999999995
100
AcDbArc
 50
6.005792526651907
 51
113.9942074733481
  0
LINE
  5
E3
330
AE
100
AcDbEntity
  8
AM_4
100
AcDbLine
 10
-0.4158178671874905
 20
0.5682176726636604
 30
0.0
 11
-0.2841820058122558
 21
0.6442176726636606
 31
0.0
  0
ARC
  5
E4
330
AE
100
AcDbEntity
  8
AM_4
100
AcDbCircle
 10
0.0000000000000001
 20
0.0
 30
0.0
 40
0.726376
100
AcDbArc
 50
126.005792526652
 51
233.9942074733481
  0
LINE
  5
E5
330
AE
100
AcDbEntity
  8
AM_4
100
AcDbLine
 10
-0.2841820058122555
 20
-0.6442176726636608
 30
0.0
 11
-0.4158178671874901
 21
-0.5682176726636607
 31
0.0
  0
ARC
  5
E6
330
AE
100
AcDbEntity
  8
AM_4
100
AcDbCircle
 10
-0.0000000000000001
 20
-0.0000000000000002
 30
0.0
 40
0.7263759999999998
100
AcDbArc
 50
246.0057925266519
 51
353.9942074733481
  0
ENDBLK
  5
B1
330
AE
100
AcDbEntity
  8
0
100
AcDbBlockEnd
  0
BLOCK
  5
E9
330
E7
100
AcDbEntity
  8
0
100
AcDbBlockBegin
  2
4_129491I_0_in_129303_0
 70
     2
 10
0.0
 20
0.0
 30
0.0
  3
4_129491I_0_in_129303_0
  1

  0
ATTDEF
  5
EB
330
E7
100
AcDbEntity
  8
AM_6
100
AcDbText
 10
6.5
 20
2.203000000000001
 30
0.0
 40
0.5
  1
F2B-GT-B
100
AcDbAttributeDefinition
  3

  2
NN
 70
     8
280
     0
  0
ATTDEF
  5
EC
330
E7
100
AcDbEntity
  8
AM_6
100
AcDbText
 10
6.5
 20
1.703000000000001
 30
0.0
 40
0.5
  1
GT Normal Duty 2 Bolt Flange Bearings
100
AcDbAttributeDefinition
  3

  2
NT
 70
     8
280
     0
  0
ATTDEF
  5
ED
330
E7
100
AcDbEntity
  8
AM_6
100
AcDbText
 10
6.5
 20
1.203000000000001
 30
0.0
 40
0.5
  1
129491I
100
AcDbAttributeDefinition
  3

  2
NB
 70
     8
280
     0
  0
ATTDEF
  5
EE
330
E7
100
AcDbEntity
  8
AM_6
100
AcDbText
 10
6.5
 20
0.7030000000000007
 30
0.0
 40
0.5
  1
$PN.$LUBE.I
100
AcDbAttributeDefinition
  3

  2
NBSYN
 70
     8
280
     0
  0
ATTDEF
  5
EF
330
E7
100
AcDbEntity
  8
AM_6
100
AcDbText
 10
6.5
 20
0.2030000000000007
 30
0.0
 40
0.5
  1
129491
100
AcDbAttributeDefinition
  3

  2
LINA
 70
     8
280
     0
  0
ATTDEF
  5
F0
330
E7
100
AcDbEntity
  8
AM_6
100
AcDbText
 10
6.5
 20
-0.2969999999999993
 30
0.0
 40
0.5
  1
204
100
AcDbAttributeDefinition
  3

  2
SERIES
 70
     8
280
     0
  0
ATTDEF
  5
F1
330
E7
100
AcDbEntity
  8
AM_6
100
AcDbText
 10
6.5
 20
-0.7969999999999993
 30
0.0
 40
0.5
  1
129491
100
AcDbAttributeDefinition
  3

  2
PN
 70
     8
280
     0
  0
ATTDEF
  5
F2
330
E7
100
AcDbEntity
  8
AM_6
100
AcDbText
 10
6.5
 20
-1.296999999999999
 30
0.0
 40
0.5
  1
F2B-GT-04
100
AcDbAttributeDefinition
  3

  2
DESCRIPTION
 70
     8
280
     0
  0
ATTDEF
  5
F3
330
E7
100
AcDbEntity
  8
AM_6
100
AcDbText
 10
6.5
 20
-1.796999999999999
 30
0.0
 40
0.5
  1
1-15/32
100
AcDbAttributeDefinition
  3

  2
A
 70
     8
280
     0
  0
ATTDEF
  5
F4
330
E7
100
AcDbEntity
  8
AM_6
100
AcDbText
 10
6.5
 20
-2.296999999999999
 30
0.0
 40
0.5
  1
4-13/32
100
AcDbAttributeDefinition
  3

  2
B
 70
     8
280
     0
  0
ATTDEF
  5
F5
330
E7
100
AcDbEntity
  8
AM_6
100
AcDbText
 10
6.5
 20
-2.796999999999999
 30
0.0
 40
0.5
  1
1-39/64
100
AcDbAttributeDefinition
  3

  2
C
 70
     8
280
     0
  0
ATTDEF
  5
F6
330
E7
100
AcDbEntity
  8
AM_6
100
AcDbText
 10
6.5
 20
-3.296999999999999
 30
0.0
 40
0.5
  1
3-17/32
100
AcDbAttributeDefinition
  3

  2
D
 70
     8
280
     0
  0
ATTDEF
  5
F7
330
E7
100
AcDbEntity
  8
AM_6
100
AcDbText
 10
6.5
 20
-3.796999999999999
 30
0.0
 40
0.5
  1
3/8
100
AcDbAttributeDefinition
  3

  2
F
 70
     8
280
     0
  0
ATTDEF
  5
F8
330
E7
100
AcDbEntity
  8
AM_6
100
AcDbText
 10
6.5
 20
-4.296999999999999
 30
0.0
 40
0.5
  1
1/2
100
AcDbAttributeDefinition
  3

  2
H
 70
     8
280
     0
  0
ATTDEF
  5
F9
330
E7
100
AcDbEntity
  8
AM_6
100
AcDbText
 10
6.5
 20
-4.796999999999999
 30
0.0
 40
0.5
  1
5/8
100
AcDbAttributeDefinition
  3

  2
J
 70
     8
280
     0
  0
ATTDEF
  5
FA
330
E7
100
AcDbEntity
  8
AM_6
100
AcDbText
 10
6.5
 20
-5.296999999999999
 30
0.0
 40
0.5
  1
1-1/2
100
AcDbAttributeDefinition
  3

  2
L
 70
     8
280
     0
  0
ATTDEF
  5
FB
330
E7
100
AcDbEntity
  8
AM_6
100
AcDbText
 10
6.5
 20
-5.796999999999999
 30
0.0
 40
0.5
  1
2-3/8
100
AcDbAttributeDefinition
  3

  2
M
 70
     8
280
     0
  0
ATTDEF
  5
FC
330
E7
100
AcDbEntity
  8
AM_6
100
AcDbText
 10
6.5
 20
-6.296999999999999
 30
0.0
 40
0.5
  1
1-1/2
100
AcDbAttributeDefinition
  3

  2
N
 70
     8
280
     0
  0
ATTDEF
  5
FD
330
E7
100
AcDbEntity
  8
AM_6
100
AcDbText
 10
6.5
 20
-6.796999999999999
 30
0.0
 40
0.5
  1
1-39/64
100
AcDbAttributeDefinition
  3

  2
Z
 70
     8
280
     0
  0
ATTDEF
  5
FE
330
E7
100
AcDbEntity
  8
AM_6
100
AcDbText
 10
6.5
 20
-7.296999999999999
 30
0.0
 40
0.5
  1
baldor
100
AcDbAttributeDefinition
  3

  2
COMPANY
 70
     8
280
     0
  0
ARC
  5
FF
330
E7
100
AcDbEntity
  8
AM_9
100
AcDbCircle
 10
0.2809198393118285
 20
-1.382213331833166
 30
0.0
 40
0.3531000000000004
100
AcDbArc
 50
346.3612951347706
 51
101.4882739312332
  0
ARC
  5
100
330
E7
100
AcDbEntity
  8
AM_9
100
AcDbCircle
 10
0.2809198393118287
 20
1.382213331833166
 30
0.0
 40
0.3530999999999996
100
AcDbArc
 50
258.5117285611194
 51
13.6387048652294
  0
ARC
  5
101
330
E7
100
AcDbEntity
  8
AM_9
100
AcDbCircle
 10
-0.2809198393118286
 20
-1.382213331833166
 30
0.0
 40
0.3531
100
AcDbArc
 50
78.51172856111941
 51
193.6387048652292
  0
ARC
  5
102
330
E7
100
AcDbEntity
  8
AM_9
100
AcDbCircle
 10
-0.2809198393118295
 20
1.382213331833166
 30
0.0
 40
0.3530999999999996
100
AcDbArc
 50
166.3612951347709
 51
281.488268946528
  0
ARC
  5
103
330
E7
100
AcDbEntity
  8
AM_9
100
AcDbCircle
 10
-0.0000000000000002
 20
0.000000000000006
 30
0.0
 40
1.057371428571434
100
AcDbArc
 50
258.5117285611195
 51
281.4882706065811
  0
ARC
  5
104
330
E7
100
AcDbEntity
  8
AM_9
100
AcDbCircle
 10
0.0
 20
-0.0000000000000153
 30
0.0
 40
1.057371428571444
100
AcDbArc
 50
78.51172856111955
 51
101.48827227118
  0
LINE
  5
107
330
E7
100
AcDbEntity
  8
AM_7
100
AcDbLine
 10
-0.196875
 20
1.7655
 30
0.0
 11
0.196875
 21
1.7655
 31
0.0
  0
LINE
  5
108
330
E7
100
AcDbEntity
  8
AM_7
100
AcDbLine
 10
0.0
 20
1.568625
 30
0.0
 11
0.0
 21
1.962375
 31
0.0
  0
LINE
  5
109
330
E7
100
AcDbEntity
  8
AM_7
100
AcDbLine
 10
-0.196875
 20
-1.7655
 30
0.0
 11
0.196875
 21
-1.7655
 31
0.0
  0
LINE
  5
10A
330
E7
100
AcDbEntity
  8
AM_7
100
AcDbLine
 10
0.0
 20
-1.962375
 30
0.0
 11
0.0
 21
-1.568625
 31
0.0
  0
LINE
  5
10B
330
E7
100
AcDbEntity
  8
AM_7
100
AcDbLine
 10
-0.9714600000000001
 20
0.0
 30
0.0
 11
0.9714600000000001
 21
0.0
 31
0.0
  0
LINE
  5
10C
330
E7
100
AcDbEntity
  8
AM_7
100
AcDbLine
 10
0.0
 20
-0.9714600000000001
 30
0.0
 11
0.0
 21
0.9714600000000001
 31
0.0
  0
LINE
  5
10D
330
E7
100
AcDbEntity
  8
AM_7
100
AcDbLine
 10
1.107300905197768
 20
1.218656307373196
 30
0.0
 11
1.48953544680178
 21
1.600890848977208
 31
0.0
  0
LINE
  5
10E
330
E7
100
AcDbEntity
  8
AM_4
100
AcDbLine
 10
1.075023656123867
 20
-0.5044604927782504
 30
0.0
 11
0.3960613469930033
 21
-1.951353865760408
 31
0.0
  0
LINE
  5
10F
330
E7
100
AcDbEntity
  8
AM_4
100
AcDbLine
 10
-1.075023656123866
 20
0.5044604927782499
 30
0.0
 11
-0.3960613469930033
 21
1.951353865760408
 31
0.0
  0
LINE
  5
110
330
E7
100
AcDbEntity
  8
AM_4
100
AcDbLine
 10
0.3960613469930033
 20
1.951353865760408
 30
0.0
 11
0.7340460271222136
 21
1.231096220716088
 31
0.0
  0
LINE
  5
111
330
E7
100
AcDbEntity
  8
AM_4
100
AcDbLine
 10
0.9804148007167789
 20
0.7060754043470131
 30
0.0
 11
1.075023656123866
 21
0.5044604927782506
 31
0.0
  0
LINE
  5
112
330
E7
100
AcDbEntity
  8
AM_4
100
AcDbLine
 10
-0.3960613469930033
 20
-1.951353865760408
 30
0.0
 11
-1.075023656123867
 21
-0.5044604927782493
 31
0.0
  0
LINE
  5
113
330
E7
100
AcDbEntity
  8
AM_4
100
AcDbLine
 10
-0.5666618159910719
 20
1.043575889093697
 30
0.0
 11
-0.4129373976482215
 21
1.915390388072812
 31
0.0
  0
LINE
  5
114
330
E7
100
AcDbEntity
  8
AM_4
100
AcDbLine
 10
0.4129373976482199
 20
1.915390388072816
 30
0.0
 11
0.5636434874245831
 21
1.060693681018458
 31
0.0
  0
CIRCLE
  5
115
330
E7
100
AcDbEntity
  8
AM_4
100
AcDbCircle
 10
0.0
 20
1.7655
 30
0.0
 40
0.1875
  0
ARC
  5
116
330
E7
100
AcDbEntity
  8
AM_4
100
AcDbCircle
 10
-0.0000000000000001
 20
1.765500000000001
 30
0.0
 40
0.4374999999999994
100
AcDbArc
 50
25.13856395759395
 51
154.861436042406
  0
LINE
  5
117
330
E7
100
AcDbEntity
  8
AM_4
100
AcDbLine
 10
-0.4129373976482214
 20
-1.915390388072812
 30
0.0
 11
-0.5666618159910722
 21
-1.043575889093697
 31
0.0
  0
LINE
  5
118
330
E7
100
AcDbEntity
  8
AM_4
100
AcDbLine
 10
0.5666618159910721
 20
-1.043575889093697
 30
0.0
 11
0.4129373976482221
 21
-1.915390388072811
 31
0.0
  0
CIRCLE
  5
119
330
E7
100
AcDbEntity
  8
AM_4
100
AcDbCircle
 10
0.0
 20
-1.7655
 30
0.0
 40
0.1875
  0
ARC
  5
11A
330
E7
100
AcDbEntity
  8
AM_4
100
AcDbCircle
 10
-0.0000000000000001
 20
-1.765500000000001
 30
0.0
 40
0.4374999999999996
100
AcDbArc
 50
205.138563957594
 51
334.861436042406
  0
ARC
  5
11B
330
E7
100
AcDbEntity
  8
AM_4
100
AcDbCircle
 10
-0.0000000000000004
 20
-0.0000000000000011
 30
0.0
 40
1.230753986740575
100
AcDbArc
 50
63.08262587926193
 51
116.917374120738
  0
ARC
  5
11C
330
E7
100
AcDbEntity
  8
AM_4
100
AcDbCircle
 10
-0.0000000000000049
 20
0.0
 30
0.0
 40
1.187499999999998
100
AcDbArc
 50
118.5019648717072
 51
241.4980351282927
  0
ARC
  5
11D
330
E7
100
AcDbEntity
  8
AM_4
100
AcDbCircle
 10
0.0000000000000001
 20
0.0000000000000018
 30
0.0
 40
1.230753986740576
100
AcDbArc
 50
243.082625879262
 51
296.917374120738
  0
ARC
  5
11E
330
E7
100
AcDbEntity
  8
AM_4
100
AcDbCircle
 10
0.0000000000000078
 20
-0.000000000000002
 30
0.0
 40
1.187499999999995
100
AcDbArc
 50
298.5019648717072
 51
35.59815784372327
  0
LINE
  5
11F
330
E7
100
AcDbEntity
  8
AM_4
100
AcDbLine
 10
1.5
 20
1.5
 30
0.0
 11
1.388644597824572
 21
1.611355402175427
 31
0.0
  0
LINE
  5
120
330
E7
100
AcDbEntity
  8
AM_4
100
AcDbLine
 10
1.388644597824572
 20
1.611355402175427
 30
0.0
 11
1.323957802117131
 21
1.583632486376229
 31
0.0
  0
LINE
  5
121
330
E7
100
AcDbEntity
  8
AM_4
100
AcDbLine
 10
1.472277084200802
 20
1.435313204292558
 30
0.0
 11
1.5
 21
1.5
 31
0.0
  0
LINE
  5
122
330
E7
100
AcDbEntity
  8
AM_4
100
AcDbLine
 10
1.472277084200801
 20
1.435313204292558
 30
0.0
 11
1.323957802117131
 21
1.583632486376229
 31
0.0
  0
ARC
  5
123
330
E7
100
AcDbEntity
  8
AM_4
100
AcDbCircle
 10
1.3317121200588
 20
1.565539080034107
 30
0.0
 40
0.0196850400000007
100
AcDbArc
 50
113.1985930228086
 51
180.8429083339692
  0
ARC
  5
124
330
E7
100
AcDbEntity
  8
AM_4
100
AcDbCircle
 10
1.45418367785868
 20
1.443067522234228
 30
0.0
 40
0.01968504
100
AcDbArc
 50
269.157091666029
 51
336.8014069771927
  0
LINE
  5
125
330
E7
100
AcDbEntity
  8
AM_4
100
AcDbLine
 10
1.453894091332499
 20
1.423384612402461
 30
0.0
 11
1.312029210227033
 21
1.565249493507926
 31
0.0
  0
ARC
  5
126
330
E7
100
AcDbEntity
  8
AM_4
100
AcDbCircle
 10
1.2409246935686
 20
1.564203352624401
 30
0.0
 40
0.0711122120312506
100
AcDbArc
 50
258.8550321711148
 51
0.8429159758887952
  0
ARC
  5
127
330
E7
100
AcDbEntity
  8
AM_4
100
AcDbCircle
 10
1.452847950448974
 20
1.352280095744028
 30
0.0
 40
0.0711122120312511
100
AcDbArc
 50
89.1570840241114
 51
191.1449678288844
  0
LINE
  5
128
330
E7
100
AcDbEntity
  8
AM_4
100
AcDbLine
 10
1.383076824887373
 20
1.338534669674057
 30
0.0
 11
1.227179267498629
 21
1.494432227062801
 31
0.0
  0
LINE
  5
129
330
E7
100
AcDbEntity
  8
AM_4
100
AcDbLine
 10
1.227179267498629
 20
1.494432227062801
 30
0.0
 11
1.213259842226701
 21
1.480512801790873
 31
0.0
  0
LINE
  5
12A
330
E7
100
AcDbEntity
  8
AM_4
100
AcDbLine
 10
1.369157399615446
 20
1.324615244402129
 30
0.0
 11
1.383076824887373
 21
1.338534669674057
 31
0.0
  0
LINE
  5
12B
330
E7
100
AcDbEntity
  8
AM_4
100
AcDbLine
 10
1.12974329059513
 20
1.396996250159303
 30
0.0
 11
1.115823865323202
 21
1.383076824887374
 31
0.0
  0
LINE
  5
12C
330
E7
100
AcDbEntity
  8
AM_4
100
AcDbLine
 10
1.271721422711947
 20
1.22717926749863
 30
0.0
 11
1.285640847983875
 21
1.241098692770558
 31
0.0
  0
LINE
  5
12D
330
E7
100
AcDbEntity
  8
AM_4
100
AcDbLine
 10
1.31904747146493
 20
1.207692069289503
 30
0.0
 11
1.096336667114075
 21
1.430402873640358
 31
0.0
  0
LINE
  5
12E
330
E7
100
AcDbEntity
  8
AM_4
100
AcDbLine
 10
1.096336667114075
 20
1.430402873640358
 30
0.0
 11
1.179853218745646
 21
1.513919425271929
 31
0.0
  0
LINE
  5
12F
330
E7
100
AcDbEntity
  8
AM_4
100
AcDbLine
 10
1.402564023096501
 20
1.291208620921074
 30
0.0
 11
1.179853218745646
 21
1.513919425271929
 31
0.0
  0
LINE
  5
130
330
E7
100
AcDbEntity
  8
AM_4
100
AcDbLine
 10
1.402564023096501
 20
1.291208620921074
 30
0.0
 11
1.31904747146493
 21
1.207692069289503
 31
0.0
  0
LWPOLYLINE
  5
131
330
E7
100
AcDbEntity
  8
AM_4
100
AcDbPolyline
 90
        3
 70
     0
 43
0.0
 10
1.397948131846296
 20
1.286592729670869
 10
1.373621221706862
 20
1.317693178682575
 10
1.346886322008786
 20
1.346886322008789
  0
LWPOLYLINE
  5
132
330
E7
100
AcDbEntity
  8
AM_4
100
AcDbPolyline
 90
        3
 70
     0
 43
0.0
 10
1.263369770377216
 20
1.263369770377217
 10
1.29242697922908
 20
1.236749278141366
 10
1.323663362715135
 20
1.212307960539708
  0
LWPOLYLINE
  5
133
330
E7
100
AcDbEntity
  8
AM_4
100
AcDbPolyline
 90
        3
 70
     0
 43
0.0
 10
1.235530919833358
 20
1.458241724184216
 10
1.206473710981495
 20
1.484862216420065
 10
1.175237327495441
 20
1.509303534021724
  0
LWPOLYLINE
  5
134
330
E7
100
AcDbEntity
  8
AM_4
100
AcDbPolyline
 90
        3
 70
     0
 43
0.0
 10
1.10095255836428
 20
1.435018764890563
 10
1.125279468503713
 20
1.403918315878857
 10
1.152014368201789
 20
1.374725172552644
  0
LINE
  5
135
330
E7
100
AcDbEntity
  8
AM_4
100
AcDbLine
 10
1.212307960539707
 20
1.323663362715135
 30
0.0
 11
1.286592729670868
 21
1.397948131846296
 31
0.0
  0
LWPOLYLINE
  5
136
330
E7
100
AcDbEntity
  8
AM_4
100
AcDbPolyline
 90
        3
 70
     0
 43
0.0
 10
1.212307960539707
 20
1.323663362715135
 10
1.236634870679141
 20
1.29256291370343
 10
1.263369770377216
 20
1.263369770377217
  0
LWPOLYLINE
  5
137
330
E7
100
AcDbEntity
  8
AM_4
100
AcDbPolyline
 90
        3
 70
     0
 43
0.0
 10
1.152014368201789
 20
1.374725172552644
 10
1.181071577053652
 20
1.348104680316794
 10
1.212307960539707
 20
1.323663362715135
  0
LWPOLYLINE
  5
138
330
E7
100
AcDbEntity
  8
AM_4
100
AcDbPolyline
 90
        3
 70
     0
 43
0.0
 10
1.346886322008786
 20
1.346886322008789
 10
1.317829113156923
 20
1.373506814244638
 10
1.286592729670868
 20
1.397948131846296
  0
LWPOLYLINE
  5
139
330
E7
100
AcDbEntity
  8
AM_4
100
AcDbPolyline
 90
        3
 70
     0
 43
0.0
 10
1.286592729670868
 20
1.397948131846296
 10
1.262265819531434
 20
1.429048580858002
 10
1.235530919833358
 20
1.458241724184216
  0
ARC
  5
13A
330
E7
100
AcDbEntity
  8
AM_4
100
AcDbCircle
 10
-0.0000000000000002
 20
0.0000000000000001
 30
0.0
 40
1.181126679158508
100
AcDbArc
 50
62.31169458073943
 51
35.54696171296842
  0
LINE
  5
13B
330
E7
100
AcDbEntity
  8
AM_4
100
AcDbLine
 10
0.9387571409645669
 20
-0.009947855
 30
0.0
 11
0.9402138338779527
 21
-0.016069605
 31
0.0
  0
LINE
  5
13C
330
E7
100
AcDbEntity
  8
AM_4
100
AcDbLine
 10
0.9897425724999999
 20
0.0176000393700788
 30
0.0
 11
0.9387571409645669
 21
0.0176000393700788
 31
0.0
  0
LINE
  5
13D
330
E7
100
AcDbEntity
  8
AM_4
100
AcDbLine
 10
0.9897425724999999
 20
-0.009947855
 30
0.0
 11
0.9897425724999999
 21
0.0176000393700788
 31
0.0
  0
LINE
  5
13E
330
E7
100
AcDbEntity
  8
AM_4
100
AcDbLine
 10
0.9882858824999999
 20
-0.016069605
 30
0.0
 11
0.9897425724999999
 21
-0.009947855
 31
0.0
  0
LINE
  5
13F
330
E7
100
AcDbEntity
  8
AM_4
100
AcDbLine
 10
0.9853722974999999
 20
-0.020660825
 30
0.0
 11
0.9882858824999999
 21
-0.016069605
 31
0.0
  0
LINE
  5
140
330
E7
100
AcDbEntity
  8
AM_4
100
AcDbLine
 10
0.9810022024999999
 20
-0.02372185
 30
0.0
 11
0.9853722974999999
 21
-0.020660825
 31
0.0
  0
LINE
  5
141
330
E7
100
AcDbEntity
  8
AM_4
100
AcDbLine
 10
0.9751752925
 20
-0.025252165
 30
0.0
 11
0.9810022024999999
 21
-0.02372185
 31
0.0
  0
LINE
  5
142
330
E7
100
AcDbEntity
  8
AM_4
100
AcDbLine
 10
0.9533244244291339
 20
-0.025252165
 30
0.0
 11
0.9751752925
 21
-0.025252165
 31
0.0
  0
LINE
  5
143
330
E7
100
AcDbEntity
  8
AM_4
100
AcDbLine
 10
0.947497514980315
 20
-0.02372185
 30
0.0
 11
0.9533244244291339
 21
-0.025252165
 31
0.0
  0
LINE
  5
144
330
E7
100
AcDbEntity
  8
AM_4
100
AcDbLine
 10
0.9431274165551181
 20
-0.020660825
 30
0.0
 11
0.947497514980315
 21
-0.02372185
 31
0.0
  0
LINE
  5
145
330
E7
100
AcDbEntity
  8
AM_4
100
AcDbLine
 10
0.9402138338779527
 20
-0.016069605
 30
0.0
 11
0.9431274165551181
 21
-0.020660825
 31
0.0
  0
LINE
  5
146
330
E7
100
AcDbEntity
  8
AM_4
100
AcDbLine
 10
0.9387571409645669
 20
0.0176000393700788
 30
0.0
 11
0.9387571409645669
 21
-0.009947855
 31
0.0
  0
LINE
  5
147
330
E7
100
AcDbEntity
  8
AM_4
100
AcDbLine
 10
0.9704252925
 20
0.0910610236220473
 30
0.0
 11
0.9485744244291339
 21
0.0910610236220473
 31
0.0
  0
LINE
  5
148
330
E7
100
AcDbEntity
  8
AM_4
100
AcDbLine
 10
0.9835358825
 20
0.0573915354330709
 30
0.0
 11
0.9849925724999999
 21
0.063513188976378
 31
0.0
  0
LINE
  5
149
330
E7
100
AcDbEntity
  8
AM_4
100
AcDbLine
 10
0.9354638338779527
 20
0.0818785433070867
 30
0.0
 11
0.9340071409645669
 21
0.0757566929133859
 31
0.0
  0
LINE
  5
14A
330
E7
100
AcDbEntity
  8
AM_4
100
AcDbLine
 10
0.942747514980315
 20
0.0895307086614174
 30
0.0
 11
0.9383774165551181
 21
0.0864696850393701
 31
0.0
  0
LINE
  5
14B
330
E7
100
AcDbEntity
  8
AM_4
100
AcDbLine
 10
0.9485744244291339
 20
0.0910610236220473
 30
0.0
 11
0.942747514980315
 21
0.0895307086614174
 31
0.0
  0
LINE
  5
14C
330
E7
100
AcDbEntity
  8
AM_4
100
AcDbLine
 10
0.9762522025
 20
0.0895307086614174
 30
0.0
 11
0.9704252925
 21
0.0910610236220473
 31
0.0
  0
LINE
  5
14D
330
E7
100
AcDbEntity
  8
AM_4
100
AcDbLine
 10
0.9835358825
 20
0.0818785433070867
 30
0.0
 11
0.9806222975
 21
0.0864696850393701
 31
0.0
  0
LINE
  5
14E
330
E7
100
AcDbEntity
  8
AM_4
100
AcDbLine
 10
0.9849925724999999
 20
0.0757566929133859
 30
0.0
 11
0.9835358825
 21
0.0818785433070867
 31
0.0
  0
LINE
  5
14F
330
E7
100
AcDbEntity
  8
AM_4
100
AcDbLine
 10
0.9849925724999999
 20
0.063513188976378
 30
0.0
 11
0.9849925724999999
 21
0.0757566929133859
 31
0.0
  0
LINE
  5
150
330
E7
100
AcDbEntity
  8
AM_4
100
AcDbLine
 10
0.9806222975
 20
0.0528001968503937
 30
0.0
 11
0.9835358825
 21
0.0573915354330709
 31
0.0
  0
LINE
  5
151
330
E7
100
AcDbEntity
  8
AM_4
100
AcDbLine
 10
0.9762522025
 20
0.0497391732283465
 30
0.0
 11
0.9806222975
 21
0.0528001968503937
 31
0.0
  0
LINE
  5
152
330
E7
100
AcDbEntity
  8
AM_4
100
AcDbLine
 10
0.9704252925
 20
0.0482088582677166
 30
0.0
 11
0.9762522025
 21
0.0497391732283465
 31
0.0
  0
LINE
  5
153
330
E7
100
AcDbEntity
  8
AM_4
100
AcDbLine
 10
0.9485744244291339
 20
0.0482088582677166
 30
0.0
 11
0.9704252925
 21
0.0482088582677166
 31
0.0
  0
LINE
  5
154
330
E7
100
AcDbEntity
  8
AM_4
100
AcDbLine
 10
0.942747514980315
 20
0.0497391732283465
 30
0.0
 11
0.9485744244291339
 21
0.0482088582677166
 31
0.0
  0
LINE
  5
155
330
E7
100
AcDbEntity
  8
AM_4
100
AcDbLine
 10
0.9383774165551181
 20
0.0528001968503937
 30
0.0
 11
0.942747514980315
 21
0.0497391732283465
 31
0.0
  0
LINE
  5
156
330
E7
100
AcDbEntity
  8
AM_4
100
AcDbLine
 10
0.9354638338779527
 20
0.0573915354330709
 30
0.0
 11
0.9383774165551181
 21
0.0528001968503937
 31
0.0
  0
LINE
  5
157
330
E7
100
AcDbEntity
  8
AM_4
100
AcDbLine
 10
0.9340071409645669
 20
0.063513188976378
 30
0.0
 11
0.9354638338779527
 21
0.0573915354330709
 31
0.0
  0
LINE
  5
158
330
E7
100
AcDbEntity
  8
AM_4
100
AcDbLine
 10
0.9340071409645669
 20
0.0757566929133859
 30
0.0
 11
0.9340071409645669
 21
0.063513188976378
 31
0.0
  0
LINE
  5
159
330
E7
100
AcDbEntity
  8
AM_4
100
AcDbLine
 10
0.9806222975
 20
0.0864696850393701
 30
0.0
 11
0.9762522025
 21
0.0895307086614174
 31
0.0
  0
LINE
  5
15A
330
E7
100
AcDbEntity
  8
AM_4
100
AcDbLine
 10
0.9383774165551181
 20
0.0864696850393701
 30
0.0
 11
0.9354638338779527
 21
0.0818785433070867
 31
0.0
  0
LINE
  5
15B
330
E7
100
AcDbEntity
  8
AM_4
100
AcDbLine
 10
0.9849925724999999
 20
0.1369742125984253
 30
0.0
 11
0.9849925724999999
 21
0.1645222440944883
 31
0.0
  0
LINE
  5
15C
330
E7
100
AcDbEntity
  8
AM_4
100
AcDbLine
 10
0.9835358825
 20
0.1308525590551182
 30
0.0
 11
0.9849925724999999
 21
0.1369742125984253
 31
0.0
  0
LINE
  5
15D
330
E7
100
AcDbEntity
  8
AM_4
100
AcDbLine
 10
0.9806222975
 20
0.126261220472441
 30
0.0
 11
0.9835358825
 21
0.1308525590551182
 31
0.0
  0
LINE
  5
15E
330
E7
100
AcDbEntity
  8
AM_4
100
AcDbLine
 10
0.9762522025
 20
0.1232003937007875
 30
0.0
 11
0.9806222975
 21
0.126261220472441
 31
0.0
  0
LINE
  5
15F
330
E7
100
AcDbEntity
  8
AM_4
100
AcDbLine
 10
0.9704252925
 20
0.1216698818897639
 30
0.0
 11
0.9762522025
 21
0.1232003937007875
 31
0.0
  0
LINE
  5
160
330
E7
100
AcDbEntity
  8
AM_4
100
AcDbLine
 10
0.9354638338779527
 20
0.1308525590551182
 30
0.0
 11
0.9383774165551181
 21
0.126261220472441
 31
0.0
  0
LINE
  5
161
330
E7
100
AcDbEntity
  8
AM_4
100
AcDbLine
 10
0.9340071409645669
 20
0.1369742125984253
 30
0.0
 11
0.9354638338779527
 21
0.1308525590551182
 31
0.0
  0
LINE
  5
162
330
E7
100
AcDbEntity
  8
AM_4
100
AcDbLine
 10
0.9340071409645669
 20
0.1645222440944883
 30
0.0
 11
0.9340071409645669
 21
0.1369742125984253
 31
0.0
  0
LINE
  5
163
330
E7
100
AcDbEntity
  8
AM_4
100
AcDbLine
 10
0.9485744244291339
 20
0.1216698818897639
 30
0.0
 11
0.9704252925
 21
0.1216698818897639
 31
0.0
  0
LINE
  5
164
330
E7
100
AcDbEntity
  8
AM_4
100
AcDbLine
 10
0.942747514980315
 20
0.1232003937007875
 30
0.0
 11
0.9485744244291339
 21
0.1216698818897639
 31
0.0
  0
LINE
  5
165
330
E7
100
AcDbEntity
  8
AM_4
100
AcDbLine
 10
0.9383774165551181
 20
0.126261220472441
 30
0.0
 11
0.942747514980315
 21
0.1232003937007875
 31
0.0
  0
LINE
  5
166
330
E7
100
AcDbEntity
  8
AM_4
100
AcDbLine
 10
0.9849925724999999
 20
0.1645222440944883
 30
0.0
 11
0.9340071409645669
 21
0.1645222440944883
 31
0.0
  0
LINE
  5
167
330
E7
100
AcDbEntity
  8
AM_4
100
AcDbLine
 10
0.9849925725
 20
-0.084939375
 30
0.0
 11
0.9835358825
 21
-0.091061025
 31
0.0
  0
LINE
  5
168
330
E7
100
AcDbEntity
  8
AM_4
100
AcDbLine
 10
0.9267234795472441
 20
-0.09259154
 30
0.0
 11
0.9296370622244094
 21
-0.09871339
 31
0.0
  0
LINE
  5
169
330
E7
100
AcDbEntity
  8
AM_4
100
AcDbLine
 10
0.9296370622244094
 20
-0.09871339
 30
0.0
 11
0.9354638338779527
 21
-0.104835045
 31
0.0
  0
LINE
  5
16A
330
E7
100
AcDbEntity
  8
AM_4
100
AcDbLine
 10
0.9354638338779527
 20
-0.104835045
 30
0.0
 11
0.9412908023818898
 21
-0.106365555
 31
0.0
  0
LINE
  5
16B
330
E7
100
AcDbEntity
  8
AM_4
100
AcDbLine
 10
0.9412908023818898
 20
-0.106365555
 30
0.0
 11
0.9631416675
 21
-0.106365555
 31
0.0
  0
LINE
  5
16C
330
E7
100
AcDbEntity
  8
AM_4
100
AcDbLine
 10
0.9631416675
 20
-0.106365555
 30
0.0
 11
0.9631416675
 21
-0.08340886
 31
0.0
  0
LINE
  5
16D
330
E7
100
AcDbEntity
  8
AM_4
100
AcDbLine
 10
0.9631416675
 20
-0.08340886
 30
0.0
 11
0.9544013141929134
 21
-0.08340886
 31
0.0
  0
LINE
  5
16E
330
E7
100
AcDbEntity
  8
AM_4
100
AcDbLine
 10
0.9354638338779527
 20
-0.091061025
 30
0.0
 11
0.9340071409645669
 21
-0.084939375
 31
0.0
  0
LINE
  5
16F
330
E7
100
AcDbEntity
  8
AM_4
100
AcDbLine
 10
0.9340071409645669
 20
-0.084939375
 30
0.0
 11
0.9340071409645669
 21
-0.071165355
 31
0.0
  0
LINE
  5
170
330
E7
100
AcDbEntity
  8
AM_4
100
AcDbLine
 10
0.942747514980315
 20
-0.097182875
 30
0.0
 11
0.9383774165551181
 21
-0.095652365
 31
0.0
  0
LINE
  5
171
330
E7
100
AcDbEntity
  8
AM_4
100
AcDbLine
 10
0.9544013141929134
 20
-0.08340886
 30
0.0
 11
0.9544013141929134
 21
-0.097182875
 31
0.0
  0
LINE
  5
172
330
E7
100
AcDbEntity
  8
AM_4
100
AcDbLine
 10
0.9544013141929134
 20
-0.097182875
 30
0.0
 11
0.942747514980315
 21
-0.097182875
 31
0.0
  0
LINE
  5
173
330
E7
100
AcDbEntity
  8
AM_4
100
AcDbLine
 10
0.9252667866338583
 20
-0.084939375
 30
0.0
 11
0.9267234795472441
 21
-0.09259154
 31
0.0
  0
LINE
  5
174
330
E7
100
AcDbEntity
  8
AM_4
100
AcDbLine
 10
0.9937329275
 20
0.1369742125984253
 30
0.0
 11
0.9937329275
 21
0.1737047244094489
 31
0.0
  0
LINE
  5
175
330
E7
100
AcDbEntity
  8
AM_4
100
AcDbLine
 10
0.9267234795472441
 20
0.0558610236220473
 30
0.0
 11
0.9296370622244094
 21
0.0497391732283465
 31
0.0
  0
LINE
  5
176
330
E7
100
AcDbEntity
  8
AM_4
100
AcDbLine
 10
0.9296370622244094
 20
0.0497391732283465
 30
0.0
 11
0.9354638338779527
 21
0.0436175196850394
 31
0.0
  0
LINE
  5
177
330
E7
100
AcDbEntity
  8
AM_4
100
AcDbLine
 10
0.9354638338779527
 20
0.0436175196850394
 30
0.0
 11
0.9412908023818898
 21
0.0405566929133859
 31
0.0
  0
LINE
  5
178
330
E7
100
AcDbEntity
  8
AM_4
100
AcDbLine
 10
0.9412908023818898
 20
0.0405566929133859
 30
0.0
 11
0.9485744244291339
 21
0.0390261811023622
 31
0.0
  0
LINE
  5
179
330
E7
100
AcDbEntity
  8
AM_4
100
AcDbLine
 10
0.9485744244291339
 20
0.0390261811023622
 30
0.0
 11
0.9704252925
 21
0.0390261811023622
 31
0.0
  0
LINE
  5
17A
330
E7
100
AcDbEntity
  8
AM_4
100
AcDbLine
 10
0.9704252925
 20
0.0390261811023622
 30
0.0
 11
0.9777089125
 21
0.0405566929133859
 31
0.0
  0
LINE
  5
17B
330
E7
100
AcDbEntity
  8
AM_4
100
AcDbLine
 10
0.9777089125
 20
0.0405566929133859
 30
0.0
 11
0.9835358825
 21
0.0436175196850394
 31
0.0
  0
LINE
  5
17C
330
E7
100
AcDbEntity
  8
AM_4
100
AcDbLine
 10
0.9835358825
 20
0.0436175196850394
 30
0.0
 11
0.9893626525
 21
0.0497391732283465
 31
0.0
  0
LINE
  5
17D
330
E7
100
AcDbEntity
  8
AM_4
100
AcDbLine
 10
0.9893626525
 20
0.0497391732283465
 30
0.0
 11
0.9922762375
 21
0.0558610236220473
 31
0.0
  0
LINE
  5
17E
330
E7
100
AcDbEntity
  8
AM_4
100
AcDbLine
 10
0.9922762375
 20
0.0558610236220473
 30
0.0
 11
0.9937329275
 21
0.063513188976378
 31
0.0
  0
LINE
  5
17F
330
E7
100
AcDbEntity
  8
AM_4
100
AcDbLine
 10
0.9937329275
 20
0.063513188976378
 30
0.0
 11
0.9937329275
 21
0.0757566929133859
 31
0.0
  0
LINE
  5
180
330
E7
100
AcDbEntity
  8
AM_4
100
AcDbLine
 10
0.9937329275
 20
0.0757566929133859
 30
0.0
 11
0.9922762375
 21
0.0834088582677166
 31
0.0
  0
LINE
  5
181
330
E7
100
AcDbEntity
  8
AM_4
100
AcDbLine
 10
0.9922762375
 20
0.0834088582677166
 30
0.0
 11
0.9893626525
 21
0.0895307086614174
 31
0.0
  0
LINE
  5
182
330
E7
100
AcDbEntity
  8
AM_4
100
AcDbLine
 10
0.9893626525
 20
0.0895307086614174
 30
0.0
 11
0.9835358825
 21
0.0956523622047245
 31
0.0
  0
LINE
  5
183
330
E7
100
AcDbEntity
  8
AM_4
100
AcDbLine
 10
0.9340071409645669
 20
-0.071165355
 30
0.0
 11
0.9354638338779527
 21
-0.065043705
 31
0.0
  0
LINE
  5
184
330
E7
100
AcDbEntity
  8
AM_4
100
AcDbLine
 10
0.9354638338779527
 20
-0.065043705
 30
0.0
 11
0.9383774165551181
 21
-0.060452365
 31
0.0
  0
LINE
  5
185
330
E7
100
AcDbEntity
  8
AM_4
100
AcDbLine
 10
0.9383774165551181
 20
-0.060452365
 30
0.0
 11
0.942747514980315
 21
-0.057391535
 31
0.0
  0
LINE
  5
186
330
E7
100
AcDbEntity
  8
AM_4
100
AcDbLine
 10
0.942747514980315
 20
-0.057391535
 30
0.0
 11
0.9485744244291339
 21
-0.055861025
 31
0.0
  0
LINE
  5
187
330
E7
100
AcDbEntity
  8
AM_4
100
AcDbLine
 10
0.9485744244291339
 20
-0.055861025
 30
0.0
 11
0.9704252925
 21
-0.055861025
 31
0.0
  0
LINE
  5
188
330
E7
100
AcDbEntity
  8
AM_4
100
AcDbLine
 10
0.9704252925
 20
-0.055861025
 30
0.0
 11
0.9762522025
 21
-0.057391535
 31
0.0
  0
LINE
  5
189
330
E7
100
AcDbEntity
  8
AM_4
100
AcDbLine
 10
0.9762522025
 20
-0.057391535
 30
0.0
 11
0.9806222975
 21
-0.060452365
 31
0.0
  0
CIRCLE
  5
18A
330
E7
100
AcDbEntity
  8
AM_4
100
AcDbCircle
 10
0.0
 20
0.0
 30
0.0
 40
0.9252
  0
LINE
  5
18B
330
E7
100
AcDbEntity
  8
AM_4
100
AcDbLine
 10
0.9252667866338583
 20
-0.11860906
 30
0.0
 11
0.9252667866338583
 21
-0.17370473
 31
0.0
  0
LINE
  5
18C
330
E7
100
AcDbEntity
  8
AM_4
100
AcDbLine
 10
0.9937329275
 20
-0.11860906
 30
0.0
 11
0.9252667866338583
 21
-0.11860906
 31
0.0
  0
LINE
  5
18D
330
E7
100
AcDbEntity
  8
AM_4
100
AcDbLine
 10
0.9937329275
 20
-0.1737047299999999
 30
0.0
 11
0.9937329275
 21
-0.11860906
 31
0.0
  0
LINE
  5
18E
330
E7
100
AcDbEntity
  8
AM_4
100
AcDbLine
 10
0.9849925725
 20
-0.17370473
 30
0.0
 11
0.9937329275
 21
-0.1737047299999999
 31
0.0
  0
LINE
  5
18F
330
E7
100
AcDbEntity
  8
AM_4
100
AcDbLine
 10
0.9849925725
 20
-0.12779154
 30
0.0
 11
0.9849925725
 21
-0.17370473
 31
0.0
  0
LINE
  5
190
330
E7
100
AcDbEntity
  8
AM_4
100
AcDbLine
 10
0.9660551124999999
 20
-0.12779154
 30
0.0
 11
0.9849925725
 21
-0.12779154
 31
0.0
  0
LINE
  5
191
330
E7
100
AcDbEntity
  8
AM_4
100
AcDbLine
 10
0.9660551124999999
 20
-0.167583075
 30
0.0
 11
0.9660551124999999
 21
-0.12779154
 31
0.0
  0
LINE
  5
192
330
E7
100
AcDbEntity
  8
AM_4
100
AcDbLine
 10
0.9573147787598424
 20
-0.167583075
 30
0.0
 11
0.9660551124999999
 21
-0.167583075
 31
0.0
  0
LINE
  5
193
330
E7
100
AcDbEntity
  8
AM_4
100
AcDbLine
 10
0.9573147787598424
 20
-0.12779154
 30
0.0
 11
0.9573147787598424
 21
-0.167583075
 31
0.0
  0
LINE
  5
194
330
E7
100
AcDbEntity
  8
AM_4
100
AcDbLine
 10
0.9340071409645669
 20
-0.12779154
 30
0.0
 11
0.9573147787598424
 21
-0.12779154
 31
0.0
  0
LINE
  5
195
330
E7
100
AcDbEntity
  8
AM_4
100
AcDbLine
 10
0.9340071409645669
 20
-0.17370473
 30
0.0
 11
0.9340071409645669
 21
-0.12779154
 31
0.0
  0
LINE
  5
196
330
E7
100
AcDbEntity
  8
AM_4
100
AcDbLine
 10
0.9252667866338583
 20
-0.17370473
 30
0.0
 11
0.9340071409645669
 21
-0.17370473
 31
0.0
  0
LINE
  5
197
330
E7
100
AcDbEntity
  8
AM_4
100
AcDbLine
 10
0.9252667866338583
 20
-0.071165355
 30
0.0
 11
0.9252667866338583
 21
-0.084939375
 31
0.0
  0
LINE
  5
198
330
E7
100
AcDbEntity
  8
AM_4
100
AcDbLine
 10
0.9267234795472441
 20
-0.0635131900000001
 30
0.0
 11
0.9252667866338583
 21
-0.071165355
 31
0.0
  0
LINE
  5
199
330
E7
100
AcDbEntity
  8
AM_4
100
AcDbLine
 10
0.9296370622244094
 20
-0.057391535
 30
0.0
 11
0.9267234795472441
 21
-0.0635131900000001
 31
0.0
  0
LINE
  5
19A
330
E7
100
AcDbEntity
  8
AM_4
100
AcDbLine
 10
0.9354638338779527
 20
-0.051269685
 30
0.0
 11
0.9296370622244094
 21
-0.057391535
 31
0.0
  0
LINE
  5
19B
330
E7
100
AcDbEntity
  8
AM_4
100
AcDbLine
 10
0.9412908023818898
 20
-0.04820886
 30
0.0
 11
0.9354638338779527
 21
-0.051269685
 31
0.0
  0
LINE
  5
19C
330
E7
100
AcDbEntity
  8
AM_4
100
AcDbLine
 10
0.9485744244291339
 20
-0.04667835
 30
0.0
 11
0.9412908023818898
 21
-0.04820886
 31
0.0
  0
LINE
  5
19D
330
E7
100
AcDbEntity
  8
AM_4
100
AcDbLine
 10
0.9704252925
 20
-0.04667835
 30
0.0
 11
0.9485744244291339
 21
-0.04667835
 31
0.0
  0
LINE
  5
19E
330
E7
100
AcDbEntity
  8
AM_4
100
AcDbLine
 10
0.9777089125
 20
-0.04820886
 30
0.0
 11
0.9704252925
 21
-0.04667835
 31
0.0
  0
LINE
  5
19F
330
E7
100
AcDbEntity
  8
AM_4
100
AcDbLine
 10
0.9835358825
 20
-0.051269685
 30
0.0
 11
0.9777089125
 21
-0.04820886
 31
0.0
  0
LINE
  5
1A0
330
E7
100
AcDbEntity
  8
AM_4
100
AcDbLine
 10
0.9893626525
 20
-0.057391535
 30
0.0
 11
0.9835358825
 21
-0.051269685
 31
0.0
  0
LINE
  5
1A1
330
E7
100
AcDbEntity
  8
AM_4
100
AcDbLine
 10
0.9922762375
 20
-0.06351319
 30
0.0
 11
0.9893626525
 21
-0.057391535
 31
0.0
  0
LINE
  5
1A2
330
E7
100
AcDbEntity
  8
AM_4
100
AcDbLine
 10
0.9937329275
 20
-0.071165355
 30
0.0
 11
0.9922762375
 21
-0.06351319
 31
0.0
  0
LINE
  5
1A3
330
E7
100
AcDbEntity
  8
AM_4
100
AcDbLine
 10
0.9937329275
 20
-0.084939375
 30
0.0
 11
0.9937329275
 21
-0.071165355
 31
0.0
  0
LINE
  5
1A4
330
E7
100
AcDbEntity
  8
AM_4
100
AcDbLine
 10
0.9922762375
 20
-0.09259154
 30
0.0
 11
0.9937329275
 21
-0.084939375
 31
0.0
  0
LINE
  5
1A5
330
E7
100
AcDbEntity
  8
AM_4
100
AcDbLine
 10
0.9893626525
 20
-0.09871339
 30
0.0
 11
0.9922762375
 21
-0.09259154
 31
0.0
  0
LINE
  5
1A6
330
E7
100
AcDbEntity
  8
AM_4
100
AcDbLine
 10
0.9835358825
 20
-0.104835045
 30
0.0
 11
0.9893626525
 21
-0.09871339
 31
0.0
  0
LINE
  5
1A7
330
E7
100
AcDbEntity
  8
AM_4
100
AcDbLine
 10
0.9762522025
 20
-0.106365555
 30
0.0
 11
0.9835358825
 21
-0.104835045
 31
0.0
  0
LINE
  5
1A8
330
E7
100
AcDbEntity
  8
AM_4
100
AcDbLine
 10
0.9762522025
 20
-0.097182875
 30
0.0
 11
0.9762522025
 21
-0.106365555
 31
0.0
  0
LINE
  5
1A9
330
E7
100
AcDbEntity
  8
AM_4
100
AcDbLine
 10
0.9806222975
 20
-0.095652365
 30
0.0
 11
0.9762522025
 21
-0.097182875
 31
0.0
  0
LINE
  5
1AA
330
E7
100
AcDbEntity
  8
AM_4
100
AcDbLine
 10
0.9835358825
 20
-0.091061025
 30
0.0
 11
0.9806222975
 21
-0.095652365
 31
0.0
  0
LINE
  5
1AB
330
E7
100
AcDbEntity
  8
AM_4
100
AcDbLine
 10
0.9849925725
 20
-0.071165355
 30
0.0
 11
0.9849925725
 21
-0.084939375
 31
0.0
  0
LINE
  5
1AC
330
E7
100
AcDbEntity
  8
AM_4
100
AcDbLine
 10
0.9835358825
 20
-0.065043705
 30
0.0
 11
0.9849925725
 21
-0.071165355
 31
0.0
  0
LINE
  5
1AD
330
E7
100
AcDbEntity
  8
AM_4
100
AcDbLine
 10
0.9806222975
 20
-0.060452365
 30
0.0
 11
0.9835358825
 21
-0.065043705
 31
0.0
  0
LINE
  5
1AE
330
E7
100
AcDbEntity
  8
AM_4
100
AcDbLine
 10
0.9383774165551181
 20
-0.095652365
 30
0.0
 11
0.9354638338779527
 21
-0.091061025
 31
0.0
  0
LINE
  5
1AF
330
E7
100
AcDbEntity
  8
AM_4
100
AcDbLine
 10
0.9300167866338582
 20
-0.009947855
 30
0.0
 11
0.9314734795472441
 21
-0.01760004
 31
0.0
  0
LINE
  5
1B0
330
E7
100
AcDbEntity
  8
AM_4
100
AcDbLine
 10
0.9300167866338582
 20
0.0267826771653543
 30
0.0
 11
0.9300167866338582
 21
-0.009947855
 31
0.0
  0
LINE
  5
1B1
330
E7
100
AcDbEntity
  8
AM_4
100
AcDbLine
 10
0.9984829275
 20
0.0267826771653545
 30
0.0
 11
0.9300167866338582
 21
0.0267826771653543
 31
0.0
  0
LINE
  5
1B2
330
E7
100
AcDbEntity
  8
AM_4
100
AcDbLine
 10
0.9984829275
 20
-0.009947855
 30
0.0
 11
0.9984829275
 21
0.0267826771653545
 31
0.0
  0
LINE
  5
1B3
330
E7
100
AcDbEntity
  8
AM_4
100
AcDbLine
 10
0.9970262375000001
 20
-0.01760004
 30
0.0
 11
0.9984829275
 21
-0.009947855
 31
0.0
  0
LINE
  5
1B4
330
E7
100
AcDbEntity
  8
AM_4
100
AcDbLine
 10
0.9941126525
 20
-0.02372185
 30
0.0
 11
0.9970262375000001
 21
-0.01760004
 31
0.0
  0
LINE
  5
1B5
330
E7
100
AcDbEntity
  8
AM_4
100
AcDbLine
 10
0.9882858824999999
 20
-0.029843505
 30
0.0
 11
0.9941126525
 21
-0.02372185
 31
0.0
  0
LINE
  5
1B6
330
E7
100
AcDbEntity
  8
AM_4
100
AcDbLine
 10
0.9824589125000001
 20
-0.03290453
 30
0.0
 11
0.9882858824999999
 21
-0.029843505
 31
0.0
  0
LINE
  5
1B7
330
E7
100
AcDbEntity
  8
AM_4
100
AcDbLine
 10
0.9751752925
 20
-0.034434845
 30
0.0
 11
0.9824589125000001
 21
-0.03290453
 31
0.0
  0
LINE
  5
1B8
330
E7
100
AcDbEntity
  8
AM_4
100
AcDbLine
 10
0.9533244244291339
 20
-0.034434845
 30
0.0
 11
0.9751752925
 21
-0.034434845
 31
0.0
  0
LINE
  5
1B9
330
E7
100
AcDbEntity
  8
AM_4
100
AcDbLine
 10
0.9460408023818898
 20
-0.03290453
 30
0.0
 11
0.9533244244291339
 21
-0.034434845
 31
0.0
  0
LINE
  5
1BA
330
E7
100
AcDbEntity
  8
AM_4
100
AcDbLine
 10
0.9402138338779527
 20
-0.029843505
 30
0.0
 11
0.9460408023818898
 21
-0.03290453
 31
0.0
  0
LINE
  5
1BB
330
E7
100
AcDbEntity
  8
AM_4
100
AcDbLine
 10
0.9343870622244095
 20
-0.02372185
 30
0.0
 11
0.9402138338779527
 21
-0.029843505
 31
0.0
  0
LINE
  5
1BC
330
E7
100
AcDbEntity
  8
AM_4
100
AcDbLine
 10
0.9314734795472441
 20
-0.01760004
 30
0.0
 11
0.9343870622244095
 21
-0.02372185
 31
0.0
  0
LINE
  5
1BD
330
E7
100
AcDbEntity
  8
AM_4
100
AcDbLine
 10
0.9252667866338582
 20
0.0757566929133859
 30
0.0
 11
0.9252667866338582
 21
0.063513188976378
 31
0.0
  0
LINE
  5
1BE
330
E7
100
AcDbEntity
  8
AM_4
100
AcDbLine
 10
0.9267234795472441
 20
0.0834088582677166
 30
0.0
 11
0.9252667866338582
 21
0.0757566929133859
 31
0.0
  0
LINE
  5
1BF
330
E7
100
AcDbEntity
  8
AM_4
100
AcDbLine
 10
0.9296370622244096
 20
0.0895307086614172
 30
0.0
 11
0.9267234795472441
 21
0.0834088582677166
 31
0.0
  0
LINE
  5
1C0
330
E7
100
AcDbEntity
  8
AM_4
100
AcDbLine
 10
0.9354638338779527
 20
0.0956523622047245
 30
0.0
 11
0.9296370622244096
 21
0.0895307086614172
 31
0.0
  0
LINE
  5
1C1
330
E7
100
AcDbEntity
  8
AM_4
100
AcDbLine
 10
0.9412908023818898
 20
0.0987133858267717
 30
0.0
 11
0.9354638338779527
 21
0.0956523622047245
 31
0.0
  0
LINE
  5
1C2
330
E7
100
AcDbEntity
  8
AM_4
100
AcDbLine
 10
0.9485744244291339
 20
0.1002437007874016
 30
0.0
 11
0.9412908023818898
 21
0.0987133858267717
 31
0.0
  0
LINE
  5
1C3
330
E7
100
AcDbEntity
  8
AM_4
100
AcDbLine
 10
0.9704252925
 20
0.1002437007874016
 30
0.0
 11
0.9485744244291339
 21
0.1002437007874016
 31
0.0
  0
LINE
  5
1C4
330
E7
100
AcDbEntity
  8
AM_4
100
AcDbLine
 10
0.9777089125
 20
0.0987133858267717
 30
0.0
 11
0.9704252925
 21
0.1002437007874016
 31
0.0
  0
LINE
  5
1C5
330
E7
100
AcDbEntity
  8
AM_4
100
AcDbLine
 10
0.9835358825
 20
0.0956523622047245
 30
0.0
 11
0.9777089125
 21
0.0987133858267717
 31
0.0
  0
LINE
  5
1C6
330
E7
100
AcDbEntity
  8
AM_4
100
AcDbLine
 10
0.9252667866338582
 20
0.063513188976378
 30
0.0
 11
0.9267234795472441
 21
0.0558610236220473
 31
0.0
  0
LINE
  5
1C7
330
E7
100
AcDbEntity
  8
AM_4
100
AcDbLine
 10
0.9252667866338582
 20
0.1737047244094489
 30
0.0
 11
0.9252667866338582
 21
0.1369742125984253
 31
0.0
  0
LINE
  5
1C8
330
E7
100
AcDbEntity
  8
AM_4
100
AcDbLine
 10
0.9937329275
 20
0.1737047244094489
 30
0.0
 11
0.9252667866338582
 21
0.1737047244094489
 31
0.0
  0
LINE
  5
1C9
330
E7
100
AcDbEntity
  8
AM_4
100
AcDbLine
 10
0.9922762375
 20
0.1293220472440945
 30
0.0
 11
0.9937329275
 21
0.1369742125984253
 31
0.0
  0
LINE
  5
1CA
330
E7
100
AcDbEntity
  8
AM_4
100
AcDbLine
 10
0.9893626525
 20
0.1232003937007875
 30
0.0
 11
0.9922762375
 21
0.1293220472440945
 31
0.0
  0
LINE
  5
1CB
330
E7
100
AcDbEntity
  8
AM_4
100
AcDbLine
 10
0.9835358825
 20
0.1170785433070867
 30
0.0
 11
0.9893626525
 21
0.1232003937007875
 31
0.0
  0
LINE
  5
1CC
330
E7
100
AcDbEntity
  8
AM_4
100
AcDbLine
 10
0.9777089125
 20
0.1140177165354331
 30
0.0
 11
0.9835358825
 21
0.1170785433070867
 31
0.0
  0
LINE
  5
1CD
330
E7
100
AcDbEntity
  8
AM_4
100
AcDbLine
 10
0.9704252925
 20
0.1124872047244095
 30
0.0
 11
0.9777089125
 21
0.1140177165354331
 31
0.0
  0
LINE
  5
1CE
330
E7
100
AcDbEntity
  8
AM_4
100
AcDbLine
 10
0.9485744244291339
 20
0.1124872047244095
 30
0.0
 11
0.9704252925
 21
0.1124872047244095
 31
0.0
  0
LINE
  5
1CF
330
E7
100
AcDbEntity
  8
AM_4
100
AcDbLine
 10
0.9412908023818898
 20
0.1140177165354331
 30
0.0
 11
0.9485744244291339
 21
0.1124872047244095
 31
0.0
  0
LINE
  5
1D0
330
E7
100
AcDbEntity
  8
AM_4
100
AcDbLine
 10
0.9354638338779527
 20
0.1170785433070867
 30
0.0
 11
0.9412908023818898
 21
0.1140177165354331
 31
0.0
  0
LINE
  5
1D1
330
E7
100
AcDbEntity
  8
AM_4
100
AcDbLine
 10
0.9296370622244094
 20
0.1232003937007875
 30
0.0
 11
0.9354638338779527
 21
0.1170785433070867
 31
0.0
  0
LINE
  5
1D2
330
E7
100
AcDbEntity
  8
AM_4
100
AcDbLine
 10
0.9267234795472441
 20
0.1293220472440945
 30
0.0
 11
0.9296370622244094
 21
0.1232003937007875
 31
0.0
  0
LINE
  5
1D3
330
E7
100
AcDbEntity
  8
AM_4
100
AcDbLine
 10
0.9252667866338582
 20
0.1369742125984253
 30
0.0
 11
0.9267234795472441
 21
0.1293220472440945
 31
0.0
  0
LINE
  5
1D4
330
E7
100
AcDbEntity
  8
AM_4
100
AcDbLine
 10
0.8904761280180219
 20
0.616136731648256
 30
0.0
 11
1.330942342202458
 21
1.056602945832692
 31
0.0
  0
ARC
  5
1D5
330
E7
100
AcDbEntity
  8
AM_4
100
AcDbCircle
 10
1.275264641114743
 20
1.112280646920405
 30
0.0
 40
0.0787401600000003
100
AcDbArc
 50
315.0000000000003
 51
44.99999999999989
  0
LINE
  5
1D6
330
E7
100
AcDbEntity
  8
AM_4
100
AcDbLine
 10
1.330942342202457
 20
1.167958348008119
 30
0.0
 11
1.056602949396064
 21
1.442297740814512
 31
0.0
  0
ARC
  5
1D7
330
E7
100
AcDbEntity
  8
AM_4
100
AcDbCircle
 10
1.000925248308351
 20
1.386620039726798
 30
0.0
 40
0.0787401600000003
100
AcDbArc
 50
45.00000000000036
 51
134.9999999999998
  0
LINE
  5
1D8
330
E7
100
AcDbEntity
  8
AM_4
100
AcDbLine
 10
0.9452475472206368
 20
1.442297740814512
 30
0.0
 11
0.4757133857418981
 21
0.9727635793357726
 31
0.0
  0
ARC
  5
1D9
330
E7
100
AcDbEntity
  8
AM_4
100
AcDbCircle
 10
0.0000000000000002
 20
0.0
 30
0.0
 40
1.13248104039004
100
AcDbArc
 50
63.08043462772409
 51
35.13693446728163
  0
ARC
  5
1DA
330
E7
100
AcDbEntity
  8
AM_4
100
AcDbCircle
 10
-0.0000000000000005
 20
0.0000000000000005
 30
0.0
 40
1.082853732807974
100
AcDbArc
 50
63.93984594966884
 51
34.68006898918398
  0
ENDBLK
  5
EA
330
E7
100
AcDbEntity
  8
0
100
AcDbBlockEnd
  0
ENDSEC
  0
SECTION
  2
ENTITIES
  0
INSERT
  5
6F
330
1F
100
AcDbEntity
  8
0
100
AcDbBlockReference
  2
1_129303_0
 10
0.0
 20
0.0
 30
0.0
  0
POINT
  5
1DC
330
1F
100
AcDbEntity
  8
ConnectionPoints
100
AcDbPoint
 10
0.0000000000000001
 20
0.0
 30
0.6243749999999999
  0
POINT
  5
1DD
330
1F
100
AcDbEntity
  8
ConnectionPoints
100
AcDbPoint
 10
0.0000000000000001
 20
0.0
 30
0.1399999999999999
  0
POINT
  5
1DE
330
1F
100
AcDbEntity
  8
ConnectionPoints
100
AcDbPoint
 10
0.0
 20
0.0
 30
0.1399999999999999
  0
ENDSEC
  0
SECTION
  2
OBJECTS
  0
DICTIONARY
  5
C
330
0
100
AcDbDictionary
281
     1
  3
ACAD_DETAILVIEWSTYLE
350
1E6
  3
ACAD_GROUP
350
D
  3
ACAD_LAYOUT
350
1A
  3
ACAD_MATERIAL
350
43
  3
ACAD_MLEADERSTYLE
350
6B
  3
ACAD_MLINESTYLE
350
17
  3
ACAD_PLOTSETTINGS
350
19
  3
ACAD_PLOTSTYLENAME
350
E
  3
ACAD_SCALELIST
350
47
  3
ACAD_SECTIONVIEWSTYLE
350
1E7
  3
ACAD_TABLESTYLE
350
69
  3
ACAD_VISUALSTYLE
350
2A
  3
ACDB_RECOMPOSE_DATA
350
1E3
  3
AcDbVariableDictionary
350
1DF
  0
SUN
  5
6D
330
29
100
AcDbSun
 90
        1
290
     0
 63
     7
421
 16777215
 40
1.0
291
     1
 91
  2455826
 92
 54000000
292
     0
 70
     2
 71
   256
280
     1
  0
DICTIONARY
  5
1E6
102
{ACAD_REACTORS
330
C
102
}
330
C
100
AcDbDictionary
281
     1
  0
DICTIONARY
  5
D
102
{ACAD_REACTORS
330
C
102
}
330
C
100
AcDbDictionary
281
     1
  0
DICTIONARY
  5
1A
102
{ACAD_REACTORS
330
C
102
}
330
C
100
AcDbDictionary
281
     1
  3
Layout1
350
1E
  3
Layout2
350
26
  3
Model
350
22
  0
DICTIONARY
  5
43
102
{ACAD_REACTORS
330
C
102
}
330
C
100
AcDbDictionary
281
     1
  3
ByBlock
350
45
  3
ByLayer
350
44
  3
Global
350
46
  0
DICTIONARY
  5
6B
102
{ACAD_REACTORS
330
C
102
}
330
C
100
AcDbDictionary
281
     1
  3
Standard
350
6C
  0
DICTIONARY
  5
17
102
{ACAD_REACTORS
330
C
102
}
330
C
100
AcDbDictionary
281
     1
  3
Standard
350
18
  0
DICTIONARY
  5
19
102
{ACAD_REACTORS
330
C
102
}
330
C
100
AcDbDictionary
281
     1
  0
ACDBDICTIONARYWDFLT
  5
E
102
{ACAD_REACTORS
330
C
102
}
330
C
100
AcDbDictionary
281
     1
  3
Normal
350
F
100
AcDbDictionaryWithDefault
340
F
  0
DICTIONARY
  5
47
102
{ACAD_REACTORS
330
C
102
}
330
C
100
AcDbDictionary
281
     1
  3
A0
350
48
  3
A1
350
49
  3
A2
350
4A
  3
A3
350
4B
  3
A4
350
4C
  3
A5
350
4D
  3
A6
350
4E
  3
A7
350
4F
  3
A8
350
50
  3
A9
350
51
  3
B0
350
52
  3
B1
350
53
  3
B2
350
54
  3
B3
350
55
  3
B4
350
56
  3
B5
350
57
  3
B6
350
58
  3
B7
350
59
  3
B8
350
5A
  3
B9
350
5B
  3
C0
350
5C
  3
C1
350
5D
  3
C2
350
5E
  3
C3
350
5F
  3
C4
350
60
  3
C5
350
61
  3
C6
350
62
  3
C7
350
63
  3
C8
350
64
  3
C9
350
65
  3
D0
350
66
  3
D1
350
67
  3
D2
350
68
  0
DICTIONARY
  5
1E7
102
{ACAD_REACTORS
330
C
102
}
330
C
100
AcDbDictionary
281
     1
  0
DICTIONARY
  5
69
102
{ACAD_REACTORS
330
C
102
}
330
C
100
AcDbDictionary
281
     1
  3
Standard
350
6A
  0
DICTIONARY
  5
2A
102
{ACAD_REACTORS
330
C
102
}
330
C
100
AcDbDictionary
281
     1
  3
2dWireframe
350
2F
  3
Basic
350
32
  3
Brighten
350
36
  3
ColorChange
350
3A
  3
Conceptual
350
34
  3
Dim
350
35
  3
EdgeColorOff
350
3D
  3
Facepattern
350
39
  3
Flat
350
2B
  3
FlatWithEdges
350
2C
  3
Gouraud
350
2D
  3
GouraudWithEdges
350
2E
  3
Hidden
350
31
  3
JitterOff
350
3B
  3
Linepattern
350
38
  3
OverhangOff
350
3C
  3
Realistic
350
33
  3
Shaded
350
42
  3
Shaded with edges
350
41
  3
Shades of Gray
350
3E
  3
Sketchy
350
3F
  3
Thicken
350
37
  3
Wireframe
350
30
  3
X-Ray
350
40
  0
XRECORD
  5
1E3
102
{ACAD_REACTORS
330
C
102
}
330
C
100
AcDbXrecord
280
     1
 90
        1
330
6A
  0
DICTIONARY
  5
1DF
102
{ACAD_REACTORS
330
C
102
}
330
C
100
AcDbDictionary
281
     1
  3
CANNOSCALE
350
1E0
  3
CMLEADERSTYLE
350
1E5
  3
CTABLESTYLE
350
1E4
  0
LAYOUT
  5
1E
102
{ACAD_REACTORS
330
1A
102
}
330
1A
100
AcDbPlotSettings
  1

  2
none_device
  4

  6

 40
0.0
 41
0.0
 42
0.0
 43
0.0
 44
0.0
 45
0.0
 46
0.0
 47
0.0
 48
0.0
 49
0.0
140
0.0
141
0.0
142
1.0
143
1.0
 70
   688
 72
     0
 73
     0
 74
     5
  7

 75
    16
 76
     0
 77
     2
 78
   300
147
1.0
148
0.0
149
0.0
100
AcDbLayout
  1
Layout1
 70
     1
 71
     1
 10
0.0
 20
0.0
 11
12.0
 21
9.0
 12
0.0
 22
0.0
 32
0.0
 14
1.000000000000000E+20
 24
1.000000000000000E+20
 34
1.000000000000000E+20
 15
-1.000000000000000E+20
 25
-1.000000000000000E+20
 35
-1.000000000000000E+20
146
0.0
 13
0.0
 23
0.0
 33
0.0
 16
1.0
 26
0.0
 36
0.0
 17
0.0
 27
1.0
 37
0.0
 76
     0
330
1B
  0
LAYOUT
  5
26
102
{ACAD_REACTORS
330
1A
102
}
330
1A
100
AcDbPlotSettings
  1

  2
none_device
  4

  6

 40
0.0
 41
0.0
 42
0.0
 43
0.0
 44
0.0
 45
0.0
 46
0.0
 47
0.0
 48
0.0
 49
0.0
140
0.0
141
0.0
142
1.0
143
1.0
 70
   688
 72
     0
 73
     0
 74
     5
  7

 75
    16
 76
     0
 77
     2
 78
   300
147
1.0
148
0.0
149
0.0
100
AcDbLayout
  1
Layout2
 70
     1
 71
     2
 10
0.0
 20
0.0
 11
0.0
 21
0.0
 12
0.0
 22
0.0
 32
0.0
 14
0.0
 24
0.0
 34
0.0
 15
0.0
 25
0.0
 35
0.0
146
0.0
 13
0.0
 23
0.0
 33
0.0
 16
1.0
 26
0.0
 36
0.0
 17
0.0
 27
1.0
 37
0.0
 76
     0
330
23
  0
LAYOUT
  5
22
102
{ACAD_REACTORS
330
1A
102
}
330
1A
100
AcDbPlotSettings
  1

  2
none_device
  4
Letter_(8.50_x_11.00_Inches)
  6

 40
6.35
 41
6.35
 42
6.35000508
 43
6.35000508
 44
215.9
 45
279.4
 46
0.0
 47
0.0
 48
0.0
 49
0.0
140
0.0
141
0.0
142
1.0
143
1.0
 70
  1712
 72
     0
 73
     0
 74
     0
  7

 75
     0
 76
     0
 77
     2
 78
   300
147
1.0
148
0.0
149
0.0
100
AcDbLayout
  1
Model
 70
     1
 71
     0
 10
0.0
 20
0.0
 11
12.0
 21
9.0
 12
0.0
 22
0.0
 32
0.0
 14
1.000000000000000E+20
 24
1.000000000000000E+20
 34
1.000000000000000E+20
 15
-1.000000000000000E+20
 25
-1.000000000000000E+20
 35
-1.000000000000000E+20
146
0.0
 13
0.0
 23
0.0
 33
0.0
 16
1.0
 26
0.0
 36
0.0
 17
0.0
 27
1.0
 37
0.0
 76
     0
330
1F
331
29
  0
MATERIAL
  5
45
102
{ACAD_REACTORS
330
43
102
}
330
43
100
AcDbMaterial
  1
ByBlock
 72
     1
 94
      127
  0
MATERIAL
  5
44
102
{ACAD_REACTORS
330
43
102
}
330
43
100
AcDbMaterial
  1
ByLayer
 72
     1
 94
      127
  0
MATERIAL
  5
46
102
{ACAD_REACTORS
330
43
102
}
330
43
100
AcDbMaterial
  1
Global
 72
     1
 94
      127
  0
MLEADERSTYLE
  5
6C
102
{ACAD_REACTORS
330
6B
102
}
330
6B
100
AcDbMLeaderStyle
179
     2
170
     2
171
     1
172
     0
 90
        2
 40
0.0
 41
0.0
173
     1
 91
-1056964608
340
14
 92
       -2
290
     1
 42
0.09
291
     1
 43
0.36
  3
Standard
341
0
 44
0.18
300

342
11
174
     1
178
     6
175
     1
176
     0
 93
-1056964608
 45
0.18
292
     0
297
     0
 46
0.18
343
0
 94
-1056964608
 47
1.0
 49
1.0
140
1.0
293
     1
141
0.0
294
     1
177
     0
142
1.0
295
     0
296
     0
143
0.125
271
     0
272
     9
273
     9
298
     0
  0
MLINESTYLE
  5
18
102
{ACAD_REACTORS
330
17
102
}
330
17
100
AcDbMlineStyle
  2
Standard
 70
     0
  3

 62
   256
 51
90.0
 52
90.0
 71
     2
 49
0.5
 62
   256
  6
BYLAYER
 49
-0.5
 62
   256
  6
BYLAYER
  0
ACDBPLACEHOLDER
  5
F
102
{ACAD_REACTORS
330
E
102
}
330
E
  0
SCALE
  5
48
102
{ACAD_REACTORS
330
47
102
}
330
47
100
AcDbScale
 70
     0
300
1:1
140
1.0
141
1.0
290
     1
  0
SCALE
  5
49
102
{ACAD_REACTORS
330
47
102
}
330
47
100
AcDbScale
 70
     0
300
1:2
140
1.0
141
2.0
290
     0
  0
SCALE
  5
4A
102
{ACAD_REACTORS
330
47
102
}
330
47
100
AcDbScale
 70
     0
300
1:4
140
1.0
141
4.0
290
     0
  0
SCALE
  5
4B
102
{ACAD_REACTORS
330
47
102
}
330
47
100
AcDbScale
 70
     0
300
1:5
140
1.0
141
5.0
290
     0
  0
SCALE
  5
4C
102
{ACAD_REACTORS
330
47
102
}
330
47
100
AcDbScale
 70
     0
300
1:8
140
1.0
141
8.0
290
     0
  0
SCALE
  5
4D
102
{ACAD_REACTORS
330
47
102
}
330
47
100
AcDbScale
 70
     0
300
1:10
140
1.0
141
10.0
290
     0
  0
SCALE
  5
4E
102
{ACAD_REACTORS
330
47
102
}
330
47
100
AcDbScale
 70
     0
300
1:16
140
1.0
141
16.0
290
     0
  0
SCALE
  5
4F
102
{ACAD_REACTORS
330
47
102
}
330
47
100
AcDbScale
 70
     0
300
1:20
140
1.0
141
20.0
290
     0
  0
SCALE
  5
50
102
{ACAD_REACTORS
330
47
102
}
330
47
100
AcDbScale
 70
     0
300
1:30
140
1.0
141
30.0
290
     0
  0
SCALE
  5
51
102
{ACAD_REACTORS
330
47
102
}
330
47
100
AcDbScale
 70
     0
300
1:40
140
1.0
141
40.0
290
     0
  0
SCALE
  5
52
102
{ACAD_REACTORS
330
47
102
}
330
47
100
AcDbScale
 70
     0
300
1:50
140
1.0
141
50.0
290
     0
  0
SCALE
  5
53
102
{ACAD_REACTORS
330
47
102
}
330
47
100
AcDbScale
 70
     0
300
1:100
140
1.0
141
100.0
290
     0
  0
SCALE
  5
54
102
{ACAD_REACTORS
330
47
102
}
330
47
100
AcDbScale
 70
     0
300
2:1
140
2.0
141
1.0
290
     0
  0
SCALE
  5
55
102
{ACAD_REACTORS
330
47
102
}
330
47
100
AcDbScale
 70
     0
300
4:1
140
4.0
141
1.0
290
     0
  0
SCALE
  5
56
102
{ACAD_REACTORS
330
47
102
}
330
47
100
AcDbScale
 70
     0
300
8:1
140
8.0
141
1.0
290
     0
  0
SCALE
  5
57
102
{ACAD_REACTORS
330
47
102
}
330
47
100
AcDbScale
 70
     0
300
10:1
140
10.0
141
1.0
290
     0
  0
SCALE
  5
58
102
{ACAD_REACTORS
330
47
102
}
330
47
100
AcDbScale
 70
     0
300
100:1
140
100.0
141
1.0
290
     0
  0
SCALE
  5
59
102
{ACAD_REACTORS
330
47
102
}
330
47
100
AcDbScale
 70
     0
300
1/128" = 1'-0"
140
0.0078125
141
12.0
290
     0
  0
SCALE
  5
5A
102
{ACAD_REACTORS
330
47
102
}
330
47
100
AcDbScale
 70
     0
300
1/64" = 1'-0"
140
0.015625
141
12.0
290
     0
  0
SCALE
  5
5B
102
{ACAD_REACTORS
330
47
102
}
330
47
100
AcDbScale
 70
     0
300
1/32" = 1'-0"
140
0.03125
141
12.0
290
     0
  0
SCALE
  5
5C
102
{ACAD_REACTORS
330
47
102
}
330
47
100
AcDbScale
 70
     0
300
1/16" = 1'-0"
140
0.0625
141
12.0
290
     0
  0
SCALE
  5
5D
102
{ACAD_REACTORS
330
47
102
}
330
47
100
AcDbScale
 70
     0
300
3/32" = 1'-0"
140
0.09375
141
12.0
290
     0
  0
SCALE
  5
5E
102
{ACAD_REACTORS
330
47
102
}
330
47
100
AcDbScale
 70
     0
300
1/8" = 1'-0"
140
0.125
141
12.0
290
     0
  0
SCALE
  5
5F
102
{ACAD_REACTORS
330
47
102
}
330
47
100
AcDbScale
 70
     0
300
3/16" = 1'-0"
140
0.1875
141
12.0
290
     0
  0
SCALE
  5
60
102
{ACAD_REACTORS
330
47
102
}
330
47
100
AcDbScale
 70
     0
300
1/4" = 1'-0"
140
0.25
141
12.0
290
     0
  0
SCALE
  5
61
102
{ACAD_REACTORS
330
47
102
}
330
47
100
AcDbScale
 70
     0
300
3/8" = 1'-0"
140
0.375
141
12.0
290
     0
  0
SCALE
  5
62
102
{ACAD_REACTORS
330
47
102
}
330
47
100
AcDbScale
 70
     0
300
1/2" = 1'-0"
140
0.5
141
12.0
290
     0
  0
SCALE
  5
63
102
{ACAD_REACTORS
330
47
102
}
330
47
100
AcDbScale
 70
     0
300
3/4" = 1'-0"
140
0.75
141
12.0
290
     0
  0
SCALE
  5
64
102
{ACAD_REACTORS
330
47
102
}
330
47
100
AcDbScale
 70
     0
300
1" = 1'-0"
140
1.0
141
12.0
290
     0
  0
SCALE
  5
65
102
{ACAD_REACTORS
330
47
102
}
330
47
100
AcDbScale
 70
     0
300
1-1/2" = 1'-0"
140
1.5
141
12.0
290
     0
  0
SCALE
  5
66
102
{ACAD_REACTORS
330
47
102
}
330
47
100
AcDbScale
 70
     0
300
3" = 1'-0"
140
3.0
141
12.0
290
     0
  0
SCALE
  5
67
102
{ACAD_REACTORS
330
47
102
}
330
47
100
AcDbScale
 70
     0
300
6" = 1'-0"
140
6.0
141
12.0
290
     0
  0
SCALE
  5
68
102
{ACAD_REACTORS
330
47
102
}
330
47
100
AcDbScale
 70
     0
300
1'-0" = 1'-0"
140
12.0
141
12.0
290
     0
  0
TABLESTYLE
  5
6A
102
{ACAD_REACTORS
330
69
102
}
102
{ACAD_XDICTIONARY
360
1E1
102
}
330
69
100
AcDbTableStyle
  3
Standard
 70
     0
 71
     0
 40
0.06
 41
0.06
280
     0
281
     0
  7
Standard
140
0.18
170
     2
 62
     0
 63
   257
283
     0
 90
        4
 91
        0
  1

274
    -2
284
     1
 64
     0
275
    -2
285
     1
 65
     0
276
    -2
286
     1
 66
     0
277
    -2
287
     1
 67
     0
278
    -2
288
     1
 68
     0
279
    -2
289
     1
 69
     0
  7
Standard
140
0.25
170
     5
 62
     0
 63
   257
283
     0
 90
        4
 91
        0
  1

274
    -2
284
     1
 64
     0
275
    -2
285
     1
 65
     0
276
    -2
286
     1
 66
     0
277
    -2
287
     1
 67
     0
278
    -2
288
     1
 68
     0
279
    -2
289
     1
 69
     0
  7
Standard
140
0.18
170
     5
 62
     0
 63
   257
283
     0
 90
        4
 91
        0
  1

274
    -2
284
     1
 64
     0
275
    -2
285
     1
 65
     0
276
    -2
286
     1
 66
     0
277
    -2
287
     1
 67
     0
278
    -2
288
     1
 68
     0
279
    -2
289
     1
 69
     0
  0
VISUALSTYLE
  5
2F
102
{ACAD_REACTORS
330
2A
102
}
330
2A
100
AcDbVisualStyle
  2
2dWireframe
 70
     4
177
     3
291
     0
 70
    58
 90
        0
176
     1
 90
        2
176
     1
 90
        0
176
     1
 90
        0
176
     1
 40
0.6
176
     1
 40
30.0
176
     1
 62
     7
420
 16777215
176
     1
 90
        1
176
     1
 90
        4
176
     1
 62
     7
176
     1
 62
   257
176
     1
 90
        1
176
     1
 90
        1
176
     1
 40
1.0
176
     1
 90
        0
176
     1
 62
   257
176
     1
 40
1.0
176
     1
 90
        1
176
     1
 90
        6
176
     1
 90
        2
176
     1
 62
     7
176
     1
 90
        5
176
     1
 90
        0
176
     1
 90
        0
176
     1
290
     0
176
     1
 90
        1
176
     1
 40
0.0
176
     1
 90
        0
176
     1
290
     1
176
     1
290
     1
176
     1
290
     0
176
     1
290
     0
176
     1
290
     0
176
     1
290
     0
176
     1
290
     0
176
     1
290
     0
176
     1
290
     0
176
     1
 90
       50
176
     1
 40
0.0
176
     1
 40
1.0
176
     1
 90
        0
176
     1
 62
    18
420
        0
176
     1
 90
       50
176
     1
 90
        3
176
     1
 62
     5
420
      255
176
     1
290
     0
176
     1
 90
       50
176
     1
 90
       50
176
     1
 90
       50
176
     1
290
     0
176
     1
 90
       50
176
     1
 62
   256
176
     0
 40
1.0
176
     0
 90
        2
176
     1
  1
strokes_ogs.tif
176
     1
290
     0
176
     1
 40
1.0
176
     1
 40
1.0
176
     1
  0
VISUALSTYLE
  5
32
102
{ACAD_REACTORS
330
2A
102
}
330
2A
100
AcDbVisualStyle
  2
Basic
 70
     7
177
     3
291
     1
 70
    58
 90
        1
176
     1
 90
        0
176
     1
 90
        1
176
     1
 90
        0
176
     1
 40
0.6
176
     1
 40
30.0
176
     1
 62
     7
420
 16777215
176
     1
 90
        0
176
     1
 90
        4
176
     1
 62
     7
176
     1
 62
   257
176
     1
 90
        1
176
     1
 90
        1
176
     1
 40
1.0
176
     1
 90
        8
176
     1
 62
     7
176
     1
 40
1.0
176
     1
 90
        1
176
     1
 90
        6
176
     1
 90
        2
176
     1
 62
     7
176
     1
 90
        5
176
     1
 90
        0
176
     1
 90
        0
176
     1
290
     0
176
     1
 90
        1
176
     1
 40
0.0
176
     1
 90
        0
176
     1
290
     0
176
     1
290
     1
176
     1
290
     1
176
     1
290
     0
176
     1
290
     0
176
     1
290
     0
176
     1
290
     0
176
     1
290
     0
176
     1
290
     0
176
     1
 90
       50
176
     1
 40
0.0
176
     1
 40
1.0
176
     1
 90
        0
176
     1
 62
    18
420
        0
176
     1
 90
       50
176
     1
 90
        3
176
     1
 62
     5
420
      255
176
     1
290
     0
176
     1
 90
       50
176
     1
 90
       50
176
     1
 90
       50
176
     1
290
     0
176
     1
 90
       50
176
     1
 62
   256
176
     0
 40
1.0
176
     0
 90
        2
176
     1
  1
strokes_ogs.tif
176
     1
290
     0
176
     1
 40
1.0
176
     1
 40
1.0
176
     1
  0
VISUALSTYLE
  5
36
102
{ACAD_REACTORS
330
2A
102
}
330
2A
100
AcDbVisualStyle
  2
Brighten
 70
    12
177
     3
291
     1
 70
    58
 90
        2
176
     1
 90
        2
176
     1
 90
        0
176
     1
 90
        0
176
     1
 40
0.6
176
     1
 40
30.0
176
     1
 62
     7
420
 16777215
176
     1
 90
        1
176
     1
 90
        4
176
     1
 62
     7
176
     1
 62
   257
176
     1
 90
        1
176
     1
 90
        1
176
     1
 40
1.0
176
     1
 90
        8
176
     1
 62
     7
176
     1
 40
1.0
176
     1
 90
        1
176
     1
 90
        6
176
     1
 90
        2
176
     1
 62
     7
176
     1
 90
        5
176
     1
 90
        0
176
     1
 90
        0
176
     1
290
     0
176
     1
 90
        1
176
     1
 40
50.0
176
     1
 90
        0
176
     1
290
     0
176
     1
290
     1
176
     1
290
     1
176
     1
290
     0
176
     1
290
     0
176
     1
290
     0
176
     1
290
     0
176
     1
290
     0
176
     1
290
     0
176
     1
 90
       50
176
     1
 40
0.0
176
     1
 40
1.0
176
     1
 90
        0
176
     1
 62
    18
420
        0
176
     1
 90
       50
176
     1
 90
        3
176
     1
 62
     5
420
      255
176
     1
290
     0
176
     1
 90
       50
176
     1
 90
       50
176
     1
 90
       50
176
     1
290
     0
176
     1
 90
       50
176
     1
 62
   256
176
     0
 40
1.0
176
     0
 90
        2
176
     1
  1
strokes_ogs.tif
176
     1
290
     0
176
     1
 40
1.0
176
     1
 40
1.0
176
     1
  0
VISUALSTYLE
  5
3A
102
{ACAD_REACTORS
330
2A
102
}
330
2A
100
AcDbVisualStyle
  2
ColorChange
 70
    16
177
     3
291
     1
 70
    58
 90
        2
176
     1
 90
        2
176
     1
 90
        3
176
     1
 90
        0
176
     1
 40
0.6
176
     1
 40
30.0
176
     1
 62
     8
420
  8421504
176
     1
 90
        1
176
     1
 90
        4
176
     1
 62
     7
176
     1
 62
   257
176
     1
 90
        1
176
     1
 90
        1
176
     1
 40
1.0
176
     1
 90
        8
176
     1
 62
     8
420
  8421504
176
     1
 40
1.0
176
     1
 90
        1
176
     1
 90
        6
176
     1
 90
        2
176
     1
 62
     7
176
     1
 90
        5
176
     1
 90
        0
176
     1
 90
        0
176
     1
290
     0
176
     1
 90
        1
176
     1
 40
0.0
176
     1
 90
        0
176
     1
290
     0
176
     1
290
     1
176
     1
290
     1
176
     1
290
     0
176
     1
290
     0
176
     1
290
     0
176
     1
290
     0
176
     1
290
     0
176
     1
290
     0
176
     1
 90
       50
176
     1
 40
0.0
176
     1
 40
1.0
176
     1
 90
        0
176
     1
 62
    18
420
        0
176
     1
 90
       50
176
     1
 90
        3
176
     1
 62
     5
420
      255
176
     1
290
     0
176
     1
 90
       50
176
     1
 90
       50
176
     1
 90
       50
176
     1
290
     0
176
     1
 90
       50
176
     1
 62
   256
176
     0
 40
1.0
176
     0
 90
        2
176
     1
  1
strokes_ogs.tif
176
     1
290
     0
176
     1
 40
1.0
176
     1
 40
1.0
176
     1
  0
VISUALSTYLE
  5
34
102
{ACAD_REACTORS
330
2A
102
}
330
2A
100
AcDbVisualStyle
  2
Conceptual
 70
     9
177
     3
291
     0
 70
    58
 90
        3
176
     1
 90
        2
176
     1
 90
        0
176
     1
 90
        0
176
     1
 40
0.6
176
     1
 40
30.0
176
     1
 62
     7
420
 16777215
176
     1
 90
        2
176
     1
 90
        2
176
     1
 62
     7
176
     1
 62
   257
176
     1
 90
        1
176
     1
 90
        1
176
     1
 40
179.0
176
     1
 90
        8
176
     1
 62
     7
176
     1
 40
1.0
176
     1
 90
        1
176
     1
 90
        6
176
     1
 90
        2
176
     1
 62
     7
176
     1
 90
        3
176
     1
 90
        0
176
     1
 90
        0
176
     1
290
     0
176
     1
 90
        1
176
     1
 40
0.0
176
     1
 90
        0
176
     1
290
     0
176
     1
290
     1
176
     1
290
     1
176
     1
290
     0
176
     1
290
     0
176
     1
290
     0
176
     1
290
     0
176
     1
290
     0
176
     1
290
     0
176
     1
 90
       50
176
     1
 40
0.0
176
     1
 40
1.0
176
     1
 90
        0
176
     1
 62
    18
420
        0
176
     1
 90
       50
176
     1
 90
        3
176
     1
 62
     5
420
      255
176
     1
290
     0
176
     1
 90
       50
176
     1
 90
       50
176
     1
 90
       50
176
     1
290
     0
176
     1
 90
       50
176
     1
 62
   256
176
     0
 40
1.0
176
     0
 90
        2
176
     1
  1
strokes_ogs.tif
176
     1
290
     0
176
     1
 40
1.0
176
     1
 40
1.0
176
     1
  0
VISUALSTYLE
  5
35
102
{ACAD_REACTORS
330
2A
102
}
330
2A
100
AcDbVisualStyle
  2
Dim
 70
    11
177
     3
291
     1
 70
    58
 90
        2
176
     1
 90
        2
176
     1
 90
        0
176
     1
 90
        0
176
     1
 40
0.6
176
     1
 40
30.0
176
     1
 62
     7
420
 16777215
176
     1
 90
        1
176
     1
 90
        4
176
     1
 62
     7
176
     1
 62
   257
176
     1
 90
        1
176
     1
 90
        1
176
     1
 40
1.0
176
     1
 90
        8
176
     1
 62
     7
176
     1
 40
1.0
176
     1
 90
        1
176
     1
 90
        6
176
     1
 90
        2
176
     1
 62
     7
176
     1
 90
        5
176
     1
 90
        0
176
     1
 90
        0
176
     1
290
     0
176
     1
 90
        1
176
     1
 40
-50.0
176
     1
 90
        0
176
     1
290
     0
176
     1
290
     1
176
     1
290
     1
176
     1
290
     0
176
     1
290
     0
176
     1
290
     0
176
     1
290
     0
176
     1
290
     0
176
     1
290
     0
176
     1
 90
       50
176
     1
 40
0.0
176
     1
 40
1.0
176
     1
 90
        0
176
     1
 62
    18
420
        0
176
     1
 90
       50
176
     1
 90
        3
176
     1
 62
     5
420
      255
176
     1
290
     0
176
     1
 90
       50
176
     1
 90
       50
176
     1
 90
       50
176
     1
290
     0
176
     1
 90
       50
176
     1
 62
   256
176
     0
 40
1.0
176
     0
 90
        2
176
     1
  1
strokes_ogs.tif
176
     1
290
     0
176
     1
 40
1.0
176
     1
 40
1.0
176
     1
  0
VISUALSTYLE
  5
3D
102
{ACAD_REACTORS
330
2A
102
}
330
2A
100
AcDbVisualStyle
  2
EdgeColorOff
 70
    22
177
     3
291
     1
 70
    58
 90
        2
176
     0
 90
        2
176
     0
 90
        0
176
     0
 90
        0
176
     0
 40
0.6
176
     0
 40
30.0
176
     0
 62
     7
420
 16777215
176
     0
 90
        1
176
     0
 90
        4
176
     0
 62
     7
176
     0
 62
   257
176
     0
 90
        1
176
     0
 90
        1
176
     0
 40
1.0
176
     0
 90
        8
176
     2
 62
     7
176
     0
 40
1.0
176
     0
 90
        1
176
     0
 90
        6
176
     0
 90
        2
176
     0
 62
     7
176
     0
 90
        5
176
     0
 90
        0
176
     0
 90
        0
176
     0
290
     0
176
     0
 90
        1
176
     0
 40
0.0
176
     0
 90
        0
176
     0
290
     0
176
     0
290
     1
176
     0
290
     1
176
     0
290
     0
176
     0
290
     0
176
     0
290
     0
176
     0
290
     0
176
     0
290
     0
176
     0
290
     0
176
     0
 90
       50
176
     0
 40
0.0
176
     0
 40
1.0
176
     0
 90
        0
176
     0
 62
    18
420
        0
176
     0
 90
       50
176
     0
 90
        3
176
     0
 62
     5
420
      255
176
     0
290
     0
176
     0
 90
       50
176
     0
 90
       50
176
     0
 90
       50
176
     0
290
     0
176
     0
 90
       50
176
     0
 62
   256
176
     0
 40
1.0
176
     0
 90
        2
176
     0
  1
strokes_ogs.tif
176
     0
290
     0
176
     0
 40
1.0
176
     0
 40
1.0
176
     0
  0
VISUALSTYLE
  5
39
102
{ACAD_REACTORS
330
2A
102
}
330
2A
100
AcDbVisualStyle
  2
Facepattern
 70
    15
177
     3
291
     1
 70
    58
 90
        2
176
     1
 90
        2
176
     1
 90
        0
176
     1
 90
        0
176
     1
 40
0.6
176
     1
 40
30.0
176
     1
 62
     7
420
 16777215
176
     1
 90
        1
176
     1
 90
        4
176
     1
 62
     7
176
     1
 62
   257
176
     1
 90
        1
176
     1
 90
        1
176
     1
 40
1.0
176
     1
 90
        8
176
     1
 62
     7
176
     1
 40
1.0
176
     1
 90
        1
176
     1
 90
        6
176
     1
 90
        2
176
     1
 62
     7
176
     1
 90
        5
176
     1
 90
        0
176
     1
 90
        0
176
     1
290
     0
176
     1
 90
        1
176
     1
 40
0.0
176
     1
 90
        0
176
     1
290
     0
176
     1
290
     1
176
     1
290
     1
176
     1
290
     0
176
     1
290
     0
176
     1
290
     0
176
     1
290
     0
176
     1
290
     0
176
     1
290
     0
176
     1
 90
       50
176
     1
 40
0.0
176
     1
 40
1.0
176
     1
 90
        0
176
     1
 62
    18
420
        0
176
     1
 90
       50
176
     1
 90
        3
176
     1
 62
     5
420
      255
176
     1
290
     0
176
     1
 90
       50
176
     1
 90
       50
176
     1
 90
       50
176
     1
290
     0
176
     1
 90
       50
176
     1
 62
   256
176
     0
 40
1.0
176
     0
 90
        2
176
     1
  1
strokes_ogs.tif
176
     1
290
     0
176
     1
 40
1.0
176
     1
 40
1.0
176
     1
  0
VISUALSTYLE
  5
2B
102
{ACAD_REACTORS
330
2A
102
}
330
2A
100
AcDbVisualStyle
  2
Flat
 70
     0
177
     3
291
     1
 70
    58
 90
        2
176
     1
 90
        1
176
     1
 90
        1
176
     1
 90
        2
176
     1
 40
0.6
176
     1
 40
30.0
176
     1
 62
     7
420
 16777215
176
     1
 90
        0
176
     1
 90
        0
176
     1
 62
     7
176
     1
 62
   257
176
     1
 90
        1
176
     1
 90
        1
176
     1
 40
1.0
176
     1
 90
        8
176
     1
 62
     7
176
     1
 40
1.0
176
     1
 90
        1
176
     1
 90
        6
176
     1
 90
        2
176
     1
 62
     7
176
     1
 90
        5
176
     1
 90
        0
176
     1
 90
        0
176
     1
290
     0
176
     1
 90
       13
176
     1
 40
0.0
176
     1
 90
        0
176
     1
290
     0
176
     1
290
     1
176
     1
290
     1
176
     1
290
     0
176
     1
290
     0
176
     1
290
     0
176
     1
290
     0
176
     1
290
     0
176
     1
290
     0
176
     1
 90
       50
176
     1
 40
0.0
176
     1
 40
1.0
176
     1
 90
        0
176
     1
 62
    18
420
        0
176
     1
 90
       50
176
     1
 90
        3
176
     1
 62
     5
420
      255
176
     1
290
     0
176
     1
 90
       50
176
     1
 90
       50
176
     1
 90
       50
176
     1
290
     0
176
     1
 90
       50
176
     1
 62
   256
176
     0
 40
1.0
176
     0
 90
        2
176
     1
  1
strokes_ogs.tif
176
     1
290
     0
176
     1
 40
1.0
176
     1
 40
1.0
176
     1
  0
VISUALSTYLE
  5
2C
102
{ACAD_REACTORS
330
2A
102
}
330
2A
100
AcDbVisualStyle
  2
FlatWithEdges
 70
     1
177
     3
291
     1
 70
    58
 90
        2
176
     1
 90
        1
176
     1
 90
        1
176
     1
 90
        2
176
     1
 40
0.6
176
     1
 40
30.0
176
     1
 62
     7
420
 16777215
176
     1
 90
        1
176
     1
 90
        0
176
     1
 62
     7
176
     1
 62
   257
176
     1
 90
        1
176
     1
 90
        1
176
     1
 40
1.0
176
     1
 90
        0
176
     1
 62
   257
176
     1
 40
1.0
176
     1
 90
        1
176
     1
 90
        6
176
     1
 90
        2
176
     1
 62
     7
176
     1
 90
        5
176
     1
 90
        0
176
     1
 90
        0
176
     1
290
     0
176
     1
 90
       13
176
     1
 40
0.0
176
     1
 90
        0
176
     1
290
     0
176
     1
290
     1
176
     1
290
     1
176
     1
290
     0
176
     1
290
     0
176
     1
290
     0
176
     1
290
     0
176
     1
290
     0
176
     1
290
     0
176
     1
 90
       50
176
     1
 40
0.0
176
     1
 40
1.0
176
     1
 90
        0
176
     1
 62
    18
420
        0
176
     1
 90
       50
176
     1
 90
        3
176
     1
 62
     5
420
      255
176
     1
290
     0
176
     1
 90
       50
176
     1
 90
       50
176
     1
 90
       50
176
     1
290
     0
176
     1
 90
       50
176
     1
 62
   256
176
     0
 40
1.0
176
     0
 90
        2
176
     1
  1
strokes_ogs.tif
176
     1
290
     0
176
     1
 40
1.0
176
     1
 40
1.0
176
     1
  0
VISUALSTYLE
  5
2D
102
{ACAD_REACTORS
330
2A
102
}
330
2A
100
AcDbVisualStyle
  2
Gouraud
 70
     2
177
     3
291
     1
 70
    58
 90
        2
176
     1
 90
        2
176
     1
 90
        1
176
     1
 90
        2
176
     1
 40
0.6
176
     1
 40
30.0
176
     1
 62
     7
420
 16777215
176
     1
 90
        0
176
     1
 90
        0
176
     1
 62
     7
176
     1
 62
   257
176
     1
 90
        1
176
     1
 90
        1
176
     1
 40
1.0
176
     1
 90
        0
176
     1
 62
     7
176
     1
 40
1.0
176
     1
 90
        1
176
     1
 90
        6
176
     1
 90
        2
176
     1
 62
     7
176
     1
 90
        5
176
     1
 90
        0
176
     1
 90
        0
176
     1
290
     0
176
     1
 90
       13
176
     1
 40
0.0
176
     1
 90
        0
176
     1
290
     0
176
     1
290
     1
176
     1
290
     1
176
     1
290
     0
176
     1
290
     0
176
     1
290
     0
176
     1
290
     0
176
     1
290
     0
176
     1
290
     0
176
     1
 90
       50
176
     1
 40
0.0
176
     1
 40
1.0
176
     1
 90
        0
176
     1
 62
    18
420
        0
176
     1
 90
       50
176
     1
 90
        3
176
     1
 62
     5
420
      255
176
     1
290
     0
176
     1
 90
       50
176
     1
 90
       50
176
     1
 90
       50
176
     1
290
     0
176
     1
 90
       50
176
     1
 62
   256
176
     0
 40
1.0
176
     0
 90
        2
176
     1
  1
strokes_ogs.tif
176
     1
290
     0
176
     1
 40
1.0
176
     1
 40
1.0
176
     1
  0
VISUALSTYLE
  5
2E
102
{ACAD_REACTORS
330
2A
102
}
330
2A
100
AcDbVisualStyle
  2
GouraudWithEdges
 70
     3
177
     3
291
     1
 70
    58
 90
        2
176
     1
 90
        2
176
     1
 90
        1
176
     1
 90
        2
176
     1
 40
0.6
176
     1
 40
30.0
176
     1
 62
     7
420
 16777215
176
     1
 90
        1
176
     1
 90
        0
176
     1
 62
     7
176
     1
 62
   257
176
     1
 90
        1
176
     1
 90
        1
176
     1
 40
1.0
176
     1
 90
        0
176
     1
 62
   257
176
     1
 40
1.0
176
     1
 90
        1
176
     1
 90
        6
176
     1
 90
        2
176
     1
 62
     7
176
     1
 90
        5
176
     1
 90
        0
176
     1
 90
        0
176
     1
290
     0
176
     1
 90
       13
176
     1
 40
0.0
176
     1
 90
        0
176
     1
290
     0
176
     1
290
     1
176
     1
290
     1
176
     1
290
     0
176
     1
290
     0
176
     1
290
     0
176
     1
290
     0
176
     1
290
     0
176
     1
290
     0
176
     1
 90
       50
176
     1
 40
0.0
176
     1
 40
1.0
176
     1
 90
        0
176
     1
 62
    18
420
        0
176
     1
 90
       50
176
     1
 90
        3
176
     1
 62
     5
420
      255
176
     1
290
     0
176
     1
 90
       50
176
     1
 90
       50
176
     1
 90
       50
176
     1
290
     0
176
     1
 90
       50
176
     1
 62
   256
176
     0
 40
1.0
176
     0
 90
        2
176
     1
  1
strokes_ogs.tif
176
     1
290
     0
176
     1
 40
1.0
176
     1
 40
1.0
176
     1
  0
VISUALSTYLE
  5
31
102
{ACAD_REACTORS
330
2A
102
}
330
2A
100
AcDbVisualStyle
  2
Hidden
 70
     6
177
     3
291
     0
 70
    58
 90
        1
176
     1
 90
        2
176
     1
 90
        2
176
     1
 90
        0
176
     1
 40
0.6
176
     1
 40
30.0
176
     1
 62
     7
420
 16777215
176
     1
 90
        2
176
     1
 90
        2
176
     1
 62
     7
176
     1
 62
   257
176
     1
 90
        2
176
     1
 90
        1
176
     1
 40
40.0
176
     1
 90
        0
176
     1
 62
   257
176
     1
 40
1.0
176
     1
 90
        1
176
     1
 90
        6
176
     1
 90
        2
176
     1
 62
     7
176
     1
 90
        3
176
     1
 90
        0
176
     1
 90
        0
176
     1
290
     0
176
     1
 90
        1
176
     1
 40
0.0
176
     1
 90
        0
176
     1
290
     0
176
     1
290
     1
176
     1
290
     1
176
     1
290
     0
176
     1
290
     0
176
     1
290
     0
176
     1
290
     0
176
     1
290
     0
176
     1
290
     0
176
     1
 90
       50
176
     1
 40
0.0
176
     1
 40
1.0
176
     1
 90
        0
176
     1
 62
    18
420
        0
176
     1
 90
       50
176
     1
 90
        3
176
     1
 62
     5
420
      255
176
     1
290
     0
176
     1
 90
       50
176
     1
 90
       50
176
     1
 90
       50
176
     1
290
     0
176
     1
 90
       50
176
     1
 62
   256
176
     0
 40
1.0
176
     0
 90
        2
176
     1
  1
strokes_ogs.tif
176
     1
290
     0
176
     1
 40
1.0
176
     1
 40
1.0
176
     1
  0
VISUALSTYLE
  5
3B
102
{ACAD_REACTORS
330
2A
102
}
330
2A
100
AcDbVisualStyle
  2
JitterOff
 70
    20
177
     3
291
     1
 70
    58
 90
        2
176
     0
 90
        2
176
     0
 90
        0
176
     0
 90
        0
176
     0
 40
0.6
176
     0
 40
30.0
176
     0
 62
     7
420
 16777215
176
     0
 90
        1
176
     0
 90
        4
176
     0
 62
     7
176
     0
 62
   257
176
     0
 90
        1
176
     0
 90
        1
176
     0
 40
1.0
176
     0
 90
       10
176
     2
 62
     7
176
     0
 40
1.0
176
     0
 90
        1
176
     0
 90
        6
176
     0
 90
        2
176
     0
 62
     7
176
     0
 90
        5
176
     0
 90
        0
176
     0
 90
        0
176
     0
290
     0
176
     0
 90
        1
176
     0
 40
0.0
176
     0
 90
        0
176
     0
290
     0
176
     0
290
     1
176
     0
290
     1
176
     0
290
     0
176
     0
290
     0
176
     0
290
     0
176
     0
290
     0
176
     0
290
     0
176
     0
290
     0
176
     0
 90
       50
176
     0
 40
0.0
176
     0
 40
1.0
176
     0
 90
        0
176
     0
 62
    18
420
        0
176
     0
 90
       50
176
     0
 90
        3
176
     0
 62
     5
420
      255
176
     0
290
     0
176
     0
 90
       50
176
     0
 90
       50
176
     0
 90
       50
176
     0
290
     0
176
     0
 90
       50
176
     0
 62
   256
176
     0
 40
1.0
176
     0
 90
        2
176
     0
  1
strokes_ogs.tif
176
     0
290
     0
176
     0
 40
1.0
176
     0
 40
1.0
176
     0
  0
VISUALSTYLE
  5
38
102
{ACAD_REACTORS
330
2A
102
}
330
2A
100
AcDbVisualStyle
  2
Linepattern
 70
    14
177
     3
291
     1
 70
    58
 90
        2
176
     1
 90
        2
176
     1
 90
        0
176
     1
 90
        0
176
     1
 40
0.6
176
     1
 40
30.0
176
     1
 62
     7
420
 16777215
176
     1
 90
        1
176
     1
 90
        4
176
     1
 62
     7
176
     1
 62
   257
176
     1
 90
        7
176
     1
 90
        7
176
     1
 40
1.0
176
     1
 90
        8
176
     1
 62
     7
176
     1
 40
1.0
176
     1
 90
        1
176
     1
 90
        6
176
     1
 90
        2
176
     1
 62
     7
176
     1
 90
        5
176
     1
 90
        0
176
     1
 90
        0
176
     1
290
     0
176
     1
 90
        1
176
     1
 40
0.0
176
     1
 90
        0
176
     1
290
     0
176
     1
290
     1
176
     1
290
     1
176
     1
290
     0
176
     1
290
     0
176
     1
290
     0
176
     1
290
     0
176
     1
290
     0
176
     1
290
     0
176
     1
 90
       50
176
     1
 40
0.0
176
     1
 40
1.0
176
     1
 90
        0
176
     1
 62
    18
420
        0
176
     1
 90
       50
176
     1
 90
        3
176
     1
 62
     5
420
      255
176
     1
290
     0
176
     1
 90
       50
176
     1
 90
       50
176
     1
 90
       50
176
     1
290
     0
176
     1
 90
       50
176
     1
 62
   256
176
     0
 40
1.0
176
     0
 90
        2
176
     1
  1
strokes_ogs.tif
176
     1
290
     0
176
     1
 40
1.0
176
     1
 40
1.0
176
     1
  0
VISUALSTYLE
  5
3C
102
{ACAD_REACTORS
330
2A
102
}
330
2A
100
AcDbVisualStyle
  2
OverhangOff
 70
    21
177
     3
291
     1
 70
    58
 90
        2
176
     0
 90
        2
176
     0
 90
        0
176
     0
 90
        0
176
     0
 40
0.6
176
     0
 40
30.0
176
     0
 62
     7
420
 16777215
176
     0
 90
        1
176
     0
 90
        4
176
     0
 62
     7
176
     0
 62
   257
176
     0
 90
        1
176
     0
 90
        1
176
     0
 40
1.0
176
     0
 90
        9
176
     2
 62
     7
176
     0
 40
1.0
176
     0
 90
        1
176
     0
 90
        6
176
     0
 90
        2
176
     0
 62
     7
176
     0
 90
        5
176
     0
 90
        0
176
     0
 90
        0
176
     0
290
     0
176
     0
 90
        1
176
     0
 40
0.0
176
     0
 90
        0
176
     0
290
     0
176
     0
290
     1
176
     0
290
     1
176
     0
290
     0
176
     0
290
     0
176
     0
290
     0
176
     0
290
     0
176
     0
290
     0
176
     0
290
     0
176
     0
 90
       50
176
     0
 40
0.0
176
     0
 40
1.0
176
     0
 90
        0
176
     0
 62
    18
420
        0
176
     0
 90
       50
176
     0
 90
        3
176
     0
 62
     5
420
      255
176
     0
290
     0
176
     0
 90
       50
176
     0
 90
       50
176
     0
 90
       50
176
     0
290
     0
176
     0
 90
       50
176
     0
 62
   256
176
     0
 40
1.0
176
     0
 90
        2
176
     0
  1
strokes_ogs.tif
176
     0
290
     0
176
     0
 40
1.0
176
     0
 40
1.0
176
     0
  0
VISUALSTYLE
  5
33
102
{ACAD_REACTORS
330
2A
102
}
330
2A
100
AcDbVisualStyle
  2
Realistic
 70
     8
177
     3
291
     0
 70
    58
 90
        2
176
     1
 90
        3
176
     1
 90
        0
176
     1
 90
        2
176
     1
 40
0.6
176
     1
 40
30.0
176
     1
 62
     7
420
 16777215
176
     1
 90
        0
176
     1
 90
        0
176
     1
 62
     7
176
     1
 62
   257
176
     1
 90
        1
176
     1
 90
        1
176
     1
 40
1.0
176
     1
 90
        8
176
     1
 62
   257
176
     1
 40
1.0
176
     1
 90
        1
176
     1
 90
        6
176
     1
 90
        2
176
     1
 62
     7
176
     1
 90
        3
176
     1
 90
        0
176
     1
 90
        0
176
     1
290
     0
176
     1
 90
       13
176
     1
 40
0.0
176
     1
 90
        0
176
     1
290
     0
176
     1
290
     1
176
     1
290
     1
176
     1
290
     0
176
     1
290
     0
176
     1
290
     0
176
     1
290
     0
176
     1
290
     0
176
     1
290
     0
176
     1
 90
       50
176
     1
 40
0.0
176
     1
 40
1.0
176
     1
 90
        0
176
     1
 62
    18
420
        0
176
     1
 90
       50
176
     1
 90
        3
176
     1
 62
     5
420
      255
176
     1
290
     0
176
     1
 90
       50
176
     1
 90
       50
176
     1
 90
       50
176
     1
290
     0
176
     1
 90
       50
176
     1
 62
   256
176
     0
 40
1.0
176
     0
 90
        2
176
     1
  1
strokes_ogs.tif
176
     1
290
     0
176
     1
 40
1.0
176
     1
 40
1.0
176
     1
  0
VISUALSTYLE
  5
42
102
{ACAD_REACTORS
330
2A
102
}
330
2A
100
AcDbVisualStyle
  2
Shaded
 70
    27
177
     3
291
     0
 70
    58
 90
        2
176
     1
 90
        2
176
     1
 90
        1
176
     1
 90
        2
176
     1
 40
0.6
176
     1
 40
30.0
176
     1
 62
     7
420
 16777215
176
     1
 90
        0
176
     1
 90
        4
176
     1
 62
     7
176
     1
 62
   257
176
     1
 90
        1
176
     1
 90
        1
176
     1
 40
1.0
176
     1
 90
        8
176
     1
 62
   257
176
     1
 40
1.0
176
     1
 90
        1
176
     1
 90
        6
176
     1
 90
        2
176
     1
 62
     8
420
  7895160
176
     1
 90
        3
176
     1
 90
        0
176
     1
 90
        0
176
     1
290
     0
176
     1
 90
        5
176
     1
 40
0.0
176
     1
 90
        0
176
     1
290
     0
176
     1
290
     1
176
     1
290
     1
176
     1
290
     0
176
     1
290
     0
176
     1
290
     0
176
     1
290
     0
176
     1
290
     0
176
     1
290
     0
176
     1
 90
       50
176
     1
 40
0.0
176
     1
 40
1.0
176
     1
 90
        0
176
     1
 62
    18
420
        0
176
     1
 90
       50
176
     1
 90
        3
176
     1
 62
     5
420
      255
176
     1
290
     0
176
     1
 90
       50
176
     1
 90
       50
176
     1
 90
       50
176
     1
290
     0
176
     1
 90
       50
176
     1
 62
   256
176
     0
 40
1.0
176
     0
 90
        2
176
     1
  1
strokes_ogs.tif
176
     1
290
     0
176
     1
 40
1.0
176
     1
 40
1.0
176
     1
  0
VISUALSTYLE
  5
41
102
{ACAD_REACTORS
330
2A
102
}
330
2A
100
AcDbVisualStyle
  2
Shaded with edges
 70
    26
177
     3
291
     0
 70
    58
 90
        2
176
     1
 90
        2
176
     1
 90
        1
176
     1
 90
        2
176
     1
 40
0.6
176
     1
 40
30.0
176
     1
 62
     7
420
 16777215
176
     1
 90
        1
176
     1
 90
       10
176
     1
 62
     7
176
     1
 62
   257
176
     1
 90
        2
176
     1
 90
        1
176
     1
 40
1.0
176
     1
 90
        8
176
     1
 62
   257
176
     1
 40
1.0
176
     1
 90
        1
176
     1
 90
        6
176
     1
 90
        2
176
     1
 62
     7
176
     1
 90
        3
176
     1
 90
        0
176
     1
 90
        0
176
     1
290
     0
176
     1
 90
        5
176
     1
 40
0.0
176
     1
 90
        0
176
     1
290
     0
176
     1
290
     1
176
     1
290
     1
176
     1
290
     0
176
     1
290
     0
176
     1
290
     0
176
     1
290
     0
176
     1
290
     0
176
     1
290
     0
176
     1
 90
       50
176
     1
 40
0.0
176
     1
 40
1.0
176
     1
 90
        0
176
     1
 62
    18
420
        0
176
     1
 90
       50
176
     1
 90
        3
176
     1
 62
     5
420
      255
176
     1
290
     0
176
     1
 90
       50
176
     1
 90
       50
176
     1
 90
       50
176
     1
290
     0
176
     1
 90
       50
176
     1
 62
   256
176
     0
 40
1.0
176
     0
 90
        2
176
     1
  1
strokes_ogs.tif
176
     1
290
     0
176
     1
 40
1.0
176
     1
 40
1.0
176
     1
  0
VISUALSTYLE
  5
3E
102
{ACAD_REACTORS
330
2A
102
}
330
2A
100
AcDbVisualStyle
  2
Shades of Gray
 70
    23
177
     3
291
     0
 70
    58
 90
        2
176
     1
 90
        2
176
     1
 90
        3
176
     1
 90
        0
176
     1
 40
0.6
176
     1
 40
30.0
176
     1
 62
     7
420
 16777215
176
     1
 90
        2
176
     1
 90
        2
176
     1
 62
     7
176
     1
 62
     7
176
     1
 90
        1
176
     1
 90
        1
176
     1
 40
40.0
176
     1
 90
        8
176
     1
 62
     7
176
     1
 40
1.0
176
     1
 90
        1
176
     1
 90
        6
176
     1
 90
        2
176
     1
 62
     7
176
     1
 90
        3
176
     1
 90
        0
176
     1
 90
        0
176
     1
290
     0
176
     1
 90
        1
176
     1
 40
0.0
176
     1
 90
        0
176
     1
290
     0
176
     1
290
     1
176
     1
290
     1
176
     1
290
     0
176
     1
290
     0
176
     1
290
     0
176
     1
290
     0
176
     1
290
     0
176
     1
290
     0
176
     1
 90
       50
176
     1
 40
0.0
176
     1
 40
1.0
176
     1
 90
        0
176
     1
 62
    18
420
        0
176
     1
 90
       50
176
     1
 90
        3
176
     1
 62
     5
420
      255
176
     1
290
     0
176
     1
 90
       50
176
     1
 90
       50
176
     1
 90
       50
176
     1
290
     0
176
     1
 90
       50
176
     1
 62
   256
176
     0
 40
1.0
176
     0
 90
        2
176
     1
  1
strokes_ogs.tif
176
     1
290
     0
176
     1
 40
1.0
176
     1
 40
1.0
176
     1
  0
VISUALSTYLE
  5
3F
102
{ACAD_REACTORS
330
2A
102
}
330
2A
100
AcDbVisualStyle
  2
Sketchy
 70
    24
177
     3
291
     0
 70
    58
 90
        1
176
     1
 90
        2
176
     1
 90
        2
176
     1
 90
        0
176
     1
 40
0.6
176
     1
 40
30.0
176
     1
 62
     7
420
 16777215
176
     1
 90
        2
176
     1
 90
        2
176
     1
 62
     7
176
     1
 62
     7
176
     1
 90
        1
176
     1
 90
        1
176
     1
 40
40.0
176
     1
 90
       11
176
     1
 62
     7
176
     1
 40
1.0
176
     1
 90
        1
176
     1
 90
        6
176
     1
 90
        2
176
     1
 62
     7
176
     1
 90
        6
176
     1
 90
        0
176
     1
 90
        0
176
     1
290
     0
176
     1
 90
        1
176
     1
 40
0.0
176
     1
 90
        0
176
     1
290
     0
176
     1
290
     1
176
     1
290
     1
176
     1
290
     0
176
     1
290
     0
176
     1
290
     0
176
     1
290
     0
176
     1
290
     0
176
     1
290
     0
176
     1
 90
       50
176
     1
 40
0.0
176
     1
 40
1.0
176
     1
 90
        0
176
     1
 62
    18
420
        0
176
     1
 90
       50
176
     1
 90
        3
176
     1
 62
     5
420
      255
176
     1
290
     0
176
     1
 90
       50
176
     1
 90
       50
176
     1
 90
       50
176
     1
290
     0
176
     1
 90
       50
176
     1
 62
   256
176
     0
 40
1.0
176
     0
 90
        2
176
     1
  1
strokes_ogs.tif
176
     1
290
     0
176
     1
 40
1.0
176
     1
 40
1.0
176
     1
  0
VISUALSTYLE
  5
37
102
{ACAD_REACTORS
330
2A
102
}
330
2A
100
AcDbVisualStyle
  2
Thicken
 70
    13
177
     3
291
     1
 70
    58
 90
        2
176
     1
 90
        2
176
     1
 90
        0
176
     1
 90
        0
176
     1
 40
0.6
176
     1
 40
30.0
176
     1
 62
     7
420
 16777215
176
     1
 90
        1
176
     1
 90
        4
176
     1
 62
     7
176
     1
 62
   257
176
     1
 90
        1
176
     1
 90
        1
176
     1
 40
1.0
176
     1
 90
       12
176
     1
 62
     7
176
     1
 40
1.0
176
     1
 90
        1
176
     1
 90
        6
176
     1
 90
        2
176
     1
 62
     7
176
     1
 90
        5
176
     1
 90
        0
176
     1
 90
        0
176
     1
290
     0
176
     1
 90
        1
176
     1
 40
0.0
176
     1
 90
        0
176
     1
290
     0
176
     1
290
     1
176
     1
290
     1
176
     1
290
     0
176
     1
290
     0
176
     1
290
     0
176
     1
290
     0
176
     1
290
     0
176
     1
290
     0
176
     1
 90
       50
176
     1
 40
0.0
176
     1
 40
1.0
176
     1
 90
        0
176
     1
 62
    18
420
        0
176
     1
 90
       50
176
     1
 90
        3
176
     1
 62
     5
420
      255
176
     1
290
     0
176
     1
 90
       50
176
     1
 90
       50
176
     1
 90
       50
176
     1
290
     0
176
     1
 90
       50
176
     1
 62
   256
176
     0
 40
1.0
176
     0
 90
        2
176
     1
  1
strokes_ogs.tif
176
     1
290
     0
176
     1
 40
1.0
176
     1
 40
1.0
176
     1
  0
VISUALSTYLE
  5
30
102
{ACAD_REACTORS
330
2A
102
}
330
2A
100
AcDbVisualStyle
  2
Wireframe
 70
     5
177
     3
291
     0
 70
    58
 90
        0
176
     1
 90
        2
176
     1
 90
        0
176
     1
 90
        0
176
     1
 40
0.6
176
     1
 40
30.0
176
     1
 62
     7
420
 16777215
176
     1
 90
        1
176
     1
 90
        4
176
     1
 62
     7
176
     1
 62
   257
176
     1
 90
        1
176
     1
 90
        1
176
     1
 40
1.0
176
     1
 90
        0
176
     1
 62
   257
176
     1
 40
1.0
176
     1
 90
        1
176
     1
 90
        6
176
     1
 90
        2
176
     1
 62
     7
176
     1
 90
        3
176
     1
 90
        0
176
     1
 90
        0
176
     1
290
     0
176
     1
 90
        1
176
     1
 40
0.0
176
     1
 90
        0
176
     1
290
     0
176
     1
290
     1
176
     1
290
     1
176
     1
290
     0
176
     1
290
     0
176
     1
290
     0
176
     1
290
     0
176
     1
290
     0
176
     1
290
     0
176
     1
 90
       50
176
     1
 40
0.0
176
     1
 40
1.0
176
     1
 90
        0
176
     1
 62
    18
420
        0
176
     1
 90
       50
176
     1
 90
        3
176
     1
 62
     5
420
      255
176
     1
290
     0
176
     1
 90
       50
176
     1
 90
       50
176
     1
 90
       50
176
     1
290
     0
176
     1
 90
       50
176
     1
 62
   256
176
     0
 40
1.0
176
     0
 90
        2
176
     1
  1
strokes_ogs.tif
176
     1
290
     0
176
     1
 40
1.0
176
     1
 40
1.0
176
     1
  0
VISUALSTYLE
  5
40
102
{ACAD_REACTORS
330
2A
102
}
330
2A
100
AcDbVisualStyle
  2
X-Ray
 70
    25
177
     3
291
     0
 70
    58
 90
        2
176
     1
 90
        2
176
     1
 90
        1
176
     1
 90
        1
176
     1
 40
0.5
176
     1
 40
30.0
176
     1
 62
     7
420
 16777215
176
     1
 90
        1
176
     1
 90
        0
176
     1
 62
     7
176
     1
 62
   257
176
     1
 90
        1
176
     1
 90
        1
176
     1
 40
1.0
176
     1
 90
        8
176
     1
 62
     7
176
     1
 40
1.0
176
     1
 90
        1
176
     1
 90
        6
176
     1
 90
        2
176
     1
 62
     7
176
     1
 90
        3
176
     1
 90
        0
176
     1
 90
        0
176
     1
290
     0
176
     1
 90
       13
176
     1
 40
0.0
176
     1
 90
        0
176
     1
290
     0
176
     1
290
     1
176
     1
290
     1
176
     1
290
     0
176
     1
290
     0
176
     1
290
     0
176
     1
290
     0
176
     1
290
     0
176
     1
290
     0
176
     1
 90
       50
176
     1
 40
0.0
176
     1
 40
1.0
176
     1
 90
        0
176
     1
 62
    18
420
        0
176
     1
 90
       50
176
     1
 90
        3
176
     1
 62
     5
420
      255
176
     1
290
     0
176
     1
 90
       50
176
     1
 90
       50
176
     1
 90
       50
176
     1
290
     0
176
     1
 90
       50
176
     1
 62
   256
176
     0
 40
1.0
176
     0
 90
        2
176
     1
  1
strokes_ogs.tif
176
     1
290
     0
176
     1
 40
1.0
176
     1
 40
1.0
176
     1
  0
DICTIONARYVAR
  5
1E0
102
{ACAD_REACTORS
330
1DF
102
}
330
1DF
100
DictionaryVariables
280
     0
  1
1:1
  0
DICTIONARYVAR
  5
1E5
102
{ACAD_REACTORS
330
1DF
102
}
330
1DF
100
DictionaryVariables
280
     0
  1
Standard
  0
DICTIONARYVAR
  5
1E4
102
{ACAD_REACTORS
330
1DF
102
}
330
1DF
100
DictionaryVariables
280
     0
  1
Standard
  0
DICTIONARY
  5
1E1
330
6A
100
AcDbDictionary
280
     1
281
     1
  3
ACAD_ROUNDTRIP_2008_TABLESTYLE_CELLSTYLEMAP
360
1E2
  0
CELLSTYLEMAP
  5
1E2
102
{ACAD_REACTORS
330
1E1
102
}
330
1E1
100
AcDbCellStyleMap
 90
        3
300
CELLSTYLE
  1
TABLEFORMAT_BEGIN
 90
        5
170
     1
 91
        0
 92
    32768
 62
   257
 93
        1
300
CONTENTFORMAT
  1
CONTENTFORMAT_BEGIN
 90
        0
 91
        0
 92
        4
 93
        0
300

 40
0.0
140
1.0
 94
        5
 62
     0
340
11
144
0.25
309
CONTENTFORMAT_END
171
     1
301
MARGIN
  1
CELLMARGIN_BEGIN
 40
0.06
 40
0.06
 40
0.06
 40
0.06
 40
0.06
 40
0.06
309
CELLMARGIN_END
 94
        6
 95
        1
302
GRIDFORMAT
  1
GRIDFORMAT_BEGIN
 90
        0
 91
        1
 62
     0
 92
       -2
340
14
 93
        0
 40
0.045
309
GRIDFORMAT_END
 95
        2
302
GRIDFORMAT
  1
GRIDFORMAT_BEGIN
 90
        0
 91
        1
 62
     0
 92
       -2
340
14
 93
        0
 40
0.045
309
GRIDFORMAT_END
 95
        4
302
GRIDFORMAT
  1
GRIDFORMAT_BEGIN
 90
        0
 91
        1
 62
     0
 92
       -2
340
14
 93
        0
 40
0.045
309
GRIDFORMAT_END
 95
        8
302
GRIDFORMAT
  1
GRIDFORMAT_BEGIN
 90
        0
 91
        1
 62
     0
 92
       -2
340
14
 93
        0
 40
0.045
309
GRIDFORMAT_END
 95
       16
302
GRIDFORMAT
  1
GRIDFORMAT_BEGIN
 90
        0
 91
        1
 62
     0
 92
       -2
340
14
 93
        0
 40
0.045
309
GRIDFORMAT_END
 95
       32
302
GRIDFORMAT
  1
GRIDFORMAT_BEGIN
 90
        0
 91
        1
 62
     0
 92
       -2
340
14
 93
        0
 40
0.045
309
GRIDFORMAT_END
309
TABLEFORMAT_END
  1
CELLSTYLE_BEGIN
 90
        1
 91
        1
300
_TITLE
309
CELLSTYLE_END
300
CELLSTYLE
  1
TABLEFORMAT_BEGIN
 90
        5
170
     1
 91
        0
 92
        0
 62
   257
 93
        1
300
CONTENTFORMAT
  1
CONTENTFORMAT_BEGIN
 90
        0
 91
        0
 92
        4
 93
        0
300

 40
0.0
140
1.0
 94
        5
 62
     0
340
11
144
0.18
309
CONTENTFORMAT_END
171
     1
301
MARGIN
  1
CELLMARGIN_BEGIN
 40
0.06
 40
0.06
 40
0.06
 40
0.06
 40
0.06
 40
0.06
309
CELLMARGIN_END
 94
        6
 95
        1
302
GRIDFORMAT
  1
GRIDFORMAT_BEGIN
 90
        0
 91
        1
 62
     0
 92
       -2
340
14
 93
        0
 40
0.045
309
GRIDFORMAT_END
 95
        2
302
GRIDFORMAT
  1
GRIDFORMAT_BEGIN
 90
        0
 91
        1
 62
     0
 92
       -2
340
14
 93
        0
 40
0.045
309
GRIDFORMAT_END
 95
        4
302
GRIDFORMAT
  1
GRIDFORMAT_BEGIN
 90
        0
 91
        1
 62
     0
 92
       -2
340
14
 93
        0
 40
0.045
309
GRIDFORMAT_END
 95
        8
302
GRIDFORMAT
  1
GRIDFORMAT_BEGIN
 90
        0
 91
        1
 62
     0
 92
       -2
340
14
 93
        0
 40
0.045
309
GRIDFORMAT_END
 95
       16
302
GRIDFORMAT
  1
GRIDFORMAT_BEGIN
 90
        0
 91
        1
 62
     0
 92
       -2
340
14
 93
        0
 40
0.045
309
GRIDFORMAT_END
 95
       32
302
GRIDFORMAT
  1
GRIDFORMAT_BEGIN
 90
        0
 91
        1
 62
     0
 92
       -2
340
14
 93
        0
 40
0.045
309
GRIDFORMAT_END
309
TABLEFORMAT_END
  1
CELLSTYLE_BEGIN
 90
        2
 91
        1
300
_HEADER
309
CELLSTYLE_END
300
CELLSTYLE
  1
TABLEFORMAT_BEGIN
 90
        5
170
     1
 91
        0
 92
        0
 62
   257
 93
        1
300
CONTENTFORMAT
  1
CONTENTFORMAT_BEGIN
 90
        0
 91
        0
 92
        4
 93
        0
300

 40
0.0
140
1.0
 94
        2
 62
     0
340
11
144
0.18
309
CONTENTFORMAT_END
171
     1
301
MARGIN
  1
CELLMARGIN_BEGIN
 40
0.06
 40
0.06
 40
0.06
 40
0.06
 40
0.06
 40
0.06
309
CELLMARGIN_END
 94
        6
 95
        1
302
GRIDFORMAT
  1
GRIDFORMAT_BEGIN
 90
        0
 91
        1
 62
     0
 92
       -2
340
14
 93
        0
 40
0.045
309
GRIDFORMAT_END
 95
        2
302
GRIDFORMAT
  1
GRIDFORMAT_BEGIN
 90
        0
 91
        1
 62
     0
 92
       -2
340
14
 93
        0
 40
0.045
309
GRIDFORMAT_END
 95
        4
302
GRIDFORMAT
  1
GRIDFORMAT_BEGIN
 90
        0
 91
        1
 62
     0
 92
       -2
340
14
 93
        0
 40
0.045
309
GRIDFORMAT_END
 95
        8
302
GRIDFORMAT
  1
GRIDFORMAT_BEGIN
 90
        0
 91
        1
 62
     0
 92
       -2
340
14
 93
        0
 40
0.045
309
GRIDFORMAT_END
 95
       16
302
GRIDFORMAT
  1
GRIDFORMAT_BEGIN
 90
        0
 91
        1
 62
     0
 92
       -2
340
14
 93
        0
 40
0.045
309
GRIDFORMAT_END
 95
       32
302
GRIDFORMAT
  1
GRIDFORMAT_BEGIN
 90
        0
 91
        1
 62
     0
 92
       -2
340
14
 93
        0
 40
0.045
309
GRIDFORMAT_END
309
TABLEFORMAT_END
  1
CELLSTYLE_BEGIN
 90
        3
 91
        2
300
_DATA
309
CELLSTYLE_END
  0
ENDSEC
  0
EOF