0
SECTION
  2
HEADER
  9
$ACADVER
  1
AC1027
  9
$ACADMAINTVER
 70
     8
  9
$DWGCODEPAGE
  3
ANSI_1252
  9
$REQUIREDVERSIONS
160
                 0
  9
$COMMENTS
  1
File was created by Cadenas
  9
$CUSTOMPROPERTYTAG
  1
NN
  9
$CUSTOMPROPERTY
  1
Grip Tight Tapped Base - Polymer Housing, Corrosion Resisitant Insert  Inch Bore
  9
$CUSTOMPROPERTYTAG
  1
NT
  9
$CUSTOMPROPERTY
  1
GTEZ Normal Duty Polymer Housed Tapped Base Pillow Blocks
  9
$CUSTOMPROPERTYTAG
  1
NB
  9
$CUSTOMPROPERTY
  1
129298
  9
$CUSTOMPROPERTYTAG
  1
NBSYN
  9
$CUSTOMPROPERTY
  1
$PN.$LUBE.
  9
$CUSTOMPROPERTYTAG
  1
LINA
  9
$CUSTOMPROPERTY
  1
129298
  9
$CUSTOMPROPERTYTAG
  1
SERIES
  9
$CUSTOMPROPERTY
  1
207
  9
$CUSTOMPROPERTYTAG
  1
SS
  9
$CUSTOMPROPERTY
  1
1-1/4
  9
$CUSTOMPROPERTYTAG
  1
PN
  9
$CUSTOMPROPERTY
  1
129298
  9
$CUSTOMPROPERTYTAG
  1
DESCRIPTION
  9
$CUSTOMPROPERTY
  1
TB-GTEZ-104-PCR
  9
$CUSTOMPROPERTYTAG
  1
A
  9
$CUSTOMPROPERTY
  1
1-5/8
  9
$CUSTOMPROPERTYTAG
  1
B
  9
$CUSTOMPROPERTY
  1
4-5/8
  9
$CUSTOMPROPERTYTAG
  1
C
  9
$CUSTOMPROPERTY
  1
1-57/64
  9
$CUSTOMPROPERTYTAG
  1
D
  9
$CUSTOMPROPERTY
  1
3-1/4
  9
$CUSTOMPROPERTYTAG
  1
J
  9
$CUSTOMPROPERTY
  1
3-53/64
  9
$CUSTOMPROPERTYTAG
  1
L
  9
$CUSTOMPROPERTY
  1
2-19/64
  9
$CUSTOMPROPERTYTAG
  1
M
  9
$CUSTOMPROPERTY
  1
1-7/8
  9
$CUSTOMPROPERTYTAG
  1
N
  9
$CUSTOMPROPERTY
  1
35/64
  9
$CUSTOMPROPERTYTAG
  1
R
  9
$CUSTOMPROPERTY
  1
1/2-13
  9
$CUSTOMPROPERTYTAG
  1
S
  9
$CUSTOMPROPERTY
  1
1-1/16
  9
$CUSTOMPROPERTYTAG
  1
Z
  9
$CUSTOMPROPERTY
  1
1-3/64
  9
$CUSTOMPROPERTYTAG
  1
COMPANY
  9
$CUSTOMPROPERTY
  1
baldor
  9
$INSBASE
 10
0.0
 20
0.0
 30
0.0
  9
$EXTMIN
 10
1.000000000000000E+20
 20
1.000000000000000E+20
 30
1.000000000000000E+20
  9
$EXTMAX
 10
-1.000000000000000E+20
 20
-1.000000000000000E+20
 30
-1.000000000000000E+20
  9
$LIMMIN
 10
0.0
 20
0.0
  9
$LIMMAX
 10
12.0
 20
9.0
  9
$ORTHOMODE
 70
     0
  9
$REGENMODE
 70
     1
  9
$FILLMODE
 70
     1
  9
$QTEXTMODE
 70
     0
  9
$MIRRTEXT
 70
     1
  9
$LTSCALE
 40
1.0
  9
$ATTMODE
 70
     1
  9
$TEXTSIZE
 40
0.2
  9
$TRACEWID
 40
0.05
  9
$TEXTSTYLE
  7
Standard
  9
$CLAYER
  8
0
  9
$CELTYPE
  6
ByLayer
  9
$CECOLOR
 62
   256
  9
$CELTSCALE
 40
1.0
  9
$DISPSILH
 70
     0
  9
$DIMSCALE
 40
1.0
  9
$DIMASZ
 40
0.18
  9
$DIMEXO
 40
0.0625
  9
$DIMDLI
 40
0.38
  9
$DIMRND
 40
0.0
  9
$DIMDLE
 40
0.0
  9
$DIMEXE
 40
0.18
  9
$DIMTP
 40
0.0
  9
$DIMTM
 40
0.0
  9
$DIMTXT
 40
0.18
  9
$DIMCEN
 40
0.09
  9
$DIMTSZ
 40
0.0
  9
$DIMTOL
 70
     0
  9
$DIMLIM
 70
     0
  9
$DIMTIH
 70
     1
  9
$DIMTOH
 70
     1
  9
$DIMSE1
 70
     0
  9
$DIMSE2
 70
     0
  9
$DIMTAD
 70
     0
  9
$DIMZIN
 70
     0
  9
$DIMBLK
  1

  9
$DIMASO
 70
     1
  9
$DIMSHO
 70
     1
  9
$DIMPOST
  1

  9
$DIMAPOST
  1

  9
$DIMALT
 70
     0
  9
$DIMALTD
 70
     2
  9
$DIMALTF
 40
25.4
  9
$DIMLFAC
 40
1.0
  9
$DIMTOFL
 70
     0
  9
$DIMTVP
 40
0.0
  9
$DIMTIX
 70
     0
  9
$DIMSOXD
 70
     0
  9
$DIMSAH
 70
     0
  9
$DIMBLK1
  1

  9
$DIMBLK2
  1

  9
$DIMSTYLE
  2
Standard
  9
$DIMCLRD
 70
     0
  9
$DIMCLRE
 70
     0
  9
$DIMCLRT
 70
     0
  9
$DIMTFAC
 40
1.0
  9
$DIMGAP
 40
0.09
  9
$DIMJUST
 70
     0
  9
$DIMSD1
 70
     0
  9
$DIMSD2
 70
     0
  9
$DIMTOLJ
 70
     1
  9
$DIMTZIN
 70
     0
  9
$DIMALTZ
 70
     0
  9
$DIMALTTZ
 70
     0
  9
$DIMUPT
 70
     0
  9
$DIMDEC
 70
     4
  9
$DIMTDEC
 70
     4
  9
$DIMALTU
 70
     2
  9
$DIMALTTD
 70
     2
  9
$DIMTXSTY
  7
Standard
  9
$DIMAUNIT
 70
     0
  9
$DIMADEC
 70
     0
  9
$DIMALTRND
 40
0.0
  9
$DIMAZIN
 70
     0
  9
$DIMDSEP
 70
    46
  9
$DIMATFIT
 70
     3
  9
$DIMFRAC
 70
     0
  9
$DIMLDRBLK
  1

  9
$DIMLUNIT
 70
     2
  9
$DIMLWD
 70
    -2
  9
$DIMLWE
 70
    -2
  9
$DIMTMOVE
 70
     0
  9
$DIMFXL
 40
1.0
  9
$DIMFXLON
 70
     0
  9
$DIMJOGANG
 40
0.7853981633974483
  9
$DIMTFILL
 70
     0
  9
$DIMTFILLCLR
 70
     0
  9
$DIMARCSYM
 70
     0
  9
$DIMLTYPE
  6

  9
$DIMLTEX1
  6

  9
$DIMLTEX2
  6

  9
$DIMTXTDIRECTION
 70
     0
  9
$LUNITS
 70
     2
  9
$LUPREC
 70
     4
  9
$SKETCHINC
 40
0.1
  9
$FILLETRAD
 40
0.5
  9
$AUNITS
 70
     0
  9
$AUPREC
 70
     0
  9
$MENU
  1
.
  9
$ELEVATION
 40
0.0
  9
$PELEVATION
 40
0.0
  9
$THICKNESS
 40
0.0
  9
$LIMCHECK
 70
     0
  9
$CHAMFERA
 40
0.0
  9
$CHAMFERB
 40
0.0
  9
$CHAMFERC
 40
0.0
  9
$CHAMFERD
 40
0.0
  9
$SKPOLY
 70
     0
  9
$TDCREATE
 40
2458168.992289317
  9
$TDUCREATE
 40
2458168.95062265
  9
$TDUPDATE
 40
2458168.992289502
  9
$TDUUPDATE
 40
2458168.950622836
  9
$TDINDWG
 40
0.0000000116
  9
$TDUSRTIMER
 40
0.0000000116
  9
$USRTIMER
 70
     1
  9
$ANGBASE
 50
0.0
  9
$ANGDIR
 70
     0
  9
$PDMODE
 70
     0
  9
$PDSIZE
 40
0.0
  9
$PLINEWID
 40
0.0
  9
$SPLFRAME
 70
     0
  9
$SPLINETYPE
 70
     6
  9
$SPLINESEGS
 70
     8
  9
$HANDSEED
  5
1C9
  9
$SURFTAB1
 70
     6
  9
$SURFTAB2
 70
     6
  9
$SURFTYPE
 70
     6
  9
$SURFU
 70
     6
  9
$SURFV
 70
     6
  9
$UCSBASE
  2

  9
$UCSNAME
  2

  9
$UCSORG
 10
0.0
 20
0.0
 30
0.0
  9
$UCSXDIR
 10
1.0
 20
0.0
 30
0.0
  9
$UCSYDIR
 10
0.0
 20
1.0
 30
0.0
  9
$UCSORTHOREF
  2

  9
$UCSORTHOVIEW
 70
     0
  9
$UCSORGTOP
 10
0.0
 20
0.0
 30
0.0
  9
$UCSORGBOTTOM
 10
0.0
 20
0.0
 30
0.0
  9
$UCSORGLEFT
 10
0.0
 20
0.0
 30
0.0
  9
$UCSORGRIGHT
 10
0.0
 20
0.0
 30
0.0
  9
$UCSORGFRONT
 10
0.0
 20
0.0
 30
0.0
  9
$UCSORGBACK
 10
0.0
 20
0.0
 30
0.0
  9
$PUCSBASE
  2

  9
$PUCSNAME
  2

  9
$PUCSORG
 10
0.0
 20
0.0
 30
0.0
  9
$PUCSXDIR
 10
1.0
 20
0.0
 30
0.0
  9
$PUCSYDIR
 10
0.0
 20
1.0
 30
0.0
  9
$PUCSORTHOREF
  2

  9
$PUCSORTHOVIEW
 70
     0
  9
$PUCSORGTOP
 10
0.0
 20
0.0
 30
0.0
  9
$PUCSORGBOTTOM
 10
0.0
 20
0.0
 30
0.0
  9
$PUCSORGLEFT
 10
0.0
 20
0.0
 30
0.0
  9
$PUCSORGRIGHT
 10
0.0
 20
0.0
 30
0.0
  9
$PUCSORGFRONT
 10
0.0
 20
0.0
 30
0.0
  9
$PUCSORGBACK
 10
0.0
 20
0.0
 30
0.0
  9
$USERI1
 70
     0
  9
$USERI2
 70
     0
  9
$USERI3
 70
     0
  9
$USERI4
 70
     0
  9
$USERI5
 70
     0
  9
$USERR1
 40
0.0
  9
$USERR2
 40
0.0
  9
$USERR3
 40
0.0
  9
$USERR4
 40
0.0
  9
$USERR5
 40
0.0
  9
$WORLDVIEW
 70
     1
  9
$SHADEDGE
 70
     3
  9
$SHADEDIF
 70
    70
  9
$TILEMODE
 70
     1
  9
$MAXACTVP
 70
    64
  9
$PINSBASE
 10
0.0
 20
0.0
 30
0.0
  9
$PLIMCHECK
 70
     0
  9
$PEXTMIN
 10
1.000000000000000E+20
 20
1.000000000000000E+20
 30
1.000000000000000E+20
  9
$PEXTMAX
 10
-1.000000000000000E+20
 20
-1.000000000000000E+20
 30
-1.000000000000000E+20
  9
$PLIMMIN
 10
0.0
 20
0.0
  9
$PLIMMAX
 10
12.0
 20
9.0
  9
$UNITMODE
 70
     0
  9
$VISRETAIN
 70
     1
  9
$PLINEGEN
 70
     0
  9
$PSLTSCALE
 70
     1
  9
$TREEDEPTH
 70
  3020
  9
$CMLSTYLE
  2
Standard
  9
$CMLJUST
 70
     0
  9
$CMLSCALE
 40
1.0
  9
$PROXYGRAPHICS
 70
     1
  9
$MEASUREMENT
 70
     0
  9
$CELWEIGHT
370
    -1
  9
$ENDCAPS
280
     0
  9
$JOINSTYLE
280
     0
  9
$LWDISPLAY
290
     0
  9
$INSUNITS
 70
     1
  9
$HYPERLINKBASE
  1

  9
$STYLESHEET
  1

  9
$XEDIT
290
     1
  9
$CEPSNTYPE
380
     0
  9
$PSTYLEMODE
290
     1
  9
$FINGERPRINTGUID
  2
{298D736B-731C-4525-8617-A07366104826}
  9
$VERSIONGUID
  2
{FAEB1C32-E019-11D5-929B-00C0DF256EC4}
  9
$EXTNAMES
290
     1
  9
$PSVPSCALE
 40
0.0
  9
$OLESTARTUP
290
     0
  9
$SORTENTS
280
   127
  9
$INDEXCTL
280
     0
  9
$HIDETEXT
280
     1
  9
$XCLIPFRAME
280
     2
  9
$HALOGAP
280
     0
  9
$OBSCOLOR
 70
   257
  9
$OBSLTYPE
280
     0
  9
$INTERSECTIONDISPLAY
280
     0
  9
$INTERSECTIONCOLOR
 70
   257
  9
$DIMASSOC
280
     2
  9
$PROJECTNAME
  1

  9
$CAMERADISPLAY
290
     0
  9
$LENSLENGTH
 40
50.0
  9
$CAMERAHEIGHT
 40
0.0
  9
$STEPSPERSEC
 40
2.0
  9
$STEPSIZE
 40
6.0
  9
$3DDWFPREC
 40
2.0
  9
$PSOLWIDTH
 40
0.25
  9
$PSOLHEIGHT
 40
4.0
  9
$LOFTANG1
 40
1.570796326794897
  9
$LOFTANG2
 40
1.570796326794897
  9
$LOFTMAG1
 40
0.0
  9
$LOFTMAG2
 40
0.0
  9
$LOFTPARAM
 70
     7
  9
$LOFTNORMALS
280
     1
  9
$LATITUDE
 40
37.795
  9
$LONGITUDE
 40
-122.394
  9
$NORTHDIRECTION
 40
0.0
  9
$TIMEZONE
 70
 -8000
  9
$LIGHTGLYPHDISPLAY
280
     1
  9
$TILEMODELIGHTSYNCH
280
     1
  9
$CMATERIAL
347
44
  9
$SOLIDHIST
280
     0
  9
$SHOWHIST
280
     1
  9
$DWFFRAME
280
     2
  9
$DGNFRAME
280
     2
  9
$REALWORLDSCALE
290
     1
  9
$INTERFERECOLOR
 62
   256
  9
$CSHADOW
280
     0
  9
$SHADOWPLANELOCATION
 40
0.0
  0
ENDSEC
  0
SECTION
  2
CLASSES
  0
CLASS
  1
ACDBDICTIONARYWDFLT
  2
AcDbDictionaryWithDefault
  3
ObjectDBX Classes
 90
        0
 91
        4
280
     0
281
     0
  0
CLASS
  1
VISUALSTYLE
  2
AcDbVisualStyle
  3
ObjectDBX Classes
 90
     4095
 91
        4
280
     0
281
     0
  0
CLASS
  1
MATERIAL
  2
AcDbMaterial
  3
ObjectDBX Classes
 90
     1153
 91
        4
280
     0
281
     0
  0
CLASS
  1
SCALE
  2
AcDbScale
  3
ObjectDBX Classes
 90
     1153
 91
        4
280
     0
281
     0
  0
CLASS
  1
TABLESTYLE
  2
AcDbTableStyle
  3
ObjectDBX Classes
 90
     4095
 91
        4
280
     0
281
     0
  0
CLASS
  1
MLEADERSTYLE
  2
AcDbMLeaderStyle
  3
ACDB_MLEADERSTYLE_CLASS
 90
     4095
 91
        4
280
     0
281
     0
  0
CLASS
  1
SUN
  2
AcDbSun
  3
SCENEOE
 90
     1153
 91
        4
280
     0
281
     0
  0
CLASS
  1
DICTIONARYVAR
  2
AcDbDictionaryVar
  3
ObjectDBX Classes
 90
        0
 91
        4
280
     0
281
     0
  0
CLASS
  1
CELLSTYLEMAP
  2
AcDbCellStyleMap
  3
ObjectDBX Classes
 90
     1152
 91
        4
280
     0
281
     0
  0
ENDSEC
  0
SECTION
  2
TABLES
  0
TABLE
  2
VPORT
  5
8
330
0
100
AcDbSymbolTable
 70
     1
  0
VPORT
  5
29
330
8
100
AcDbSymbolTableRecord
100
AcDbViewportTableRecord
  2
*Active
 70
     0
 10
0.0
 20
0.0
 11
1.0
 21
1.0
 12
0.0
 22
-0.0519531249999998
 13
0.0
 23
0.0
 14
0.5
 24
0.5
 15
0.5
 25
0.5
 16
0.0
 26
0.0
 36
1.0
 17
0.0
 27
0.0
 37
0.0
 40
2.227265625
 41
2.118067978533094
 42
50.0
 43
0.0
 44
0.0
 50
0.0
 51
0.0
 71
     0
 72
   100
 73
     1
 74
     3
 75
     0
 76
     0
 77
     0
 78
     0
281
     0
 65
     1
110
0.0
120
0.0
130
0.0
111
1.0
121
0.0
131
0.0
112
0.0
122
1.0
132
0.0
 79
     0
146
0.0
348
2F
 60
     3
 61
     5
292
     1
282
     1
141
0.0
142
0.0
 63
   250
361
6D
  0
ENDTAB
  0
TABLE
  2
LTYPE
  5
5
330
0
100
AcDbSymbolTable
 70
     3
  0
LTYPE
  5
14
330
5
100
AcDbSymbolTableRecord
100
AcDbLinetypeTableRecord
  2
ByBlock
 70
     0
  3

 72
    65
 73
     0
 40
0.0
  0
LTYPE
  5
15
330
5
100
AcDbSymbolTableRecord
100
AcDbLinetypeTableRecord
  2
ByLayer
 70
     0
  3

 72
    65
 73
     0
 40
0.0
  0
LTYPE
  5
16
330
5
100
AcDbSymbolTableRecord
100
AcDbLinetypeTableRecord
  2
Continuous
 70
     0
  3
Solid line
 72
    65
 73
     0
 40
0.0
  0
LTYPE
  5
9E
330
5
100
AcDbSymbolTableRecord
100
AcDbLinetypeTableRecord
  2
Dashed
 70
     0
  3

 72
    65
 73
     2
 40
2.0
 49
1.0
 74
     0
 49
-1.0
 74
     0
  0
LTYPE
  5
111
330
5
100
AcDbSymbolTableRecord
100
AcDbLinetypeTableRecord
  2
Center
 70
     0
  3

 72
    65
 73
     4
 40
1.5
 49
0.45
 74
     0
 49
-0.5
 74
     0
 49
0.05
 74
     0
 49
-0.5
 74
     0
  0
ENDTAB
  0
TABLE
  2
LAYER
  5
2
330
0
100
AcDbSymbolTable
 70
     7
  0
LAYER
  5
10
330
2
100
AcDbSymbolTableRecord
100
AcDbLayerTableRecord
  2
0
 70
     0
 62
     7
  6
Continuous
370
    -3
390
F
347
46
348
0
  0
LAYER
  5
72
330
2
100
AcDbSymbolTableRecord
100
AcDbLayerTableRecord
  2
AM_6
 70
     0
 62
    -2
  6
Continuous
370
    35
390
F
347
46
348
0
  0
LAYER
  5
9F
330
2
100
AcDbSymbolTableRecord
100
AcDbLayerTableRecord
  2
AM_9
 70
     0
 62
     6
  6
Dashed
370
    25
390
F
347
46
348
0
  0
LAYER
  5
CD
330
2
100
AcDbSymbolTableRecord
100
AcDbLayerTableRecord
  2
AM_4
 70
     0
 62
     7
  6
Continuous
370
    50
390
F
347
46
348
0
  0
LAYER
  5
10E
330
2
100
AcDbSymbolTableRecord
100
AcDbLayerTableRecord
  2
AM_5
 70
     0
 62
     3
  6
Continuous
370
    25
390
F
347
46
348
0
  0
LAYER
  5
112
330
2
100
AcDbSymbolTableRecord
100
AcDbLayerTableRecord
  2
AM_7
 70
     0
 62
     7
  6
Center
370
    25
390
F
347
46
348
0
  0
LAYER
  5
1BB
330
2
100
AcDbSymbolTableRecord
100
AcDbLayerTableRecord
  2
ConnectionPoints
 70
     0
 62
     7
  6
Continuous
370
    50
390
F
347
46
348
0
  0
ENDTAB
  0
TABLE
  2
STYLE
  5
3
330
0
100
AcDbSymbolTable
 70
     1
  0
STYLE
  5
11
330
3
100
AcDbSymbolTableRecord
100
AcDbTextStyleTableRecord
  2
Standard
 70
     0
 40
0.0
 41
1.0
 50
0.0
 71
     0
 42
0.2
  3
txt
  4

  0
ENDTAB
  0
TABLE
  2
VIEW
  5
6
330
0
100
AcDbSymbolTable
 70
     0
  0
ENDTAB
  0
TABLE
  2
UCS
  5
7
330
0
100
AcDbSymbolTable
 70
     0
  0
ENDTAB
  0
TABLE
  2
APPID
  5
9
330
0
100
AcDbSymbolTable
 70
     1
  0
APPID
  5
12
330
9
100
AcDbSymbolTableRecord
100
AcDbRegAppTableRecord
  2
ACAD
 70
     0
  0
ENDTAB
  0
TABLE
  2
DIMSTYLE
  5
A
330
0
100
AcDbSymbolTable
 70
     1
100
AcDbDimStyleTable
  0
DIMSTYLE
105
27
330
A
100
AcDbSymbolTableRecord
100
AcDbDimStyleTableRecord
  2
Standard
 70
     0
178
     0
340
11
  0
ENDTAB
  0
TABLE
  2
BLOCK_RECORD
  5
1
330
0
100
AcDbSymbolTable
 70
     5
  0
BLOCK_RECORD
  5
1F
330
1
100
AcDbSymbolTableRecord
100
AcDbBlockTableRecord
  2
*Model_Space
340
22
 70
     0
280
     1
281
     0
  0
BLOCK_RECORD
  5
1B
330
1
100
AcDbSymbolTableRecord
100
AcDbBlockTableRecord
  2
*Paper_Space
340
1E
 70
     0
280
     1
281
     0
  0
BLOCK_RECORD
  5
23
330
1
100
AcDbSymbolTableRecord
100
AcDbBlockTableRecord
  2
*Paper_Space0
340
26
 70
     0
280
     1
281
     0
  0
BLOCK_RECORD
  5
6E
330
1
100
AcDbSymbolTableRecord
100
AcDbBlockTableRecord
  2
1_129298_4
340
0
102
{BLKREFS
331
6F
102
}
 70
     0
280
     1
281
     0
  0
BLOCK_RECORD
  5
88
330
1
100
AcDbSymbolTableRecord
100
AcDbBlockTableRecord
  2
2_INS_GT_07_CRI_0_in_129298_4
340
0
102
{BLKREFS
331
89
102
}
 70
     0
280
     1
281
     0
  0
BLOCK_RECORD
  5
CF
330
1
100
AcDbSymbolTableRecord
100
AcDbBlockTableRecord
  2
3_129972_0_in_129298_4
340
0
102
{BLKREFS
331
D0
102
}
 70
     0
280
     1
281
     0
  0
BLOCK_RECORD
  5
131
330
1
100
AcDbSymbolTableRecord
100
AcDbBlockTableRecord
  2
4_TB_GTEZ_07_PCRI_0_in_129298_4
340
0
102
{BLKREFS
331
132
102
}
 70
     0
280
     1
281
     0
  0
ENDTAB
  0
ENDSEC
  0
SECTION
  2
BLOCKS
  0
BLOCK
  5
20
330
1F
100
AcDbEntity
  8
0
100
AcDbBlockBegin
  2
*Model_Space
 70
     0
 10
0.0
 20
0.0
 30
0.0
  3
*Model_Space
  1

  0
ENDBLK
  5
21
330
1F
100
AcDbEntity
  8
0
100
AcDbBlockEnd
  0
BLOCK
  5
1C
330
1B
100
AcDbEntity
 67
     1
  8
0
100
AcDbBlockBegin
  2
*Paper_Space
 70
     0
 10
0.0
 20
0.0
 30
0.0
  3
*Paper_Space
  1

  0
ENDBLK
  5
1D
330
1B
100
AcDbEntity
 67
     1
  8
0
100
AcDbBlockEnd
  0
BLOCK
  5
24
330
23
100
AcDbEntity
  8
0
100
AcDbBlockBegin
  2
*Paper_Space0
 70
     0
 10
0.0
 20
0.0
 30
0.0
  3
*Paper_Space0
  1

  0
ENDBLK
  5
25
330
23
100
AcDbEntity
  8
0
100
AcDbBlockEnd
  0
BLOCK
  5
70
330
6E
100
AcDbEntity
  8
0
100
AcDbBlockBegin
  2
1_129298_4
 70
     2
 10
0.0
 20
0.0
 30
0.0
  3
1_129298_4
  1

  0
ATTDEF
  5
73
330
6E
100
AcDbEntity
  8
AM_6
100
AcDbText
 10
7.3125
 20
1.03984375
 30
0.0
 40
0.5
  1
Grip Tight Tapped Base - Polymer Housing, Corrosion Resisitant Insert  Inch Bore
100
AcDbAttributeDefinition
  3

  2
NN
 70
     8
280
     0
  0
ATTDEF
  5
74
330
6E
100
AcDbEntity
  8
AM_6
100
AcDbText
 10
7.3125
 20
0.53984375
 30
0.0
 40
0.5
  1
GTEZ Normal Duty Polymer Housed Tapped Base Pillow Blocks
100
AcDbAttributeDefinition
  3

  2
NT
 70
     8
280
     0
  0
ATTDEF
  5
75
330
6E
100
AcDbEntity
  8
AM_6
100
AcDbText
 10
7.3125
 20
0.03984375
 30
0.0
 40
0.5
  1
129298
100
AcDbAttributeDefinition
  3

  2
NB
 70
     8
280
     0
  0
ATTDEF
  5
76
330
6E
100
AcDbEntity
  8
AM_6
100
AcDbText
 10
7.3125
 20
-0.46015625
 30
0.0
 40
0.5
  1
$PN.$LUBE.
100
AcDbAttributeDefinition
  3

  2
NBSYN
 70
     8
280
     0
  0
ATTDEF
  5
77
330
6E
100
AcDbEntity
  8
AM_6
100
AcDbText
 10
7.3125
 20
-0.96015625
 30
0.0
 40
0.5
  1
129298
100
AcDbAttributeDefinition
  3

  2
LINA
 70
     8
280
     0
  0
ATTDEF
  5
78
330
6E
100
AcDbEntity
  8
AM_6
100
AcDbText
 10
7.3125
 20
-1.46015625
 30
0.0
 40
0.5
  1
207
100
AcDbAttributeDefinition
  3

  2
SERIES
 70
     8
280
     0
  0
ATTDEF
  5
79
330
6E
100
AcDbEntity
  8
AM_6
100
AcDbText
 10
7.3125
 20
-1.96015625
 30
0.0
 40
0.5
  1
1-1/4
100
AcDbAttributeDefinition
  3

  2
SS
 70
     8
280
     0
  0
ATTDEF
  5
7A
330
6E
100
AcDbEntity
  8
AM_6
100
AcDbText
 10
7.3125
 20
-2.46015625
 30
0.0
 40
0.5
  1
129298
100
AcDbAttributeDefinition
  3

  2
PN
 70
     8
280
     0
  0
ATTDEF
  5
7B
330
6E
100
AcDbEntity
  8
AM_6
100
AcDbText
 10
7.3125
 20
-2.96015625
 30
0.0
 40
0.5
  1
TB-GTEZ-104-PCR
100
AcDbAttributeDefinition
  3

  2
DESCRIPTION
 70
     8
280
     0
  0
ATTDEF
  5
7C
330
6E
100
AcDbEntity
  8
AM_6
100
AcDbText
 10
7.3125
 20
-3.46015625
 30
0.0
 40
0.5
  1
1-5/8
100
AcDbAttributeDefinition
  3

  2
A
 70
     8
280
     0
  0
ATTDEF
  5
7D
330
6E
100
AcDbEntity
  8
AM_6
100
AcDbText
 10
7.3125
 20
-3.96015625
 30
0.0
 40
0.5
  1
4-5/8
100
AcDbAttributeDefinition
  3

  2
B
 70
     8
280
     0
  0
ATTDEF
  5
7E
330
6E
100
AcDbEntity
  8
AM_6
100
AcDbText
 10
7.3125
 20
-4.46015625
 30
0.0
 40
0.5
  1
1-57/64
100
AcDbAttributeDefinition
  3

  2
C
 70
     8
280
     0
  0
ATTDEF
  5
7F
330
6E
100
AcDbEntity
  8
AM_6
100
AcDbText
 10
7.3125
 20
-4.96015625
 30
0.0
 40
0.5
  1
3-1/4
100
AcDbAttributeDefinition
  3

  2
D
 70
     8
280
     0
  0
ATTDEF
  5
80
330
6E
100
AcDbEntity
  8
AM_6
100
AcDbText
 10
7.3125
 20
-5.46015625
 30
0.0
 40
0.5
  1
3-53/64
100
AcDbAttributeDefinition
  3

  2
J
 70
     8
280
     0
  0
ATTDEF
  5
81
330
6E
100
AcDbEntity
  8
AM_6
100
AcDbText
 10
7.3125
 20
-5.96015625
 30
0.0
 40
0.5
  1
2-19/64
100
AcDbAttributeDefinition
  3

  2
L
 70
     8
280
     0
  0
ATTDEF
  5
82
330
6E
100
AcDbEntity
  8
AM_6
100
AcDbText
 10
7.3125
 20
-6.46015625
 30
0.0
 40
0.5
  1
1-7/8
100
AcDbAttributeDefinition
  3

  2
M
 70
     8
280
     0
  0
ATTDEF
  5
83
330
6E
100
AcDbEntity
  8
AM_6
100
AcDbText
 10
7.3125
 20
-6.96015625
 30
0.0
 40
0.5
  1
35/64
100
AcDbAttributeDefinition
  3

  2
N
 70
     8
280
     0
  0
ATTDEF
  5
84
330
6E
100
AcDbEntity
  8
AM_6
100
AcDbText
 10
7.3125
 20
-7.46015625
 30
0.0
 40
0.5
  1
1/2-13
100
AcDbAttributeDefinition
  3

  2
R
 70
     8
280
     0
  0
ATTDEF
  5
85
330
6E
100
AcDbEntity
  8
AM_6
100
AcDbText
 10
7.3125
 20
-7.96015625
 30
0.0
 40
0.5
  1
1-1/16
100
AcDbAttributeDefinition
  3

  2
S
 70
     8
280
     0
  0
ATTDEF
  5
86
330
6E
100
AcDbEntity
  8
AM_6
100
AcDbText
 10
7.3125
 20
-8.46015625
 30
0.0
 40
0.5
  1
1-3/64
100
AcDbAttributeDefinition
  3

  2
Z
 70
     8
280
     0
  0
ATTDEF
  5
87
330
6E
100
AcDbEntity
  8
AM_6
100
AcDbText
 10
7.3125
 20
-8.96015625
 30
0.0
 40
0.5
  1
baldor
100
AcDbAttributeDefinition
  3

  2
COMPANY
 70
     8
280
     0
  0
INSERT
  5
89
330
6E
100
AcDbEntity
  8
0
100
AcDbBlockReference
  2
2_INS_GT_07_CRI_0_in_129298_4
 10
0.0
 20
0.0
 30
0.0
  0
INSERT
  5
D0
330
6E
100
AcDbEntity
  8
0
100
AcDbBlockReference
  2
3_129972_0_in_129298_4
 10
0.0
 20
0.0
 30
0.0
  0
INSERT
  5
132
330
6E
100
AcDbEntity
  8
0
100
AcDbBlockReference
  2
4_TB_GTEZ_07_PCRI_0_in_129298_4
 10
0.0
 20
0.0
 30
0.0
  0
ENDBLK
  5
71
330
6E
100
AcDbEntity
  8
0
100
AcDbBlockEnd
  0
BLOCK
  5
8A
330
88
100
AcDbEntity
  8
0
100
AcDbBlockBegin
  2
2_INS_GT_07_CRI_0_in_129298_4
 70
     2
 10
0.0
 20
0.0
 30
0.0
  3
2_INS_GT_07_CRI_0_in_129298_4
  1

  0
ATTDEF
  5
8C
330
88
100
AcDbEntity
  8
AM_6
100
AcDbText
 10
6.417270403970566
 20
0.50625
 30
0.0
 40
0.5
  1
INS-GT-CR-I
100
AcDbAttributeDefinition
  3

  2
NN
 70
     8
280
     0
  0
ATTDEF
  5
8D
330
88
100
AcDbEntity
  8
AM_6
100
AcDbText
 10
6.417270403970566
 20
0.00625
 30
0.0
 40
0.5
  1
GT Normal Duty Corrosion Resistant Bearing Inserts
100
AcDbAttributeDefinition
  3

  2
NT
 70
     8
280
     0
  0
ATTDEF
  5
8E
330
88
100
AcDbEntity
  8
AM_6
100
AcDbText
 10
6.417270403970566
 20
-0.49375
 30
0.0
 40
0.5
  1
INS-GT-07-CRI
100
AcDbAttributeDefinition
  3

  2
NB
 70
     8
280
     0
  0
ATTDEF
  5
8F
330
88
100
AcDbEntity
  8
AM_6
100
AcDbText
 10
6.417270403970566
 20
-0.99375
 30
0.0
 40
0.5
  1
$PN.I
100
AcDbAttributeDefinition
  3

  2
NBSYN
 70
     8
280
     0
  0
ATTDEF
  5
90
330
88
100
AcDbEntity
  8
AM_6
100
AcDbText
 10
6.417270403970566
 20
-1.49375
 30
0.0
 40
0.5
  1
INS-GT-07-CR
100
AcDbAttributeDefinition
  3

  2
LINA
 70
     8
280
     0
  0
ATTDEF
  5
91
330
88
100
AcDbEntity
  8
AM_6
100
AcDbText
 10
6.417270403970566
 20
-1.99375
 30
0.0
 40
0.5
  1
207
100
AcDbAttributeDefinition
  3

  2
SERIES
 70
     8
280
     0
  0
ATTDEF
  5
92
330
88
100
AcDbEntity
  8
AM_6
100
AcDbText
 10
6.417270403970566
 20
-2.49375
 30
0.0
 40
0.5
  1
INS-GT-07-CR
100
AcDbAttributeDefinition
  3

  2
PN
 70
     8
280
     0
  0
ATTDEF
  5
93
330
88
100
AcDbEntity
  8
AM_6
100
AcDbText
 10
6.417270403970566
 20
-2.99375
 30
0.0
 40
0.5
  1
INS-GT-07-CR
100
AcDbAttributeDefinition
  3

  2
DESCRIPTION
 70
     8
280
     0
  0
ATTDEF
  5
94
330
88
100
AcDbEntity
  8
AM_6
100
AcDbText
 10
6.417270403970566
 20
-3.49375
 30
0.0
 40
0.5
  1
1-5/8
100
AcDbAttributeDefinition
  3

  2
A
 70
     8
280
     0
  0
ATTDEF
  5
95
330
88
100
AcDbEntity
  8
AM_6
100
AcDbText
 10
6.417270403970566
 20
-3.99375
 30
0.0
 40
0.5
  1
0.7480
100
AcDbAttributeDefinition
  3

  2
C
 70
     8
280
     0
  0
ATTDEF
  5
96
330
88
100
AcDbEntity
  8
AM_6
100
AcDbText
 10
6.417270403970566
 20
-4.49375
 30
0.0
 40
0.5
  1
2.8346
100
AcDbAttributeDefinition
  3

  2
D
 70
     8
280
     0
  0
ATTDEF
  5
97
330
88
100
AcDbEntity
  8
AM_6
100
AcDbText
 10
6.417270403970566
 20
-4.99375
 30
0.0
 40
0.5
  1
0.202
100
AcDbAttributeDefinition
  3

  2
J
 70
     8
280
     0
  0
ATTDEF
  5
98
330
88
100
AcDbEntity
  8
AM_6
100
AcDbText
 10
6.417270403970566
 20
-5.49375
 30
0.0
 40
0.5
  1
2-19/64
100
AcDbAttributeDefinition
  3

  2
L
 70
     8
280
     0
  0
ATTDEF
  5
99
330
88
100
AcDbEntity
  8
AM_6
100
AcDbText
 10
6.417270403970566
 20
-5.99375
 30
0.0
 40
0.5
  1
10 - 32 x 1/4
100
AcDbAttributeDefinition
  3

  2
N
 70
     8
280
     0
  0
ATTDEF
  5
9A
330
88
100
AcDbEntity
  8
AM_6
100
AcDbText
 10
6.417270403970566
 20
-6.49375
 30
0.0
 40
0.5
  1
9/16
100
AcDbAttributeDefinition
  3

  2
W
 70
     8
280
     0
  0
ATTDEF
  5
9B
330
88
100
AcDbEntity
  8
AM_6
100
AcDbText
 10
6.417270403970566
 20
-6.99375
 30
0.0
 40
0.5
  1
1-3/64
100
AcDbAttributeDefinition
  3

  2
X
 70
     8
280
     0
  0
ATTDEF
  5
9C
330
88
100
AcDbEntity
  8
AM_6
100
AcDbText
 10
6.417270403970566
 20
-7.49375
 30
0.0
 40
0.5
  1
1-1/16
100
AcDbAttributeDefinition
  3

  2
Y
 70
     8
280
     0
  0
ATTDEF
  5
9D
330
88
100
AcDbEntity
  8
AM_6
100
AcDbText
 10
6.417270403970566
 20
-7.99375
 30
0.0
 40
0.5
  1
baldor
100
AcDbAttributeDefinition
  3

  2
COMPANY
 70
     8
280
     0
  0
LINE
  5
A0
330
88
100
AcDbEntity
  8
AM_9
100
AcDbLine
 10
-1.0208333333333
 20
-0.75523558523305
 30
0.0
 11
-0.99091333333333
 21
-0.78515558523305
 31
0.0
  0
LINE
  5
A1
330
88
100
AcDbEntity
  8
AM_9
100
AcDbLine
 10
0.99091333333333
 20
-0.78515558523305
 30
0.0
 11
1.0208333333333
 21
-0.75523558523305
 31
0.0
  0
LINE
  5
A2
330
88
100
AcDbEntity
  8
AM_9
100
AcDbLine
 10
-1.0208333333333
 20
-0.65429621023305
 30
0.0
 11
-1.0208333333333
 21
-0.75523558523305
 31
0.0
  0
LINE
  5
A3
330
88
100
AcDbEntity
  8
AM_9
100
AcDbLine
 10
1.0208333333333
 20
-0.75523558523305
 30
0.0
 11
1.0208333333333
 21
-0.65429621023305
 31
0.0
  0
LINE
  5
A4
330
88
100
AcDbEntity
  8
AM_9
100
AcDbLine
 10
-0.93880205052083
 20
-0.52343683523305
 30
0.0
 11
-0.93880205052083
 21
-0.65429621023305
 31
0.0
  0
LINE
  5
A5
330
88
100
AcDbEntity
  8
AM_9
100
AcDbLine
 10
0.93880205052083
 20
-0.65429621023305
 30
0.0
 11
0.93880205052083
 21
-0.52343683523305
 31
0.0
  0
LINE
  5
A6
330
88
100
AcDbEntity
  8
AM_9
100
AcDbLine
 10
-1.0208333333333
 20
-0.374
 30
0.0
 11
-1.0208333333333
 21
-0.52343683523305
 31
0.0
  0
LINE
  5
A7
330
88
100
AcDbEntity
  8
AM_9
100
AcDbLine
 10
1.0208333333333
 20
-0.52343683523305
 30
0.0
 11
1.0208333333333
 21
-0.374
 31
0.0
  0
ARC
  5
A8
330
88
100
AcDbEntity
  8
AM_9
100
AcDbCircle
 10
1.32232663738909
 20
-0.3440799999999422
 30
0.0
 40
0.0299200000000578
100
AcDbArc
 50
270.0
 51
338.5875329530498
  0
ARC
  5
A9
330
88
100
AcDbEntity
  8
AM_9
100
AcDbCircle
 10
-1.32232663738909
 20
-0.3440799999999422
 30
0.0
 40
0.0299200000000578
100
AcDbArc
 50
201.4124670469502
 51
270.0
  0
ARC
  5
AA
330
88
100
AcDbEntity
  8
AM_9
100
AcDbCircle
 10
0.4448999999401052
 20
0.0000000000200254
 30
0.0
 40
0.9724000000630684
100
AcDbArc
 50
338.587532953306
 51
344.9913735009552
  0
ARC
  5
AB
330
88
100
AcDbEntity
  8
AM_9
100
AcDbCircle
 10
-0.4448999999600773
 20
0.0000000000134541
 30
0.0
 40
0.9724000000420757
100
AcDbArc
 50
195.0086264989756
 51
201.4124670467631
  0
ARC
  5
AC
330
88
100
AcDbEntity
  8
AM_9
100
AcDbCircle
 10
1.376903536474015
 20
-0.2498799999999951
 30
0.0
 40
0.0074799999999952
100
AcDbArc
 50
344.9913811387371
 51
90.0
  0
ARC
  5
AD
330
88
100
AcDbEntity
  8
AM_9
100
AcDbCircle
 10
-1.376903536474015
 20
-0.2498799999999952
 30
0.0
 40
0.0074799999999952
100
AcDbArc
 50
90.0
 51
195.0086188612627
  0
LINE
  5
AE
330
88
100
AcDbEntity
  8
AM_9
100
AcDbLine
 10
-1.3425
 20
-0.1616
 30
0.0
 11
-1.3425
 21
-0.2424
 31
0.0
  0
LINE
  5
AF
330
88
100
AcDbEntity
  8
AM_9
100
AcDbLine
 10
1.3425
 20
-0.2424
 30
0.0
 11
1.3425
 21
-0.1616
 31
0.0
  0
ARC
  5
B0
330
88
100
AcDbEntity
  8
AM_9
100
AcDbCircle
 10
1.397432220977332
 20
-0.1541199999999794
 30
0.0
 40
0.0074800000000206
100
AcDbArc
 50
270.0
 51
350.8091764945891
  0
ARC
  5
B1
330
88
100
AcDbEntity
  8
AM_9
100
AcDbCircle
 10
-1.397432220977332
 20
-0.1541199999999794
 30
0.0
 40
0.0074800000000205
100
AcDbArc
 50
189.1908235054108
 51
270.0
  0
ARC
  5
B2
330
88
100
AcDbEntity
  8
AM_9
100
AcDbCircle
 10
0.4449000000006182
 20
0.0000000000000188
 30
0.0
 40
0.9723999999994144
100
AcDbArc
 50
350.8091764947127
 51
21.41246704689612
  0
ARC
  5
B3
330
88
100
AcDbEntity
  8
AM_9
100
AcDbCircle
 10
-0.4449000000004033
 20
-0.0000000000000043
 30
0.0
 40
0.972399999999623
100
AcDbArc
 50
158.5875329531073
 51
189.190823505284
  0
ARC
  5
B4
330
88
100
AcDbEntity
  8
AM_9
100
AcDbCircle
 10
1.32232663738909
 20
0.3440799999999422
 30
0.0
 40
0.0299200000000578
100
AcDbArc
 50
21.41246704695019
 51
90.0
  0
ARC
  5
B5
330
88
100
AcDbEntity
  8
AM_9
100
AcDbCircle
 10
-1.32232663738909
 20
0.3440799999999422
 30
0.0
 40
0.0299200000000578
100
AcDbArc
 50
90.0
 51
158.5875329530498
  0
LINE
  5
B6
330
88
100
AcDbEntity
  8
AM_9
100
AcDbLine
 10
-1.0208333333333
 20
0.47633
 30
0.0
 11
-1.0208333333333
 21
0.374
 31
0.0
  0
LINE
  5
B7
330
88
100
AcDbEntity
  8
AM_9
100
AcDbLine
 10
1.0208333333333
 20
0.374
 30
0.0
 11
1.0208333333333
 21
0.47633
 31
0.0
  0
LINE
  5
B8
330
88
100
AcDbEntity
  8
AM_9
100
AcDbLine
 10
-0.99091333333333
 20
0.50625
 30
0.0
 11
-1.0208333333333
 21
0.47633
 31
0.0
  0
LINE
  5
B9
330
88
100
AcDbEntity
  8
AM_9
100
AcDbLine
 10
1.0208333333333
 20
0.47633
 30
0.0
 11
0.99091333333333
 21
0.50625
 31
0.0
  0
LINE
  5
BA
330
88
100
AcDbEntity
  8
AM_9
100
AcDbLine
 10
-0.88815851425998
 20
0.50625
 30
0.0
 11
-0.85677076770833
 21
-0.39257746023304
 31
0.0
  0
LINE
  5
BB
330
88
100
AcDbEntity
  8
AM_9
100
AcDbLine
 10
0.85677076770833
 20
-0.39257746023304
 30
0.0
 11
0.88815851425998
 21
0.50625
 31
0.0
  0
LINE
  5
BC
330
88
100
AcDbEntity
  8
AM_9
100
AcDbLine
 10
-0.85677076770833
 20
-0.39257746023304
 30
0.0
 11
-0.85677076770833
 21
-0.78515558523305
 31
0.0
  0
LINE
  5
BD
330
88
100
AcDbEntity
  8
AM_9
100
AcDbLine
 10
0.85677076770833
 20
-0.78515558523305
 30
0.0
 11
0.85677076770833
 21
-0.39257746023304
 31
0.0
  0
LINE
  5
BE
330
88
100
AcDbEntity
  8
AM_9
100
AcDbLine
 10
-0.99091333333333
 20
-0.78515558523305
 30
0.0
 11
0.99091333333333
 21
-0.78515558523305
 31
0.0
  0
LINE
  5
BF
330
88
100
AcDbEntity
  8
AM_9
100
AcDbLine
 10
-1.0208333333333
 20
-0.75523558523305
 30
0.0
 11
1.0208333333333
 21
-0.75523558523305
 31
0.0
  0
LINE
  5
C0
330
88
100
AcDbEntity
  8
AM_9
100
AcDbLine
 10
-1.0208333333333
 20
-0.65429621023305
 30
0.0
 11
1.0208333333333
 21
-0.65429621023305
 31
0.0
  0
LINE
  5
C1
330
88
100
AcDbEntity
  8
AM_9
100
AcDbLine
 10
-1.0208333333333
 20
-0.52343683523305
 30
0.0
 11
1.0208333333333
 21
-0.52343683523305
 31
0.0
  0
LINE
  5
C2
330
88
100
AcDbEntity
  8
AM_9
100
AcDbLine
 10
-1.3223266373891
 20
-0.374
 30
0.0
 11
1.3223266373891
 21
-0.374
 31
0.0
  0
LINE
  5
C3
330
88
100
AcDbEntity
  8
AM_9
100
AcDbLine
 10
-1.3501814512745
 20
-0.35500317460317
 30
0.0
 11
1.3501814512745
 21
-0.35500317460317
 31
0.0
  0
LINE
  5
C4
330
88
100
AcDbEntity
  8
AM_9
100
AcDbLine
 10
-1.3841283703503
 20
-0.25181705329302
 30
0.0
 11
1.3841283703503
 21
-0.25181705329302
 31
0.0
  0
LINE
  5
C5
330
88
100
AcDbEntity
  8
AM_9
100
AcDbLine
 10
-1.376903536474
 20
-0.2424
 30
0.0
 11
1.376903536474
 21
-0.2424
 31
0.0
  0
LINE
  5
C6
330
88
100
AcDbEntity
  8
AM_9
100
AcDbLine
 10
-1.3974322209773
 20
-0.1616
 30
0.0
 11
1.3974322209773
 21
-0.1616
 31
0.0
  0
LINE
  5
C7
330
88
100
AcDbEntity
  8
AM_9
100
AcDbLine
 10
-1.4048161916826
 20
-0.15531472868217
 30
0.0
 11
1.4048161916826
 21
-0.15531472868217
 31
0.0
  0
LINE
  5
C8
330
88
100
AcDbEntity
  8
AM_9
100
AcDbLine
 10
-1.3501814512745
 20
0.35500317460317
 30
0.0
 11
1.3501814512745
 21
0.35500317460317
 31
0.0
  0
LINE
  5
C9
330
88
100
AcDbEntity
  8
AM_9
100
AcDbLine
 10
-1.3223266373891
 20
0.374
 30
0.0
 11
1.3223266373891
 21
0.374
 31
0.0
  0
LINE
  5
CA
330
88
100
AcDbEntity
  8
AM_9
100
AcDbLine
 10
-1.0208333333333
 20
0.47633
 30
0.0
 11
1.0208333333333
 21
0.47633
 31
0.0
  0
LINE
  5
CB
330
88
100
AcDbEntity
  8
AM_9
100
AcDbLine
 10
-0.99091333333333
 20
0.50625
 30
0.0
 11
0.99091333333333
 21
0.50625
 31
0.0
  0
LINE
  5
CC
330
88
100
AcDbEntity
  8
AM_9
100
AcDbLine
 10
-0.85677076770833
 20
-0.39257746023304
 30
0.0
 11
0.85677076770833
 21
-0.39257746023304
 31
0.0
  0
LINE
  5
CE
330
88
100
AcDbEntity
  8
AM_4
100
AcDbLine
 10
0.66975667941284
 20
0.50625
 30
0.0
 11
-0.66975667941284
 21
0.50625
 31
0.0
  0
ENDBLK
  5
8B
330
88
100
AcDbEntity
  8
0
100
AcDbBlockEnd
  0
BLOCK
  5
D1
330
CF
100
AcDbEntity
  8
0
100
AcDbBlockBegin
  2
3_129972_0_in_129298_4
 70
     2
 10
0.0
 20
0.0
 30
0.0
  3
3_129972_0_in_129298_4
  1

  0
ATTDEF
  5
D3
330
CF
100
AcDbEntity
  8
AM_6
100
AcDbText
 10
6.143987627296
 20
0.5625
 30
0.0
 40
0.5
  1
Grip Tight Adapter and Nut - Corrosion Resistant Inch Bore
100
AcDbAttributeDefinition
  3

  2
NN
 70
     8
280
     0
  0
ATTDEF
  5
D4
330
CF
100
AcDbEntity
  8
AM_6
100
AcDbText
 10
6.143987627296
 20
0.0625
 30
0.0
 40
0.5
  1
GT and GTM Adapter & Lock Nut Assemblies
100
AcDbAttributeDefinition
  3

  2
NT
 70
     8
280
     0
  0
ATTDEF
  5
D5
330
CF
100
AcDbEntity
  8
AM_6
100
AcDbText
 10
6.143987627296
 20
-0.4375
 30
0.0
 40
0.5
  1
129972
100
AcDbAttributeDefinition
  3

  2
NB
 70
     8
280
     0
  0
ATTDEF
  5
D6
330
CF
100
AcDbEntity
  8
AM_6
100
AcDbText
 10
6.143987627296
 20
-0.9375
 30
0.0
 40
0.5
  1
$PN.
100
AcDbAttributeDefinition
  3

  2
NBSYN
 70
     8
280
     0
  0
ATTDEF
  5
D7
330
CF
100
AcDbEntity
  8
AM_6
100
AcDbText
 10
6.143987627296
 20
-1.4375
 30
0.0
 40
0.5
  1
129972
100
AcDbAttributeDefinition
  3

  2
LINA
 70
     8
280
     0
  0
ATTDEF
  5
D8
330
CF
100
AcDbEntity
  8
AM_6
100
AcDbText
 10
6.143987627296
 20
-1.9375
 30
0.0
 40
0.5
  1
207
100
AcDbAttributeDefinition
  3

  2
SERIES
 70
     8
280
     0
  0
ATTDEF
  5
D9
330
CF
100
AcDbEntity
  8
AM_6
100
AcDbText
 10
6.143987627296
 20
-2.4375
 30
0.0
 40
0.5
  1
1-1/4
100
AcDbAttributeDefinition
  3

  2
SS
 70
     8
280
     0
  0
ATTDEF
  5
DA
330
CF
100
AcDbEntity
  8
AM_6
100
AcDbText
 10
6.143987627296
 20
-2.9375
 30
0.0
 40
0.5
  1
129972
100
AcDbAttributeDefinition
  3

  2
PN
 70
     8
280
     0
  0
ATTDEF
  5
DB
330
CF
100
AcDbEntity
  8
AM_6
100
AcDbText
 10
6.143987627296
 20
-3.4375
 30
0.0
 40
0.5
  1
AN-GT-07-104-CR
100
AcDbAttributeDefinition
  3

  2
DESCRIPTION
 70
     8
280
     0
  0
ATTDEF
  5
DC
330
CF
100
AcDbEntity
  8
AM_6
100
AcDbText
 10
6.143987627296
 20
-3.9375
 30
0.0
 40
0.5
  1
1-5/8
100
AcDbAttributeDefinition
  3

  2
A
 70
     8
280
     0
  0
ATTDEF
  5
DD
330
CF
100
AcDbEntity
  8
AM_6
100
AcDbText
 10
6.143987627296
 20
-4.4375
 30
0.0
 40
0.5
  1
0.7480
100
AcDbAttributeDefinition
  3

  2
C
 70
     8
280
     0
  0
ATTDEF
  5
DE
330
CF
100
AcDbEntity
  8
AM_6
100
AcDbText
 10
6.143987627296
 20
-4.9375
 30
0.0
 40
0.5
  1
2.8346
100
AcDbAttributeDefinition
  3

  2
D
 70
     8
280
     0
  0
ATTDEF
  5
DF
330
CF
100
AcDbEntity
  8
AM_6
100
AcDbText
 10
6.143987627296
 20
-5.4375
 30
0.0
 40
0.5
  1
0.202
100
AcDbAttributeDefinition
  3

  2
J
 70
     8
280
     0
  0
ATTDEF
  5
E0
330
CF
100
AcDbEntity
  8
AM_6
100
AcDbText
 10
6.143987627296
 20
-5.9375
 30
0.0
 40
0.5
  1
2-19/64
100
AcDbAttributeDefinition
  3

  2
L
 70
     8
280
     0
  0
ATTDEF
  5
E1
330
CF
100
AcDbEntity
  8
AM_6
100
AcDbText
 10
6.143987627296
 20
-6.4375
 30
0.0
 40
0.5
  1
10 - 32 x 1/4
100
AcDbAttributeDefinition
  3

  2
N
 70
     8
280
     0
  0
ATTDEF
  5
E2
330
CF
100
AcDbEntity
  8
AM_6
100
AcDbText
 10
6.143987627296
 20
-6.9375
 30
0.0
 40
0.5
  1
9/16
100
AcDbAttributeDefinition
  3

  2
W
 70
     8
280
     0
  0
ATTDEF
  5
E3
330
CF
100
AcDbEntity
  8
AM_6
100
AcDbText
 10
6.143987627296
 20
-7.4375
 30
0.0
 40
0.5
  1
1-3/64
100
AcDbAttributeDefinition
  3

  2
X
 70
     8
280
     0
  0
ATTDEF
  5
E4
330
CF
100
AcDbEntity
  8
AM_6
100
AcDbText
 10
6.143987627296
 20
-7.9375
 30
0.0
 40
0.5
  1
1-1/16
100
AcDbAttributeDefinition
  3

  2
Y
 70
     8
280
     0
  0
ATTDEF
  5
E5
330
CF
100
AcDbEntity
  8
AM_6
100
AcDbText
 10
6.143987627296
 20
-8.4375
 30
0.0
 40
0.5
  1
baldor
100
AcDbAttributeDefinition
  3

  2
COMPANY
 70
     8
280
     0
  0
LINE
  5
E6
330
CF
100
AcDbEntity
  8
AM_9
100
AcDbLine
 10
-0.93880208333333
 20
-0.5234375
 30
0.0
 11
-0.93880208333333
 21
-0.654296875
 31
0.0
  0
LINE
  5
E7
330
CF
100
AcDbEntity
  8
AM_9
100
AcDbLine
 10
0.93880208333333
 20
-0.654296875
 30
0.0
 11
0.93880208333333
 21
-0.5234375
 31
0.0
  0
LINE
  5
E8
330
CF
100
AcDbEntity
  8
AM_9
100
AcDbLine
 10
-1.0208333333333
 20
-0.654296875
 30
0.0
 11
-1.0208333333333
 21
-0.78515625
 31
0.0
  0
LINE
  5
E9
330
CF
100
AcDbEntity
  8
AM_9
100
AcDbLine
 10
1.0208333333333
 20
-0.78515625
 30
0.0
 11
1.0208333333333
 21
-0.654296875
 31
0.0
  0
LINE
  5
EA
330
CF
100
AcDbEntity
  8
AM_9
100
AcDbLine
 10
-1.1185175
 20
-0.5234375
 30
0.0
 11
-1.1484375
 21
-0.5533575
 31
0.0
  0
LINE
  5
EB
330
CF
100
AcDbEntity
  8
AM_9
100
AcDbLine
 10
-1.1484375
 20
-0.5533575
 30
0.0
 11
-1.1484375
 21
-0.56493167484703
 31
0.0
  0
LINE
  5
EC
330
CF
100
AcDbEntity
  8
AM_9
100
AcDbLine
 10
-1.1314375
 20
-0.85908349166034
 30
0.0
 11
-1.1484375
 21
-0.84208349166034
 31
0.0
  0
LINE
  5
ED
330
CF
100
AcDbEntity
  8
AM_9
100
AcDbLine
 10
-1.1408732541699
 20
-1.0245192458302
 30
0.0
 11
-1.1314375
 21
-1.0150834916603
 31
0.0
  0
LINE
  5
EE
330
CF
100
AcDbEntity
  8
AM_9
100
AcDbLine
 10
-0.878328125
 20
-0.85908349166034
 30
0.0
 11
-1.1314375
 21
-0.85908349166034
 31
0.0
  0
LINE
  5
EF
330
CF
100
AcDbEntity
  8
AM_9
100
AcDbLine
 10
-1.1314375
 20
-1.0150834916603
 30
0.0
 11
-0.878328125
 21
-1.0150834916603
 31
0.0
  0
LINE
  5
F0
330
CF
100
AcDbEntity
  8
AM_9
100
AcDbLine
 10
-0.861328125
 20
-0.84208349166034
 30
0.0
 11
-0.878328125
 21
-0.85908349166034
 31
0.0
  0
LINE
  5
F1
330
CF
100
AcDbEntity
  8
AM_9
100
AcDbLine
 10
-0.878328125
 20
-1.0150834916603
 30
0.0
 11
-0.861328125
 21
-1.0320834916603
 31
0.0
  0
LINE
  5
F2
330
CF
100
AcDbEntity
  8
AM_9
100
AcDbLine
 10
-0.625
 20
0.5625
 30
0.0
 11
-0.625
 21
-1.0625
 31
0.0
  0
LINE
  5
F3
330
CF
100
AcDbEntity
  8
AM_9
100
AcDbLine
 10
0.625
 20
-1.0625
 30
0.0
 11
0.625
 21
0.5625
 31
0.0
  0
LINE
  5
F4
330
CF
100
AcDbEntity
  8
AM_9
100
AcDbLine
 10
-0.88887116306977
 20
0.52665504779769
 30
0.0
 11
-0.85677083333333
 21
-0.392578125
 31
0.0
  0
LINE
  5
F5
330
CF
100
AcDbEntity
  8
AM_9
100
AcDbLine
 10
0.85677083333333
 20
-0.392578125
 30
0.0
 11
0.88887116306977
 21
0.52665504779769
 31
0.0
  0
LINE
  5
F6
330
CF
100
AcDbEntity
  8
AM_9
100
AcDbLine
 10
-0.85677083333333
 20
-0.392578125
 30
0.0
 11
-0.85677083333333
 21
-0.78515625
 31
0.0
  0
LINE
  5
F7
330
CF
100
AcDbEntity
  8
AM_9
100
AcDbLine
 10
0.85677083333333
 20
-0.78515625
 30
0.0
 11
0.85677083333333
 21
-0.392578125
 31
0.0
  0
LINE
  5
F8
330
CF
100
AcDbEntity
  8
AM_9
100
AcDbLine
 10
-0.48452524786575
 20
-0.5533575
 30
0.0
 11
1.143987627296
 21
-0.5533575
 31
0.0
  0
LINE
  5
F9
330
CF
100
AcDbEntity
  8
AM_9
100
AcDbLine
 10
-1.0208333333333
 20
-0.654296875
 30
0.0
 11
1.0208333333333
 21
-0.654296875
 31
0.0
  0
LINE
  5
FA
330
CF
100
AcDbEntity
  8
AM_9
100
AcDbLine
 10
-1.1185175
 20
-0.5234375
 30
0.0
 11
1.1139481127082
 21
-0.5234375
 31
0.0
  0
LINE
  5
FB
330
CF
100
AcDbEntity
  8
AM_9
100
AcDbLine
 10
1.143987627296
 20
-0.5533575
 30
0.0
 11
1.143987627296
 21
-1.016955
 31
0.0
  0
LINE
  5
FC
330
CF
100
AcDbEntity
  8
AM_9
100
AcDbLine
 10
1.143987627296
 20
-0.5533575
 30
0.0
 11
1.1139481127082
 21
-0.5234375
 31
0.0
  0
LINE
  5
FD
330
CF
100
AcDbEntity
  8
AM_9
100
AcDbLine
 10
1.0718748055309
 20
-0.5234375
 30
0.0
 11
1.0718748055309
 21
-1.046875
 31
0.0
  0
LINE
  5
FE
330
CF
100
AcDbEntity
  8
AM_9
100
AcDbLine
 10
-0.4484688369832
 20
-0.5234375
 30
0.0
 11
-0.4484688369832
 21
-1.046875
 31
0.0
  0
LINE
  5
FF
330
CF
100
AcDbEntity
  8
AM_9
100
AcDbLine
 10
-1.1484375
 20
-0.5533575
 30
0.0
 11
-0.65946237943021
 21
-0.5533575
 31
0.0
  0
LINE
  5
100
330
CF
100
AcDbEntity
  8
AM_9
100
AcDbLine
 10
-1.1473727865
 20
-1.016955
 30
0.0
 11
-1.1461049471504
 21
-0.99396155630596
 31
0.0
  0
LINE
  5
101
330
CF
100
AcDbEntity
  8
AM_9
100
AcDbLine
 10
-1.1461049471504
 20
-0.99396155630596
 30
0.0
 11
-1.1453486552472
 21
-0.97399570006465
 31
0.0
  0
LWPOLYLINE
  5
102
330
CF
100
AcDbEntity
  8
AM_9
100
AcDbPolyline
 90
      131
 70
     0
 43
0.0
 10
-1.1453486552472
 20
-0.97399570006465
 10
-1.1453296407429
 20
-0.97335276361922
 10
-1.1452924552799
 20
-0.97206133499442
 10
-1.1452564236624
 20
-0.97076285145792
 10
-1.1452388511658
 20
-0.97011109964424
 10
-1.1452215797142
 20
-0.96945774880722
 10
-1.145187955936
 20
-0.96814647894495
 10
-1.1451555833725
 20
-0.96682950888005
 10
-1.1451244914845
 20
-0.96550731967436
 10
-1.1450947080288
 20
-0.96418040537805
 10
-1.1450662589452
 20
-0.96284927195651
 10
-1.1450525423764
 20
-0.9621822841804
 10
-1.145039168252
 20
-0.9615144362105
 10
-1.1450134579505
 20
-0.96017642469092
 10
-1.1449891479367
 20
-0.95883577260897
 10
-1.1449662559238
 20
-0.95749302274207
 10
-1.1449447973727
 20
-0.95614872433529
 10
-1.1449247854318
 20
-0.9548034319977
 10
-1.1449153254045
 20
-0.95413058761396
 10
-1.1449062308876
 20
-0.95345770459264
 10
-1.1448891421232
 20
-0.95211210412052
 10
-1.1448735250884
 20
-0.95076719459227
 10
-1.1448662696579
 20
-0.95009517545553
 10
-1.1448593832778
 20
-0.9494235408915
 10
-1.1448467177209
 20
-0.94808170762263
 10
-1.1448355269804
 20
-0.9467422579425
 10
-1.1448304835448
 20
-0.94607360224694
 10
-1.1448258071618
 20
-0.94540575237212
 10
-1.1448175519328
 20
-0.94407274758527
 10
-1.1448107525526
 20
-0.94274379517019
 10
-1.144805397912
 20
-0.94141944036028
 10
-1.1448014745836
 20
-0.94010022072956
 10
-1.1447989668821
 20
-0.93878666484809
 10
-1.1447982383897
 20
-0.9381321731885
 10
-1.1447978569354
 20
-0.93747929089242
 10
-1.1447981271979
 20
-0.93617528927272
 10
-1.1447997835267
 20
-0.93486542772035
 10
-1.1448028448812
 20
-0.93354958630781
 10
-1.1448073282843
 20
-0.93222828746012
 10
-1.1448132485429
 20
-0.93090206344464
 10
-1.1448167514976
 20
-0.93023727318544
 10
-1.1448206181811
 20
-0.92957145499984
 10
-1.1448294473839
 20
-0.92823701000704
 10
-1.1448397439508
 20
-0.92689928220017
 10
-1.1448515132603
 20
-0.9255588299092
 10
-1.144864758244
 20
-0.92421621483282
 10
-1.1448794793716
 20
-0.92287200083658
 10
-1.1448873929614
 20
-0.92219947075319
 10
-1.1448956746453
 20
-0.92152675277281
 10
-1.1449133396049
 20
-0.92018103531906
 10
-1.1449324673424
 20
-0.91883541183208
 10
-1.1449530485271
 20
-0.91749044321466
 10
-1.1449750714401
 20
-0.916146686793
 10
-1.1449985220186
 20
-0.91480469520261
 10
-1.1450107776601
 20
-0.91413453236255
 10
-1.1450233839102
 20
-0.91346501528115
 10
-1.145049638536
 20
-0.91212818696687
 10
-1.1450772651638
 20
-0.9107947422018
 10
-1.1451062409898
 20
-0.90946520383941
 10
-1.1451365412293
 20
-0.90814008455643
 10
-1.1451681392165
 20
-0.90681988576969
 10
-1.1451844160444
 20
-0.90616178491099
 10
-1.145201006512
 20
-0.90550509655867
 10
-1.1452351130184
 20
-0.90419619259549
 10
-1.1452704271038
 20
-0.90289363508444
 10
-1.145288526716
 20
-0.90224487616047
 10
-1.1453069157323
 20
-0.90159786971367
 10
-1.1453445445854
 20
-0.90030932614128
 10
-1.145383277908
 20
-0.89902842655621
 10
-1.1454030470889
 20
-0.89839097655019
 10
-1.1454230781746
 20
-0.89775559824188
 10
-1.1454639060766
 20
-0.89649127401584
 10
-1.1455057205773
 20
-0.89523589066044
 10
-1.1455484789769
 20
-0.89398988740155
 10
-1.1455921369858
 20
-0.89275370443603
 10
-1.1456366488083
 20
-0.89152778150769
 10
-1.1456592101989
 20
-0.89091880451381
 10
-1.1456819672335
 20
-0.89031255653076
 10
-1.1457280437336
 20
-0.8891084642599
 10
-1.1457748285706
 20
-0.88791593500552
 10
-1.1458222709084
 20
-0.88673539339299
 10
-1.1458703189311
 20
-0.88556725716419
 10
-1.145918919968
 20
-0.88441193601975
 10
-1.1459434112047
 20
-0.88383920666077
 10
-1.1459680206215
 20
-0.88326983050045
 10
-1.1460175669016
 20
-0.88214133090613
 10
-1.1460675043627
 20
-0.88102681625044
 10
-1.1461177782444
 20
-0.87992665324993
 10
-1.1461683336156
 20
-0.87884119534614
 10
-1.14621911552
 20
-0.87777078175929
 10
-1.1462445742779
 20
-0.8772413184764
 10
-1.1462700691244
 20
-0.87671573657244
 10
-1.1463211398672
 20
-0.87567636784517
 10
-1.1463722736093
 20
-0.87465296675597
 10
-1.1464234167837
 20
-0.87364580677279
 10
-1.1464745165457
 20
-0.87265514285136
 10
-1.1465255209226
 20
-0.87168121066126
 10
-1.146550971375
 20
-0.87120058715448
 10
-1.1465763789614
 20
-0.87072422583988
 10
-1.1466272916522
 20
-0.8697797635053
 10
-1.1466784632981
 20
-0.86884359114625
 10
-1.1467298429492
 20
-0.86791628442257
 10
-1.1467813782901
 20
-0.86699841621045
 10
-1.1468330157855
 20
-0.86609055498154
 10
-1.1468588558142
 20
-0.86564055306297
 10
-1.1468847008282
 20
-0.86519326332394
 10
-1.1469363778888
 20
-0.86430709655323
 10
-1.1469879906681
 20
-0.86343260140819
 10
-1.1470137551866
 20
-0.86299989890309
 10
-1.1470394822527
 20
-0.86257031482654
 10
-1.14709079527
 20
-0.86172076279683
 10
-1.1471418720459
 20
-0.86088445928318
 10
-1.1471673037764
 20
-0.86047143279702
 10
-1.1471926547619
 20
-0.86006190522031
 10
-1.1472430856117
 20
-0.85925358757683
 10
-1.1472931069578
 20
-0.85845997848563
 10
-1.1473426614848
 20
-0.85768153444064
 10
-1.1473916923525
 20
-0.85691869556003
 10
-1.1474401433437
 20
-0.85617188491642
 10
-1.1474641340241
 20
-0.85580461758339
 10
-1.1474879590099
 20
-0.85544150793557
 10
-1.1475350848117
 20
-0.85472795186523
 10
-1.1475814672533
 20
-0.85403158531701
 10
-1.1476270540119
 20
-0.85335275788411
 10
-1.1476717940587
 20
-0.85269179983903
 10
-1.1477156377732
 20
-0.85204902191525
 10
-1.1477372084103
 20
-0.85173454222668
 10
-1.1477585370473
 20
-0.85142471517813
 10
-1.1478004453809
 20
-0.85081915099017
 10
-1.1478413179656
 20
-0.85023258107666
 10
-1.1478613523303
 20
-0.84994649230757
  0
LINE
  5
103
330
CF
100
AcDbEntity
  8
AM_9
100
AcDbLine
 10
-1.1478613523303
 20
-0.84994649230757
 30
0.0
 11
-1.1483903550919
 21
-0.8427025563401
 31
0.0
  0
LINE
  5
104
330
CF
100
AcDbEntity
  8
AM_9
100
AcDbLine
 10
-1.1314375
 20
-0.85908349166034
 30
0.0
 11
-1.1314375
 21
-1.0150834916603
 31
0.0
  0
LINE
  5
105
330
CF
100
AcDbEntity
  8
AM_9
100
AcDbLine
 10
-0.878328125
 20
-0.85908349166034
 30
0.0
 11
-0.878328125
 21
-1.0150834916603
 31
0.0
  0
LINE
  5
106
330
CF
100
AcDbEntity
  8
AM_9
100
AcDbLine
 10
-0.861328125
 20
-0.84208349166034
 30
0.0
 11
-0.861328125
 21
-1.0320834916603
 31
0.0
  0
LINE
  5
107
330
CF
100
AcDbEntity
  8
AM_9
100
AcDbLine
 10
-0.85677083333333
 20
-1.046875
 30
0.0
 11
-0.4484688369832
 21
-1.046875
 31
0.0
  0
LINE
  5
108
330
CF
100
AcDbEntity
  8
AM_9
100
AcDbLine
 10
1.1139481127082
 20
-1.046875
 30
0.0
 11
1.0718748055309
 21
-1.046875
 31
0.0
  0
LINE
  5
109
330
CF
100
AcDbEntity
  8
AM_9
100
AcDbLine
 10
0.85677083333333
 20
-1.046875
 30
0.0
 11
-0.05
 21
-1.046875
 31
0.0
  0
LINE
  5
10A
330
CF
100
AcDbEntity
  8
AM_9
100
AcDbLine
 10
-0.85677083333333
 20
-0.392578125
 30
0.0
 11
0.85677083333333
 21
-0.392578125
 31
0.0
  0
LINE
  5
10B
330
CF
100
AcDbEntity
  8
AM_9
100
AcDbLine
 10
-1.0208333333333
 20
-0.78515625
 30
0.0
 11
1.0208333333333
 21
-0.78515625
 31
0.0
  0
LINE
  5
10C
330
CF
100
AcDbEntity
  8
AM_9
100
AcDbLine
 10
0.05
 20
-1.0625
 30
0.0
 11
0.05
 21
0.5625
 31
0.0
  0
LINE
  5
10D
330
CF
100
AcDbEntity
  8
AM_9
100
AcDbLine
 10
-0.05
 20
0.5625
 30
0.0
 11
-0.05
 21
-1.0625
 31
0.0
  0
LINE
  5
10F
330
CF
100
AcDbEntity
  8
AM_5
100
AcDbLine
 10
-1.1333090083397
 20
-1.0320834916603
 30
0.0
 11
-0.861328125
 21
-1.0320834916603
 31
0.0
  0
LINE
  5
110
330
CF
100
AcDbEntity
  8
AM_5
100
AcDbLine
 10
-1.1484375
 20
-0.84208349166032
 30
0.0
 11
-0.861328125
 21
-0.84208349166032
 31
0.0
  0
LINE
  5
113
330
CF
100
AcDbEntity
  8
AM_7
100
AcDbLine
 10
-0.84697265625
 20
-0.93708349166032
 30
0.0
 11
-1.16279296875
 21
-0.93708349166032
 31
0.0
  0
LINE
  5
114
330
CF
100
AcDbEntity
  8
AM_4
100
AcDbLine
 10
-1.1408732541699
 20
-1.0245192458302
 30
0.0
 11
-1.1185175
 21
-1.046875
 31
0.0
  0
LINE
  5
115
330
CF
100
AcDbEntity
  8
AM_4
100
AcDbLine
 10
-1.1484375
 20
-0.56530503532597
 30
0.0
 11
-1.1484375
 21
-0.84208349166034
 31
0.0
  0
LINE
  5
116
330
CF
100
AcDbEntity
  8
AM_4
100
AcDbLine
 10
-0.85677083333333
 20
-1.046875
 30
0.0
 11
-0.85677083333333
 21
-1.0625
 31
0.0
  0
LINE
  5
117
330
CF
100
AcDbEntity
  8
AM_4
100
AcDbLine
 10
0.85677083333333
 20
-1.0625
 30
0.0
 11
0.85677083333333
 21
-1.046875
 31
0.0
  0
LINE
  5
118
330
CF
100
AcDbEntity
  8
AM_4
100
AcDbLine
 10
-0.89012289638307
 20
0.5625
 30
0.0
 11
-0.88887116306977
 21
0.52665504779769
 31
0.0
  0
LINE
  5
119
330
CF
100
AcDbEntity
  8
AM_4
100
AcDbLine
 10
0.88887116306977
 20
0.52665504779769
 30
0.0
 11
0.89012289638307
 21
0.5625
 31
0.0
  0
LINE
  5
11A
330
CF
100
AcDbEntity
  8
AM_4
100
AcDbLine
 10
0.85966302772241
 20
-0.5234375
 30
0.0
 11
-0.85963749581311
 21
-0.5234375
 31
0.0
  0
LINE
  5
11B
330
CF
100
AcDbEntity
  8
AM_4
100
AcDbLine
 10
1.0838119043372
 20
-0.5533575
 30
0.0
 11
-0.48452524786575
 21
-0.5533575
 31
0.0
  0
LINE
  5
11C
330
CF
100
AcDbEntity
  8
AM_4
100
AcDbLine
 10
1.143987627296
 20
-1.016955
 30
0.0
 11
-0.48452524786575
 21
-1.016955
 31
0.0
  0
LINE
  5
11D
330
CF
100
AcDbEntity
  8
AM_4
100
AcDbLine
 10
-0.46950549057189
 20
-0.5234375
 30
0.0
 11
-0.48452524786575
 21
-0.5533575
 31
0.0
  0
LINE
  5
11E
330
CF
100
AcDbEntity
  8
AM_4
100
AcDbLine
 10
-0.48452524786575
 20
-0.5533575
 30
0.0
 11
-0.48452524786575
 21
-1.016955
 31
0.0
  0
LINE
  5
11F
330
CF
100
AcDbEntity
  8
AM_4
100
AcDbLine
 10
-0.48452524786575
 20
-1.016955
 30
0.0
 11
-0.46950549057189
 21
-1.046875
 31
0.0
  0
LINE
  5
120
330
CF
100
AcDbEntity
  8
AM_4
100
AcDbLine
 10
-0.64444262213635
 20
-1.046875
 30
0.0
 11
-0.65946237943021
 21
-1.016955
 31
0.0
  0
LINE
  5
121
330
CF
100
AcDbEntity
  8
AM_4
100
AcDbLine
 10
-0.65946237943021
 20
-0.5533575
 30
0.0
 11
-0.64444262213635
 21
-0.5234375
 31
0.0
  0
LINE
  5
122
330
CF
100
AcDbEntity
  8
AM_4
100
AcDbLine
 10
-0.62340596854766
 20
-0.5234375
 30
0.0
 11
-0.62340596854766
 21
-1.046875
 31
0.0
  0
LINE
  5
123
330
CF
100
AcDbEntity
  8
AM_4
100
AcDbLine
 10
1.1139481127082
 20
-1.046875
 30
0.0
 11
1.143987627296
 21
-1.016955
 31
0.0
  0
LINE
  5
124
330
CF
100
AcDbEntity
  8
AM_4
100
AcDbLine
 10
1.143987627296
 20
-1.016955
 30
0.0
 11
1.143987627296
 21
-0.56445411660989
 31
0.0
  0
LINE
  5
125
330
CF
100
AcDbEntity
  8
AM_4
100
AcDbLine
 10
-0.65946237943021
 20
-0.5533575
 30
0.0
 11
-1.0838117604265
 21
-0.5533575
 31
0.0
  0
LINE
  5
126
330
CF
100
AcDbEntity
  8
AM_4
100
AcDbLine
 10
-0.65946237943021
 20
-1.016955
 30
0.0
 11
-0.65946237943021
 21
-0.5533575
 31
0.0
  0
LINE
  5
127
330
CF
100
AcDbEntity
  8
AM_4
100
AcDbLine
 10
-0.65946237943021
 20
-1.016955
 30
0.0
 11
-1.1473727865
 21
-1.016955
 31
0.0
  0
LINE
  5
128
330
CF
100
AcDbEntity
  8
AM_4
100
AcDbLine
 10
-1.1473727865
 20
-1.016955
 30
0.0
 11
-1.1408732541699
 21
-1.0245192458302
 31
0.0
  0
LWPOLYLINE
  5
129
330
CF
100
AcDbEntity
  8
AM_4
100
AcDbPolyline
 90
      131
 70
     0
 43
0.0
 10
-1.1484375
 20
-0.84208349166034
 10
-1.1484370014852
 20
-0.84209001685043
 10
-1.1484329831346
 20
-0.8421426302714
 10
-1.14842487783
 20
-0.84224884314197
 10
-1.1484192746802
 20
-0.84232233626334
 10
-1.1484126305758
 20
-0.84240955603085
 10
-1.1483962046274
 20
-0.84262552756614
 10
-1.1483755821775
 20
-0.84289736857038
 10
-1.1483507647772
 20
-0.84322553840757
 10
-1.1483217734963
 20
-0.84361034345055
 10
-1.1482886488262
 20
-0.8440519376021
 10
-1.1482705543542
 20
-0.84429403757917
 10
-1.1482514503335
 20
-0.84455032482564
 10
-1.1482102560694
 20
-0.84510536366342
 10
-1.1481651617472
 20
-0.84571677373859
 10
-1.1481162796954
 20
-0.84638414425426
 10
-1.1480637376032
 20
-0.84710694451517
 10
-1.1480076770716
 20
-0.84788453650649
 10
-1.1479783750488
 20
-0.84829365424387
 10
-1.1479482519887
 20
-0.84871618956803
 10
-1.1478856267503
 20
-0.84960109720085
 10
-1.1478199746869
 20
-0.8505383912098
 10
-1.1477860705663
 20
-0.85102638766656
 10
-1.147751479705
 20
-0.85152710951058
 10
-1.1476803384434
 20
-0.85256615355077
 10
-1.147606759681
 20
-0.8536542825776
 10
-1.147569124543
 20
-0.8542163272504
 10
-1.1475309632759
 20
-0.8547901134211
 10
-1.1474531789097
 20
-0.85597212214524
 10
-1.1473736446662
 20
-0.85719864739632
 10
-1.147292605473
 20
-0.85846789530559
 10
-1.1472103114328
 20
-0.85977794583367
 10
-1.1471270160698
 20
-0.86112676047578
 10
-1.1470850726087
 20
-0.86181503710681
 10
-1.1470429745163
 20
-0.86251219128042
 10
-1.1469584416626
 20
-0.86393199116698
 10
-1.1468736702908
 20
-0.86538382556227
 10
-1.1467889092127
 20
-0.86686528540987
 10
-1.1467044014323
 20
-0.8683739016409
 10
-1.1466203823471
 20
-0.86990716123002
 10
-1.1465786271174
 20
-0.87068223928599
 10
-1.1465369248629
 20
-0.87146541810174
 10
-1.1464532309242
 20
-0.8730659511755
 10
-1.1463693385813
 20
-0.87471125701144
 10
-1.1462854801243
 20
-0.87640023243172
 10
-1.1462018930141
 20
-0.87813164050935
 10
-1.1461188180986
 20
-0.87990412022344
 10
-1.1460775484663
 20
-0.88080530519275
 10
-1.1460364978316
 20
-0.88171619666283
 10
-1.1459551745118
 20
-0.88356629179629
 10
-1.1458750885567
 20
-0.88545273583817
 10
-1.1457964768289
 20
-0.88737377924758
 10
-1.1457195710314
 20
-0.88932760540614
 10
-1.145644596188
 20
-0.89131234402388
 10
-1.1456079010167
 20
-0.89231570983775
 10
-1.1455717692268
 20
-0.89332608532519
 10
-1.1455012976832
 20
-0.89536689506559
 10
-1.1454333785403
 20
-0.89743283042583
 10
-1.1453681972246
 20
-0.8995219568219
 10
-1.1453059267739
 20
-0.90163236565534
 10
-1.1452467275341
 20
-0.90376218043565
 10
-1.1452183267531
 20
-0.90483376787357
 10
-1.1451907491385
 20
-0.90590947630091
 10
-1.1451381312412
 20
-0.90807221822385
 10
-1.1450890021115
 20
-0.91024826872923
 10
-1.145065782456
 20
-0.91134059184129
 10
-1.1450434772258
 20
-0.91243540056545
 10
-1.1450016580145
 20
-0.91463130952671
 10
-1.144963630774
 20
-0.91683362738077
 10
-1.1449460617437
 20
-0.91793643526397
 10
-1.1449294657532
 20
-0.91903993488446
 10
-1.1448992164209
 20
-0.92124777489445
 10
-1.1448729189186
 20
-0.92345466560281
 10
-1.1448505917049
 20
-0.9256581139474
 10
-1.1448322353922
 20
-0.92785562926617
 10
-1.1448178327798
 20
-0.93004473728122
 10
-1.1448121039177
 20
-0.93113537335526
 10
-1.1448073490842
 20
-0.93222299451592
 10
-1.14480073237
 20
-0.9343880032641
 10
-1.144797914181
 20
-0.93653742724733
 10
-1.1447988235098
 20
-0.93867921616132
 10
-1.1448034908228
 20
-0.9408365534436
 10
-1.1448119921742
 20
-0.94300834099956
 10
-1.1448177001605
 20
-0.94409891580267
 10
-1.1448243880281
 20
-0.9451922104877
 10
-1.1448407219933
 20
-0.94738573989535
 10
-1.1448610202912
 20
-0.9495864688412
 10
-1.1448852914227
 20
-0.95179191325844
 10
-1.144913526035
 20
-0.95399957958609
 10
-1.1449456969843
 20
-0.95620697857983
 10
-1.1449632452979
 20
-0.957309804451
 10
-1.1449817595943
 20
-0.95841163883725
 10
-1.1450216521054
 20
-0.96061112011526
 10
-1.1450652963134
 20
-0.9628030264995
 10
-1.1451125983916
 20
-0.96498501946614
 10
-1.14516344989
 20
-0.96715483085504
 10
-1.1452177289061
 20
-0.96931027574966
 10
-1.1452461122845
 20
-0.97038195387971
 10
-1.1452753014148
 20
-0.97144926523307
 10
-1.1453360227431
 20
-0.97356981881211
 10
-1.1453997383445
 20
-0.97567004987428
 10
-1.1454662817334
 20
-0.97774806898844
 10
-1.1455354737176
 20
-0.97980195256394
 10
-1.1456071231005
 20
-0.98182975982799
 10
-1.1456438065079
 20
-0.98283327792737
 10
-1.1456810276002
 20
-0.98382955011445
 10
-1.1457569749315
 20
-0.98579939922144
 10
-1.1458347440349
 20
-0.98773741487086
 10
-1.1458742406028
 20
-0.98869390615192
 10
-1.1459141064348
 20
-0.98964175131234
 10
-1.1459948277077
 20
-0.99151062312111
 10
-1.1460766690466
 20
-0.99334231824117
 10
-1.1461179343171
 20
-0.99424371263758
 10
-1.1461593889006
 20
-0.995135210325
 10
-1.1462427446769
 20
-0.99688777041752
 10
-1.1463264944859
 20
-0.99859857802615
 10
-1.1464103989139
 20
-1.0002663316108
 10
-1.1464942228078
 20
-1.0018898585176
 10
-1.1465777371967
 20
-1.0034681270355
 10
-1.1466194904666
 20
-1.0042433595804
 10
-1.1466614264817
 20
-1.0050131320508
 10
-1.1467457301878
 20
-1.0065349431826
 10
-1.1468304102264
 20
-1.0080308953788
 10
-1.1469152217941
 20
-1.0094984006812
 10
-1.1469999151721
 20
-1.0109349610533
 10
-1.1470842375566
 20
-1.0123381798831
 10
-1.147126180234
 20
-1.0130265675521
 10
-1.1471679348968
 20
-1.0137057721993
 10
-1.1472507537199
 20
-1.015035573596
 10
-1.1473324429151
 20
-1.016325547819
 10
-1.1473727865
 20
-1.016955
  0
LINE
  5
12A
330
CF
100
AcDbEntity
  8
AM_4
100
AcDbLine
 10
1.1139481127082
 20
-1.046875
 30
0.0
 11
-1.1185175
 21
-1.046875
 31
0.0
  0
LINE
  5
12B
330
CF
100
AcDbEntity
  8
AM_4
100
AcDbLine
 10
0.85677083333333
 20
-1.0625
 30
0.0
 11
-0.85677083333333
 21
-1.0625
 31
0.0
  0
LINE
  5
12C
330
CF
100
AcDbEntity
  8
AM_4
100
AcDbLine
 10
0.89012289638307
 20
0.5625
 30
0.0
 11
-0.89012289638307
 21
0.5625
 31
0.0
  0
LINE
  5
12D
330
CF
100
AcDbEntity
  8
AM_4
100
AcDbLine
 10
0.05
 20
-1.046875
 30
0.0
 11
0.05
 21
-1.0625
 31
0.0
  0
LINE
  5
12E
330
CF
100
AcDbEntity
  8
AM_4
100
AcDbLine
 10
0.05
 20
0.5625
 30
0.0
 11
0.05
 21
0.50624999967831
 31
0.0
  0
LINE
  5
12F
330
CF
100
AcDbEntity
  8
AM_4
100
AcDbLine
 10
-0.05
 20
0.50624999967831
 30
0.0
 11
-0.05
 21
0.5625
 31
0.0
  0
LINE
  5
130
330
CF
100
AcDbEntity
  8
AM_4
100
AcDbLine
 10
-0.05
 20
-1.0625
 30
0.0
 11
-0.05
 21
-1.046875
 31
0.0
  0
ENDBLK
  5
D2
330
CF
100
AcDbEntity
  8
0
100
AcDbBlockEnd
  0
BLOCK
  5
133
330
131
100
AcDbEntity
  8
0
100
AcDbBlockBegin
  2
4_TB_GTEZ_07_PCRI_0_in_129298_4
 70
     2
 10
0.0
 20
0.0
 30
0.0
  3
4_TB_GTEZ_07_PCRI_0_in_129298_4
  1

  0
ATTDEF
  5
135
330
131
100
AcDbEntity
  8
AM_6
100
AcDbText
 10
7.3125
 20
1.03984375
 30
0.0
 40
0.5
  1
TB-GTEZ-PCR-I-Body
100
AcDbAttributeDefinition
  3

  2
NN
 70
     8
280
     0
  0
ATTDEF
  5
136
330
131
100
AcDbEntity
  8
AM_6
100
AcDbText
 10
7.3125
 20
0.53984375
 30
0.0
 40
0.5
  1
GTEZ Normal Duty Polymer Housed Tapped Base Pillow Blocks
100
AcDbAttributeDefinition
  3

  2
NT
 70
     8
280
     0
  0
ATTDEF
  5
137
330
131
100
AcDbEntity
  8
AM_6
100
AcDbText
 10
7.3125
 20
0.03984375
 30
0.0
 40
0.5
  1
TB-GTEZ-07-PCRI
100
AcDbAttributeDefinition
  3

  2
NB
 70
     8
280
     0
  0
ATTDEF
  5
138
330
131
100
AcDbEntity
  8
AM_6
100
AcDbText
 10
7.3125
 20
-0.46015625
 30
0.0
 40
0.5
  1
$PN.$LUBE.I
100
AcDbAttributeDefinition
  3

  2
NBSYN
 70
     8
280
     0
  0
ATTDEF
  5
139
330
131
100
AcDbEntity
  8
AM_6
100
AcDbText
 10
7.3125
 20
-0.96015625
 30
0.0
 40
0.5
  1
TB-GTEZ-07-PCR
100
AcDbAttributeDefinition
  3

  2
LINA
 70
     8
280
     0
  0
ATTDEF
  5
13A
330
131
100
AcDbEntity
  8
AM_6
100
AcDbText
 10
7.3125
 20
-1.46015625
 30
0.0
 40
0.5
  1
207
100
AcDbAttributeDefinition
  3

  2
SERIES
 70
     8
280
     0
  0
ATTDEF
  5
13B
330
131
100
AcDbEntity
  8
AM_6
100
AcDbText
 10
7.3125
 20
-1.96015625
 30
0.0
 40
0.5
  1
TB-GTEZ-07-PCR
100
AcDbAttributeDefinition
  3

  2
PN
 70
     8
280
     0
  0
ATTDEF
  5
13C
330
131
100
AcDbEntity
  8
AM_6
100
AcDbText
 10
7.3125
 20
-2.46015625
 30
0.0
 40
0.5
  1
TB-GTEZ-07-PCR
100
AcDbAttributeDefinition
  3

  2
DESCRIPTION
 70
     8
280
     0
  0
ATTDEF
  5
13D
330
131
100
AcDbEntity
  8
AM_6
100
AcDbText
 10
7.3125
 20
-2.96015625
 30
0.0
 40
0.5
  1
1-5/8
100
AcDbAttributeDefinition
  3

  2
A
 70
     8
280
     0
  0
ATTDEF
  5
13E
330
131
100
AcDbEntity
  8
AM_6
100
AcDbText
 10
7.3125
 20
-3.46015625
 30
0.0
 40
0.5
  1
4-5/8
100
AcDbAttributeDefinition
  3

  2
B
 70
     8
280
     0
  0
ATTDEF
  5
13F
330
131
100
AcDbEntity
  8
AM_6
100
AcDbText
 10
7.3125
 20
-3.96015625
 30
0.0
 40
0.5
  1
1-57/64
100
AcDbAttributeDefinition
  3

  2
C
 70
     8
280
     0
  0
ATTDEF
  5
140
330
131
100
AcDbEntity
  8
AM_6
100
AcDbText
 10
7.3125
 20
-4.46015625
 30
0.0
 40
0.5
  1
3-1/4
100
AcDbAttributeDefinition
  3

  2
D
 70
     8
280
     0
  0
ATTDEF
  5
141
330
131
100
AcDbEntity
  8
AM_6
100
AcDbText
 10
7.3125
 20
-4.96015625
 30
0.0
 40
0.5
  1
3-53/64
100
AcDbAttributeDefinition
  3

  2
J
 70
     8
280
     0
  0
ATTDEF
  5
142
330
131
100
AcDbEntity
  8
AM_6
100
AcDbText
 10
7.3125
 20
-5.46015625
 30
0.0
 40
0.5
  1
2-19/64
100
AcDbAttributeDefinition
  3

  2
L
 70
     8
280
     0
  0
ATTDEF
  5
143
330
131
100
AcDbEntity
  8
AM_6
100
AcDbText
 10
7.3125
 20
-5.96015625
 30
0.0
 40
0.5
  1
1-7/8
100
AcDbAttributeDefinition
  3

  2
M
 70
     8
280
     0
  0
ATTDEF
  5
144
330
131
100
AcDbEntity
  8
AM_6
100
AcDbText
 10
7.3125
 20
-6.46015625
 30
0.0
 40
0.5
  1
35/64
100
AcDbAttributeDefinition
  3

  2
N
 70
     8
280
     0
  0
ATTDEF
  5
145
330
131
100
AcDbEntity
  8
AM_6
100
AcDbText
 10
7.3125
 20
-6.96015625
 30
0.0
 40
0.5
  1
1/2-13
100
AcDbAttributeDefinition
  3

  2
R
 70
     8
280
     0
  0
ATTDEF
  5
146
330
131
100
AcDbEntity
  8
AM_6
100
AcDbText
 10
7.3125
 20
-7.46015625
 30
0.0
 40
0.5
  1
1-1/16
100
AcDbAttributeDefinition
  3

  2
S
 70
     8
280
     0
  0
ATTDEF
  5
147
330
131
100
AcDbEntity
  8
AM_6
100
AcDbText
 10
7.3125
 20
-7.96015625
 30
0.0
 40
0.5
  1
1-3/64
100
AcDbAttributeDefinition
  3

  2
Z
 70
     8
280
     0
  0
ATTDEF
  5
148
330
131
100
AcDbEntity
  8
AM_6
100
AcDbText
 10
7.3125
 20
-8.46015625
 30
0.0
 40
0.5
  1
baldor
100
AcDbAttributeDefinition
  3

  2
COMPANY
 70
     8
280
     0
  0
LINE
  5
149
330
131
100
AcDbEntity
  8
AM_9
100
AcDbLine
 10
1.4173
 20
-0.68179843493302
 30
0.0
 11
1.4173
 21
0.68179843493302
 31
0.0
  0
LINE
  5
14A
330
131
100
AcDbEntity
  8
AM_9
100
AcDbLine
 10
-1.4173
 20
0.68179843493302
 30
0.0
 11
-1.4173
 21
-0.68179843493302
 31
0.0
  0
LWPOLYLINE
  5
14B
330
131
100
AcDbEntity
  8
AM_9
100
AcDbPolyline
 90
      281
 70
     0
 43
0.0
 10
1.5080191494542
 20
-0.10827460027631
 10
1.5082003402521
 20
-0.10992548245163
 10
1.5086208759999
 20
-0.11318631273374
 10
1.5091165007487
 20
-0.11638894380522
 10
1.509391522229
 20
-0.11796707313335
 10
1.5096841586049
 20
-0.11952901869819
 10
1.5103202756558
 20
-0.12260052495309
 10
1.5110195275972
 20
-0.12559181484275
 10
1.5117779925459
 20
-0.12850001603528
 10
1.5125920198443
 20
-0.13132348277406
 10
1.5134579515755
 20
-0.13406052199273
 10
1.5139092286797
 20
-0.13539608896741
 10
1.5143720909616
 20
-0.13670939303771
 10
1.515330674025
 20
-0.13926831819698
 10
1.5163298454369
 20
-0.14173550282109
 10
1.5173656393639
 20
-0.14410916375459
 10
1.5184336875278
 20
-0.14638699137987
 10
1.5195250108042
 20
-0.14855830299412
 10
1.5200775241078
 20
-0.14960316154693
 10
1.5206339784953
 20
-0.15062114785738
 10
1.5217568549491
 20
-0.15257742800593
 10
1.5228899502953
 20
-0.15442890752342
 10
1.5234591807947
 20
-0.15531586460412
 10
1.524029585822
 20
-0.15617722986406
 10
1.5251720680148
 20
-0.15782394743769
 10
1.5263136725069
 20
-0.15937056155905
 10
1.5268829718014
 20
-0.16010679671206
 10
1.5274506388797
 20
-0.16081857048966
 10
1.5285791769225
 20
-0.16216952301362
 10
1.5297506106623
 20
-0.16348505375968
 10
1.5310663966616
 20
-0.16486162475828
 10
1.5325141342712
 20
-0.16625714653353
 10
1.5340731513807
 20
-0.16762446472151
 10
1.534886185766
 20
-0.16828272221884
 10
1.5357162928683
 20
-0.16891629315728
 10
1.5374091469785
 20
-0.17008748465041
 10
1.5390835584258
 20
-0.1710837601942
 10
1.5406226874697
 20
-0.17185158389884
 10
1.5420296160008
 20
-0.17242158476964
 10
1.5433206165928
 20
-0.17282459154961
 10
1.5439298513946
 20
-0.17297173901142
 10
1.5445204340689
 20
-0.17308636447332
 10
1.5456698003362
 20
-0.17322591269611
 10
1.5470365598805
 20
-0.17324093154357
 10
1.5490470281946
 20
-0.17296656467338
 10
1.5505955733675
 20
-0.17253528668804
 10
1.5510977044615
 20
-0.17235821606386
 10
1.5516270979034
 20
-0.17215292197918
 10
1.5519019299611
 20
-0.17203900976568
 10
1.5521834068958
 20
-0.17191725210398
 10
1.5527657588424
 20
-0.17164930601262
 10
1.5533727504306
 20
-0.17134752272976
 10
1.5540018772065
 20
-0.1710110857302
 10
1.5546440269599
 20
-0.17064338295892
 10
1.5552957544198
 20
-0.17024553446196
 10
1.5556248118338
 20
-0.17003533545256
 10
1.5559557901948
 20
-0.16981764658752
 10
1.5566229069942
 20
-0.16935990249757
 10
1.557295947602
 20
-0.16887253296995
 10
1.5576343517463
 20
-0.16861781696516
 10
1.5579738440525
 20
-0.16835578880907
 10
1.558655629143
 20
-0.16780991587909
 10
1.5593404414348
 20
-0.1672351334479
 10
1.5596837425019
 20
-0.16693695792215
 10
1.5600275248794
 20
-0.16663161623862
 10
1.5607162241667
 20
-0.16599948032779
 10
1.5614059768363
 20
-0.1653387728068
 10
1.5620963031168
 20
-0.16464946493632
 10
1.5627867943702
 20
-0.1639314483734
 10
1.563477100915
 20
-0.16318453393769
 10
1.5638220887703
 20
-0.16280015893674
 10
1.5641669198893
 20
-0.16240845230707
 10
1.5648559836957
 20
-0.16160285599332
 10
1.5655434836651
 20
-0.16076802199304
 10
1.5662277435796
 20
-0.15990539495043
 10
1.5669079522815
 20
-0.15901549121425
 10
1.5675833663625
 20
-0.15809880204623
 10
1.5679190536832
 20
-0.15763056784461
 10
1.5682532809101
 20
-0.15715582358712
 10
1.5689170275658
 20
-0.1561870545807
 10
1.5695739724383
 20
-0.15519299461809
 10
1.5702235139424
 20
-0.15417414284066
 10
1.5708650806291
 20
-0.15313099703812
 10
1.5714981290535
 20
-0.15206405307806
 10
1.5718112962411
 20
-0.15152181114336
 10
1.5721221417233
 20
-0.15097380460493
 10
1.5727366251563
 20
-0.14986074294943
 10
1.5733411080694
 20
-0.14872535719251
 10
1.5739351397125
 20
-0.14756813433322
 10
1.5745182883558
 20
-0.14638955951399
 10
1.5750901399306
 20
-0.14519011626237
 10
1.5753717044502
 20
-0.14458271969082
 10
1.5756502968227
 20
-0.14397028671336
 10
1.5761983561528
 20
-0.14273059940984
 10
1.5767328847475
 20
-0.1414740934745
 10
1.5772530247208
 20
-0.14020281725063
 10
1.5777585724485
 20
-0.13891739501736
 10
1.578249340997
 20
-0.1376184395785
 10
1.5784891288443
 20
-0.13696407566004
 10
1.578725158589
 20
-0.13630655384399
 10
1.5791858672758
 20
-0.13498233238217
 10
1.5796313218087
 20
-0.13364636291633
 10
1.5798482866135
 20
-0.13297415482477
 10
1.580061388693
 20
-0.13229922774339
 10
1.5804759454137
 20
-0.13094150505614
 10
1.5808748798185
 20
-0.12957377015419
 10
1.5810684563186
 20
-0.12888632738316
 10
1.581258089642
 20
-0.12819659653201
 10
1.5816254821574
 20
-0.1268105568353
 10
1.5819769739405
 20
-0.12541622367963
 10
1.5823124907311
 20
-0.12401417032748
 10
1.5826319673791
 20
-0.12260497122194
 10
1.5829353478589
 20
-0.12118920237697
 10
1.5830809870395
 20
-0.12047903480002
 10
1.5832225853416
 20
-0.11976744162548
 10
1.5834936423119
 20
-0.11834026872799
 10
1.5837484907167
 20
-0.11690826534508
 10
1.5839869734033
 20
-0.11547288045245
 10
1.5842089366359
 20
-0.11403587831147
 10
1.5844144727284
 20
-0.11259769422446
 10
1.584511110696
 20
-0.11187828958729
 10
1.5846036782717
 20
-0.11115874554122
 10
1.5847766520347
 20
-0.10971944446636
 10
1.5849334949368
 20
-0.10828019914813
 10
1.585074310085
 20
-0.10684141465757
 10
1.5851992028687
 20
-0.10540349385772
 10
1.5853082811034
 20
-0.10396683816369
 10
1.5853569241653
 20
-0.10324910994041
 10
1.5854016552152
 20
-0.10253184819518
 10
1.5854794384594
 20
-0.10109892432375
 10
1.5855417471661
 20
-0.09966846711762
 10
1.5855887010065
 20
-0.098240877687397
 10
1.5856204232733
 20
-0.096816557936499
 10
1.5856370411704
 20
-0.095395910720257
 10
1.5856397268731
 20
-0.094687090484674
 10
1.5856386861058
 20
-0.093979339918042
 10
1.5856254939838
 20
-0.092567250422846
 10
1.5855976054911
 20
-0.091160048052884
 10
1.5855551663734
 20
-0.089758139389803
 10
1.5854983276986
 20
-0.088361931548113
 10
1.5854272461027
 20
-0.086971831880403
 10
1.5853864257291
 20
-0.086279378464921
 10
1.5853421364128
 20
-0.0855890324674
 10
1.5852432566695
 20
-0.084214783777357
 10
1.5851308168483
 20
-0.082849314961731
 10
1.5850695771859
 20
-0.082169943484447
 10
1.5850050257309
 20
-0.081492851423749
 10
1.5848660913458
 20
-0.080145617710207
 10
1.5847142212884
 20
-0.078807837964926
 10
1.5846335002183
 20
-0.078142563360926
 10
1.5845496230488
 20
-0.077479736312277
 10
1.5843725043456
 20
-0.076161537172673
 10
1.5841830734614
 20
-0.074853465512142
 10
1.5839815395786
 20
-0.073555747028319
 10
1.583768113111
 20
-0.072268608275329
 10
1.5835430060301
 20
-0.070992276730179
 10
1.5834261390053
 20
-0.070358235003164
 10
1.5833064321836
 20
-0.06972698080335
 10
1.5830586076026
 20
-0.068472949796407
 10
1.5827997507978
 20
-0.067230413809413
 10
1.5825300830405
 20
-0.065999603601037
 10
1.5822498286282
 20
-0.064780750404191
 10
1.5819592151326
 20
-0.063574085700047
 10
1.5818100957967
 20
-0.06297539637408
 10
1.5816584736285
 20
-0.062379840953264
 10
1.5813478389029
 20
-0.061198247311188
 10
1.5810275496417
 20
-0.060029535269779
 10
1.5808638602569
 20
-0.05945008161204
 10
1.5806978485949
 20
-0.058873934308938
 10
1.5803591112396
 20
-0.057732097532356
 10
1.5800120394006
 20
-0.056605639807086
 10
1.5798354739622
 20
-0.056048237051175
 10
1.5796569322055
 20
-0.055494724008218
 10
1.579294049247
 20
-0.054399384565813
 10
1.5789236487998
 20
-0.053319657541784
 10
1.5785459882366
 20
-0.052255580770513
 10
1.5781613244343
 20
-0.051207193942196
 10
1.5777699141653
 20
-0.050174538630426
 10
1.5775717594118
 20
-0.049664123794535
 10
1.5773720144744
 20
-0.049157658265655
 10
1.5769678830373
 20
-0.048156598056406
 10
1.5765577784998
 20
-0.047171404860214
 10
1.5761419607953
 20
-0.046202127006464
 10
1.5757206914384
 20
-0.045248814073359
 10
1.575294233794
 20
-0.044311516621418
 10
1.5750791422315
 20
-0.043848889694772
 10
1.5748628533189
 20
-0.043390285885961
 10
1.5744268177753
 20
-0.042485173431125
 10
1.5739863974145
 20
-0.041596230768065
 10
1.5737646280997
 20
-0.041157839089716
 10
1.5735418651286
 20
-0.04072350894
 10
1.5730934965709
 20
-0.039867058076896
 10
1.5726415702408
 20
-0.039026926922577
 10
1.5724143607337
 20
-0.038612995967639
 10
1.5721863675349
 20
-0.038203162337137
 10
1.5717281727615
 20
-0.03739580877759
 10
1.5712672731183
 20
-0.036604907759726
 10
1.5708042920169
 20
-0.035831047289706
 10
1.5703405792011
 20
-0.035075917873362
 10
1.5698764498891
 20
-0.034339410191599
 10
1.5696442998722
 20
-0.033978062117194
 10
1.5694121302274
 20
-0.033621277356152
 10
1.56894784258
 20
-0.032921278406531
 10
1.5684838060802
 20
-0.032239178292447
 10
1.568020237146
 20
-0.031574747785088
 10
1.5675573499507
 20
-0.03092776331937
 10
1.5670953568493
 20
-0.030298006769888
 10
1.566864761541
 20
-0.029989522217563
 10
1.5666344687538
 20
-0.029685265163928
 10
1.5661748954564
 20
-0.02908933033541
 10
1.565716845898
 20
-0.028509998524209
 10
1.5652605283782
 20
-0.027947069925709
 10
1.5648061507071
 20
-0.027400348195915
 10
1.5643539202956
 20
-0.026869639917767
 10
1.5641286750276
 20
-0.026610231041726
 10
1.563904044185
 20
-0.026354754034645
 10
1.5634567290138
 20
-0.025855501257279
 10
1.5630121809226
 20
-0.025371693450483
 10
1.5625706053977
 20
-0.024903143006275
 10
1.5621322070534
 20
-0.024449662210013
 10
1.5616971893546
 20
-0.024011062606215
 10
1.5614810114345
 20
-0.02379728400183
 10
1.5612657542819
 20
-0.023587154370698
 10
1.5608381019398
 20
-0.023177745695596
 10
1.5604144301129
 20
-0.022782642193703
 10
1.5599970749488
 20
-0.02240356530564
 10
1.559588498604
 20
-0.022042143861951
 10
1.559188777359
 20
-0.021697775693687
 10
1.5589922565773
 20
-0.021531800452822
 10
1.5587979706512
 20
-0.021369866277233
 10
1.5584161225638
 20
-0.021057830041128
 10
1.5580432622183
 20
-0.020761090656173
 10
1.5578602075619
 20
-0.020618279782492
 10
1.556809114358
 20
-0.019834872573553
 10
1.5549467454512
 20
-0.018600845580912
 10
1.5533901567675
 20
-0.01772396434597
 10
1.5521139513147
 20
-0.017114729034563
 10
1.5510832167602
 20
-0.016698931497919
 10
1.5501724691343
 20
-0.016391782671002
 10
1.5497447486442
 20
-0.016268088747237
 10
1.5493344961936
 20
-0.016162321306819
 10
1.5485620901373
 20
-0.01599881031663
 10
1.5478448071588
 20
-0.015890616952686
 10
1.5455870155521
 20
-0.015842826977365
 10
1.5433850278941
 20
-0.016221002815392
 10
1.5426543810655
 20
-0.016430889582458
 10
1.541834099144
 20
-0.016712223567532
 10
1.541387455746
 20
-0.016884835796494
 10
1.5409151157649
 20
-0.017081757527856
 10
1.5398900646289
 20
-0.017558221403178
 10
1.5387540908444
 20
-0.018161774360679
 10
1.5375054332642
 20
-0.018913310839436
 10
1.5361456920819
 20
-0.019833739647356
 10
1.5346797390415
 20
-0.020943384585557
 10
1.533909249267
 20
-0.021575266771707
 10
1.5331152833539
 20
-0.022261660658872
 10
1.5314684398386
 20
-0.023800990435465
 10
1.5297961905239
 20
-0.025527995723447
 10
1.5289579997305
 20
-0.026458067512001
 10
1.5281205042023
 20
-0.027431941335051
 10
1.5264533330511
 20
-0.029509213924073
 10
1.5248053815021
 20
-0.03175597710642
 10
1.5239916489547
 20
-0.032941727237827
 10
1.5231862411124
 20
-0.034168443474411
 10
1.5216045779572
 20
-0.036743031445216
 10
1.5200696635132
 20
-0.039473961153933
 10
1.5186012987923
 20
-0.042332251512863
 10
1.5172083630793
 20
-0.045302755184798
 10
1.5158956442315
 20
-0.048376123604237
 10
1.5152706676766
 20
-0.049948519857514
 10
1.5146672309652
 20
-0.051543214591546
 10
1.5135266299443
 20
-0.054794993973331
 10
1.5124768430916
 20
-0.058122451500914
 10
1.5115204123922
 20
-0.061516541637201
 10
1.5106605308741
 20
-0.064963489731075
 10
1.5099004171378
 20
-0.068444384580975
 10
1.509557695317
 20
-0.07019511692017
 10
1.5092397766554
 20
-0.071951516764608
 10
1.5086780267515
 20
-0.075477806100757
 10
1.5082144234136
 20
-0.079016272619686
 10
1.5080191494547
 20
-0.080787899718647
  0
LINE
  5
14C
330
131
100
AcDbEntity
  8
AM_9
100
AcDbLine
 10
1.3854381705918
 20
-0.17327145000002
 30
0.0
 11
1.3993575675795
 21
-0.17327145000002
 31
0.0
  0
LINE
  5
14D
330
131
100
AcDbEntity
  8
AM_9
100
AcDbLine
 10
1.3993575675795
 20
-0.015791049999979
 30
0.0
 11
1.3854381705918
 21
-0.015791049999979
 31
0.0
  0
LINE
  5
14E
330
131
100
AcDbEntity
  8
AM_9
100
AcDbLine
 10
-1.1448267724377
 20
-0.9453125
 30
0.0
 11
1.143987627296
 21
-0.9453125
 31
0.0
  0
LWPOLYLINE
  5
14F
330
131
100
AcDbEntity
  8
AM_9
100
AcDbPolyline
 90
       23
 70
     0
 43
0.0
 10
-1.1484374477177
 20
-0.79852609871804
 10
-1.137086187712
 20
-0.80070082281666
 10
-1.11376034582
 20
-0.80498447537838
 10
-1.0896177264328
 20
-0.80917778930851
 10
-1.0772456349512
 20
-0.81123960564563
 10
-1.0646760345695
 20
-0.81327768943521
 10
-1.0389535612499
 20
-0.81728116909177
 10
-1.0124691700809
 20
-0.82118529232155
 10
-0.98524228342284
 20
-0.82498719603106
 10
-0.95729286814586
 20
-0.82868409208962
 10
-0.92864142098745
 20
-0.83227326937404
 10
-0.91405898187742
 20
-0.83402663779716
 10
-0.89930895352101
 20
-0.83575209575683
 10
-0.86931697674697
 20
-0.83911802003645
 10
-0.83868748531776
 20
-0.84236857380826
 10
-0.80744294140791
 20
-0.84550137327474
 10
-0.77560625824145
 20
-0.8485141209936
 10
-0.74320078328845
 20
-0.85140460756266
 10
-0.72679215950827
 20
-0.85280333695139
 10
-0.7102502811431
 20
-0.85417071324012
 10
-0.67677891609598
 20
-0.85681040949902
 10
-0.64281123441307
 20
-0.85932176051493
 10
-0.62564904556332
 20
-0.86052872731074
  0
LINE
  5
150
330
131
100
AcDbEntity
  8
AM_9
100
AcDbLine
 10
-0.62564904556332
 20
-0.86052872731074
 30
0.0
 11
-0.44891604633899
 21
-0.87073119994415
 31
0.0
  0
LWPOLYLINE
  5
151
330
131
100
AcDbEntity
  8
AM_9
100
AcDbPolyline
 90
       23
 70
     0
 43
0.0
 10
-0.44891604633899
 20
-0.87073119994415
 10
-0.41970503641652
 20
-0.87205288600105
 10
-0.36070651342912
 20
-0.87442809886043
 10
-0.30103165369017
 20
-0.87644212467078
 10
-0.27097552008437
 20
-0.87731248566135
 10
-0.24079234955338
 20
-0.87809118706648
 10
-0.18010155172455
 20
-0.87937219400051
 10
-0.1190730574752
 20
-0.88028274354211
 10
-0.057821297268935
 20
-0.8808211283805
 10
0.0035388797995447
 20
-0.88098633902614
 10
0.064892421350287
 20
-0.88077806570355
 10
0.095530747439746
 20
-0.88053396724727
 10
0.12612428744516
 20
-0.88019669893216
 10
0.18711966629158
 20
-0.87924332879408
 10
0.24776418951844
 20
-0.87791974289012
 10
0.30794414662062
 20
-0.87622842298805
 10
0.36754669817001
 20
-0.87417254036912
 10
0.42646008739318
 20
-0.87175594988186
 10
0.45562376979546
 20
-0.87041377898801
 10
0.48457384971904
 20
-0.86898318271409
 10
0.54177901990364
 20
-0.86585943789679
 10
0.59796833634363
 20
-0.86239057255575
 10
0.62564904556332
 20
-0.86052872731074
  0
LWPOLYLINE
  5
152
330
131
100
AcDbEntity
  8
AM_9
100
AcDbPolyline
 90
       23
 70
     0
 43
0.0
 10
0.62564904556332
 20
-0.86052872731074
 10
0.63978986766193
 20
-0.85953721286157
 10
0.66783113878838
 20
-0.85748801805905
 10
0.69554030881201
 20
-0.8553514558055
 10
0.70926604323982
 20
-0.85425074222557
 10
0.72290359843233
 20
-0.85312858857711
 10
0.74990740034935
 20
-0.85082052176806
 10
0.77653828603018
 20
-0.84842840314085
 10
0.8027830123869
 20
-0.84595342225551
 10
0.82862852836203
 20
-0.84339680987809
 10
0.85406198141867
 20
-0.84075983736855
 10
0.86662022379268
 20
-0.83941162430898
 10
0.87907072393181
 20
-0.83804381604864
 10
0.90364231947781
 20
-0.8352500965497
 10
0.92776454901879
 20
-0.83238006814108
 10
0.95142541697897
 20
-0.82943515803924
 10
0.97461315720987
 20
-0.82641683069805
 10
0.99731623884139
 20
-0.82332658708052
 10
1.008482495033
 20
-0.82175497551872
 10
1.0195233720159
 20
-0.82016596391241
 10
1.0412235135027
 20
-0.81693653291804
 10
1.0624058721892
 20
-0.81363990003869
 10
1.0727995810216
 20
-0.81196689390881
  0
LWPOLYLINE
  5
153
330
131
100
AcDbEntity
  8
AM_9
100
AcDbPolyline
 90
        5
 70
     0
 43
0.0
 10
1.0727995810216
 20
-0.81196689390881
 10
1.0851623975463
 20
-0.80992681399503
 10
1.1092966350094
 20
-0.80577745972637
 10
1.1326278455558
 20
-0.8015383562501
 10
1.1439870146866
 20
-0.79938610505479
  0
CIRCLE
  5
154
330
131
100
AcDbEntity
  8
AM_9
100
AcDbCircle
 10
1.625
 20
0.0
 30
0.0
 40
0.21615
  0
ELLIPSE
  5
155
330
131
100
AcDbEntity
  8
AM_9
100
AcDbEllipse
 10
1.627911683846193
 20
-0.0945312500000802
 30
0.0
 11
-1.362666886460606E-17
 21
-0.07418013027153884
 31
0.0
210
0.0
220
0.0
230
1.0
 40
0.7071067811865502
 41
0.4808136547646145
 42
2.660778998826208
  0
ELLIPSE
  5
156
330
131
100
AcDbEntity
  8
AM_9
100
AcDbEllipse
 10
1.59013281258529
 20
-0.0945312499999055
 30
0.0
 11
-1.816586040986117E-17
 21
-0.09889033813672615
 31
0.0
210
0.0
220
0.0
230
1.0
 40
0.7071067811865488
 41
0.4808136547742317
 42
2.660778999832545
  0
ELLIPSE
  5
157
330
131
100
AcDbEntity
  8
AM_9
100
AcDbEllipse
 10
1.51071316774471
 20
-0.0945312500000337
 30
0.0
 11
-2.025002468264946E-17
 21
-0.1102360000001542
 31
0.0
210
0.0
220
0.0
230
1.0
 40
0.7071067811865507
 41
0.5776064211025949
 42
2.563974231712868
  0
ELLIPSE
  5
158
330
131
100
AcDbEntity
  8
AM_9
100
AcDbEllipse
 10
1.496793770757187
 20
-0.0945312500000692
 30
0.0
 11
-2.025002468262593E-17
 21
-0.1102360000000261
 31
0.0
210
0.0
220
0.0
230
1.0
 40
0.707106781185773
 41
0.0
 42
3.141592653589793
  0
LWPOLYLINE
  5
159
330
131
100
AcDbEntity
  8
AM_9
100
AcDbPolyline
 90
      131
 70
     0
 43
0.0
 10
1.3287885828386
 20
-0.09453125
 10
1.3287900807878
 20
-0.093958640153907
 10
1.3288020639064
 20
-0.092813541589401
 10
1.3288260276087
 20
-0.091668806382312
 10
1.3288425006936
 20
-0.091096650714975
 10
1.3288619668255
 20
-0.090524676685513
 10
1.3289098739545
 20
-0.089381394523791
 10
1.3289697388614
 20
-0.088239201742648
 10
1.3290415488827
 20
-0.087098339957142
 10
1.329125288828
 20
-0.085959050500779
 10
1.3292209409833
 20
-0.084821574374459
 10
1.3292732279149
 20
-0.084253591519352
 10
1.3293284851147
 20
-0.083686152195497
 10
1.3294478984727
 20
-0.082553024146726
 10
1.329579155797
 20
-0.081422429925684
 10
1.329722229322
 20
-0.080294608693918
 10
1.3298770887825
 20
-0.079169799026382
 10
1.3300437014201
 20
-0.078048238860978
 10
1.3301314042633
 20
-0.077488751510586
 10
1.3302220319903
 20
-0.076930165448222
 10
1.3304120427695
 20
-0.075815815301054
 10
1.3306136935638
 20
-0.074705424144808
 10
1.3307188707323
 20
-0.074151786624813
 10
1.3308269417166
 20
-0.073599226867351
 10
1.3310517421183
 20
-0.072497457469391
 10
1.3312880472155
 20
-0.07140034901498
 10
1.3314104984987
 20
-0.070853615205867
 10
1.331535807021
 20
-0.070308133582212
 10
1.3317949691248
 20
-0.069221042214129
 10
1.3320654787047
 20
-0.068139304869851
 10
1.3323472785381
 20
-0.067063150375925
 10
1.3326403090142
 20
-0.065992806377926
 10
1.3329445081464
 20
-0.064928499292297
 10
1.3331007759414
 20
-0.064398679998878
 10
1.3332598115857
 20
-0.063870454258458
 10
1.3335861526339
 20
-0.062818895091177
 10
1.3339234622582
 20
-0.061774044233226
 10
1.3342716691053
 20
-0.060736122708331
 10
1.3346306995169
 20
-0.059705350074408
 10
1.3350004775451
 20
-0.05868194437713
 10
1.3351893725596
 20
-0.058173071844141
 10
1.3353809249685
 20
-0.057666122103792
 10
1.3357719613088
 20
-0.056658098137523
 10
1.3361735038475
 20
-0.055658085711828
 10
1.3365854676439
 20
-0.054666296365481
 10
1.3370077655529
 20
-0.053682939897778
 10
1.337440308243
 20
-0.052708224324155
 10
1.3376603928719
 20
-0.052224171378838
 10
1.337883004216
 20
-0.051742355832189
 10
1.3383357598255
 20
-0.050785538737978
 10
1.3387984792975
 20
-0.049837975442922
 10
1.3392710647501
 20
-0.048899866390908
 10
1.3397534162142
 20
-0.047971410025909
 10
1.3402454316553
 20
-0.047052802750007
 10
1.3404950309217
 20
-0.046597253327555
 10
1.3407470069941
 20
-0.046144238881844
 10
1.3412580361295
 20
-0.04524591061552
 10
1.3417784109602
 20
-0.044358007979932
 10
1.3423080214082
 20
-0.043480718798582
 10
1.3428467554417
 20
-0.042614228649844
 10
1.343394499099
 20
-0.041758720827702
 10
1.3436717134017
 20
-0.041335141934287
 10
1.3439511365125
 20
-0.040914376302985
 10
1.3445165499333
 20
-0.040081373685078
 10
1.3450906197561
 20
-0.039259889184146
 10
1.3453808629401
 20
-0.038853520628
 10
1.3456732245442
 20
-0.038450096573853
 10
1.3462642410558
 20
-0.037652167154607
 10
1.3468635442694
 20
-0.036866269717322
 10
1.3471662638403
 20
-0.036477885044088
 10
1.3474710074108
 20
-0.036092570507713
 10
1.3480865019796
 20
-0.035331233191128
 10
1.3487098977764
 20
-0.034582418817929
 10
1.3493410629304
 20
-0.033846285789423
 10
1.3499798639275
 20
-0.033122989824353
 10
1.3506261656381
 20
-0.03241268392596
 10
1.3509520865984
 20
-0.032062449314783
 10
1.3512798313461
 20
-0.031715518349616
 10
1.3519407227775
 20
-0.03103164057104
 10
1.3526087001299
 20
-0.030361195255102
 10
1.353283622102
 20
-0.029704324225219
 10
1.3539653459233
 20
-0.029061166433358
 10
1.3546537273846
 20
-0.028431857930638
 10
1.355000369279
 20
-0.028122438878386
 10
1.3553486208684
 20
-0.027816531838555
 10
1.3560498793796
 20
-0.02721531832082
 10
1.3567573545767
 20
-0.026628344555822
 10
1.357470896803
 20
-0.026055734709729
 10
1.3581903551186
 20
-0.025497609910221
 10
1.3589155773321
 20
-0.024954088220867
 10
1.3592803020064
 20
-0.024687839593361
 10
1.3596464100327
 20
-0.024425284616151
 10
1.360382698623
 20
-0.023911310957149
 10
1.3611242873512
 20
-0.023412275967867
 10
1.3618710193446
 20
-0.022928285212244
 10
1.3626227366423
 20
-0.02245944107182
 10
1.363379280229
 20
-0.022005842724075
 10
1.3637593119084
 20
-0.021784790834135
 10
1.3641404900684
 20
-0.021567586121457
 10
1.364906205137
 20
-0.021144763971079
 10
1.3656762634584
 20
-0.020737465715108
 10
1.3664505021375
 20
-0.020345777511847
 10
1.3672287573948
 20
-0.019969782217509
 10
1.3680108646012
 20
-0.019609559368691
 10
1.3684033110149
 20
-0.019435386554674
 10
1.3687966583127
 20
-0.019265185165544
 10
1.3695859723056
 20
-0.018936732455661
 10
1.3703786396114
 20
-0.018624270718661
 10
1.3707761783841
 20
-0.018474057252813
 10
1.3711744925524
 20
-0.018327866051497
 10
1.3719733627768
 20
-0.018047581154469
 10
1.3727750812948
 20
-0.017783475317964
 10
1.3731769556888
 20
-0.017657507140154
 10
1.3735794785139
 20
-0.017535604409913
 10
1.374386384275
 20
-0.017304020863973
 10
1.3751956278884
 20
-0.017088773668433
 10
1.3760070381697
 20
-0.016889908355857
 10
1.3768204434765
 20
-0.016707466993445
 10
1.3776356717441
 20
-0.016541488174142
 10
1.3780439156116
 20
-0.016464683326433
 10
1.3784525505222
 20
-0.016392007008465
 10
1.3792709070115
 20
-0.016259055117086
 10
1.3800905680999
 20
-0.016142660624134
 10
1.3809113603995
 20
-0.016042848151252
 10
1.3817331102832
 20
-0.015959638812387
 10
1.382555643921
 20
-0.015893050209319
 10
1.3829671502795
 20
-0.015865993222979
 10
1.3833787873174
 20
-0.015843096427948
 10
1.3842023663477
 20
-0.015809788035301
 10
1.3850262067954
 20
-0.01579313207731
 10
1.3854381705918
 20
-0.015791049999979
  0
LWPOLYLINE
  5
15A
330
131
100
AcDbEntity
  8
AM_9
100
AcDbPolyline
 90
      131
 70
     0
 43
0.0
 10
1.3854381705918
 20
-0.015791049999979
 10
1.3862620763981
 20
-0.015799378199192
 10
1.3879091909041
 20
-0.015865993222979
 10
1.3895542146803
 20
-0.015999166907592
 10
1.3903755074888
 20
-0.016090680233295
 10
1.3911957558722
 20
-0.0161987865748
 10
1.3928324255721
 20
-0.016464683326433
 10
1.3944628389941
 20
-0.016796632187294
 10
1.3960856166457
 20
-0.017194352295508
 10
1.3976993854949
 20
-0.017657507140154
 10
1.3993027801322
 20
-0.018185704845997
 10
1.4001001627996
 20
-0.018474057252813
 10
1.4008944439256
 20
-0.018778498505042
 10
1.4024730301688
 20
-0.019435386554674
 10
1.40403720322
 20
-0.020155813202021
 10
1.4055856396328
 20
-0.020939168894216
 10
1.4071170292753
 20
-0.021784790834135
 10
1.4086300764391
 20
-0.022691963541195
 10
1.4093793208964
 20
-0.023168393587158
 10
1.4101235009351
 20
-0.023659919456718
 10
1.4115960391772
 20
-0.024687839593361
 10
1.413046445251
 20
-0.025774854228068
 10
1.4137629644685
 20
-0.026340236500914
 10
1.4144734919682
 20
-0.026920043637933
 10
1.4158759719047
 20
-0.028122438878386
 10
1.4172526984225
 20
-0.029381022603012
 10
1.4179310392561
 20
-0.030031054202259
 10
1.4186025066735
 20
-0.030694729924327
 10
1.4199242545853
 20
-0.032062449314783
 10
1.421216823827
 20
-0.033483023547229
 10
1.4224791207561
 20
-0.034955250674041
 10
1.4237100773434
 20
-0.036477885044088
 10
1.4249086520767
 20
-0.03804963835668
 10
1.4254954782436
 20
-0.038853520628
 10
1.426073830842
 20
-0.039669180751598
 10
1.4272046277819
 20
-0.041335141934287
 10
1.4283000861293
 20
-0.043046112335265
 10
1.4293592790169
 20
-0.044800644302758
 10
1.430381310262
 20
-0.046597253327555
 10
1.4313653151239
 20
-0.048434419299056
 10
1.431842796208
 20
-0.049367726686419
 10
1.4323104610365
 20
-0.050310587791435
 10
1.4332159483117
 20
-0.052224171378838
 10
1.4340810108171
 20
-0.054173550978508
 10
1.4349049166234
 20
-0.056157077220684
 10
1.435686968624
 20
-0.058173071844141
 10
1.4364265051249
 20
-0.060219829116158
 10
1.436780133105
 20
-0.061254203546876
 10
1.4371229004043
 20
-0.062295617275744
 10
1.4377755652423
 20
-0.064398679998878
 10
1.4383839474192
 20
-0.066527237884537
 10
1.4389475321831
 20
-0.068679489960242
 10
1.439465842685
 20
-0.070853615205867
 10
1.4399384403824
 20
-0.073047774094399
 10
1.4401574704513
 20
-0.074151786624813
 10
1.4403649254105
 20
-0.075260110148363
 10
1.4407449369203
 20
-0.077488751510586
 10
1.4410781533843
 20
-0.07973181252798
 10
1.4413642928679
 20
-0.081987395346986
 10
1.4416031132687
 20
-0.084253591519352
 10
1.4417944125208
 20
-0.086528483616868
 10
1.4418721895607
 20
-0.087668589384899
 10
1.4419380287658
 20
-0.088810146853706
 10
1.4420338404901
 20
-0.091096650714975
 10
1.4420817666273
 20
-0.093386060590135
 10
1.4420877583451
 20
-0.09453125
 10
1.4420817666273
 20
-0.095676439409865
 10
1.4420338404901
 20
-0.097965849285025
 10
1.4419380287658
 20
-0.10025235314629
 10
1.4418721895607
 20
-0.1013939106151
 10
1.4417944125208
 20
-0.10253401638313
 10
1.4416031132687
 20
-0.10480890848065
 10
1.4413642928679
 20
-0.10707510465301
 10
1.4410781533843
 20
-0.10933068747202
 10
1.4407449369203
 20
-0.11157374848941
 10
1.4403649254105
 20
-0.11380238985164
 10
1.4401574704513
 20
-0.11491071337519
 10
1.4399384403824
 20
-0.1160147259056
 10
1.439465842685
 20
-0.11820888479413
 10
1.4389475321831
 20
-0.12038301003976
 10
1.4383839474192
 20
-0.12253526211546
 10
1.4377755652423
 20
-0.12466382000112
 10
1.4371229004043
 20
-0.12676688272426
 10
1.436780133105
 20
-0.12780829645312
 10
1.4364265051249
 20
-0.12884267088384
 10
1.435686968624
 20
-0.13088942815586
 10
1.4349049166234
 20
-0.13290542277932
 10
1.4340810108171
 20
-0.13488894902149
 10
1.4332159483117
 20
-0.13683832862116
 10
1.4323104610365
 20
-0.13875191220857
 10
1.431842796208
 20
-0.13969477331358
 10
1.4313653151239
 20
-0.14062808070094
 10
1.430381310262
 20
-0.14246524667245
 10
1.4293592790169
 20
-0.14426185569724
 10
1.4283000861293
 20
-0.14601638766473
 10
1.4272046277819
 20
-0.14772735806571
 10
1.426073830842
 20
-0.1493933192484
 10
1.4254954782436
 20
-0.150208979372
 10
1.4249086520767
 20
-0.15101286164332
 10
1.4237100773434
 20
-0.15258461495591
 10
1.4224791207561
 20
-0.15410724932596
 10
1.421216823827
 20
-0.15557947645277
 10
1.4199242545853
 20
-0.15700005068522
 10
1.4186025066735
 20
-0.15836777007567
 10
1.4179310392561
 20
-0.15903144579774
 10
1.4172526984225
 20
-0.15968147739699
 10
1.4158759719047
 20
-0.16094006112161
 10
1.4144734919682
 20
-0.16214245636207
 10
1.4137629644685
 20
-0.16272226349909
 10
1.413046445251
 20
-0.16328764577193
 10
1.4115960391772
 20
-0.16437466040664
 10
1.4101235009351
 20
-0.16540258054328
 10
1.4093793208964
 20
-0.16589410641284
 10
1.4086300764391
 20
-0.1663705364588
 10
1.4071170292753
 20
-0.16727770916586
 10
1.4055856396328
 20
-0.16812333110578
 10
1.40403720322
 20
-0.16890668679798
 10
1.4024730301688
 20
-0.16962711344533
 10
1.4008944439256
 20
-0.17028400149496
 10
1.4001001627996
 20
-0.17058844274719
 10
1.3993027801322
 20
-0.170876795154
 10
1.3976993854949
 20
-0.17140499285985
 10
1.3960856166457
 20
-0.17186814770449
 10
1.3944628389941
 20
-0.17226586781271
 10
1.3928324255721
 20
-0.17259781667357
 10
1.3911957558722
 20
-0.1728637134252
 10
1.3903755074888
 20
-0.1729718197667
 10
1.3895542146803
 20
-0.17306333309241
 10
1.3879091909041
 20
-0.17319650677702
 10
1.3862620763981
 20
-0.17326312180081
 10
1.3854381705918
 20
-0.17327145000002
  0
LWPOLYLINE
  5
15B
330
131
100
AcDbEntity
  8
AM_9
100
AcDbPolyline
 90
      131
 70
     0
 43
0.0
 10
1.3854381705918
 20
-0.17327145000002
 10
1.3850262067954
 20
-0.17326936792269
 10
1.3842023663477
 20
-0.1732527119647
 10
1.3833787873174
 20
-0.17321940357205
 10
1.3829671502795
 20
-0.17319650677702
 10
1.382555643921
 20
-0.17316944979068
 10
1.3817331102832
 20
-0.17310286118761
 10
1.3809113603995
 20
-0.17301965184875
 10
1.3800905680999
 20
-0.17291983937587
 10
1.3792709070115
 20
-0.17280344488291
 10
1.3784525505222
 20
-0.17267049299153
 10
1.3780439156116
 20
-0.17259781667357
 10
1.3776356717441
 20
-0.17252101182586
 10
1.3768204434765
 20
-0.17235503300655
 10
1.3760070381697
 20
-0.17217259164414
 10
1.3751956278884
 20
-0.17197372633157
 10
1.374386384275
 20
-0.17175847913603
 10
1.3735794785139
 20
-0.17152689559009
 10
1.3731769556888
 20
-0.17140499285985
 10
1.3727750812948
 20
-0.17127902468204
 10
1.3719733627768
 20
-0.17101491884553
 10
1.3711744925524
 20
-0.1707346339485
 10
1.3707761783841
 20
-0.17058844274719
 10
1.3703786396114
 20
-0.17043822928134
 10
1.3695859723056
 20
-0.17012576754434
 10
1.3687966583127
 20
-0.16979731483446
 10
1.3684033110149
 20
-0.16962711344533
 10
1.3680108646012
 20
-0.16945294063131
 10
1.3672287573948
 20
-0.16909271778249
 10
1.3664505021375
 20
-0.16871672248815
 10
1.3656762634584
 20
-0.16832503428489
 10
1.364906205137
 20
-0.16791773602892
 10
1.3641404900684
 20
-0.16749491387854
 10
1.3637593119084
 20
-0.16727770916586
 10
1.363379280229
 20
-0.16705665727592
 10
1.3626227366423
 20
-0.16660305892818
 10
1.3618710193446
 20
-0.16613421478776
 10
1.3611242873512
 20
-0.16565022403213
 10
1.360382698623
 20
-0.16515118904285
 10
1.3596464100327
 20
-0.16463721538385
 10
1.3592803020064
 20
-0.16437466040664
 10
1.3589155773321
 20
-0.16410841177913
 10
1.3581903551186
 20
-0.16356489008978
 10
1.357470896803
 20
-0.16300676529027
 10
1.3567573545767
 20
-0.16243415544418
 10
1.3560498793796
 20
-0.16184718167918
 10
1.3553486208684
 20
-0.16124596816144
 10
1.355000369279
 20
-0.16094006112161
 10
1.3546537273846
 20
-0.16063064206936
 10
1.3539653459233
 20
-0.16000133356664
 10
1.353283622102
 20
-0.15935817577478
 10
1.3526087001299
 20
-0.1587013047449
 10
1.3519407227775
 20
-0.15803085942896
 10
1.3512798313461
 20
-0.15734698165038
 10
1.3509520865984
 20
-0.15700005068522
 10
1.3506261656381
 20
-0.15664981607404
 10
1.3499798639275
 20
-0.15593951017565
 10
1.3493410629304
 20
-0.15521621421058
 10
1.3487098977764
 20
-0.15448008118207
 10
1.3480865019796
 20
-0.15373126680887
 10
1.3474710074108
 20
-0.15296992949229
 10
1.3471662638403
 20
-0.15258461495591
 10
1.3468635442694
 20
-0.15219623028268
 10
1.3462642410558
 20
-0.15141033284539
 10
1.3456732245442
 20
-0.15061240342615
 10
1.3453808629401
 20
-0.150208979372
 10
1.3450906197561
 20
-0.14980261081585
 10
1.3445165499333
 20
-0.14898112631492
 10
1.3439511365125
 20
-0.14814812369702
 10
1.3436717134017
 20
-0.14772735806571
 10
1.343394499099
 20
-0.1473037791723
 10
1.3428467554417
 20
-0.14644827135016
 10
1.3423080214082
 20
-0.14558178120142
 10
1.3417784109602
 20
-0.14470449202007
 10
1.3412580361295
 20
-0.14381658938448
 10
1.3407470069941
 20
-0.14291826111816
 10
1.3404950309217
 20
-0.14246524667245
 10
1.3402454316553
 20
-0.14200969724999
 10
1.3397534162142
 20
-0.14109108997409
 10
1.3392710647501
 20
-0.14016263360909
 10
1.3387984792975
 20
-0.13922452455708
 10
1.3383357598255
 20
-0.13827696126202
 10
1.337883004216
 20
-0.13732014416781
 10
1.3376603928719
 20
-0.13683832862116
 10
1.337440308243
 20
-0.13635427567584
 10
1.3370077655529
 20
-0.13537956010222
 10
1.3365854676439
 20
-0.13439620363452
 10
1.3361735038475
 20
-0.13340441428817
 10
1.3357719613088
 20
-0.13240440186248
 10
1.3353809249685
 20
-0.13139637789621
 10
1.3351893725596
 20
-0.13088942815586
 10
1.3350004775451
 20
-0.13038055562287
 10
1.3346306995169
 20
-0.12935714992559
 10
1.3342716691053
 20
-0.12832637729167
 10
1.3339234622582
 20
-0.12728845576677
 10
1.3335861526339
 20
-0.12624360490882
 10
1.3332598115857
 20
-0.12519204574154
 10
1.3331007759414
 20
-0.12466382000112
 10
1.3329445081464
 20
-0.1241340007077
 10
1.3326403090142
 20
-0.12306969362207
 10
1.3323472785381
 20
-0.12199934962407
 10
1.3320654787047
 20
-0.12092319513015
 10
1.3317949691248
 20
-0.11984145778587
 10
1.331535807021
 20
-0.11875436641779
 10
1.3314104984987
 20
-0.11820888479413
 10
1.3312880472155
 20
-0.11766215098502
 10
1.3310517421183
 20
-0.11656504253061
 10
1.3308269417166
 20
-0.11546327313265
 10
1.3307188707323
 20
-0.11491071337519
 10
1.3306136935638
 20
-0.11435707585519
 10
1.3304120427695
 20
-0.11324668469895
 10
1.3302220319903
 20
-0.11213233455178
 10
1.3301314042633
 20
-0.11157374848941
 10
1.3300437014201
 20
-0.11101426113902
 10
1.3298770887825
 20
-0.10989270097362
 10
1.329722229322
 20
-0.10876789130608
 10
1.329579155797
 20
-0.10764007007432
 10
1.3294478984727
 20
-0.10650947585327
 10
1.3293284851147
 20
-0.1053763478045
 10
1.3292732279149
 20
-0.10480890848065
 10
1.3292209409833
 20
-0.10424092562554
 10
1.329125288828
 20
-0.10310344949922
 10
1.3290415488827
 20
-0.10196416004286
 10
1.3289697388614
 20
-0.10082329825735
 10
1.3289098739545
 20
-0.099681105476209
 10
1.3288619668255
 20
-0.098537823314487
 10
1.3288425006936
 20
-0.097965849285025
 10
1.3288260276087
 20
-0.097393693617688
 10
1.3288020639064
 20
-0.096248958410599
 10
1.3287900807878
 20
-0.095103859846093
 10
1.3287885828386
 20
-0.09453125
  0
ELLIPSE
  5
15C
330
131
100
AcDbEntity
  8
AM_9
100
AcDbEllipse
 10
1.496793770757123
 20
-0.0945312499999648
 30
0.0
 11
-2.892860668946378E-17
 21
-0.1574800000000272
 31
0.0
210
0.0
220
0.0
230
1.0
 40
0.7071067811865475
 41
0.8768995765166112
 42
2.264692735004297
  0
LWPOLYLINE
  5
15D
330
131
100
AcDbEntity
  8
AM_9
100
AcDbPolyline
 90
       23
 70
     0
 43
0.0
 10
1.5982032213576
 20
-0.18545265906712
 10
1.5987394761192
 20
-0.18279626996124
 10
1.5997660727943
 20
-0.1775319495301
 10
1.6007322088179
 20
-0.17232694219395
 10
1.6011928531461
 20
-0.16974471618961
 10
1.6016386628605
 20
-0.16717497007983
 10
1.6024860672728
 20
-0.16206982206894
 10
1.603274908597
 20
-0.15700532780331
 10
1.604005527133
 20
-0.15197533144601
 10
1.6046781155317
 20
-0.14697366494718
 10
1.6052927163757
 20
-0.14199412055408
 10
1.6055782429024
 20
-0.1395106863743
 10
1.6058492186928
 20
-0.13703042228561
 10
1.6063473533332
 20
-0.13207619606773
 10
1.6067866871228
 20
-0.12712493819735
 10
1.6071666156884
 20
-0.12216998176543
 10
1.6074863548235
 20
-0.11720446062605
 10
1.6077449302438
 20
-0.11222127044423
 10
1.6078509221995
 20
-0.10972075387261
 10
1.6079411655456
 20
-0.10721302629064
 10
1.6080736681509
 20
-0.10217201617262
 10
1.6081408129764
 20
-0.097090149797047
 10
1.6081493002117
 20
-0.09453125
  0
LWPOLYLINE
  5
15E
330
131
100
AcDbEntity
  8
AM_9
100
AcDbPolyline
 90
       23
 70
     0
 43
0.0
 10
1.6081493002117
 20
-0.09453125
 10
1.6081408129764
 20
-0.091972350202953
 10
1.6080736681509
 20
-0.086890483827383
 10
1.6079411655456
 20
-0.081849473709364
 10
1.6078509221995
 20
-0.079341746127386
 10
1.6077449302438
 20
-0.076841229555765
 10
1.6074863548235
 20
-0.071858039373948
 10
1.6071666156884
 20
-0.066892518234566
 10
1.6067866871228
 20
-0.061937561802653
 10
1.6063473533332
 20
-0.056986303932275
 10
1.6058492186928
 20
-0.052032077714393
 10
1.6055782429024
 20
-0.049551813625701
 10
1.6052927163757
 20
-0.047068379445916
 10
1.6046781155317
 20
-0.042088835052821
 10
1.604005527133
 20
-0.037087168553985
 10
1.603274908597
 20
-0.032057172196688
 10
1.6024860672728
 20
-0.026992677931057
 10
1.6016386628605
 20
-0.021887529920175
 10
1.6011928531461
 20
-0.019317783810388
 10
1.6007322088179
 20
-0.01673555780605
 10
1.5997660727943
 20
-0.011530550469896
 10
1.5987394761192
 20
-0.0062662300387591
 10
1.5982032213576
 20
-0.0036098409328829
  0
LWPOLYLINE
  5
15F
330
131
100
AcDbEntity
  8
AM_9
100
AcDbPolyline
 90
       23
 70
     0
 43
0.0
 10
1.5206591758883
 20
-0.003609840932883
 10
1.5201229450365
 20
-0.006266168417998
 10
1.5190963908371
 20
-0.011530372202954
 10
1.5181302900761
 20
-0.016735272337251
 10
1.5176696606414
 20
-0.019317448531148
 10
1.5172238639778
 20
-0.021887147493476
 10
1.5163764800867
 20
-0.026992209618405
 10
1.5155876517552
 20
-0.032056629934044
 10
1.5148570385774
 20
-0.037086565185473
 10
1.5141844477955
 20
-0.04208818438354
 10
1.5135698367189
 20
-0.047067696304124
 10
1.5132843020984
 20
-0.04955112014748
 10
1.5130133162109
 20
-0.052031378023886
 10
1.5125151553118
 20
-0.056985604795979
 10
1.5120757870855
 20
-0.061936881598636
 10
1.5116958157958
 20
-0.066891876725883
 10
1.5113760255406
 20
-0.071857457834027
 10
1.5111173904982
 20
-0.076840730911296
 10
1.5110113655109
 20
-0.079341298088703
 10
1.5109210869698
 20
-0.08184908270306
 10
1.5107885074371
 20
-0.086890227203376
 10
1.5107212768949
 20
-0.091972256918084
 10
1.5107127434807
 20
-0.09453125
  0
LWPOLYLINE
  5
160
330
131
100
AcDbEntity
  8
AM_9
100
AcDbPolyline
 90
       23
 70
     0
 43
0.0
 10
1.5107127434807
 20
-0.09453125
 10
1.5107212521697
 20
-0.097090243081916
 10
1.5107884381896
 20
-0.10217227279662
 10
1.5109209795607
 20
-0.10721341729694
 10
1.5110112413339
 20
-0.1097212019113
 10
1.5111172510596
 20
-0.1122217690887
 10
1.5113758600008
 20
-0.11720504216597
 10
1.5116956299022
 20
-0.12217062327412
 10
1.5120755864261
 20
-0.12712561840136
 10
1.5125149453347
 20
-0.13207689520402
 10
1.5130131022426
 20
-0.13703112197611
 10
1.5132840880987
 20
-0.13951137985252
 10
1.5135696239817
 20
-0.14199480369588
 10
1.5141842414237
 20
-0.14697431561646
 10
1.5148568436325
 20
-0.15197593481453
 10
1.5155874732408
 20
-0.15700587006596
 10
1.5163763229625
 20
-0.1620702903816
 10
1.5172237331732
 20
-0.16717535250652
 10
1.5176695448392
 20
-0.16974505146885
 10
1.5181301905031
 20
-0.17232722766275
 10
1.5190963274037
 20
-0.17753212779705
 10
1.520122922659
 20
-0.182796331582
 10
1.5206591758883
 20
-0.18545265906712
  0
LINE
  5
161
330
131
100
AcDbEntity
  8
AM_9
100
AcDbLine
 10
1.5982032213576
 20
-0.003609840932883
 30
0.0
 11
1.5206591758883
 21
-0.003609840932883
 31
0.0
  0
LWPOLYLINE
  5
162
330
131
100
AcDbEntity
  8
AM_9
100
AcDbPolyline
 90
        5
 70
     0
 43
0.0
 10
1.5982032213576
 20
-0.0036098409328829
 10
1.5968565646573
 20
-0.0019716976945791
 10
1.5941621123268
 20
0.0012398809773136
 10
1.5914621492588
 20
0.0043718704896905
 10
1.5901086380533
 20
0.0059103961102102
  0
LWPOLYLINE
  5
163
330
131
100
AcDbEntity
  8
AM_9
100
AcDbPolyline
 90
       23
 70
     0
 43
0.0
 10
1.4093036464336
 20
0.08731156813423
 10
1.4104941231437
 20
0.085862270103994
 10
1.4128757469375
 20
0.083014616167093
 10
1.4152610342042
 20
0.080230221079528
 10
1.416456068678
 20
0.078860078487666
 10
1.4176532295854
 20
0.077503790411453
 10
1.4200555039575
 20
0.074830341957045
 10
1.422470971529
 20
0.072205172111614
 10
1.4249027058697
 20
0.069623825492276
 10
1.4273537550741
 20
0.067082067367977
 10
1.4298271562368
 20
0.064575858521418
 10
1.4310731883286
 20
0.063334870575338
 10
1.4323259494044
 20
0.062101332213102
 10
1.4348531911521
 20
0.059654772957765
 10
1.4374119679258
 20
0.057232596857046
 10
1.44000540928
 20
0.054831333260352
 10
1.4426367011381
 20
0.052447607549378
 10
1.4453090991998
 20
0.050078124861135
 10
1.4466617529002
 20
0.048897712984387
 10
1.4480259426152
 20
0.047719654580302
 10
1.4507906680511
 20
0.045369015444564
 10
1.4536068242746
 20
0.043023061116679
 10
1.4550353323068
 20
0.041850863600675
  0
LWPOLYLINE
  5
164
330
131
100
AcDbEntity
  8
AM_9
100
AcDbPolyline
 90
       23
 70
     0
 43
0.0
 10
1.4550353323068
 20
0.041850863600675
 10
1.4564781032752
 20
0.040678666084661
 10
1.4594083256878
 20
0.038332711756759
 10
1.4624014558061
 20
0.035982072621005
 10
1.4639229031896
 20
0.034804014216914
 10
1.4654616517735
 20
0.03362360234016
 10
1.4685932693859
 20
0.031254119651905
 10
1.4718008828499
 20
0.028870393940922
 10
1.4750893072007
 20
0.026469130344221
 10
1.4784636226132
 20
0.024046954243497
 10
1.4819292008661
 20
0.021600394988158
 10
1.4836979790326
 20
0.020366856625921
 10
1.4854917342497
 20
0.019125868679841
 10
1.4891572672505
 20
0.016619659833284
 10
1.4929322313838
 20
0.014077901708989
 10
1.4968234836042
 20
0.011496555089657
 10
1.5008383487806
 20
0.0088713852442339
 10
1.504984666796
 20
0.0061979367898374
 10
1.5071097241742
 20
0.0048416487136305
 10
1.5092708449177
 20
0.0034715061217753
 10
1.5137059161813
 20
0.0006871110342255
 10
1.5182996046537
 20
-0.0021605429026567
 10
1.5206591758883
 20
-0.003609840932883
  0
LWPOLYLINE
  5
165
330
131
100
AcDbEntity
  8
AM_9
100
AcDbPolyline
 90
       23
 70
     0
 43
0.0
 10
1.4550353323068
 20
-0.23091336360068
 10
1.4536068174832
 20
-0.23208556111669
 10
1.4507906488326
 20
-0.23443151544459
 10
1.4480259124989
 20
-0.23678215458034
 10
1.4466617179051
 20
-0.23796021298444
 10
1.4453090597046
 20
-0.23914062486119
 10
1.4426366537764
 20
-0.24151010754944
 10
1.4400053555618
 20
-0.24389383326043
 10
1.4374119093627
 20
-0.24629509685713
 10
1.4348531292614
 20
-0.24871727295785
 10
1.4323258857132
 20
-0.25116383221319
 10
1.431073124314
 20
-0.25239737057543
 10
1.4298270922863
 20
-0.25363835852151
 10
1.4273536924242
 20
-0.25614456736806
 10
1.4249026461034
 20
-0.25868632549236
 10
1.4224709162571
 20
-0.26126767211169
 10
1.4200554548241
 20
-0.26389284195711
 10
1.4176531882727
 20
-0.26656629041151
 10
1.4164560319199
 20
-0.26792257848772
 10
1.4152610024385
 20
-0.26929272107957
 10
1.4128757264953
 20
-0.27207711616712
 10
1.4104941158583
 20
-0.274924770104
 10
1.4093036464336
 20
-0.27637406813423
  0
LWPOLYLINE
  5
166
330
131
100
AcDbEntity
  8
AM_9
100
AcDbPolyline
 90
        5
 70
     0
 43
0.0
 10
1.5901087917032
 20
-0.19497276822277
 10
1.5914622785434
 20
-0.19343426269412
 10
1.5941621914926
 20
-0.19030231471728
 10
1.5968565916255
 20
-0.18709077963677
 10
1.5982032213576
 20
-0.18545265906712
  0
LINE
  5
167
330
131
100
AcDbEntity
  8
AM_9
100
AcDbLine
 10
1.5982032213576
 20
-0.18545265906712
 30
0.0
 11
1.5206591758883
 21
-0.18545265906712
 31
0.0
  0
LWPOLYLINE
  5
168
330
131
100
AcDbEntity
  8
AM_9
100
AcDbPolyline
 90
       23
 70
     0
 43
0.0
 10
1.5206591758883
 20
-0.18545265906712
 10
1.5182996119391
 20
-0.18690195709735
 10
1.5137059366234
 20
-0.18974961103425
 10
1.5092708766833
 20
-0.19253400612182
 10
1.5071097609321
 20
-0.19390414871368
 10
1.5049847081086
 20
-0.19526043678989
 10
1.5008383979138
 20
-0.1979338852443
 10
1.4968235388758
 20
-0.20055905508973
 10
1.4929322911499
 20
-0.20314040170907
 10
1.4891573299001
 20
-0.20568215983337
 10
1.4854917982
 20
-0.20818836867993
 10
1.4836980430469
 20
-0.20942935662601
 10
1.4819292645571
 20
-0.21066289498825
 10
1.4784636845037
 20
-0.21310945424358
 10
1.4750893657635
 20
-0.2155316303443
 10
1.4718009365678
 20
-0.217932893941
 10
1.4685933167474
 20
-0.22031661965197
 10
1.4654616912685
 20
-0.22268610234021
 10
1.4639229381846
 20
-0.22386651421696
 10
1.4624014859223
 20
-0.22504457262105
 10
1.4594083449062
 20
-0.22739521175679
 10
1.4564781100665
 20
-0.22974116608467
 10
1.4550353323068
 20
-0.23091336360068
  0
CIRCLE
  5
169
330
131
100
AcDbEntity
  8
AM_9
100
AcDbCircle
 10
-1.625
 20
0.0
 30
0.0
 40
0.21615
  0
ELLIPSE
  5
16A
330
131
100
AcDbEntity
  8
AM_9
100
AcDbEllipse
 10
1.399357567579482
 20
-0.0945312500000254
 30
0.0
 11
-1.446434008414187E-17
 21
-0.07874020000004632
 31
0.0
210
0.0
220
0.0
230
1.0
 40
0.7071067811865491
 41
0.0
 42
6.283185307179586
  0
ELLIPSE
  5
16B
330
131
100
AcDbEntity
  8
AM_9
100
AcDbEllipse
 10
1.574499416962689
 20
-0.0945312500000127
 30
0.0
 11
-1.745424435126447E-17
 21
-0.09501648074321943
 31
0.0
210
0.0
220
0.0
230
1.0
 40
0.7071067811865468
 41
0.0
 42
6.283185307179586
  0
ELLIPSE
  5
16C
330
131
100
AcDbEntity
  8
AM_9
100
AcDbEllipse
 10
1.399357567579307
 20
-0.0945312500000947
 30
0.0
 11
-2.892860668949371E-17
 21
-0.1574800000001902
 31
0.0
210
0.0
220
0.0
230
1.0
 40
0.7071067811865518
 41
0.0
 42
6.283185307179586
  0
LINE
  5
16D
330
131
100
AcDbEntity
  8
AM_7
100
AcDbLine
 10
1.3625
 20
0.0
 30
0.0
 11
1.8875
 21
0.0
 31
0.0
  0
LINE
  5
16E
330
131
100
AcDbEntity
  8
AM_7
100
AcDbLine
 10
1.625
 20
-0.2625
 30
0.0
 11
1.625
 21
0.2625
 31
0.0
  0
LINE
  5
16F
330
131
100
AcDbEntity
  8
AM_7
100
AcDbLine
 10
-1.8875
 20
0.0
 30
0.0
 11
-1.3625
 21
0.0
 31
0.0
  0
LINE
  5
170
330
131
100
AcDbEntity
  8
AM_7
100
AcDbLine
 10
-1.625
 20
-0.2625
 30
0.0
 11
-1.625
 21
0.2625
 31
0.0
  0
LINE
  5
171
330
131
100
AcDbEntity
  8
AM_7
100
AcDbLine
 10
0.0
 20
1.03984375
 30
0.0
 11
0.0
 21
-1.14375
 31
0.0
  0
LWPOLYLINE
  5
172
330
131
100
AcDbEntity
  8
AM_4
100
AcDbPolyline
 90
      131
 70
     0
 43
0.0
 10
1.6521713574993
 20
-0.16030075809896
 10
1.652685239895
 20
-0.15991721200298
 10
1.6537020114558
 20
-0.15913162833386
 10
1.6547039227297
 20
-0.15832170403922
 10
1.6551992312321
 20
-0.15790773188836
 10
1.655690735982
 20
-0.15748781572416
 10
1.6566622193884
 20
-0.15663033896275
 10
1.6576181466961
 20
-0.15574964844492
 10
1.6585582968929
 20
-0.15484611813414
 10
1.6594823074359
 20
-0.15392027124345
 10
1.6603892426782
 20
-0.15297327143814
 10
1.6608362305984
 20
-0.15249200429337
 10
1.6612788807556
 20
-0.15200562404935
 10
1.6621511140994
 20
-0.15101771752747
 10
1.6630058354778
 20
-0.1500099355516
 10
1.6638429376143
 20
-0.14898265772924
 10
1.6646623128713
 20
-0.14793626027227
 10
1.6654638529971
 20
-0.14687111664235
 10
1.6658579008402
 20
-0.14633163111798
 10
1.6662474489317
 20
-0.14578759815991
 10
1.6670129906677
 20
-0.14468607457161
 10
1.6677603671611
 20
-0.14356691457144
 10
1.6681272084455
 20
-0.14300083596298
 10
1.6684894662873
 20
-0.14243048627194
 10
1.6692001748367
 20
-0.14127715762216
 10
1.6698923785456
 20
-0.14010729676999
 10
1.6702315051032
 20
-0.13951628194481
 10
1.6705659621551
 20
-0.13892127236698
 10
1.6712208094949
 20
-0.1377194538146
 10
1.671856803584
 20
-0.13650221145113
 10
1.6724738267445
 20
-0.13526991667947
 10
1.673071760723
 20
-0.13402294203625
 10
1.6736504868135
 20
-0.13276166120345
 10
1.6739326097111
 20
-0.13212577304496
 10
1.6742098859775
 20
-0.13148644896408
 10
1.674749714472
 20
-0.13019798525555
 10
1.6752693642045
 20
-0.12889794361673
 10
1.6757687537294
 20
-0.12758683919663
 10
1.6762478609435
 20
-0.12626503809951
 10
1.6767066597345
 20
-0.12493290596784
 10
1.6769284342693
 20
-0.12426307996569
 10
1.6771451202016
 20
-0.12359080824063
 10
1.6775632088729
 20
-0.12223911036044
 10
1.677960888914
 20
-0.12087817793245
 10
1.678338120326
 20
-0.11950837683926
 10
1.6786948601295
 20
-0.11813007331498
 10
1.6790310625304
 20
-0.11674363398245
 10
1.6791914471612
 20
-0.11604747806566
 10
1.6793466790668
 20
-0.11534942585738
 10
1.6796416587341
 20
-0.11394781632323
 10
1.6799159480854
 20
-0.11253917308088
 10
1.6801694913075
 20
-0.11112386407696
 10
1.680402230269
 20
-0.10970225741486
 10
1.6806141045407
 20
-0.10827472125249
 10
1.6807121979037
 20
-0.10755884464564
 10
1.680805051386
 20
-0.10684162369078
 10
1.6809750057217
 20
-0.10540333265706
 10
1.6811239000482
 20
-0.10396021578726
 10
1.6812516643474
 20
-0.10251264031133
 10
1.6813582179475
 20
-0.10106109420358
 10
1.6814433871912
 20
-0.099607965177403
 10
1.6814779460432
 20
-0.098881191533082
 10
1.6815071620025
 20
-0.098154339793246
 10
1.6815495867917
 20
-0.096700586051376
 10
1.681570702555
 20
-0.095247072091611
 10
1.681573281471
 20
-0.094520520114639
 10
1.6815705470404
 20
-0.093794166203117
 10
1.6815491548882
 20
-0.092342236817379
 10
1.6815065577445
 20
-0.0908916524876
 10
1.6814773163936
 20
-0.090166979917404
 10
1.6814427843487
 20
-0.089442781857793
 10
1.6813578605946
 20
-0.087995993624876
 10
1.6812518095637
 20
-0.086551656497034
 10
1.6811246515329
 20
-0.085110139151673
 10
1.6809764039547
 20
-0.083671810196272
 10
1.6808070814117
 20
-0.082237038135477
 10
1.6807145207835
 20
-0.081521101064145
 10
1.6806166955446
 20
-0.080806191347761
 10
1.6804052549559
 20
-0.079379638075042
 10
1.6801727650884
 20
-0.07795774642861
 10
1.6799192280801
 20
-0.076540884414782
 10
1.6796446425966
 20
-0.075129419983696
 10
1.6793490036429
 20
-0.073723721104672
 10
1.6791932865016
 20
-0.07302314876811
 10
1.6790323023539
 20
-0.072324155871618
 10
1.6786946046067
 20
-0.070931407187139
 10
1.6783364059054
 20
-0.069547704872175
 10
1.6779578774259
 20
-0.068173711953914
 10
1.6775591159498
 20
-0.066809783151949
 10
1.6771402160815
 20
-0.06545627293682
 10
1.6769232432118
 20
-0.064783535479161
 10
1.6767012702177
 20
-0.064113535434141
 10
1.6762423684944
 20
-0.062781924354372
 10
1.6757635987119
 20
-0.061461792952417
 10
1.6752650462417
 20
-0.060153494021094
 10
1.6747467939183
 20
-0.058857379922278
 10
1.6742089219195
 20
-0.057573802659339
 10
1.6739326528398
 20
-0.056936825272194
 10
1.6736515076396
 20
-0.056303113994222
 10
1.6730746255587
 20
-0.055045665612265
 10
1.6724783471136
 20
-0.053801809337533
 10
1.6718627405744
 20
-0.052571897401135
 10
1.6712278709324
 20
-0.051356282764599
 10
1.670573799805
 20
-0.050155319499973
 10
1.6702395819985
 20
-0.049560443189894
 10
1.6699005853625
 20
-0.048969363227856
 10
1.6692082822841
 20
-0.047798771614071
 10
1.6684969417478
 20
-0.046643904925087
 10
1.6681341474757
 20
-0.046072481871628
 10
1.6677666114628
 20
-0.045505126641709
 10
1.6670177018594
 20
-0.044383341656376
 10
1.6662507121574
 20
-0.043279505120531
 10
1.665860485267
 20
-0.04273444276633
 10
1.6654657962077
 20
-0.042194017611231
 10
1.664663109958
 20
-0.041127278138135
 10
1.663842811501
 20
-0.040079684389111
 10
1.6630050610971
 20
-0.039051632940914
 10
1.6621500212265
 20
-0.038043519514025
 10
1.6612778566744
 20
-0.037055739267271
 10
1.6608354047975
 20
-0.036569597500481
 10
1.6603887346519
 20
-0.036088687127441
 10
1.659482824953
 20
-0.035142758148745
 10
1.6585603001494
 20
-0.034218347896661
 10
1.6576213358226
 20
-0.033315852850524
 10
1.6566661108331
 20
-0.032435670819076
 10
1.6556948076258
 20
-0.031578201363187
 10
1.6552031847671
 20
-0.031158109297396
 10
1.6547076125679
 20
-0.030743846220046
 10
1.6537047163181
 20
-0.029933009723344
 10
1.652686314223
 20
-0.029146099214314
 10
1.6521713609136
 20
-0.02876174441979
  0
LINE
  5
173
330
131
100
AcDbEntity
  8
AM_4
100
AcDbLine
 10
1.6224736519178
 20
-0.18220929285761
 30
0.0
 11
1.6521713609794
 21
-0.16030075553164
 31
0.0
  0
LINE
  5
174
330
131
100
AcDbEntity
  8
AM_4
100
AcDbLine
 10
1.6521713609794
 20
-0.028761744468355
 30
0.0
 11
1.6224736519178
 21
-0.0068532071423878
 31
0.0
  0
LWPOLYLINE
  5
175
330
131
100
AcDbEntity
  8
AM_4
100
AcDbPolyline
 90
      131
 70
     0
 43
0.0
 10
1.5080191494598
 20
-0.10827460033081
 10
1.5081116730087
 20
-0.10914178698513
 10
1.508313749406
 20
-0.11087320071658
 10
1.5085385223099
 20
-0.11260035568954
 10
1.5086594169998
 20
-0.11346221891622
 10
1.5087859825534
 20
-0.1143228767929
 10
1.5090561232358
 20
-0.11604038898999
 10
1.5093489398366
 20
-0.11775251729242
 10
1.5096644303448
 20
-0.11945888671799
 10
1.5100025954032
 20
-0.12115912223037
 10
1.5103634384666
 20
-0.1228528486584
 10
1.5105523524127
 20
-0.12369709328483
 10
1.5107468002483
 20
-0.12453898413017
 10
1.5111521632977
 20
-0.12621516147586
 10
1.5115793950097
 20
-0.12788090693008
 10
1.5120283915803
 20
-0.12953586919952
 10
1.5124990510168
 20
-0.13117969707834
 10
1.5129912731294
 20
-0.1328120395082
 10
1.5132454393748
 20
-0.13362379402714
 10
1.5135049595404
 20
-0.13443254562918
 10
1.5140400137114
 20
-0.13604086481842
 10
1.5145963409863
 20
-0.137636646714
 10
1.5148824529861
 20
-0.13842972676182
 10
1.5151738486484
 20
-0.13921954122107
 10
1.515772445992
 20
-0.14078919849782
 10
1.5163920444039
 20
-0.14234526891847
 10
1.5167096919135
 20
-0.14311809984401
 10
1.5170325574553
 20
-0.14388740301101
 10
1.5176939010003
 20
-0.14541525136712
 10
1.5183759932802
 20
-0.14692846452211
 10
1.5190787550295
 20
-0.14842669280265
 10
1.5198021095819
 20
-0.14990958614035
 10
1.5205459829732
 20
-0.15137679384931
 10
1.5209255918824
 20
-0.15210440577158
 10
1.5213103040376
 20
-0.15282796436591
 10
1.5220950044939
 20
-0.15426274494956
 10
1.5229000190193
 20
-0.15568078134295
 10
1.5237252853047
 20
-0.15708171739105
 10
1.5245706917255
 20
-0.15846511048288
 10
1.5254355761145
 20
-0.15982966955206
 10
1.5258752193821
 20
-0.16050467530808
 10
1.526319639026
 20
-0.16117477063119
 10
1.5272227343503
 20
-0.16250004652834
 10
1.5281447157991
 20
-0.16380513075418
 10
1.5290854369431
 20
-0.16508965734988
 10
1.5300447512289
 20
-0.16635326067419
 10
1.531022511973
 20
-0.16759557515113
 10
1.5315182638855
 20
-0.16820863477653
 10
1.5320185723296
 20
-0.16881623497985
 10
1.5330327852269
 20
-0.17001487380888
 10
1.534065003272
 20
-0.17119112437745
 10
1.5351150786178
 20
-0.17234461812676
 10
1.5361828627924
 20
-0.17347498478478
 10
1.5372681775455
 20
-0.17458182296348
 10
1.5378172335456
 20
-0.17512617671419
 10
1.5383704842593
 20
-0.17566438678792
 10
1.5394894647711
 20
-0.17672218924347
 10
1.5406249067269
 20
-0.17775485704922
 10
1.5417765940323
 20
-0.17876201684415
 10
1.5429443066115
 20
-0.17974329497696
 10
1.5441278201471
 20
-0.18069831729635
 10
1.5447254309461
 20
-0.1811658654163
 10
1.5453269058007
 20
-0.18162670894556
 10
1.5465413299174
 20
-0.18252809416496
 10
1.5477708537192
 20
-0.1834020961062
 10
1.5483912019053
 20
-0.1838287102422
 10
1.5490152329888
 20
-0.18424833666091
 10
1.5502742177501
 20
-0.18506643630663
 10
1.5515475448962
 20
-0.18585600970134
 10
1.5521891715802
 20
-0.1862397826415
 10
1.5528337742229
 20
-0.18661599583349
 10
1.5541317569403
 20
-0.18734562966305
 10
1.5554411883432
 20
-0.18804468253123
 10
1.5567617573739
 20
-0.18871292270131
 10
1.5580931463047
 20
-0.18935011564113
 10
1.5594350304682
 20
-0.18995602432787
 10
1.5601098048516
 20
-0.19024717240488
 10
1.5607870780402
 20
-0.19053040957116
 10
1.5621489498779
 20
-0.19107303034973
 10
1.5635202994174
 20
-0.19158364415616
 10
1.5649007726329
 20
-0.19206200734368
 10
1.5662900080595
 20
-0.19250787546849
 10
1.5676876368796
 20
-0.19292100362044
 10
1.5683894815821
 20
-0.19311521362188
 10
1.5690932830741
 20
-0.19330114673479
 10
1.5705065636365
 20
-0.19364805987745
 10
1.5719270888476
 20
-0.19396149849582
 10
1.5733544626074
 20
-0.19424121862784
 10
1.5747882828197
 20
-0.1944869770616
 10
1.576228141823
 20
-0.19469853143868
 10
1.5769502070706
 20
-0.19479140661368
 10
1.5776736268616
 20
-0.19487564029462
 10
1.579124320588
 20
-0.19501806303094
 10
1.5805773701693
 20
-0.19512540972622
 10
1.5820298428471
 20
-0.19519752403303
 10
1.5834813146038
 20
-0.19523452598976
 10
1.5849313615542
 20
-0.19523653547491
 10
1.5856557183868
 20
-0.19522445553844
 10
1.5863795603212
 20
-0.19520367252499
 10
1.5878254885925
 20
-0.19513605758629
 10
1.5892687256918
 20
-0.19503381168518
 10
1.5907088531544
 20
-0.19489705651716
 10
1.5921454552941
 20
-0.19472591445523
 10
1.5935781197547
 20
-0.19452050848002
 10
1.5942928475339
 20
-0.19440499508831
 10
1.5950064380328
 20
-0.1942809620348
 10
1.5964300059654
 20
-0.19400739880992
 10
1.5978484241725
 20
-0.1936999424616
 10
1.5985555787277
 20
-0.19353354291674
 10
1.5992612984472
 20
-0.19335871627155
 10
1.6006682400878
 20
-0.19298384275381
 10
1.6020688661646
 20
-0.19257544321636
 10
1.6027666928296
 20
-0.19235870865273
 10
1.6034627997182
 20
-0.19213363728518
 10
1.6048496698852
 20
-0.19165854239864
 10
1.6062291119486
 20
-0.19115027328055
 10
1.6076006247555
 20
-0.19060899954453
 10
1.6089614329332
 20
-0.1900358930808
 10
1.6103103360188
 20
-0.1894316592551
 10
1.610980223853
 20
-0.18911798532304
 10
1.6116470172331
 20
-0.18879666831104
 10
1.6129711675901
 20
-0.18813128943972
 10
1.6142824857764
 20
-0.18743589072191
 10
1.6155806779894
 20
-0.1867108390812
 10
1.6168654577358
 20
-0.18595650025193
 10
1.6181365455977
 20
-0.18517323876519
 10
1.6187668696246
 20
-0.1847708756133
 10
1.619393668971
 20
-0.184361417955
 10
1.6206365617823
 20
-0.18352139998604
 10
1.6218649641895
 20
-0.18265354590339
 10
1.6224736519187
 20
-0.18220929285701
  0
LWPOLYLINE
  5
176
330
131
100
AcDbEntity
  8
AM_4
100
AcDbPolyline
 90
      131
 70
     0
 43
0.0
 10
1.6224736518481
 20
-0.0068532070909666
 10
1.6218634005681
 20
-0.0064078251445322
 10
1.620631381702
 20
-0.0055375203491288
 10
1.6193841892106
 20
-0.0046948193148479
 10
1.6187552722328
 20
-0.00428413658455
 10
1.6181231628392
 20
-0.0038808196270068
 10
1.6168495106632
 20
-0.0030964085305216
 10
1.6155635240394
 20
-0.002341838849519
 10
1.6142655004153
 20
-0.0016173662005489
 10
1.6129557436865
 20
-0.000923248793025
 10
1.6116345645178
 20
-0.0002597472034403
 10
1.6109697905218
 20
0.0000604406431742
 10
1.6103022806221
 20
0.000372875874073
 10
1.6089592169928
 20
0.0009743558975322
 10
1.6076057060864
 20
0.0015444267631981
 10
1.6062420879501
 20
0.0020828211031916
 10
1.6048687102909
 20
0.0025892705891646
 10
1.6034859284858
 20
0.0030635062359032
 10
1.6027911241692
 20
0.0032884597053744
 10
1.6020941055282
 20
0.003505258698179
 10
1.6006936119126
 20
0.0039142585536864
 10
1.5992848254556
 20
0.0042902365645412
 10
1.5985774424237
 20
0.0044657583497102
 10
1.5978681310562
 20
0.004632923909601
 10
1.5964439203972
 20
0.0049420523797761
 10
1.595012591591
 20
0.0052173545286084
 10
1.5942943839527
 20
0.0053422373894299
 10
1.5935745487766
 20
0.0054585637706465
 10
1.5921302016725
 20
0.005665414420599
 10
1.5906816877654
 20
0.005837458084273
 10
1.5892324747638
 20
0.0059743058887023
 10
1.5877830412818
 20
0.0060760386203444
 10
1.5863338088174
 20
0.0061427440712211
 10
1.5856093999038
 20
0.0061629889298979
 10
1.5848851996168
 20
0.0061745098075195
 10
1.5834376361446
 20
0.0061714235058484
 10
1.5819915405244
 20
0.0061335732102147
 10
1.5805473339609
 20
0.0060610475074996
 10
1.5791054361536
 20
0.0059539356204648
 10
1.5776662647137
 20
0.0058123274185702
 10
1.5769478311735
 20
0.0057286154450073
 10
1.5762302345947
 20
0.0056363133480971
 10
1.5747977575453
 20
0.0054259842842433
 10
1.5733692415974
 20
0.0051814313089526
 10
1.5719450905946
 20
0.0049027454192525
 10
1.5705257037722
 20
0.0045900171717892
 10
1.5691114753946
 20
0.0042433362700384
 10
1.5684064173961
 20
0.0040572912598284
 10
1.567702794457
 20
0.0038627911013503
 10
1.5663000444574
 20
0.0034484682315224
 10
1.5649036032423
 20
0.0030004518650058
 10
1.5635139159194
 20
0.0025188495204711
 10
1.5621337957379
 20
0.002004688377706
 10
1.5607647846554
 20
0.0014587288605333
 10
1.5600845505699
 20
0.0011739373872846
 10
1.5594072194225
 20
0.0008813314680536
 10
1.5580614288755
 20
0.0002728561638797
 10
1.5567277339534
 20
-0.0003663377225213
 10
1.5554064477661
 20
-0.0010358915934929
 10
1.5540978757117
 20
-0.0017354476741354
 10
1.5528023156378
 20
-0.0024646490916622
 10
1.5521595061548
 20
-0.0028402555417542
 10
1.5515200580415
 20
-0.0032231399391982
 10
1.5502513863041
 20
-0.0040105653209729
 10
1.5489965769531
 20
-0.0048265713767682
 10
1.5483744552831
 20
-0.0052451818603291
 10
1.5477558999475
 20
-0.0056708052843768
 10
1.5465296189798
 20
-0.0065429152396629
 10
1.5453179917893
 20
-0.0074425504146002
 10
1.544717752355
 20
-0.0079025805775087
 10
1.5441212704821
 20
-0.008369360894371
 10
1.5429397018519
 20
-0.0093229975952401
 10
1.5417735276978
 20
-0.010303112165447
 10
1.5406229851355
 20
-0.011309356871825
 10
1.5394883068976
 20
-0.012341384475185
 10
1.53836972162
 20
-0.013398848097795
 10
1.5378165342369
 20
-0.013937010082198
 10
1.5372674541131
 20
-0.014481401086444
 10
1.5361822728061
 20
-0.015588128273936
 10
1.5351149106021
 20
-0.016718063064448
 10
1.5340654878206
 20
-0.017870833481111
 10
1.5330341245002
 20
-0.01904607195452
 10
1.532020940832
 20
-0.020243414651646
 10
1.5315212040356
 20
-0.020850262274914
 10
1.5310260574267
 20
-0.021462500937066
 10
1.5300495955341
 20
-0.022702972856779
 10
1.5290916772166
 20
-0.02396447464854
 10
1.5281524254802
 20
-0.025246652282095
 10
1.527231964368
 20
-0.026549153032222
 10
1.5263304190177
 20
-0.027871625086996
 10
1.5258867791654
 20
-0.028540240574078
 10
1.5254479156888
 20
-0.029213717193194
 10
1.5245845817623
 20
-0.03057507834034
 10
1.5237405457171
 20
-0.031955357484424
 10
1.5229159370872
 20
-0.033354203311936
 10
1.5221108864026
 20
-0.034771264044444
 10
1.5213255251186
 20
-0.036206187283608
 10
1.5209402693152
 20
-0.03693023702008
 10
1.5205599855365
 20
-0.037658619896136
 10
1.5198144007198
 20
-0.03912820793789
 10
1.5190889044087
 20
-0.040614596616037
 10
1.5183836309359
 20
-0.042117430287834
 10
1.517698715148
 20
-0.043636352494395
 10
1.5170342923347
 20
-0.045171006027502
 10
1.5167099178211
 20
-0.04594385625029
 10
1.5163909280665
 20
-0.046719975936366
 10
1.5157691190338
 20
-0.048281839153316
 10
1.5151688997087
 20
-0.049856227046117
 10
1.514876897837
 20
-0.050648002708329
 10
1.5145903077565
 20
-0.05144277154509
 10
1.5140333838608
 20
-0.053041104928614
 10
1.5134981715524
 20
-0.054650859644716
 10
1.5132387215843
 20
-0.055459905152639
 10
1.5129847170429
 20
-0.056271668166474
 10
1.5124930690655
 20
-0.057903162878913
 10
1.5120232787255
 20
-0.059544975994968
 10
1.5115753993614
 20
-0.061196739498127
 10
1.5111494864193
 20
-0.062858085109235
 10
1.5107455973406
 20
-0.064528644274984
 10
1.5105519302221
 20
-0.065367263694504
 10
1.5103637914658
 20
-0.06620804817555
 10
1.5100041299539
 20
-0.067895927748822
 10
1.50966667572
 20
-0.069591913728659
 10
1.5093514933909
 20
-0.071295636694595
 10
1.5090586492789
 20
-0.0730067271304
 10
1.5087882113765
 20
-0.074724815488889
 10
1.5086614164638
 20
-0.075586368414
 10
1.5085402493696
 20
-0.076449532260397
 10
1.5083148346721
 20
-0.078180508042283
 10
1.50811204048
 20
-0.079917373606885
 10
1.5080191494527
 20
-0.08078789973773
  0
LINE
  5
177
330
131
100
AcDbEntity
  8
AM_4
100
AcDbLine
 10
1.4967937707572
 20
-0.20476724999999
 30
0.0
 11
1.5102781865889
 21
-0.20476724999999
 31
0.0
  0
LINE
  5
178
330
131
100
AcDbEntity
  8
AM_4
100
AcDbLine
 10
1.5102781865889
 20
0.015704749999993
 30
0.0
 11
1.497228751913
 21
0.015704749999993
 31
0.0
  0
LINE
  5
179
330
131
100
AcDbEntity
  8
AM_4
100
AcDbLine
 10
-2.3125
 20
-0.9453125
 30
0.0
 11
-2.3125
 21
0.9453125
 31
0.0
  0
LINE
  5
17A
330
131
100
AcDbEntity
  8
AM_4
100
AcDbLine
 10
-1.8198632461851
 20
-0.55265801055069
 30
0.0
 11
-1.8198632461851
 21
0.55265801055069
 31
0.0
  0
LINE
  5
17B
330
131
100
AcDbEntity
  8
AM_4
100
AcDbLine
 10
-1.7684589308251
 20
-0.53907088014108
 30
0.0
 11
-1.7684589308251
 21
0.53907088014108
 31
0.0
  0
LINE
  5
17C
330
131
100
AcDbEntity
  8
AM_4
100
AcDbLine
 10
-0.84907109390228
 20
-0.41429275216588
 30
0.0
 11
-0.84907109390228
 21
0.41429275216588
 31
0.0
  0
LINE
  5
17D
330
131
100
AcDbEntity
  8
AM_4
100
AcDbLine
 10
2.3125
 20
-0.9453125
 30
0.0
 11
2.3125
 21
0.9453125
 31
0.0
  0
LINE
  5
17E
330
131
100
AcDbEntity
  8
AM_4
100
AcDbLine
 10
1.8198632461851
 20
-0.55265801055069
 30
0.0
 11
1.8198632461851
 21
0.55265801055069
 31
0.0
  0
LINE
  5
17F
330
131
100
AcDbEntity
  8
AM_4
100
AcDbLine
 10
0.84907109390228
 20
-0.41429275216588
 30
0.0
 11
0.84907109390228
 21
0.41429275216588
 31
0.0
  0
LINE
  5
180
330
131
100
AcDbEntity
  8
AM_4
100
AcDbLine
 10
1.7684589308251
 20
-0.53907088014108
 30
0.0
 11
1.7684589308251
 21
0.53907088014108
 31
0.0
  0
LINE
  5
181
330
131
100
AcDbEntity
  8
AM_4
100
AcDbLine
 10
-0.72600194369991
 20
-0.40730461715491
 30
0.0
 11
-0.72600194369991
 21
0.40730461715491
 31
0.0
  0
LINE
  5
182
330
131
100
AcDbEntity
  8
AM_4
100
AcDbLine
 10
0.72600194369991
 20
-0.40730461715491
 30
0.0
 11
0.72600194369991
 21
0.40730461715491
 31
0.0
  0
LINE
  5
183
330
131
100
AcDbEntity
  8
AM_4
100
AcDbLine
 10
-0.72600194369979
 20
-0.40730461715491
 30
0.0
 11
0.72600194369979
 21
-0.40730461715491
 31
0.0
  0
LWPOLYLINE
  5
184
330
131
100
AcDbEntity
  8
AM_4
100
AcDbPolyline
 90
       23
 70
     0
 43
0.0
 10
0.72600194369979
 20
-0.40730461715491
 10
0.72978090578026
 20
-0.40731028201358
 10
0.73733195258155
 20
-0.40735558541809
 10
0.74486237982004
 20
-0.40744610977911
 10
0.74861557624303
 20
-0.40750828154281
 10
0.75235848281827
 20
-0.40758169035074
 10
0.7598066193657
 20
-0.40776208038894
 10
0.76719323454628
 20
-0.4079869516006
 10
0.77450488540712
 20
-0.40825589474103
 10
0.78172826542343
 20
-0.40856842035871
 10
0.78885022871515
 20
-0.40892395968609
 10
0.79236912082237
 20
-0.40911766031486
 10
0.79585781397122
 20
-0.40932186567463
 10
0.80273826803797
 20
-0.40976141417243
 10
0.8094790691287
 20
-0.4102418052421
 10
0.81606794961212
 20
-0.41076216461654
 10
0.82249291833831
 20
-0.41132154529007
 10
0.82874228246155
 20
-0.41191892924189
 10
0.83179754559891
 20
-0.41223153535078
 10
0.83480466872013
 20
-0.41255322928872
 10
0.84066904413469
 20
-0.41322329106346
 10
0.84632473608719
 20
-0.41392789511598
 10
0.84907109390228
 20
-0.41429275216588
  0
LINE
  5
185
330
131
100
AcDbEntity
  8
AM_4
100
AcDbLine
 10
0.84907109390228
 20
-0.41429275216588
 30
0.0
 11
1.7684589308251
 21
-0.53907088014108
 31
0.0
  0
LWPOLYLINE
  5
186
330
131
100
AcDbEntity
  8
AM_4
100
AcDbPolyline
 90
       23
 70
     0
 43
0.0
 10
1.7684589308251
 20
-0.53907088014108
 10
1.7706643535116
 20
-0.53937546906936
 10
1.7749600591701
 20
-0.54000064156243
 10
1.7790979034029
 20
-0.54064650281331
 10
1.7811060443879
 20
-0.54097694678076
 10
1.7830728448843
 20
-0.54131226593955
 10
1.7868800407603
 20
-0.54199711981134
 10
1.7905148525492
 20
-0.54270023003974
 10
1.7939728517928
 20
-0.54342073999322
 10
1.7972498254516
 20
-0.5441577718414
 10
1.8003417810381
 20
-0.54491042762451
 10
1.8018171909116
 20
-0.54529232864385
 10
1.8032449514806
 20
-0.54567779034741
 10
1.8059557997131
 20
-0.54645892509682
 10
1.8084710229846
 20
-0.54725288018038
 10
1.8107875568831
 20
-0.54805868828611
 10
1.8129025790688
 20
-0.54887536766098
 10
1.8148135127129
 20
-0.54970192330695
 10
1.8156917089836
 20
-0.55011859047107
 10
1.8165180296372
 20
-0.55053734819329
 10
1.8180140531504
 20
-0.55138062448347
 10
1.8192997605782
 20
-0.55223072477523
 10
1.8198632461851
 20
-0.55265801055069
  0
LINE
  5
187
330
131
100
AcDbEntity
  8
AM_4
100
AcDbLine
 10
1.8198632461851
 20
-0.55265801055069
 30
0.0
 11
2.3125
 21
-0.9453125
 31
0.0
  0
LINE
  5
188
330
131
100
AcDbEntity
  8
AM_4
100
AcDbLine
 10
-2.3125
 20
-0.9453125
 30
0.0
 11
-1.1448267724377
 21
-0.9453125
 31
0.0
  0
LINE
  5
189
330
131
100
AcDbEntity
  8
AM_4
100
AcDbLine
 10
1.143987627296
 20
-0.9453125
 30
0.0
 11
2.3125
 21
-0.9453125
 31
0.0
  0
LINE
  5
18A
330
131
100
AcDbEntity
  8
AM_4
100
AcDbLine
 10
-2.3125
 20
-0.9453125
 30
0.0
 11
-1.8198632461851
 21
-0.55265801055069
 31
0.0
  0
LWPOLYLINE
  5
18B
330
131
100
AcDbEntity
  8
AM_4
100
AcDbPolyline
 90
       23
 70
     0
 43
0.0
 10
-1.8198632461851
 20
-0.55265801055069
 10
-1.8192997605782
 20
-0.55223072477523
 10
-1.8180140531504
 20
-0.55138062448347
 10
-1.8165180296372
 20
-0.55053734819329
 10
-1.8156917089836
 20
-0.55011859047107
 10
-1.8148135127129
 20
-0.54970192330695
 10
-1.8129025790688
 20
-0.54887536766098
 10
-1.8107875568831
 20
-0.54805868828611
 10
-1.8084710229846
 20
-0.54725288018038
 10
-1.8059557997131
 20
-0.54645892509682
 10
-1.8032449514806
 20
-0.54567779034741
 10
-1.8018171909116
 20
-0.54529232864385
 10
-1.8003417810381
 20
-0.54491042762451
 10
-1.7972498254516
 20
-0.5441577718414
 10
-1.7939728517928
 20
-0.54342073999322
 10
-1.7905148525492
 20
-0.54270023003974
 10
-1.7868800407603
 20
-0.54199711981134
 10
-1.7830728448843
 20
-0.54131226593955
 10
-1.7811060443879
 20
-0.54097694678076
 10
-1.7790979034029
 20
-0.54064650281331
 10
-1.7749600591701
 20
-0.54000064156243
 10
-1.7706643535116
 20
-0.53937546906936
 10
-1.7684589308251
 20
-0.53907088014108
  0
LINE
  5
18C
330
131
100
AcDbEntity
  8
AM_4
100
AcDbLine
 10
-1.7684589308251
 20
-0.53907088014108
 30
0.0
 11
-0.84907109390228
 21
-0.41429275216588
 31
0.0
  0
LWPOLYLINE
  5
18D
330
131
100
AcDbEntity
  8
AM_4
100
AcDbPolyline
 90
       23
 70
     0
 43
0.0
 10
-0.84907109390228
 20
-0.41429275216588
 10
-0.84632473608719
 20
-0.41392789511598
 10
-0.84066904413469
 20
-0.41322329106346
 10
-0.83480466872013
 20
-0.41255322928872
 10
-0.83179754559891
 20
-0.41223153535078
 10
-0.82874228246155
 20
-0.41191892924189
 10
-0.82249291833831
 20
-0.41132154529007
 10
-0.81606794961212
 20
-0.41076216461654
 10
-0.8094790691287
 20
-0.4102418052421
 10
-0.80273826803798
 20
-0.40976141417243
 10
-0.79585781397122
 20
-0.40932186567463
 10
-0.79236912082237
 20
-0.40911766031486
 10
-0.78885022871515
 20
-0.40892395968609
 10
-0.78172826542344
 20
-0.40856842035871
 10
-0.77450488540712
 20
-0.40825589474103
 10
-0.76719323454628
 20
-0.4079869516006
 10
-0.7598066193657
 20
-0.40776208038894
 10
-0.75235848281827
 20
-0.40758169035074
 10
-0.74861557624303
 20
-0.40750828154281
 10
-0.74486237982004
 20
-0.40744610977911
 10
-0.73733195258155
 20
-0.40735558541809
 10
-0.72978090578026
 20
-0.40731028201358
 10
-0.72600194369979
 20
-0.40730461715491
  0
LWPOLYLINE
  5
18E
330
131
100
AcDbEntity
  8
AM_4
100
AcDbPolyline
 90
      131
 70
     0
 43
0.0
 10
0.0
 20
-0.48260990990932
 10
-0.010306805607139
 20
-0.48261517692556
 10
-0.030918236559483
 20
-0.48265731138427
 10
-0.051523127187232
 20
-0.48274157138871
 10
-0.061821757712891
 20
-0.48279949324858
 10
-0.072117118811236
 20
-0.48286793911487
 10
-0.092695855057881
 20
-0.48303638783138
 10
-0.11325498278062
 20
-0.48324688190527
 10
-0.13379015298081
 20
-0.48349937680943
 10
-0.15429702172769
 20
-0.48379381913205
 10
-0.17477125107729
 20
-0.48413014658795
 10
-0.18499477223348
 20
-0.48431399535364
 10
-0.19520850999004
 20
-0.48450828803171
 10
-0.21560447524697
 20
-0.48492816347275
 10
-0.23595483236419
 20
-0.48538968409223
 10
-0.25625527650559
 20
-0.48589275226186
 10
-0.27650151339346
 20
-0.48643726156454
 10
-0.29668926021688
 20
-0.48702309681687
 10
-0.30675986483447
 20
-0.48733147328827
 10
-0.31681424653771
 20
-0.48765013409353
 10
-0.33687221519388
 20
-0.48831824075345
 10
-0.35685892320004
 20
-0.48902727546793
 10
-0.3668242326238
 20
-0.4893970943122
 10
-0.37677014264499
 20
-0.48977708825051
 10
-0.39660166158612
 20
-0.49056752048867
 10
-0.41634928494035
 20
-0.49139840497742
 10
-0.42619032963741
 20
-0.49182896222338
 10
-0.43600883537154
 20
-0.49226956595468
 10
-0.45557615417417
 20
-0.49318081913839
 10
-0.47504710215303
 20
-0.49413197176557
 10
-0.49441756049884
 20
-0.49512282263306
 10
-0.51368343165949
 20
-0.4961531621401
 10
-0.53284064020685
 20
-0.49722277233262
 10
-0.54237722869104
 20
-0.49777223355251
 10
-0.55188513369887
 20
-0.49833142694941
 10
-0.57081288353679
 20
-0.49947889146995
 10
-0.58961988581736
 20
-0.50066492316402
 10
-0.6083021621798
 20
-0.50188927114304
 10
-0.62685576064739
 20
-0.50315167641316
 10
-0.64527675646341
 20
-0.50445187193003
 10
-0.65443630953801
 20
-0.50511605539221
 10
-0.66356125292139
 20
-0.50578958265531
 10
-0.68170538218945
 20
-0.50716452561483
 10
-0.69970530612839
 20
-0.50857640995844
 10
-0.71755721710369
 20
-0.51002493702158
 10
-0.73525733879091
 20
-0.51150980038842
 10
-0.75280192697451
 20
-0.51303068595668
 10
-0.76151473490995
 20
-0.51380453682394
 10
-0.77018727033995
 20
-0.5145872720041
 10
-0.78740969125868
 20
-0.51617922925645
 10
-0.80446554656617
 20
-0.51780622095723
 10
-0.82135122833253
 20
-0.5194679029389
 10
-0.83806316462571
 20
-0.52116392369566
 10
-0.85459782026711
 20
-0.5228939244578
 10
-0.86279757333406
 20
-0.52377155325778
 10
-0.87095169757942
 20
-0.52465753926763
 10
-0.88712133712647
 20
-0.52645439505688
 10
-0.90310331844501
 20
-0.52828411172559
 10
-0.91889426076832
 20
-0.53014630222256
 10
-0.93449082374133
 20
-0.53204057262718
 10
-0.94988970812721
 20
-0.53396652223279
 10
-0.95751400125368
 20
-0.53494124968041
 10
-0.96508765650531
 20
-0.53592374363144
 10
-0.98008145396021
 20
-0.53791182280006
 10
-0.99486792876178
 20
-0.53993033918804
 10
-1.0021824409757
 20
-0.54095087815421
 10
-1.0094439530361
 20
-0.5419788658062
 10
-1.0238064434273
 20
-0.54405696931712
 10
-1.0379523617494
 20
-0.54616421012679
 10
-1.044943169461
 20
-0.5472286179576
 10
-1.0518787156293
 20
-0.54830014247761
 10
-1.06558255914
 20
-0.55046431454269
 10
-1.079060993423
 20
-0.5526562685214
 10
-1.0923111673024
 20
-0.55487554073626
 10
-1.1053302778875
 20
-0.55712166173096
 10
-1.1181155711658
 20
-0.55939415636974
 10
-1.1244196891948
 20
-0.56054014379745
 10
-1.1306643425857
 20
-0.56169254393783
 10
-1.1429739376283
 20
-0.56401633824319
 10
-1.1550417523694
 20
-0.56636504771933
 10
-1.16686523403
 20
-0.56873817552929
 10
-1.1784418815164
 20
-0.57113521967077
 10
-1.1897692459491
 20
-0.57355567308228
 10
-1.1953386961506
 20
-0.5747745184506
 10
-1.2008449311811
 20
-0.57599902375045
 10
-1.2116665943048
 20
-0.57846475481828
 10
-1.222231946147
 20
-0.58095234469454
 10
-1.2325387517542
 20
-0.58346126716404
 10
-1.2425848308643
 20
-0.585990991499
 10
-1.2523680583684
 20
-0.58854098257128
 10
-1.2571604538635
 20
-0.58982340973099
 10
-1.2618863647603
 20
-0.5911107009656
 10
-1.2711377365743
 20
-0.59369960309363
 10
-1.2801202168107
 20
-0.596307141309
 10
-1.2888319053502
 20
-0.59893276402312
 10
-1.297270959356
 20
-0.60157591582188
 10
-1.305435593663
 20
-0.60423603758314
 10
-1.3094144614282
 20
-0.60557228648921
 10
-1.3133240811559
 20
-0.60691256659499
 10
-1.3209347531345
 20
-0.6096049366748
 10
-1.3282659996666
 20
-0.61231257828899
 10
-1.3353162699286
 20
-0.61503491867348
 10
-1.3420840725334
 20
-0.61777138195487
 10
-1.3485679758462
 20
-0.62052138927228
 10
-1.3517030342955
 20
-0.62190129026369
 10
-1.3547666082871
 20
-0.62328435889976
 10
-1.3606786586212
 20
-0.62605970636935
 10
-1.3663028762362
 20
-0.62884684459475
 10
-1.3690066735995
 20
-0.630244651091
 10
-1.3716380714068
 20
-0.63164518399549
 10
-1.3766831155463
 20
-0.63445413262162
 10
-1.3814369414457
 20
-0.637273096279
 10
-1.3837043308911
 20
-0.63868614747599
 10
-1.3858985434988
 20
-0.6401014786549
 10
-1.3900669779155
 20
-0.64293868144423
 10
-1.3939413629214
 20
-0.64578410447603
 10
-1.3975208789438
 20
-0.64863714584049
 10
-1.400804768786
 20
-0.65149720201624
 10
-1.4037923377863
 20
-0.65436366799801
 10
-1.4051748020251
 20
-0.65579911522775
 10
-1.406482953966
 20
-0.65723593742463
 10
-1.4088760481625
 20
-0.66011340270731
 10
-1.4109711141499
 20
-0.66299545515813
 10
-1.412767708746
 20
-0.66588148511882
 10
-1.4142654519061
 20
-0.66877088208973
 10
-1.4154640268034
 20
-0.67166303485895
 10
-1.415951044448
 20
-0.67310995350128
 10
-1.4163631798959
 20
-0.67455733163165
 10
-1.4169627209804
 20
-0.67745316015942
 10
-1.4172625232321
 20
-0.68034990786987
 10
-1.4173
 20
-0.68179843493302
  0
LWPOLYLINE
  5
18F
330
131
100
AcDbEntity
  8
AM_4
100
AcDbPolyline
 90
       23
 70
     0
 43
0.0
 10
-1.4173
 20
-0.68179843493302
 10
-1.4170856371508
 20
-0.68526266525172
 10
-1.4153711233993
 20
-0.69218693456126
 10
-1.4119441702646
 20
-0.69909863495824
 10
-1.4095897438124
 20
-0.70254715770062
 10
-1.4068089239732
 20
-0.70598940406492
 10
-1.3999715975939
 20
-0.71285090482807
 10
-1.3914404635203
 20
-0.71967483560586
 10
-1.3812258434621
 20
-0.72645294021188
 10
-1.3693400959572
 20
-0.73317701790424
 10
-1.3557976014193
 20
-0.73983893330751
 10
-1.3484101165169
 20
-0.74314405814366
 10
-1.3406147447388
 20
-0.74643062625563
 10
-1.3238098954596
 20
-0.75294412154378
 10
-1.3054033855533
 20
-0.75937153857747
 10
-1.2854174848205
 20
-0.76570510090722
 10
-1.2638763739463
 20
-0.77193714563712
 10
-1.2408061152447
 20
-0.77806013269613
 10
-1.2287062067257
 20
-0.78107840916001
 10
-1.216234621126
 20
-0.78406665396067
 10
-1.190191620326
 20
-0.78994944221765
 10
-1.1627086219378
 20
-0.79570137995694
 10
-1.1484374477177
 20
-0.79852609871804
  0
LWPOLYLINE
  5
190
330
131
100
AcDbEntity
  8
AM_4
100
AcDbPolyline
 90
       23
 70
     0
 43
0.0
 10
1.1439870146866
 20
-0.79938610505479
 10
1.1584863810946
 20
-0.79654799061419
 10
1.186411450881
 20
-0.79076672913203
 10
1.2128765167967
 20
-0.78485137072152
 10
1.2255512994954
 20
-0.78184567379991
 10
1.2378490107991
 20
-0.77880919485235
 10
1.2612982016121
 20
-0.77264763705637
 10
1.283195232544
 20
-0.76637427977747
 10
1.303513156999
 20
-0.75999684304051
 10
1.3222269716376
 20
-0.75352317495107
 10
1.3393136471458
 20
-0.74696124203751
 10
1.3472401578626
 20
-0.7436496957832
 10
1.3547521565751
 20
-0.74031911944731
 10
1.3685235012185
 20
-0.73360498100979
 10
1.3806107339905
 20
-0.72682708917733
 10
1.3909989802818
 20
-0.71999378485753
 10
1.3996754562645
 20
-0.71311347714891
 10
1.406629484624
 20
-0.70619463299258
 10
1.4094578235707
 20
-0.70272341891904
 10
1.411852507698
 20
-0.69924576675278
 10
1.4153380980082
 20
-0.69227542973911
 10
1.4170819661697
 20
-0.68529219968318
 10
1.4173
 20
-0.68179843493302
  0
LWPOLYLINE
  5
191
330
131
100
AcDbEntity
  8
AM_4
100
AcDbPolyline
 90
      131
 70
     0
 43
0.0
 10
1.4173
 20
-0.68179843493302
 10
1.4172625232321
 20
-0.68034990786987
 10
1.4169627209804
 20
-0.67745316015942
 10
1.4163631798959
 20
-0.67455733163165
 10
1.415951044448
 20
-0.67310995350128
 10
1.4154640268034
 20
-0.67166303485895
 10
1.4142654519061
 20
-0.66877088208973
 10
1.412767708746
 20
-0.66588148511882
 10
1.4109711141499
 20
-0.66299545515813
 10
1.4088760481625
 20
-0.66011340270731
 10
1.406482953966
 20
-0.65723593742463
 10
1.4051748020251
 20
-0.65579911522775
 10
1.4037923377863
 20
-0.65436366799801
 10
1.400804768786
 20
-0.65149720201624
 10
1.3975208789438
 20
-0.64863714584049
 10
1.3939413629214
 20
-0.64578410447603
 10
1.3900669779155
 20
-0.64293868144423
 10
1.3858985434988
 20
-0.6401014786549
 10
1.3837043308911
 20
-0.63868614747599
 10
1.3814369414457
 20
-0.637273096279
 10
1.3766831155463
 20
-0.63445413262162
 10
1.3716380714068
 20
-0.63164518399549
 10
1.3690066735995
 20
-0.630244651091
 10
1.3663028762362
 20
-0.62884684459475
 10
1.3606786586212
 20
-0.62605970636935
 10
1.3547666082871
 20
-0.62328435889976
 10
1.3517030342955
 20
-0.62190129026369
 10
1.3485679758462
 20
-0.62052138927228
 10
1.3420840725334
 20
-0.61777138195487
 10
1.3353162699286
 20
-0.61503491867348
 10
1.3282659996666
 20
-0.61231257828899
 10
1.3209347531345
 20
-0.6096049366748
 10
1.3133240811559
 20
-0.60691256659499
 10
1.3094144614282
 20
-0.60557228648921
 10
1.305435593663
 20
-0.60423603758314
 10
1.297270959356
 20
-0.60157591582188
 10
1.2888319053502
 20
-0.59893276402312
 10
1.2801202168107
 20
-0.596307141309
 10
1.2711377365743
 20
-0.59369960309363
 10
1.2618863647603
 20
-0.5911107009656
 10
1.2571604538635
 20
-0.58982340973099
 10
1.2523680583684
 20
-0.58854098257128
 10
1.2425848308643
 20
-0.585990991499
 10
1.2325387517542
 20
-0.58346126716404
 10
1.222231946147
 20
-0.58095234469454
 10
1.2116665943048
 20
-0.57846475481828
 10
1.2008449311811
 20
-0.57599902375045
 10
1.1953386961506
 20
-0.5747745184506
 10
1.1897692459491
 20
-0.57355567308228
 10
1.1784418815164
 20
-0.57113521967077
 10
1.16686523403
 20
-0.56873817552929
 10
1.1550417523694
 20
-0.56636504771933
 10
1.1429739376283
 20
-0.56401633824319
 10
1.1306643425857
 20
-0.56169254393783
 10
1.1244196891948
 20
-0.56054014379745
 10
1.1181155711658
 20
-0.55939415636974
 10
1.1053302778875
 20
-0.55712166173096
 10
1.0923111673024
 20
-0.55487554073626
 10
1.079060993423
 20
-0.5526562685214
 10
1.06558255914
 20
-0.55046431454269
 10
1.0518787156293
 20
-0.54830014247761
 10
1.044943169461
 20
-0.5472286179576
 10
1.0379523617494
 20
-0.54616421012679
 10
1.0238064434273
 20
-0.54405696931712
 10
1.0094439530361
 20
-0.5419788658062
 10
1.0021824409757
 20
-0.54095087815421
 10
0.99486792876178
 20
-0.53993033918804
 10
0.98008145396021
 20
-0.53791182280006
 10
0.96508765650531
 20
-0.53592374363144
 10
0.95751400125368
 20
-0.53494124968041
 10
0.94988970812721
 20
-0.53396652223279
 10
0.93449082374133
 20
-0.53204057262718
 10
0.91889426076832
 20
-0.53014630222256
 10
0.90310331844501
 20
-0.52828411172559
 10
0.88712133712647
 20
-0.52645439505688
 10
0.87095169757943
 20
-0.52465753926763
 10
0.86279757333406
 20
-0.52377155325778
 10
0.85459782026711
 20
-0.5228939244578
 10
0.83806316462571
 20
-0.52116392369566
 10
0.82135122833253
 20
-0.5194679029389
 10
0.80446554656617
 20
-0.51780622095723
 10
0.78740969125868
 20
-0.51617922925645
 10
0.77018727033995
 20
-0.5145872720041
 10
0.76151473490995
 20
-0.51380453682394
 10
0.75280192697451
 20
-0.51303068595668
 10
0.73525733879091
 20
-0.51150980038842
 10
0.71755721710369
 20
-0.51002493702158
 10
0.69970530612839
 20
-0.50857640995844
 10
0.68170538218945
 20
-0.50716452561483
 10
0.6635612529214
 20
-0.50578958265531
 10
0.65443630953801
 20
-0.50511605539221
 10
0.64527675646341
 20
-0.50445187193003
 10
0.62685576064739
 20
-0.50315167641316
 10
0.60830216217981
 20
-0.50188927114304
 10
0.58961988581736
 20
-0.50066492316402
 10
0.57081288353679
 20
-0.49947889146995
 10
0.55188513369887
 20
-0.49833142694941
 10
0.54237722869104
 20
-0.49777223355251
 10
0.53284064020685
 20
-0.49722277233262
 10
0.51368343165949
 20
-0.4961531621401
 10
0.49441756049884
 20
-0.49512282263306
 10
0.47504710215303
 20
-0.49413197176557
 10
0.45557615417417
 20
-0.49318081913839
 10
0.43600883537154
 20
-0.49226956595468
 10
0.42619032963741
 20
-0.49182896222338
 10
0.41634928494035
 20
-0.49139840497742
 10
0.39660166158613
 20
-0.49056752048867
 10
0.376770142645
 20
-0.48977708825051
 10
0.3668242326238
 20
-0.4893970943122
 10
0.35685892320004
 20
-0.48902727546793
 10
0.33687221519389
 20
-0.48831824075345
 10
0.31681424653771
 20
-0.48765013409353
 10
0.30675986483447
 20
-0.48733147328827
 10
0.29668926021688
 20
-0.48702309681687
 10
0.27650151339346
 20
-0.48643726156454
 10
0.25625527650559
 20
-0.48589275226186
 10
0.23595483236419
 20
-0.48538968409223
 10
0.21560447524697
 20
-0.48492816347275
 10
0.19520850999004
 20
-0.48450828803171
 10
0.18499477223348
 20
-0.48431399535364
 10
0.17477125107729
 20
-0.48413014658795
 10
0.15429702172769
 20
-0.48379381913205
 10
0.13379015298081
 20
-0.48349937680943
 10
0.11325498278062
 20
-0.48324688190527
 10
0.092695855057882
 20
-0.48303638783138
 10
0.072117118811236
 20
-0.48286793911487
 10
0.061821757712891
 20
-0.48279949324858
 10
0.051523127187233
 20
-0.48274157138871
 10
0.030918236559484
 20
-0.48265731138427
 10
0.010306805607139
 20
-0.48261517692556
 10
0.0
 20
-0.48260990990932
  0
LWPOLYLINE
  5
192
330
131
100
AcDbEntity
  8
AM_4
100
AcDbPolyline
 90
      131
 70
     0
 43
0.0
 10
0.0
 20
0.48260990990932
 10
0.010306805607139
 20
0.48261517692556
 10
0.030918236559483
 20
0.48265731138427
 10
0.051523127187232
 20
0.48274157138871
 10
0.061821757712891
 20
0.48279949324858
 10
0.072117118811236
 20
0.48286793911487
 10
0.092695855057881
 20
0.48303638783138
 10
0.11325498278062
 20
0.48324688190527
 10
0.13379015298081
 20
0.48349937680943
 10
0.15429702172769
 20
0.48379381913205
 10
0.17477125107729
 20
0.48413014658795
 10
0.18499477223348
 20
0.48431399535364
 10
0.19520850999004
 20
0.48450828803171
 10
0.21560447524697
 20
0.48492816347275
 10
0.23595483236419
 20
0.48538968409223
 10
0.25625527650559
 20
0.48589275226186
 10
0.27650151339346
 20
0.48643726156454
 10
0.29668926021688
 20
0.48702309681687
 10
0.30675986483447
 20
0.48733147328827
 10
0.31681424653771
 20
0.48765013409353
 10
0.33687221519388
 20
0.48831824075345
 10
0.35685892320004
 20
0.48902727546793
 10
0.3668242326238
 20
0.4893970943122
 10
0.37677014264499
 20
0.48977708825051
 10
0.39660166158612
 20
0.49056752048867
 10
0.41634928494035
 20
0.49139840497742
 10
0.42619032963741
 20
0.49182896222338
 10
0.43600883537154
 20
0.49226956595468
 10
0.45557615417417
 20
0.49318081913839
 10
0.47504710215303
 20
0.49413197176557
 10
0.49441756049884
 20
0.49512282263306
 10
0.51368343165949
 20
0.4961531621401
 10
0.53284064020685
 20
0.49722277233262
 10
0.54237722869104
 20
0.49777223355251
 10
0.55188513369887
 20
0.49833142694941
 10
0.57081288353679
 20
0.49947889146995
 10
0.58961988581736
 20
0.50066492316402
 10
0.6083021621798
 20
0.50188927114304
 10
0.62685576064739
 20
0.50315167641316
 10
0.64527675646341
 20
0.50445187193003
 10
0.65443630953801
 20
0.50511605539221
 10
0.66356125292139
 20
0.50578958265531
 10
0.68170538218945
 20
0.50716452561483
 10
0.69970530612839
 20
0.50857640995844
 10
0.71755721710369
 20
0.51002493702158
 10
0.73525733879091
 20
0.51150980038842
 10
0.75280192697451
 20
0.51303068595668
 10
0.76151473490995
 20
0.51380453682394
 10
0.77018727033995
 20
0.5145872720041
 10
0.78740969125868
 20
0.51617922925645
 10
0.80446554656617
 20
0.51780622095723
 10
0.82135122833253
 20
0.5194679029389
 10
0.83806316462571
 20
0.52116392369566
 10
0.85459782026711
 20
0.5228939244578
 10
0.86279757333406
 20
0.52377155325778
 10
0.87095169757942
 20
0.52465753926763
 10
0.88712133712647
 20
0.52645439505688
 10
0.90310331844501
 20
0.52828411172559
 10
0.91889426076832
 20
0.53014630222256
 10
0.93449082374133
 20
0.53204057262718
 10
0.94988970812721
 20
0.53396652223279
 10
0.95751400125368
 20
0.53494124968041
 10
0.96508765650531
 20
0.53592374363144
 10
0.98008145396021
 20
0.53791182280006
 10
0.99486792876178
 20
0.53993033918804
 10
1.0021824409757
 20
0.54095087815421
 10
1.0094439530361
 20
0.5419788658062
 10
1.0238064434273
 20
0.54405696931712
 10
1.0379523617494
 20
0.54616421012679
 10
1.044943169461
 20
0.5472286179576
 10
1.0518787156293
 20
0.54830014247761
 10
1.06558255914
 20
0.55046431454269
 10
1.079060993423
 20
0.5526562685214
 10
1.0923111673024
 20
0.55487554073626
 10
1.1053302778875
 20
0.55712166173096
 10
1.1181155711658
 20
0.55939415636974
 10
1.1244196891948
 20
0.56054014379745
 10
1.1306643425857
 20
0.56169254393783
 10
1.1429739376283
 20
0.56401633824319
 10
1.1550417523694
 20
0.56636504771933
 10
1.16686523403
 20
0.56873817552929
 10
1.1784418815164
 20
0.57113521967077
 10
1.1897692459491
 20
0.57355567308228
 10
1.1953386961506
 20
0.5747745184506
 10
1.2008449311811
 20
0.57599902375045
 10
1.2116665943048
 20
0.57846475481828
 10
1.222231946147
 20
0.58095234469454
 10
1.2325387517542
 20
0.58346126716404
 10
1.2425848308643
 20
0.585990991499
 10
1.2523680583684
 20
0.58854098257128
 10
1.2571604538635
 20
0.58982340973099
 10
1.2618863647603
 20
0.5911107009656
 10
1.2711377365743
 20
0.59369960309363
 10
1.2801202168107
 20
0.596307141309
 10
1.2888319053502
 20
0.59893276402312
 10
1.297270959356
 20
0.60157591582188
 10
1.305435593663
 20
0.60423603758314
 10
1.3094144614282
 20
0.60557228648921
 10
1.3133240811559
 20
0.60691256659499
 10
1.3209347531345
 20
0.6096049366748
 10
1.3282659996666
 20
0.61231257828899
 10
1.3353162699286
 20
0.61503491867348
 10
1.3420840725334
 20
0.61777138195487
 10
1.3485679758462
 20
0.62052138927228
 10
1.3517030342955
 20
0.62190129026369
 10
1.3547666082871
 20
0.62328435889976
 10
1.3606786586212
 20
0.62605970636935
 10
1.3663028762362
 20
0.62884684459475
 10
1.3690066735995
 20
0.630244651091
 10
1.3716380714068
 20
0.63164518399549
 10
1.3766831155463
 20
0.63445413262162
 10
1.3814369414457
 20
0.637273096279
 10
1.3837043308911
 20
0.63868614747599
 10
1.3858985434988
 20
0.6401014786549
 10
1.3900669779155
 20
0.64293868144423
 10
1.3939413629214
 20
0.64578410447603
 10
1.3975208789438
 20
0.64863714584049
 10
1.400804768786
 20
0.65149720201624
 10
1.4037923377863
 20
0.65436366799801
 10
1.4051748020251
 20
0.65579911522775
 10
1.406482953966
 20
0.65723593742463
 10
1.4088760481625
 20
0.66011340270731
 10
1.4109711141499
 20
0.66299545515813
 10
1.412767708746
 20
0.66588148511882
 10
1.4142654519061
 20
0.66877088208973
 10
1.4154640268034
 20
0.67166303485895
 10
1.415951044448
 20
0.67310995350128
 10
1.4163631798959
 20
0.67455733163165
 10
1.4169627209804
 20
0.67745316015942
 10
1.4172625232321
 20
0.68034990786987
 10
1.4173
 20
0.68179843493302
  0
LWPOLYLINE
  5
193
330
131
100
AcDbEntity
  8
AM_4
100
AcDbPolyline
 90
      131
 70
     0
 43
0.0
 10
1.4173
 20
0.68179843493302
 10
1.4171500949103
 20
0.68469541245433
 10
1.415951044448
 20
0.69048691636476
 10
1.4135539580397
 20
0.69627106895247
 10
1.4119067456054
 20
0.69915885877827
 10
1.40996086386
 20
0.70204297624692
 10
1.4051748020251
 20
0.70779775463829
 10
1.3991998220213
 20
0.71353053500953
 10
1.392040979278
 20
0.71923646685612
 10
1.3837043308911
 20
0.72491072239005
 10
1.3741969304973
 20
0.73054850062465
 10
1.3690066735995
 20
0.73335221877503
 10
1.3635268223065
 20
0.73614503143668
 10
1.3517030342955
 20
0.74169557960235
 10
1.3387355705694
 20
0.74719544880375
 10
1.3246354028971
 20
0.75263998560248
 10
1.3094144614282
 20
0.75802458337683
 10
1.2930856245988
 20
0.76334468621951
 10
1.284510026567
 20
0.76597914313723
 10
1.275662708235
 20
0.76859579279238
 10
1.2571604538635
 20
0.77377346013504
 10
1.2375945162386
 20
0.778873307424
 10
1.2274178047837
 20
0.78139269744487
 10
1.216981450097
 20
0.7838910196793
 10
1.1953386961506
 20
0.78882235141543
 10
1.1726845663299
 20
0.79366313023342
 10
1.1609841923708
 20
0.79604827927813
 10
1.1490382282903
 20
0.79840926035111
 10
1.1244196891948
 20
0.80305672606858
 10
1.098849778785
 20
0.80760159516586
 10
1.0723501317581
 20
0.81204002222995
 10
1.044943169461
 20
0.81636825190843
 10
1.01665208092
 20
0.8205826220869
 10
1.0021824409757
 20
0.82264599171182
 10
0.98750080322046
 20
0.82467956698743
 10
0.95751400125368
 20
0.82865562018563
 10
0.92671704684785
 20
0.83250741754352
 10
0.89513599730103
 20
0.836231700056
 10
0.86279757333406
 20
0.83982531660825
 10
0.82972913648214
 20
0.8432852266419
 10
0.81292988324034
 20
0.84496412240509
 10
0.79595866594424
 20
0.84660850272763
 10
0.76151473490995
 20
0.84979233304209
 10
0.72642648638365
 20
0.85283402374698
 10
0.69072360852664
 20
0.8557310012683
 10
0.65443630953801
 20
0.85848081447383
 10
0.61759529209548
 20
0.86108113674708
 10
0.59897686236509
 20
0.86232454625034
 10
0.58023172737783
 20
0.8635297679558
 10
0.54237722869104
 20
0.86582463631352
 10
0.50406382472022
 20
0.86796380013252
 10
0.46532393243018
 20
0.86994544946662
 10
0.42619032963741
 20
0.87176790764266
 10
0.38669612727679
 20
0.87342963267906
 10
0.3668242326238
 20
0.87419977555383
 10
0.34687474138646
 20
0.87492921859056
 10
0.30675986483447
 20
0.87626539657776
 10
0.26638543881128
 20
0.87743703610068
 10
0.2257856241121
 20
0.87844314583532
 10
0.18499477223348
 20
0.87928287451239
 10
0.14404739630849
 20
0.8799555116376
 10
0.12352583419626
 20
0.88022898748234
 10
0.10297814190516
 20
0.88046048809279
 10
0.061821757712891
 20
0.88079737661746
 10
0.020613066141588
 20
0.88096589217028
 10
0.0
 20
0.88098695995672
 10
-0.020613066141588
 20
0.88096589217028
 10
-0.061821757712891
 20
0.88079737661746
 10
-0.10297814190516
 20
0.88046048809279
 10
-0.12352583419626
 20
0.88022898748234
 10
-0.14404739630848
 20
0.8799555116376
 10
-0.18499477223348
 20
0.87928287451239
 10
-0.2257856241121
 20
0.87844314583532
 10
-0.26638543881128
 20
0.87743703610068
 10
-0.30675986483447
 20
0.87626539657776
 10
-0.34687474138646
 20
0.87492921859056
 10
-0.3668242326238
 20
0.87419977555383
 10
-0.38669612727679
 20
0.87342963267906
 10
-0.42619032963741
 20
0.87176790764266
 10
-0.46532393243018
 20
0.86994544946662
 10
-0.50406382472022
 20
0.86796380013252
 10
-0.54237722869104
 20
0.86582463631352
 10
-0.58023172737783
 20
0.8635297679558
 10
-0.59897686236509
 20
0.86232454625034
 10
-0.61759529209548
 20
0.86108113674708
 10
-0.65443630953801
 20
0.85848081447383
 10
-0.69072360852664
 20
0.8557310012683
 10
-0.72642648638365
 20
0.85283402374698
 10
-0.76151473490995
 20
0.84979233304209
 10
-0.79595866594424
 20
0.84660850272763
 10
-0.81292988324034
 20
0.84496412240509
 10
-0.82972913648214
 20
0.8432852266419
 10
-0.86279757333406
 20
0.83982531660825
 10
-0.89513599730103
 20
0.836231700056
 10
-0.92671704684784
 20
0.83250741754352
 10
-0.95751400125368
 20
0.82865562018563
 10
-0.98750080322046
 20
0.82467956698743
 10
-1.0021824409757
 20
0.82264599171182
 10
-1.01665208092
 20
0.8205826220869
 10
-1.044943169461
 20
0.81636825190843
 10
-1.0723501317581
 20
0.81204002222995
 10
-1.098849778785
 20
0.80760159516586
 10
-1.1244196891948
 20
0.80305672606858
 10
-1.1490382282903
 20
0.79840926035111
 10
-1.1609841923708
 20
0.79604827927813
 10
-1.1726845663299
 20
0.79366313023342
 10
-1.1953386961506
 20
0.78882235141543
 10
-1.216981450097
 20
0.7838910196793
 10
-1.2274178047837
 20
0.78139269744487
 10
-1.2375945162386
 20
0.778873307424
 10
-1.2571604538635
 20
0.77377346013504
 10
-1.275662708235
 20
0.76859579279238
 10
-1.284510026567
 20
0.76597914313723
 10
-1.2930856245988
 20
0.76334468621951
 10
-1.3094144614282
 20
0.75802458337683
 10
-1.3246354028971
 20
0.75263998560248
 10
-1.3387355705694
 20
0.74719544880375
 10
-1.3517030342955
 20
0.74169557960235
 10
-1.3635268223065
 20
0.73614503143668
 10
-1.3690066735995
 20
0.73335221877503
 10
-1.3741969304973
 20
0.73054850062465
 10
-1.3837043308911
 20
0.72491072239005
 10
-1.392040979278
 20
0.71923646685612
 10
-1.3991998220213
 20
0.71353053500953
 10
-1.4051748020251
 20
0.70779775463829
 10
-1.40996086386
 20
0.70204297624692
 10
-1.4119067456054
 20
0.69915885877827
 10
-1.4135539580397
 20
0.69627106895247
 10
-1.415951044448
 20
0.69048691636476
 10
-1.4171500949103
 20
0.68469541245433
 10
-1.4173
 20
0.68179843493302
  0
LWPOLYLINE
  5
194
330
131
100
AcDbEntity
  8
AM_4
100
AcDbPolyline
 90
      131
 70
     0
 43
0.0
 10
-1.4173
 20
0.68179843493302
 10
-1.4172625232321
 20
0.68034990786987
 10
-1.4169627209804
 20
0.67745316015942
 10
-1.4163631798959
 20
0.67455733163165
 10
-1.415951044448
 20
0.67310995350128
 10
-1.4154640268034
 20
0.67166303485895
 10
-1.4142654519061
 20
0.66877088208973
 10
-1.412767708746
 20
0.66588148511882
 10
-1.4109711141499
 20
0.66299545515813
 10
-1.4088760481625
 20
0.66011340270731
 10
-1.406482953966
 20
0.65723593742463
 10
-1.4051748020251
 20
0.65579911522775
 10
-1.4037923377863
 20
0.65436366799801
 10
-1.400804768786
 20
0.65149720201624
 10
-1.3975208789438
 20
0.64863714584049
 10
-1.3939413629214
 20
0.64578410447603
 10
-1.3900669779155
 20
0.64293868144423
 10
-1.3858985434988
 20
0.6401014786549
 10
-1.3837043308911
 20
0.63868614747599
 10
-1.3814369414457
 20
0.637273096279
 10
-1.3766831155463
 20
0.63445413262162
 10
-1.3716380714068
 20
0.63164518399549
 10
-1.3690066735995
 20
0.630244651091
 10
-1.3663028762362
 20
0.62884684459475
 10
-1.3606786586212
 20
0.62605970636935
 10
-1.3547666082871
 20
0.62328435889976
 10
-1.3517030342955
 20
0.62190129026369
 10
-1.3485679758462
 20
0.62052138927228
 10
-1.3420840725334
 20
0.61777138195487
 10
-1.3353162699286
 20
0.61503491867348
 10
-1.3282659996666
 20
0.61231257828899
 10
-1.3209347531345
 20
0.6096049366748
 10
-1.3133240811559
 20
0.60691256659499
 10
-1.3094144614282
 20
0.60557228648921
 10
-1.305435593663
 20
0.60423603758314
 10
-1.297270959356
 20
0.60157591582188
 10
-1.2888319053502
 20
0.59893276402312
 10
-1.2801202168107
 20
0.596307141309
 10
-1.2711377365743
 20
0.59369960309363
 10
-1.2618863647603
 20
0.5911107009656
 10
-1.2571604538635
 20
0.58982340973099
 10
-1.2523680583684
 20
0.58854098257128
 10
-1.2425848308643
 20
0.585990991499
 10
-1.2325387517542
 20
0.58346126716404
 10
-1.222231946147
 20
0.58095234469454
 10
-1.2116665943048
 20
0.57846475481828
 10
-1.2008449311811
 20
0.57599902375045
 10
-1.1953386961506
 20
0.5747745184506
 10
-1.1897692459491
 20
0.57355567308228
 10
-1.1784418815164
 20
0.57113521967077
 10
-1.16686523403
 20
0.56873817552929
 10
-1.1550417523694
 20
0.56636504771933
 10
-1.1429739376283
 20
0.56401633824319
 10
-1.1306643425857
 20
0.56169254393783
 10
-1.1244196891948
 20
0.56054014379745
 10
-1.1181155711658
 20
0.55939415636974
 10
-1.1053302778875
 20
0.55712166173096
 10
-1.0923111673024
 20
0.55487554073626
 10
-1.079060993423
 20
0.5526562685214
 10
-1.06558255914
 20
0.55046431454269
 10
-1.0518787156293
 20
0.54830014247761
 10
-1.044943169461
 20
0.5472286179576
 10
-1.0379523617494
 20
0.54616421012679
 10
-1.0238064434273
 20
0.54405696931712
 10
-1.0094439530361
 20
0.5419788658062
 10
-1.0021824409757
 20
0.54095087815421
 10
-0.99486792876178
 20
0.53993033918804
 10
-0.98008145396021
 20
0.53791182280006
 10
-0.96508765650531
 20
0.53592374363144
 10
-0.95751400125368
 20
0.53494124968041
 10
-0.94988970812721
 20
0.53396652223279
 10
-0.93449082374133
 20
0.53204057262718
 10
-0.91889426076832
 20
0.53014630222256
 10
-0.90310331844501
 20
0.52828411172559
 10
-0.88712133712647
 20
0.52645439505688
 10
-0.87095169757943
 20
0.52465753926763
 10
-0.86279757333406
 20
0.52377155325778
 10
-0.85459782026711
 20
0.5228939244578
 10
-0.83806316462571
 20
0.52116392369566
 10
-0.82135122833253
 20
0.5194679029389
 10
-0.80446554656617
 20
0.51780622095723
 10
-0.78740969125868
 20
0.51617922925645
 10
-0.77018727033995
 20
0.5145872720041
 10
-0.76151473490995
 20
0.51380453682394
 10
-0.75280192697451
 20
0.51303068595668
 10
-0.73525733879091
 20
0.51150980038842
 10
-0.71755721710369
 20
0.51002493702158
 10
-0.69970530612839
 20
0.50857640995844
 10
-0.68170538218945
 20
0.50716452561483
 10
-0.6635612529214
 20
0.50578958265531
 10
-0.65443630953801
 20
0.50511605539221
 10
-0.64527675646341
 20
0.50445187193003
 10
-0.62685576064739
 20
0.50315167641316
 10
-0.60830216217981
 20
0.50188927114304
 10
-0.58961988581736
 20
0.50066492316402
 10
-0.57081288353679
 20
0.49947889146995
 10
-0.55188513369887
 20
0.49833142694941
 10
-0.54237722869104
 20
0.49777223355251
 10
-0.53284064020685
 20
0.49722277233262
 10
-0.51368343165949
 20
0.4961531621401
 10
-0.49441756049884
 20
0.49512282263306
 10
-0.47504710215303
 20
0.49413197176557
 10
-0.45557615417417
 20
0.49318081913839
 10
-0.43600883537154
 20
0.49226956595468
 10
-0.42619032963741
 20
0.49182896222338
 10
-0.41634928494035
 20
0.49139840497742
 10
-0.39660166158613
 20
0.49056752048867
 10
-0.376770142645
 20
0.48977708825051
 10
-0.3668242326238
 20
0.4893970943122
 10
-0.35685892320004
 20
0.48902727546793
 10
-0.33687221519389
 20
0.48831824075345
 10
-0.31681424653771
 20
0.48765013409353
 10
-0.30675986483447
 20
0.48733147328827
 10
-0.29668926021688
 20
0.48702309681687
 10
-0.27650151339346
 20
0.48643726156454
 10
-0.25625527650559
 20
0.48589275226186
 10
-0.23595483236419
 20
0.48538968409223
 10
-0.21560447524697
 20
0.48492816347275
 10
-0.19520850999004
 20
0.48450828803171
 10
-0.18499477223348
 20
0.48431399535364
 10
-0.17477125107729
 20
0.48413014658795
 10
-0.15429702172769
 20
0.48379381913205
 10
-0.13379015298081
 20
0.48349937680943
 10
-0.11325498278062
 20
0.48324688190527
 10
-0.092695855057882
 20
0.48303638783138
 10
-0.072117118811236
 20
0.48286793911487
 10
-0.061821757712891
 20
0.48279949324858
 10
-0.051523127187233
 20
0.48274157138871
 10
-0.030918236559484
 20
0.48265731138427
 10
-0.010306805607139
 20
0.48261517692556
 10
0.0
 20
0.48260990990932
  0
LINE
  5
195
330
131
100
AcDbEntity
  8
AM_4
100
AcDbLine
 10
-0.84907109390228
 20
0.41429275216588
 30
0.0
 11
-1.7684589308251
 21
0.53907088014108
 31
0.0
  0
LWPOLYLINE
  5
196
330
131
100
AcDbEntity
  8
AM_4
100
AcDbPolyline
 90
       23
 70
     0
 43
0.0
 10
-1.7684589308251
 20
0.53907088014108
 10
-1.7706643535116
 20
0.53937546906936
 10
-1.7749600591701
 20
0.54000064156243
 10
-1.7790979034029
 20
0.54064650281331
 10
-1.7811060443879
 20
0.54097694678076
 10
-1.7830728448843
 20
0.54131226593955
 10
-1.7868800407603
 20
0.54199711981134
 10
-1.7905148525492
 20
0.54270023003974
 10
-1.7939728517928
 20
0.54342073999322
 10
-1.7972498254516
 20
0.5441577718414
 10
-1.8003417810381
 20
0.54491042762451
 10
-1.8018171909116
 20
0.54529232864385
 10
-1.8032449514806
 20
0.54567779034741
 10
-1.8059557997131
 20
0.54645892509682
 10
-1.8084710229846
 20
0.54725288018038
 10
-1.8107875568831
 20
0.54805868828611
 10
-1.8129025790688
 20
0.54887536766098
 10
-1.8148135127129
 20
0.54970192330695
 10
-1.8156917089836
 20
0.55011859047107
 10
-1.8165180296372
 20
0.55053734819329
 10
-1.8180140531504
 20
0.55138062448347
 10
-1.8192997605782
 20
0.55223072477523
 10
-1.8198632461851
 20
0.55265801055069
  0
LINE
  5
197
330
131
100
AcDbEntity
  8
AM_4
100
AcDbLine
 10
-1.8198632461851
 20
0.55265801055069
 30
0.0
 11
-2.3125
 21
0.9453125
 31
0.0
  0
LINE
  5
198
330
131
100
AcDbEntity
  8
AM_4
100
AcDbLine
 10
-2.3125
 20
0.9453125
 30
0.0
 11
2.3125
 21
0.9453125
 31
0.0
  0
LINE
  5
199
330
131
100
AcDbEntity
  8
AM_4
100
AcDbLine
 10
2.3125
 20
0.9453125
 30
0.0
 11
1.8198632461851
 21
0.55265801055069
 31
0.0
  0
LWPOLYLINE
  5
19A
330
131
100
AcDbEntity
  8
AM_4
100
AcDbPolyline
 90
       23
 70
     0
 43
0.0
 10
1.8198632461851
 20
0.55265801055069
 10
1.8192997605782
 20
0.55223072477523
 10
1.8180140531504
 20
0.55138062448347
 10
1.8165180296372
 20
0.55053734819329
 10
1.8156917089836
 20
0.55011859047107
 10
1.8148135127129
 20
0.54970192330695
 10
1.8129025790688
 20
0.54887536766098
 10
1.8107875568831
 20
0.54805868828611
 10
1.8084710229846
 20
0.54725288018038
 10
1.8059557997131
 20
0.54645892509682
 10
1.8032449514806
 20
0.54567779034741
 10
1.8018171909116
 20
0.54529232864385
 10
1.8003417810381
 20
0.54491042762451
 10
1.7972498254516
 20
0.5441577718414
 10
1.7939728517928
 20
0.54342073999322
 10
1.7905148525492
 20
0.54270023003974
 10
1.7868800407603
 20
0.54199711981134
 10
1.7830728448843
 20
0.54131226593955
 10
1.7811060443879
 20
0.54097694678076
 10
1.7790979034029
 20
0.54064650281331
 10
1.7749600591701
 20
0.54000064156243
 10
1.7706643535116
 20
0.53937546906936
 10
1.7684589308251
 20
0.53907088014108
  0
LINE
  5
19B
330
131
100
AcDbEntity
  8
AM_4
100
AcDbLine
 10
1.7684589308251
 20
0.53907088014108
 30
0.0
 11
0.84907109390228
 21
0.41429275216588
 31
0.0
  0
LWPOLYLINE
  5
19C
330
131
100
AcDbEntity
  8
AM_4
100
AcDbPolyline
 90
       23
 70
     0
 43
0.0
 10
0.84907109390228
 20
0.41429275216588
 10
0.84632473608719
 20
0.41392789511598
 10
0.84066904413469
 20
0.41322329106346
 10
0.83480466872013
 20
0.41255322928872
 10
0.83179754559891
 20
0.41223153535078
 10
0.82874228246155
 20
0.41191892924189
 10
0.82249291833831
 20
0.41132154529007
 10
0.81606794961212
 20
0.41076216461654
 10
0.8094790691287
 20
0.4102418052421
 10
0.80273826803797
 20
0.40976141417243
 10
0.79585781397122
 20
0.40932186567463
 10
0.79236912082237
 20
0.40911766031486
 10
0.78885022871515
 20
0.40892395968609
 10
0.78172826542343
 20
0.40856842035871
 10
0.77450488540712
 20
0.40825589474103
 10
0.76719323454628
 20
0.4079869516006
 10
0.7598066193657
 20
0.40776208038894
 10
0.75235848281827
 20
0.40758169035074
 10
0.74861557624303
 20
0.40750828154281
 10
0.74486237982004
 20
0.40744610977911
 10
0.73733195258155
 20
0.40735558541809
 10
0.72978090578026
 20
0.40731028201358
 10
0.72600194369979
 20
0.40730461715491
  0
LINE
  5
19D
330
131
100
AcDbEntity
  8
AM_4
100
AcDbLine
 10
0.72600194369979
 20
0.40730461715491
 30
0.0
 11
-0.72600194369979
 21
0.40730461715491
 31
0.0
  0
LWPOLYLINE
  5
19E
330
131
100
AcDbEntity
  8
AM_4
100
AcDbPolyline
 90
       23
 70
     0
 43
0.0
 10
-0.72600194369979
 20
0.40730461715491
 10
-0.72978090578026
 20
0.40731028201358
 10
-0.73733195258155
 20
0.40735558541809
 10
-0.74486237982004
 20
0.40744610977911
 10
-0.74861557624303
 20
0.40750828154281
 10
-0.75235848281827
 20
0.40758169035074
 10
-0.7598066193657
 20
0.40776208038894
 10
-0.76719323454628
 20
0.4079869516006
 10
-0.77450488540712
 20
0.40825589474103
 10
-0.78172826542344
 20
0.40856842035871
 10
-0.78885022871515
 20
0.40892395968609
 10
-0.79236912082237
 20
0.40911766031486
 10
-0.79585781397122
 20
0.40932186567463
 10
-0.80273826803798
 20
0.40976141417243
 10
-0.8094790691287
 20
0.4102418052421
 10
-0.81606794961212
 20
0.41076216461654
 10
-0.82249291833831
 20
0.41132154529007
 10
-0.82874228246155
 20
0.41191892924189
 10
-0.83179754559891
 20
0.41223153535078
 10
-0.83480466872013
 20
0.41255322928872
 10
-0.84066904413469
 20
0.41322329106346
 10
-0.84632473608719
 20
0.41392789511598
 10
-0.84907109390228
 20
0.41429275216588
  0
ELLIPSE
  5
19F
330
131
100
AcDbEntity
  8
AM_4
100
AcDbEllipse
 10
1.6359880234764
 20
-0.09453125
 30
0.0
 11
3.448207189099503E-18
 21
0.056313496944593
 31
0.0
210
0.0
220
0.0
230
1.0
 40
0.7071067811865495
 41
0.0
 42
6.283185307179586
  0
ELLIPSE
  5
1A0
330
131
100
AcDbEntity
  8
AM_4
100
AcDbEllipse
 10
1.627911683846304
 20
-0.0945312499999975
 30
0.0
 11
-1.362666886457932E-17
 21
-0.07418013027139328
 31
0.0
210
0.0
220
0.0
230
1.0
 40
0.7071067811865489
 41
2.66077899882756
 42
6.763998961941819
  0
ELLIPSE
  5
1A1
330
131
100
AcDbEntity
  8
AM_4
100
AcDbEllipse
 10
1.590132812585203
 20
-0.0945312499999904
 30
0.0
 11
-1.816586040988548E-17
 21
-0.09889033813685852
 31
0.0
210
0.0
220
0.0
230
1.0
 40
0.7071067811865476
 41
2.660778999831839
 42
6.76399896195532
  0
ELLIPSE
  5
1A2
330
131
100
AcDbEntity
  8
AM_4
100
AcDbEllipse
 10
1.510713167744789
 20
-0.0945312500002314
 30
0.0
 11
-2.025002468266879E-17
 21
-0.1102360000002594
 31
0.0
210
0.0
220
0.0
230
1.0
 40
0.7071067811865485
 41
2.563974231714691
 42
6.860791728282315
  0
ELLIPSE
  5
1A3
330
131
100
AcDbEntity
  8
AM_4
100
AcDbEllipse
 10
1.496793770757201
 20
-0.0945312500000015
 30
0.0
 11
-2.025002468261353E-17
 21
-0.1102359999999585
 31
0.0
210
0.0
220
0.0
230
1.0
 40
0.7071067811870018
 41
3.141592653589793
 42
6.283185307179586
  0
ELLIPSE
  5
1A4
330
131
100
AcDbEntity
  8
AM_4
100
AcDbEllipse
 10
1.496793770755331
 20
-0.094531249996978
 30
0.0
 11
-2.892860669017847E-17
 21
-0.1574800000039178
 31
0.0
210
0.0
220
0.0
230
1.0
 40
0.7071067811865308
 41
2.264692734979412
 42
7.160084883691921
  0
LWPOLYLINE
  5
1A5
330
131
100
AcDbEntity
  8
AM_4
100
AcDbPolyline
 90
       23
 70
     0
 43
0.0
 10
1.5901086380533
 20
0.0059103961102102
 10
1.5891358017205
 20
0.0070034760682039
 10
1.587184478878
 20
0.0091645023488243
 10
1.5852242425095
 20
0.011294075438276
 10
1.584240268216
 20
0.012347814032429
 10
1.5832534509328
 20
0.013394573314401
 10
1.5812704739945
 20
0.015468277452226
 10
1.5792736879428
 20
0.017517381798848
 10
1.5772614704627
 20
0.019544001125269
 10
1.5752321958362
 20
0.021550178825334
 10
1.5731842301953
 20
0.023537894225056
 10
1.5721527242779
 20
0.024525431283548
 10
1.5711159268349
 20
0.025509069459758
 10
1.5690256215566
 20
0.027465575971304
 10
1.566911628013
 20
0.029409240673292
 10
1.5647722330241
 20
0.031341851828299
 10
1.562605691838
 20
0.033265164678021
 10
1.5604102233068
 20
0.035180906864408
 10
1.5593010735139
 20
0.036136472594644
 10
1.5581840049497
 20
0.03709078367762
 10
1.5559251678742
 20
0.038996483164739
 10
1.5536317915247
 20
0.040899681131687
 10
1.5524715354844
 20
0.041850863600676
  0
LWPOLYLINE
  5
1A6
330
131
100
AcDbEntity
  8
AM_4
100
AcDbPolyline
 90
       23
 70
     0
 43
0.0
 10
1.5524715354844
 20
0.041850863600676
 10
1.551028764516
 20
0.04302306111669
 10
1.5480985421034
 20
0.045369015444591
 10
1.5451054119851
 20
0.047719654580345
 10
1.5435839646016
 20
0.048897712984437
 10
1.5420452160177
 20
0.050078124861191
 10
1.5389135984053
 20
0.052447607549445
 10
1.5357059849413
 20
0.054831333260428
 10
1.5324175605905
 20
0.057232596857129
 10
1.529043245178
 20
0.059654772957852
 10
1.5255776669251
 20
0.062101332213191
 10
1.5238088887586
 20
0.063334870575428
 10
1.5220151335415
 20
0.064575858521508
 10
1.5183496005407
 20
0.067082067368065
 10
1.5145746364075
 20
0.06962382549236
 10
1.5106833841871
 20
0.072205172111692
 10
1.5066685190107
 20
0.074830341957114
 10
1.5025222009952
 20
0.077503790411511
 10
1.500397143617
 20
0.078860078487717
 10
1.4982360228736
 20
0.080230221079572
 10
1.49380095161
 20
0.083014616167122
 10
1.4892072631376
 20
0.085862270104004
 10
1.486847691903
 20
0.08731156813423
  0
LINE
  5
1A7
330
131
100
AcDbEntity
  8
AM_4
100
AcDbLine
 10
1.486847691903
 20
0.08731156813423
 30
0.0
 11
1.4093036464336
 21
0.08731156813423
 31
0.0
  0
LWPOLYLINE
  5
1A8
330
131
100
AcDbEntity
  8
AM_4
100
AcDbPolyline
 90
       23
 70
     0
 43
0.0
 10
1.486847691903
 20
0.08731156813423
 10
1.4856572151929
 20
0.085862270103994
 10
1.4832755913991
 20
0.083014616167093
 10
1.4808903041324
 20
0.080230221079528
 10
1.4796952696586
 20
0.078860078487666
 10
1.4784981087512
 20
0.077503790411453
 10
1.4760958343791
 20
0.074830341957045
 10
1.4736803668076
 20
0.072205172111614
 10
1.4712486324669
 20
0.069623825492276
 10
1.4687975832625
 20
0.067082067367977
 10
1.4663241820998
 20
0.064575858521418
 10
1.465078150008
 20
0.063334870575338
 10
1.4638253889322
 20
0.062101332213102
 10
1.4612981471845
 20
0.059654772957765
 10
1.4587393704108
 20
0.057232596857046
 10
1.4561459290566
 20
0.054831333260352
 10
1.4535146371985
 20
0.052447607549378
 10
1.4508422391368
 20
0.050078124861134
 10
1.4494895854364
 20
0.048897712984386
 10
1.4481253957214
 20
0.047719654580302
 10
1.4453606702855
 20
0.045369015444563
 10
1.442544514062
 20
0.043023061116679
 10
1.4411160060298
 20
0.041850863600674
  0
LWPOLYLINE
  5
1A9
330
131
100
AcDbEntity
  8
AM_4
100
AcDbPolyline
 90
       23
 70
     0
 43
0.0
 10
1.4411160060298
 20
0.041850863600674
 10
1.4396732350614
 20
0.040678666084661
 10
1.4367430126488
 20
0.038332711756759
 10
1.4337498825304
 20
0.035982072621005
 10
1.432228435147
 20
0.034804014216913
 10
1.4306896865631
 20
0.033623602340159
 10
1.4275580689507
 20
0.031254119651905
 10
1.4243504554867
 20
0.028870393940921
 10
1.4210620311359
 20
0.026469130344221
 10
1.4176877157233
 20
0.024046954243497
 10
1.4142221374705
 20
0.021600394988158
 10
1.412453359304
 20
0.020366856625921
 10
1.4106596040868
 20
0.019125868679841
 10
1.4069940710861
 20
0.016619659833283
 10
1.4032191069528
 20
0.014077901708989
 10
1.3993278547324
 20
0.011496555089656
 10
1.395312989556
 20
0.0088713852442338
 10
1.3911666715406
 20
0.0061979367898372
 10
1.3890416141624
 20
0.0048416487136305
 10
1.3868804934189
 20
0.0034715061217752
 10
1.3824454221553
 20
0.0006871110342254
 10
1.3778517336829
 20
-0.0021605429026567
 10
1.3754921624483
 20
-0.003609840932883
  0
LWPOLYLINE
  5
1AA
330
131
100
AcDbEntity
  8
AM_4
100
AcDbPolyline
 90
       23
 70
     0
 43
0.0
 10
1.297948116979
 20
-0.0036098409328829
 10
1.2991385936891
 20
-0.0021605429026465
 10
1.3015202174828
 20
0.0006871110342541
 10
1.3039055047496
 20
0.0034715061218197
 10
1.3051005392233
 20
0.0048416487136819
 10
1.3062977001308
 20
0.0061979367898951
 10
1.3086999745029
 20
0.0088713852443026
 10
1.3111154420743
 20
0.011496555089734
 10
1.313547176415
 20
0.014077901709072
 10
1.3159982256194
 20
0.016619659833371
 10
1.3184716267821
 20
0.01912586867993
 10
1.3197176588739
 20
0.02036685662601
 10
1.3209704199497
 20
0.021600394988247
 10
1.3234976616975
 20
0.024046954243584
 10
1.3260564384712
 20
0.026469130344303
 10
1.3286498798253
 20
0.028870393940997
 10
1.3312811716835
 20
0.031254119651971
 10
1.3339535697452
 20
0.033623602340215
 10
1.3353062234456
 20
0.034804014216963
 10
1.3366704131605
 20
0.035982072621047
 10
1.3394351385964
 20
0.038332711756786
 10
1.3422512948199
 20
0.040678666084671
 10
1.3436798028521
 20
0.041850863600675
  0
LWPOLYLINE
  5
1AB
330
131
100
AcDbEntity
  8
AM_4
100
AcDbPolyline
 90
       23
 70
     0
 43
0.0
 10
1.3436798028521
 20
0.041850863600675
 10
1.3451225738205
 20
0.043023061116689
 10
1.3480527962331
 20
0.045369015444591
 10
1.3510459263515
 20
0.047719654580344
 10
1.3525673737349
 20
0.048897712984436
 10
1.3541061223188
 20
0.05007812486119
 10
1.3572377399312
 20
0.052447607549444
 10
1.3604453533952
 20
0.054831333260427
 10
1.363733777746
 20
0.057232596857128
 10
1.3671080931586
 20
0.059654772957852
 10
1.3705736714114
 20
0.062101332213191
 10
1.3723424495779
 20
0.063334870575428
 10
1.3741362047951
 20
0.064575858521508
 10
1.3778017377958
 20
0.067082067368065
 10
1.3815767019291
 20
0.069623825492359
 10
1.3854679541495
 20
0.072205172111692
 10
1.3894828193259
 20
0.074830341957114
 10
1.3936291373414
 20
0.07750379041151
 10
1.3957541947196
 20
0.078860078487717
 10
1.397915315463
 20
0.080230221079572
 10
1.4023503867266
 20
0.083014616167122
 10
1.406944075199
 20
0.085862270104004
 10
1.4093036464336
 20
0.08731156813423
  0
LWPOLYLINE
  5
1AC
330
131
100
AcDbEntity
  8
AM_4
100
AcDbPolyline
 90
       23
 70
     0
 43
0.0
 10
1.3436798028521
 20
-0.23091336360068
 10
1.3422512880285
 20
-0.22974116608466
 10
1.3394351193779
 20
-0.22739521175676
 10
1.3366703830443
 20
-0.22504457262101
 10
1.3353061884505
 20
-0.22386651421691
 10
1.33395353025
 20
-0.22268610234016
 10
1.3312811243218
 20
-0.22031661965191
 10
1.3286498261071
 20
-0.21793289394092
 10
1.3260563799081
 20
-0.21553163034422
 10
1.3234975998067
 20
-0.2131094542435
 10
1.3209703562585
 20
-0.21066289498816
 10
1.3197175948594
 20
-0.20942935662592
 10
1.3184715628317
 20
-0.20818836867984
 10
1.3159981629696
 20
-0.20568215983328
 10
1.3135471166487
 20
-0.20314040170899
 10
1.3111153868025
 20
-0.20055905508966
 10
1.3086999253695
 20
-0.19793388524423
 10
1.306297658818
 20
-0.19526043678984
 10
1.3051005024653
 20
-0.19390414871363
 10
1.3039054729839
 20
-0.19253400612178
 10
1.3015201970406
 20
-0.18974961103423
 10
1.2991385864037
 20
-0.18690195709734
 10
1.297948116979
 20
-0.18545265906712
  0
LWPOLYLINE
  5
1AD
330
131
100
AcDbEntity
  8
AM_4
100
AcDbPolyline
 90
       23
 70
     0
 43
0.0
 10
1.3754921624483
 20
-0.18545265906712
 10
1.3778517263975
 20
-0.18690195709735
 10
1.3824454017132
 20
-0.18974961103425
 10
1.3868804616533
 20
-0.19253400612182
 10
1.3890415774045
 20
-0.19390414871368
 10
1.391166630228
 20
-0.19526043678989
 10
1.3953129404228
 20
-0.1979338852443
 10
1.3993277994608
 20
-0.20055905508973
 10
1.4032190471867
 20
-0.20314040170907
 10
1.4069940084365
 20
-0.20568215983337
 10
1.4106595401366
 20
-0.20818836867993
 10
1.4124532952897
 20
-0.20942935662601
 10
1.4142220737795
 20
-0.21066289498825
 10
1.4176876538328
 20
-0.21310945424358
 10
1.421061972573
 20
-0.2155316303443
 10
1.4243504017687
 20
-0.217932893941
 10
1.4275580215892
 20
-0.22031661965197
 10
1.4306896470681
 20
-0.22268610234021
 10
1.432228400152
 20
-0.22386651421696
 10
1.4337498524143
 20
-0.22504457262105
 10
1.4367429934303
 20
-0.22739521175679
 10
1.43967322827
 20
-0.22974116608467
 10
1.4411160060298
 20
-0.23091336360067
  0
LWPOLYLINE
  5
1AE
330
131
100
AcDbEntity
  8
AM_4
100
AcDbPolyline
 90
       23
 70
     0
 43
0.0
 10
1.4411160060298
 20
-0.23091336360067
 10
1.4425445208534
 20
-0.23208556111669
 10
1.445360689504
 20
-0.23443151544459
 10
1.4481254258376
 20
-0.23678215458034
 10
1.4494896204314
 20
-0.23796021298444
 10
1.4508422786319
 20
-0.23914062486119
 10
1.4535146845601
 20
-0.24151010754944
 10
1.4561459827748
 20
-0.24389383326043
 10
1.4587394289738
 20
-0.24629509685713
 10
1.4612982090752
 20
-0.24871727295785
 10
1.4638254526234
 20
-0.25116383221319
 10
1.4650782140225
 20
-0.25239737057543
 10
1.4663242460502
 20
-0.25363835852151
 10
1.4687976459124
 20
-0.25614456736806
 10
1.4712486922332
 20
-0.25868632549236
 10
1.4736804220794
 20
-0.26126767211169
 10
1.4760958835125
 20
-0.26389284195711
 10
1.4784981500639
 20
-0.26656629041151
 10
1.4796953064166
 20
-0.26792257848772
 10
1.4808903358981
 20
-0.26929272107957
 10
1.4832756118413
 20
-0.27207711616712
 10
1.4856572224783
 20
-0.274924770104
 10
1.486847691903
 20
-0.27637406813423
  0
LWPOLYLINE
  5
1AF
330
131
100
AcDbEntity
  8
AM_4
100
AcDbPolyline
 90
       23
 70
     0
 43
0.0
 10
1.4093036464336
 20
-0.27637406813423
 10
1.4069440824844
 20
-0.27492477010399
 10
1.4023504071687
 20
-0.27207711616709
 10
1.3979153472286
 20
-0.26929272107953
 10
1.3957542314775
 20
-0.26792257848767
 10
1.393629178654
 20
-0.26656629041145
 10
1.3894828684592
 20
-0.26389284195705
 10
1.3854680094212
 20
-0.26126767211161
 10
1.3815767616952
 20
-0.25868632549228
 10
1.3778018004455
 20
-0.25614456736798
 10
1.3741362687453
 20
-0.25363835852142
 10
1.3723425135923
 20
-0.25239737057534
 10
1.3705737351024
 20
-0.2511638322131
 10
1.3671081550491
 20
-0.24871727295777
 10
1.3637338363089
 20
-0.24629509685705
 10
1.3604454071132
 20
-0.24389383326035
 10
1.3572377872927
 20
-0.24151010754938
 10
1.3541061618139
 20
-0.23914062486114
 10
1.3525674087299
 20
-0.23796021298439
 10
1.3510459564677
 20
-0.2367821545803
 10
1.3480528154516
 20
-0.23443151544456
 10
1.3451225806119
 20
-0.23208556111668
 10
1.3436798028521
 20
-0.23091336360068
  0
LWPOLYLINE
  5
1B0
330
131
100
AcDbEntity
  8
AM_4
100
AcDbPolyline
 90
       23
 70
     0
 43
0.0
 10
1.2880020381248
 20
-0.09453125
 10
1.2880105369602
 20
-0.091972256918084
 10
1.2880777033933
 20
-0.086890227203377
 10
1.2882102253116
 20
-0.081849082703061
 10
1.288300477399
 20
-0.079341298088704
 10
1.2884064774611
 20
-0.076840730911297
 10
1.2886650671271
 20
-0.071857457834028
 10
1.2889848177996
 20
-0.066891876725885
 10
1.2893647551137
 20
-0.061936881598637
 10
1.2898040948055
 20
-0.05698560479598
 10
1.2903022324643
 20
-0.052031378023887
 10
1.290573208676
 20
-0.049551120147481
 10
1.290858734897
 20
-0.047067696304125
 10
1.2914733329508
 20
-0.042088184383541
 10
1.2921459156657
 20
-0.037086565185474
 10
1.2928765256502
 20
-0.032056629934045
 10
1.2936653555945
 20
-0.026992209618405
 10
1.2945127458504
 20
-0.021887147493477
 10
1.294958547465
 20
-0.019317448531149
 10
1.2954191830242
 20
-0.016735272337251
 10
1.2963852995432
 20
-0.011530372202955
 10
1.2974118741669
 20
-0.006266168417998
 10
1.297948116979
 20
-0.0036098409328829
  0
LINE
  5
1B1
330
131
100
AcDbEntity
  8
AM_4
100
AcDbLine
 10
1.3754921624483
 20
-0.003609840932883
 30
0.0
 11
1.297948116979
 21
-0.003609840932883
 31
0.0
  0
LWPOLYLINE
  5
1B2
330
131
100
AcDbEntity
  8
AM_4
100
AcDbPolyline
 90
       23
 70
     0
 43
0.0
 10
1.3754921624483
 20
-0.003609840932883
 10
1.3760284172099
 20
-0.006266230038759
 10
1.377055013885
 20
-0.011530550469895
 10
1.3780211499086
 20
-0.016735557806049
 10
1.3784817942368
 20
-0.019317783810387
 10
1.3789276039512
 20
-0.021887529920173
 10
1.3797750083635
 20
-0.026992677931055
 10
1.3805638496877
 20
-0.032057172196686
 10
1.3812944682237
 20
-0.037087168553983
 10
1.3819670566224
 20
-0.042088835052819
 10
1.3825816574664
 20
-0.047068379445913
 10
1.3828671839931
 20
-0.049551813625698
 10
1.3831381597835
 20
-0.05203207771439
 10
1.3836362944239
 20
-0.056986303932272
 10
1.3840756282135
 20
-0.061937561802651
 10
1.3844555567791
 20
-0.066892518234563
 10
1.3847752959142
 20
-0.071858039373946
 10
1.3850338713345
 20
-0.076841229555763
 10
1.3851398632902
 20
-0.079341746127384
 10
1.3852301066364
 20
-0.081849473709362
 10
1.3853626092416
 20
-0.086890483827383
 10
1.3854297540671
 20
-0.091972350202953
 10
1.3854382413025
 20
-0.09453125
  0
LWPOLYLINE
  5
1B3
330
131
100
AcDbEntity
  8
AM_4
100
AcDbPolyline
 90
       23
 70
     0
 43
0.0
 10
1.3854382413025
 20
-0.09453125
 10
1.3854297540671
 20
-0.097090149797047
 10
1.3853626092416
 20
-0.10217201617262
 10
1.3852301066364
 20
-0.10721302629064
 10
1.3851398632902
 20
-0.10972075387262
 10
1.3850338713345
 20
-0.11222127044424
 10
1.3847752959142
 20
-0.11720446062605
 10
1.3844555567791
 20
-0.12216998176544
 10
1.3840756282135
 20
-0.12712493819735
 10
1.3836362944239
 20
-0.13207619606773
 10
1.3831381597835
 20
-0.13703042228561
 10
1.3828671839931
 20
-0.1395106863743
 10
1.3825816574664
 20
-0.14199412055409
 10
1.3819670566224
 20
-0.14697366494718
 10
1.3812944682237
 20
-0.15197533144602
 10
1.3805638496877
 20
-0.15700532780331
 10
1.3797750083635
 20
-0.16206982206894
 10
1.3789276039512
 20
-0.16717497007983
 10
1.3784817942368
 20
-0.16974471618961
 10
1.3780211499086
 20
-0.17232694219395
 10
1.377055013885
 20
-0.17753194953011
 10
1.3760284172099
 20
-0.18279626996124
 10
1.3754921624483
 20
-0.18545265906712
  0
LINE
  5
1B4
330
131
100
AcDbEntity
  8
AM_4
100
AcDbLine
 10
1.3754921624483
 20
-0.18545265906712
 30
0.0
 11
1.297948116979
 21
-0.18545265906712
 31
0.0
  0
LWPOLYLINE
  5
1B5
330
131
100
AcDbEntity
  8
AM_4
100
AcDbPolyline
 90
       23
 70
     0
 43
0.0
 10
1.297948116979
 20
-0.18545265906712
 10
1.2974118863728
 20
-0.182796331582
 10
1.2963853341432
 20
-0.17753212779705
 10
1.2954192373367
 20
-0.17232722766275
 10
1.2949586106298
 20
-0.16974505146885
 10
1.2945128171984
 20
-0.16717535250652
 10
1.2936654412986
 20
-0.16207029038159
 10
1.2928766230216
 20
-0.15700587006595
 10
1.2921460219992
 20
-0.15197593481453
 10
1.2914734455173
 20
-0.14697431561646
 10
1.2908588509355
 20
-0.14199480369587
 10
1.290573325403
 20
-0.13951137985252
 10
1.2903023491743
 20
-0.13703112197611
 10
1.2898042093385
 20
-0.13207689520402
 10
1.2893648645642
 20
-0.12712561840136
 10
1.2889849191961
 20
-0.12217062327412
 10
1.2886651574215
 20
-0.11720504216597
 10
1.2884065535185
 20
-0.1122217690887
 10
1.2883005451319
 20
-0.1097212019113
 10
1.2882102838983
 20
-0.10721341729694
 10
1.2880777411646
 20
-0.10217227279662
 10
1.2880105504467
 20
-0.097090243081916
 10
1.2880020381248
 20
-0.09453125
  0
LINE
  5
1B6
330
131
100
AcDbEntity
  8
AM_4
100
AcDbLine
 10
1.486847691903
 20
-0.27637406813423
 30
0.0
 11
1.4093036464336
 21
-0.27637406813423
 31
0.0
  0
LWPOLYLINE
  5
1B7
330
131
100
AcDbEntity
  8
AM_4
100
AcDbPolyline
 90
       23
 70
     0
 43
0.0
 10
1.486847691903
 20
-0.27637406813423
 10
1.4892072558522
 20
-0.27492477010399
 10
1.4938009311679
 20
-0.27207711616709
 10
1.498235991108
 20
-0.26929272107953
 10
1.5003971068591
 20
-0.26792257848767
 10
1.5025221596826
 20
-0.26656629041145
 10
1.5066684698774
 20
-0.26389284195705
 10
1.5106833289154
 20
-0.26126767211162
 10
1.5145745766414
 20
-0.25868632549228
 10
1.5183495378911
 20
-0.25614456736798
 10
1.5220150695913
 20
-0.25363835852142
 10
1.5238088247443
 20
-0.25239737057534
 10
1.5255776032342
 20
-0.2511638322131
 10
1.5290431832875
 20
-0.24871727295777
 10
1.5324175020277
 20
-0.24629509685705
 10
1.5357059312234
 20
-0.24389383326035
 10
1.5389135510439
 20
-0.24151010754938
 10
1.5420451765227
 20
-0.23914062486114
 10
1.5435839296067
 20
-0.23796021298439
 10
1.5451053818689
 20
-0.2367821545803
 10
1.548098522885
 20
-0.23443151544456
 10
1.5510287577247
 20
-0.23208556111668
 10
1.5524715354844
 20
-0.23091336360068
  0
LWPOLYLINE
  5
1B8
330
131
100
AcDbEntity
  8
AM_4
100
AcDbPolyline
 90
       23
 70
     0
 43
0.0
 10
1.5524715354844
 20
-0.23091336360068
 10
1.5536318008062
 20
-0.22996217805243
 10
1.5559251947842
 20
-0.22805897391888
 10
1.5581840482647
 20
-0.22615326824085
 10
1.5593011245803
 20
-0.2251989540482
 10
1.5604102818279
 20
-0.22424338519607
 10
1.5626057643887
 20
-0.22232763672092
 10
1.5647723184479
 20
-0.22040431750842
 10
1.5669117251713
 20
-0.21847169989944
 10
1.5690257293264
 20
-0.21652802863463
 10
1.571116044107
 20
-0.21457151543325
 10
1.5721528458889
 20
-0.21358787385863
 10
1.573184355872
 20
-0.21260033336287
 10
1.5752323288296
 20
-0.21061261096206
 10
1.5772616096923
 20
-0.20860642607509
 10
1.5792738323342
 20
-0.20657979935456
 10
1.5812706224769
 20
-0.20453068738414
 10
1.5832536024374
 20
-0.20245697536913
 10
1.5842404208311
 20
-0.20141021204576
 10
1.5852243959677
 20
-0.20035646933734
 10
1.5871846332193
 20
-0.19822688778712
 10
1.5891359558705
 20
-0.19606585271229
 10
1.5901087917032
 20
-0.19497276822277
  0
ARC
  5
1B9
330
131
100
AcDbEntity
  8
AM_5
100
AcDbCircle
 10
1.625
 20
0.0
 30
0.0
 40
0.25
100
AcDbArc
 50
75.00000000000001
 51
14.99999999999997
  0
ARC
  5
1BA
330
131
100
AcDbEntity
  8
AM_5
100
AcDbCircle
 10
-1.625
 20
0.0
 30
0.0
 40
0.25
100
AcDbArc
 50
75.00000000000001
 51
14.99999999999997
  0
ENDBLK
  5
134
330
131
100
AcDbEntity
  8
0
100
AcDbBlockEnd
  0
ENDSEC
  0
SECTION
  2
ENTITIES
  0
INSERT
  5
6F
330
1F
100
AcDbEntity
  8
0
100
AcDbBlockReference
  2
1_129298_4
 10
0.0
 20
0.0
 30
0.0
  0
POINT
  5
1BC
330
1F
100
AcDbEntity
  8
ConnectionPoints
100
AcDbPoint
 10
0.0
 20
0.0
 30
0.0
  0
POINT
  5
1BD
330
1F
100
AcDbEntity
  8
ConnectionPoints
100
AcDbPoint
 10
0.0
 20
0.5625
 30
0.0
  0
POINT
  5
1BE
330
1F
100
AcDbEntity
  8
ConnectionPoints
100
AcDbPoint
 10
0.0
 20
0.0
 30
0.0
  0
POINT
  5
1BF
330
1F
100
AcDbEntity
  8
ConnectionPoints
100
AcDbPoint
 10
0.0
 20
0.0
 30
0.0
  0
ENDSEC
  0
SECTION
  2
OBJECTS
  0
DICTIONARY
  5
C
330
0
100
AcDbDictionary
281
     1
  3
ACAD_DETAILVIEWSTYLE
350
1C7
  3
ACAD_GROUP
350
D
  3
ACAD_LAYOUT
350
1A
  3
ACAD_MATERIAL
350
43
  3
ACAD_MLEADERSTYLE
350
6B
  3
ACAD_MLINESTYLE
350
17
  3
ACAD_PLOTSETTINGS
350
19
  3
ACAD_PLOTSTYLENAME
350
E
  3
ACAD_SCALELIST
350
47
  3
ACAD_SECTIONVIEWSTYLE
350
1C8
  3
ACAD_TABLESTYLE
350
69
  3
ACAD_VISUALSTYLE
350
2A
  3
ACDB_RECOMPOSE_DATA
350
1C4
  3
AcDbVariableDictionary
350
1C0
  0
SUN
  5
6D
330
29
100
AcDbSun
 90
        1
290
     0
 63
     7
421
 16777215
 40
1.0
291
     1
 91
  2455826
 92
 54000000
292
     0
 70
     2
 71
   256
280
     1
  0
DICTIONARY
  5
1C7
102
{ACAD_REACTORS
330
C
102
}
330
C
100
AcDbDictionary
281
     1
  0
DICTIONARY
  5
D
102
{ACAD_REACTORS
330
C
102
}
330
C
100
AcDbDictionary
281
     1
  0
DICTIONARY
  5
1A
102
{ACAD_REACTORS
330
C
102
}
330
C
100
AcDbDictionary
281
     1
  3
Layout1
350
1E
  3
Layout2
350
26
  3
Model
350
22
  0
DICTIONARY
  5
43
102
{ACAD_REACTORS
330
C
102
}
330
C
100
AcDbDictionary
281
     1
  3
ByBlock
350
45
  3
ByLayer
350
44
  3
Global
350
46
  0
DICTIONARY
  5
6B
102
{ACAD_REACTORS
330
C
102
}
330
C
100
AcDbDictionary
281
     1
  3
Standard
350
6C
  0
DICTIONARY
  5
17
102
{ACAD_REACTORS
330
C
102
}
330
C
100
AcDbDictionary
281
     1
  3
Standard
350
18
  0
DICTIONARY
  5
19
102
{ACAD_REACTORS
330
C
102
}
330
C
100
AcDbDictionary
281
     1
  0
ACDBDICTIONARYWDFLT
  5
E
102
{ACAD_REACTORS
330
C
102
}
330
C
100
AcDbDictionary
281
     1
  3
Normal
350
F
100
AcDbDictionaryWithDefault
340
F
  0
DICTIONARY
  5
47
102
{ACAD_REACTORS
330
C
102
}
330
C
100
AcDbDictionary
281
     1
  3
A0
350
48
  3
A1
350
49
  3
A2
350
4A
  3
A3
350
4B
  3
A4
350
4C
  3
A5
350
4D
  3
A6
350
4E
  3
A7
350
4F
  3
A8
350
50
  3
A9
350
51
  3
B0
350
52
  3
B1
350
53
  3
B2
350
54
  3
B3
350
55
  3
B4
350
56
  3
B5
350
57
  3
B6
350
58
  3
B7
350
59
  3
B8
350
5A
  3
B9
350
5B
  3
C0
350
5C
  3
C1
350
5D
  3
C2
350
5E
  3
C3
350
5F
  3
C4
350
60
  3
C5
350
61
  3
C6
350
62
  3
C7
350
63
  3
C8
350
64
  3
C9
350
65
  3
D0
350
66
  3
D1
350
67
  3
D2
350
68
  0
DICTIONARY
  5
1C8
102
{ACAD_REACTORS
330
C
102
}
330
C
100
AcDbDictionary
281
     1
  0
DICTIONARY
  5
69
102
{ACAD_REACTORS
330
C
102
}
330
C
100
AcDbDictionary
281
     1
  3
Standard
350
6A
  0
DICTIONARY
  5
2A
102
{ACAD_REACTORS
330
C
102
}
330
C
100
AcDbDictionary
281
     1
  3
2dWireframe
350
2F
  3
Basic
350
32
  3
Brighten
350
36
  3
ColorChange
350
3A
  3
Conceptual
350
34
  3
Dim
350
35
  3
EdgeColorOff
350
3D
  3
Facepattern
350
39
  3
Flat
350
2B
  3
FlatWithEdges
350
2C
  3
Gouraud
350
2D
  3
GouraudWithEdges
350
2E
  3
Hidden
350
31
  3
JitterOff
350
3B
  3
Linepattern
350
38
  3
OverhangOff
350
3C
  3
Realistic
350
33
  3
Shaded
350
42
  3
Shaded with edges
350
41
  3
Shades of Gray
350
3E
  3
Sketchy
350
3F
  3
Thicken
350
37
  3
Wireframe
350
30
  3
X-Ray
350
40
  0
XRECORD
  5
1C4
102
{ACAD_REACTORS
330
C
102
}
330
C
100
AcDbXrecord
280
     1
 90
        1
330
6A
  0
DICTIONARY
  5
1C0
102
{ACAD_REACTORS
330
C
102
}
330
C
100
AcDbDictionary
281
     1
  3
CANNOSCALE
350
1C1
  3
CMLEADERSTYLE
350
1C6
  3
CTABLESTYLE
350
1C5
  0
LAYOUT
  5
1E
102
{ACAD_REACTORS
330
1A
102
}
330
1A
100
AcDbPlotSettings
  1

  2
none_device
  4

  6

 40
0.0
 41
0.0
 42
0.0
 43
0.0
 44
0.0
 45
0.0
 46
0.0
 47
0.0
 48
0.0
 49
0.0
140
0.0
141
0.0
142
1.0
143
1.0
 70
   688
 72
     0
 73
     0
 74
     5
  7

 75
    16
 76
     0
 77
     2
 78
   300
147
1.0
148
0.0
149
0.0
100
AcDbLayout
  1
Layout1
 70
     1
 71
     1
 10
0.0
 20
0.0
 11
12.0
 21
9.0
 12
0.0
 22
0.0
 32
0.0
 14
1.000000000000000E+20
 24
1.000000000000000E+20
 34
1.000000000000000E+20
 15
-1.000000000000000E+20
 25
-1.000000000000000E+20
 35
-1.000000000000000E+20
146
0.0
 13
0.0
 23
0.0
 33
0.0
 16
1.0
 26
0.0
 36
0.0
 17
0.0
 27
1.0
 37
0.0
 76
     0
330
1B
  0
LAYOUT
  5
26
102
{ACAD_REACTORS
330
1A
102
}
330
1A
100
AcDbPlotSettings
  1

  2
none_device
  4

  6

 40
0.0
 41
0.0
 42
0.0
 43
0.0
 44
0.0
 45
0.0
 46
0.0
 47
0.0
 48
0.0
 49
0.0
140
0.0
141
0.0
142
1.0
143
1.0
 70
   688
 72
     0
 73
     0
 74
     5
  7

 75
    16
 76
     0
 77
     2
 78
   300
147
1.0
148
0.0
149
0.0
100
AcDbLayout
  1
Layout2
 70
     1
 71
     2
 10
0.0
 20
0.0
 11
0.0
 21
0.0
 12
0.0
 22
0.0
 32
0.0
 14
0.0
 24
0.0
 34
0.0
 15
0.0
 25
0.0
 35
0.0
146
0.0
 13
0.0
 23
0.0
 33
0.0
 16
1.0
 26
0.0
 36
0.0
 17
0.0
 27
1.0
 37
0.0
 76
     0
330
23
  0
LAYOUT
  5
22
102
{ACAD_REACTORS
330
1A
102
}
330
1A
100
AcDbPlotSettings
  1

  2
none_device
  4
Letter_(8.50_x_11.00_Inches)
  6

 40
6.35
 41
6.35
 42
6.35000508
 43
6.35000508
 44
215.9
 45
279.4
 46
0.0
 47
0.0
 48
0.0
 49
0.0
140
0.0
141
0.0
142
1.0
143
1.0
 70
  1712
 72
     0
 73
     0
 74
     0
  7

 75
     0
 76
     0
 77
     2
 78
   300
147
1.0
148
0.0
149
0.0
100
AcDbLayout
  1
Model
 70
     1
 71
     0
 10
0.0
 20
0.0
 11
12.0
 21
9.0
 12
0.0
 22
0.0
 32
0.0
 14
1.000000000000000E+20
 24
1.000000000000000E+20
 34
1.000000000000000E+20
 15
-1.000000000000000E+20
 25
-1.000000000000000E+20
 35
-1.000000000000000E+20
146
0.0
 13
0.0
 23
0.0
 33
0.0
 16
1.0
 26
0.0
 36
0.0
 17
0.0
 27
1.0
 37
0.0
 76
     0
330
1F
331
29
  0
MATERIAL
  5
45
102
{ACAD_REACTORS
330
43
102
}
330
43
100
AcDbMaterial
  1
ByBlock
 72
     1
 94
      127
  0
MATERIAL
  5
44
102
{ACAD_REACTORS
330
43
102
}
330
43
100
AcDbMaterial
  1
ByLayer
 72
     1
 94
      127
  0
MATERIAL
  5
46
102
{ACAD_REACTORS
330
43
102
}
330
43
100
AcDbMaterial
  1
Global
 72
     1
 94
      127
  0
MLEADERSTYLE
  5
6C
102
{ACAD_REACTORS
330
6B
102
}
330
6B
100
AcDbMLeaderStyle
179
     2
170
     2
171
     1
172
     0
 90
        2
 40
0.0
 41
0.0
173
     1
 91
-1056964608
340
14
 92
       -2
290
     1
 42
0.09
291
     1
 43
0.36
  3
Standard
341
0
 44
0.18
300

342
11
174
     1
178
     6
175
     1
176
     0
 93
-1056964608
 45
0.18
292
     0
297
     0
 46
0.18
343
0
 94
-1056964608
 47
1.0
 49
1.0
140
1.0
293
     1
141
0.0
294
     1
177
     0
142
1.0
295
     0
296
     0
143
0.125
271
     0
272
     9
273
     9
298
     0
  0
MLINESTYLE
  5
18
102
{ACAD_REACTORS
330
17
102
}
330
17
100
AcDbMlineStyle
  2
Standard
 70
     0
  3

 62
   256
 51
90.0
 52
90.0
 71
     2
 49
0.5
 62
   256
  6
BYLAYER
 49
-0.5
 62
   256
  6
BYLAYER
  0
ACDBPLACEHOLDER
  5
F
102
{ACAD_REACTORS
330
E
102
}
330
E
  0
SCALE
  5
48
102
{ACAD_REACTORS
330
47
102
}
330
47
100
AcDbScale
 70
     0
300
1:1
140
1.0
141
1.0
290
     1
  0
SCALE
  5
49
102
{ACAD_REACTORS
330
47
102
}
330
47
100
AcDbScale
 70
     0
300
1:2
140
1.0
141
2.0
290
     0
  0
SCALE
  5
4A
102
{ACAD_REACTORS
330
47
102
}
330
47
100
AcDbScale
 70
     0
300
1:4
140
1.0
141
4.0
290
     0
  0
SCALE
  5
4B
102
{ACAD_REACTORS
330
47
102
}
330
47
100
AcDbScale
 70
     0
300
1:5
140
1.0
141
5.0
290
     0
  0
SCALE
  5
4C
102
{ACAD_REACTORS
330
47
102
}
330
47
100
AcDbScale
 70
     0
300
1:8
140
1.0
141
8.0
290
     0
  0
SCALE
  5
4D
102
{ACAD_REACTORS
330
47
102
}
330
47
100
AcDbScale
 70
     0
300
1:10
140
1.0
141
10.0
290
     0
  0
SCALE
  5
4E
102
{ACAD_REACTORS
330
47
102
}
330
47
100
AcDbScale
 70
     0
300
1:16
140
1.0
141
16.0
290
     0
  0
SCALE
  5
4F
102
{ACAD_REACTORS
330
47
102
}
330
47
100
AcDbScale
 70
     0
300
1:20
140
1.0
141
20.0
290
     0
  0
SCALE
  5
50
102
{ACAD_REACTORS
330
47
102
}
330
47
100
AcDbScale
 70
     0
300
1:30
140
1.0
141
30.0
290
     0
  0
SCALE
  5
51
102
{ACAD_REACTORS
330
47
102
}
330
47
100
AcDbScale
 70
     0
300
1:40
140
1.0
141
40.0
290
     0
  0
SCALE
  5
52
102
{ACAD_REACTORS
330
47
102
}
330
47
100
AcDbScale
 70
     0
300
1:50
140
1.0
141
50.0
290
     0
  0
SCALE
  5
53
102
{ACAD_REACTORS
330
47
102
}
330
47
100
AcDbScale
 70
     0
300
1:100
140
1.0
141
100.0
290
     0
  0
SCALE
  5
54
102
{ACAD_REACTORS
330
47
102
}
330
47
100
AcDbScale
 70
     0
300
2:1
140
2.0
141
1.0
290
     0
  0
SCALE
  5
55
102
{ACAD_REACTORS
330
47
102
}
330
47
100
AcDbScale
 70
     0
300
4:1
140
4.0
141
1.0
290
     0
  0
SCALE
  5
56
102
{ACAD_REACTORS
330
47
102
}
330
47
100
AcDbScale
 70
     0
300
8:1
140
8.0
141
1.0
290
     0
  0
SCALE
  5
57
102
{ACAD_REACTORS
330
47
102
}
330
47
100
AcDbScale
 70
     0
300
10:1
140
10.0
141
1.0
290
     0
  0
SCALE
  5
58
102
{ACAD_REACTORS
330
47
102
}
330
47
100
AcDbScale
 70
     0
300
100:1
140
100.0
141
1.0
290
     0
  0
SCALE
  5
59
102
{ACAD_REACTORS
330
47
102
}
330
47
100
AcDbScale
 70
     0
300
1/128" = 1'-0"
140
0.0078125
141
12.0
290
     0
  0
SCALE
  5
5A
102
{ACAD_REACTORS
330
47
102
}
330
47
100
AcDbScale
 70
     0
300
1/64" = 1'-0"
140
0.015625
141
12.0
290
     0
  0
SCALE
  5
5B
102
{ACAD_REACTORS
330
47
102
}
330
47
100
AcDbScale
 70
     0
300
1/32" = 1'-0"
140
0.03125
141
12.0
290
     0
  0
SCALE
  5
5C
102
{ACAD_REACTORS
330
47
102
}
330
47
100
AcDbScale
 70
     0
300
1/16" = 1'-0"
140
0.0625
141
12.0
290
     0
  0
SCALE
  5
5D
102
{ACAD_REACTORS
330
47
102
}
330
47
100
AcDbScale
 70
     0
300
3/32" = 1'-0"
140
0.09375
141
12.0
290
     0
  0
SCALE
  5
5E
102
{ACAD_REACTORS
330
47
102
}
330
47
100
AcDbScale
 70
     0
300
1/8" = 1'-0"
140
0.125
141
12.0
290
     0
  0
SCALE
  5
5F
102
{ACAD_REACTORS
330
47
102
}
330
47
100
AcDbScale
 70
     0
300
3/16" = 1'-0"
140
0.1875
141
12.0
290
     0
  0
SCALE
  5
60
102
{ACAD_REACTORS
330
47
102
}
330
47
100
AcDbScale
 70
     0
300
1/4" = 1'-0"
140
0.25
141
12.0
290
     0
  0
SCALE
  5
61
102
{ACAD_REACTORS
330
47
102
}
330
47
100
AcDbScale
 70
     0
300
3/8" = 1'-0"
140
0.375
141
12.0
290
     0
  0
SCALE
  5
62
102
{ACAD_REACTORS
330
47
102
}
330
47
100
AcDbScale
 70
     0
300
1/2" = 1'-0"
140
0.5
141
12.0
290
     0
  0
SCALE
  5
63
102
{ACAD_REACTORS
330
47
102
}
330
47
100
AcDbScale
 70
     0
300
3/4" = 1'-0"
140
0.75
141
12.0
290
     0
  0
SCALE
  5
64
102
{ACAD_REACTORS
330
47
102
}
330
47
100
AcDbScale
 70
     0
300
1" = 1'-0"
140
1.0
141
12.0
290
     0
  0
SCALE
  5
65
102
{ACAD_REACTORS
330
47
102
}
330
47
100
AcDbScale
 70
     0
300
1-1/2" = 1'-0"
140
1.5
141
12.0
290
     0
  0
SCALE
  5
66
102
{ACAD_REACTORS
330
47
102
}
330
47
100
AcDbScale
 70
     0
300
3" = 1'-0"
140
3.0
141
12.0
290
     0
  0
SCALE
  5
67
102
{ACAD_REACTORS
330
47
102
}
330
47
100
AcDbScale
 70
     0
300
6" = 1'-0"
140
6.0
141
12.0
290
     0
  0
SCALE
  5
68
102
{ACAD_REACTORS
330
47
102
}
330
47
100
AcDbScale
 70
     0
300
1'-0" = 1'-0"
140
12.0
141
12.0
290
     0
  0
TABLESTYLE
  5
6A
102
{ACAD_REACTORS
330
69
102
}
102
{ACAD_XDICTIONARY
360
1C2
102
}
330
69
100
AcDbTableStyle
  3
Standard
 70
     0
 71
     0
 40
0.06
 41
0.06
280
     0
281
     0
  7
Standard
140
0.18
170
     2
 62
     0
 63
   257
283
     0
 90
        4
 91
        0
  1

274
    -2
284
     1
 64
     0
275
    -2
285
     1
 65
     0
276
    -2
286
     1
 66
     0
277
    -2
287
     1
 67
     0
278
    -2
288
     1
 68
     0
279
    -2
289
     1
 69
     0
  7
Standard
140
0.25
170
     5
 62
     0
 63
   257
283
     0
 90
        4
 91
        0
  1

274
    -2
284
     1
 64
     0
275
    -2
285
     1
 65
     0
276
    -2
286
     1
 66
     0
277
    -2
287
     1
 67
     0
278
    -2
288
     1
 68
     0
279
    -2
289
     1
 69
     0
  7
Standard
140
0.18
170
     5
 62
     0
 63
   257
283
     0
 90
        4
 91
        0
  1

274
    -2
284
     1
 64
     0
275
    -2
285
     1
 65
     0
276
    -2
286
     1
 66
     0
277
    -2
287
     1
 67
     0
278
    -2
288
     1
 68
     0
279
    -2
289
     1
 69
     0
  0
VISUALSTYLE
  5
2F
102
{ACAD_REACTORS
330
2A
102
}
330
2A
100
AcDbVisualStyle
  2
2dWireframe
 70
     4
177
     3
291
     0
 70
    58
 90
        0
176
     1
 90
        2
176
     1
 90
        0
176
     1
 90
        0
176
     1
 40
0.6
176
     1
 40
30.0
176
     1
 62
     7
420
 16777215
176
     1
 90
        1
176
     1
 90
        4
176
     1
 62
     7
176
     1
 62
   257
176
     1
 90
        1
176
     1
 90
        1
176
     1
 40
1.0
176
     1
 90
        0
176
     1
 62
   257
176
     1
 40
1.0
176
     1
 90
        1
176
     1
 90
        6
176
     1
 90
        2
176
     1
 62
     7
176
     1
 90
        5
176
     1
 90
        0
176
     1
 90
        0
176
     1
290
     0
176
     1
 90
        1
176
     1
 40
0.0
176
     1
 90
        0
176
     1
290
     1
176
     1
290
     1
176
     1
290
     0
176
     1
290
     0
176
     1
290
     0
176
     1
290
     0
176
     1
290
     0
176
     1
290
     0
176
     1
290
     0
176
     1
 90
       50
176
     1
 40
0.0
176
     1
 40
1.0
176
     1
 90
        0
176
     1
 62
    18
420
        0
176
     1
 90
       50
176
     1
 90
        3
176
     1
 62
     5
420
      255
176
     1
290
     0
176
     1
 90
       50
176
     1
 90
       50
176
     1
 90
       50
176
     1
290
     0
176
     1
 90
       50
176
     1
 62
   256
176
     0
 40
1.0
176
     0
 90
        2
176
     1
  1
strokes_ogs.tif
176
     1
290
     0
176
     1
 40
1.0
176
     1
 40
1.0
176
     1
  0
VISUALSTYLE
  5
32
102
{ACAD_REACTORS
330
2A
102
}
330
2A
100
AcDbVisualStyle
  2
Basic
 70
     7
177
     3
291
     1
 70
    58
 90
        1
176
     1
 90
        0
176
     1
 90
        1
176
     1
 90
        0
176
     1
 40
0.6
176
     1
 40
30.0
176
     1
 62
     7
420
 16777215
176
     1
 90
        0
176
     1
 90
        4
176
     1
 62
     7
176
     1
 62
   257
176
     1
 90
        1
176
     1
 90
        1
176
     1
 40
1.0
176
     1
 90
        8
176
     1
 62
     7
176
     1
 40
1.0
176
     1
 90
        1
176
     1
 90
        6
176
     1
 90
        2
176
     1
 62
     7
176
     1
 90
        5
176
     1
 90
        0
176
     1
 90
        0
176
     1
290
     0
176
     1
 90
        1
176
     1
 40
0.0
176
     1
 90
        0
176
     1
290
     0
176
     1
290
     1
176
     1
290
     1
176
     1
290
     0
176
     1
290
     0
176
     1
290
     0
176
     1
290
     0
176
     1
290
     0
176
     1
290
     0
176
     1
 90
       50
176
     1
 40
0.0
176
     1
 40
1.0
176
     1
 90
        0
176
     1
 62
    18
420
        0
176
     1
 90
       50
176
     1
 90
        3
176
     1
 62
     5
420
      255
176
     1
290
     0
176
     1
 90
       50
176
     1
 90
       50
176
     1
 90
       50
176
     1
290
     0
176
     1
 90
       50
176
     1
 62
   256
176
     0
 40
1.0
176
     0
 90
        2
176
     1
  1
strokes_ogs.tif
176
     1
290
     0
176
     1
 40
1.0
176
     1
 40
1.0
176
     1
  0
VISUALSTYLE
  5
36
102
{ACAD_REACTORS
330
2A
102
}
330
2A
100
AcDbVisualStyle
  2
Brighten
 70
    12
177
     3
291
     1
 70
    58
 90
        2
176
     1
 90
        2
176
     1
 90
        0
176
     1
 90
        0
176
     1
 40
0.6
176
     1
 40
30.0
176
     1
 62
     7
420
 16777215
176
     1
 90
        1
176
     1
 90
        4
176
     1
 62
     7
176
     1
 62
   257
176
     1
 90
        1
176
     1
 90
        1
176
     1
 40
1.0
176
     1
 90
        8
176
     1
 62
     7
176
     1
 40
1.0
176
     1
 90
        1
176
     1
 90
        6
176
     1
 90
        2
176
     1
 62
     7
176
     1
 90
        5
176
     1
 90
        0
176
     1
 90
        0
176
     1
290
     0
176
     1
 90
        1
176
     1
 40
50.0
176
     1
 90
        0
176
     1
290
     0
176
     1
290
     1
176
     1
290
     1
176
     1
290
     0
176
     1
290
     0
176
     1
290
     0
176
     1
290
     0
176
     1
290
     0
176
     1
290
     0
176
     1
 90
       50
176
     1
 40
0.0
176
     1
 40
1.0
176
     1
 90
        0
176
     1
 62
    18
420
        0
176
     1
 90
       50
176
     1
 90
        3
176
     1
 62
     5
420
      255
176
     1
290
     0
176
     1
 90
       50
176
     1
 90
       50
176
     1
 90
       50
176
     1
290
     0
176
     1
 90
       50
176
     1
 62
   256
176
     0
 40
1.0
176
     0
 90
        2
176
     1
  1
strokes_ogs.tif
176
     1
290
     0
176
     1
 40
1.0
176
     1
 40
1.0
176
     1
  0
VISUALSTYLE
  5
3A
102
{ACAD_REACTORS
330
2A
102
}
330
2A
100
AcDbVisualStyle
  2
ColorChange
 70
    16
177
     3
291
     1
 70
    58
 90
        2
176
     1
 90
        2
176
     1
 90
        3
176
     1
 90
        0
176
     1
 40
0.6
176
     1
 40
30.0
176
     1
 62
     8
420
  8421504
176
     1
 90
        1
176
     1
 90
        4
176
     1
 62
     7
176
     1
 62
   257
176
     1
 90
        1
176
     1
 90
        1
176
     1
 40
1.0
176
     1
 90
        8
176
     1
 62
     8
420
  8421504
176
     1
 40
1.0
176
     1
 90
        1
176
     1
 90
        6
176
     1
 90
        2
176
     1
 62
     7
176
     1
 90
        5
176
     1
 90
        0
176
     1
 90
        0
176
     1
290
     0
176
     1
 90
        1
176
     1
 40
0.0
176
     1
 90
        0
176
     1
290
     0
176
     1
290
     1
176
     1
290
     1
176
     1
290
     0
176
     1
290
     0
176
     1
290
     0
176
     1
290
     0
176
     1
290
     0
176
     1
290
     0
176
     1
 90
       50
176
     1
 40
0.0
176
     1
 40
1.0
176
     1
 90
        0
176
     1
 62
    18
420
        0
176
     1
 90
       50
176
     1
 90
        3
176
     1
 62
     5
420
      255
176
     1
290
     0
176
     1
 90
       50
176
     1
 90
       50
176
     1
 90
       50
176
     1
290
     0
176
     1
 90
       50
176
     1
 62
   256
176
     0
 40
1.0
176
     0
 90
        2
176
     1
  1
strokes_ogs.tif
176
     1
290
     0
176
     1
 40
1.0
176
     1
 40
1.0
176
     1
  0
VISUALSTYLE
  5
34
102
{ACAD_REACTORS
330
2A
102
}
330
2A
100
AcDbVisualStyle
  2
Conceptual
 70
     9
177
     3
291
     0
 70
    58
 90
        3
176
     1
 90
        2
176
     1
 90
        0
176
     1
 90
        0
176
     1
 40
0.6
176
     1
 40
30.0
176
     1
 62
     7
420
 16777215
176
     1
 90
        2
176
     1
 90
        2
176
     1
 62
     7
176
     1
 62
   257
176
     1
 90
        1
176
     1
 90
        1
176
     1
 40
179.0
176
     1
 90
        8
176
     1
 62
     7
176
     1
 40
1.0
176
     1
 90
        1
176
     1
 90
        6
176
     1
 90
        2
176
     1
 62
     7
176
     1
 90
        3
176
     1
 90
        0
176
     1
 90
        0
176
     1
290
     0
176
     1
 90
        1
176
     1
 40
0.0
176
     1
 90
        0
176
     1
290
     0
176
     1
290
     1
176
     1
290
     1
176
     1
290
     0
176
     1
290
     0
176
     1
290
     0
176
     1
290
     0
176
     1
290
     0
176
     1
290
     0
176
     1
 90
       50
176
     1
 40
0.0
176
     1
 40
1.0
176
     1
 90
        0
176
     1
 62
    18
420
        0
176
     1
 90
       50
176
     1
 90
        3
176
     1
 62
     5
420
      255
176
     1
290
     0
176
     1
 90
       50
176
     1
 90
       50
176
     1
 90
       50
176
     1
290
     0
176
     1
 90
       50
176
     1
 62
   256
176
     0
 40
1.0
176
     0
 90
        2
176
     1
  1
strokes_ogs.tif
176
     1
290
     0
176
     1
 40
1.0
176
     1
 40
1.0
176
     1
  0
VISUALSTYLE
  5
35
102
{ACAD_REACTORS
330
2A
102
}
330
2A
100
AcDbVisualStyle
  2
Dim
 70
    11
177
     3
291
     1
 70
    58
 90
        2
176
     1
 90
        2
176
     1
 90
        0
176
     1
 90
        0
176
     1
 40
0.6
176
     1
 40
30.0
176
     1
 62
     7
420
 16777215
176
     1
 90
        1
176
     1
 90
        4
176
     1
 62
     7
176
     1
 62
   257
176
     1
 90
        1
176
     1
 90
        1
176
     1
 40
1.0
176
     1
 90
        8
176
     1
 62
     7
176
     1
 40
1.0
176
     1
 90
        1
176
     1
 90
        6
176
     1
 90
        2
176
     1
 62
     7
176
     1
 90
        5
176
     1
 90
        0
176
     1
 90
        0
176
     1
290
     0
176
     1
 90
        1
176
     1
 40
-50.0
176
     1
 90
        0
176
     1
290
     0
176
     1
290
     1
176
     1
290
     1
176
     1
290
     0
176
     1
290
     0
176
     1
290
     0
176
     1
290
     0
176
     1
290
     0
176
     1
290
     0
176
     1
 90
       50
176
     1
 40
0.0
176
     1
 40
1.0
176
     1
 90
        0
176
     1
 62
    18
420
        0
176
     1
 90
       50
176
     1
 90
        3
176
     1
 62
     5
420
      255
176
     1
290
     0
176
     1
 90
       50
176
     1
 90
       50
176
     1
 90
       50
176
     1
290
     0
176
     1
 90
       50
176
     1
 62
   256
176
     0
 40
1.0
176
     0
 90
        2
176
     1
  1
strokes_ogs.tif
176
     1
290
     0
176
     1
 40
1.0
176
     1
 40
1.0
176
     1
  0
VISUALSTYLE
  5
3D
102
{ACAD_REACTORS
330
2A
102
}
330
2A
100
AcDbVisualStyle
  2
EdgeColorOff
 70
    22
177
     3
291
     1
 70
    58
 90
        2
176
     0
 90
        2
176
     0
 90
        0
176
     0
 90
        0
176
     0
 40
0.6
176
     0
 40
30.0
176
     0
 62
     7
420
 16777215
176
     0
 90
        1
176
     0
 90
        4
176
     0
 62
     7
176
     0
 62
   257
176
     0
 90
        1
176
     0
 90
        1
176
     0
 40
1.0
176
     0
 90
        8
176
     2
 62
     7
176
     0
 40
1.0
176
     0
 90
        1
176
     0
 90
        6
176
     0
 90
        2
176
     0
 62
     7
176
     0
 90
        5
176
     0
 90
        0
176
     0
 90
        0
176
     0
290
     0
176
     0
 90
        1
176
     0
 40
0.0
176
     0
 90
        0
176
     0
290
     0
176
     0
290
     1
176
     0
290
     1
176
     0
290
     0
176
     0
290
     0
176
     0
290
     0
176
     0
290
     0
176
     0
290
     0
176
     0
290
     0
176
     0
 90
       50
176
     0
 40
0.0
176
     0
 40
1.0
176
     0
 90
        0
176
     0
 62
    18
420
        0
176
     0
 90
       50
176
     0
 90
        3
176
     0
 62
     5
420
      255
176
     0
290
     0
176
     0
 90
       50
176
     0
 90
       50
176
     0
 90
       50
176
     0
290
     0
176
     0
 90
       50
176
     0
 62
   256
176
     0
 40
1.0
176
     0
 90
        2
176
     0
  1
strokes_ogs.tif
176
     0
290
     0
176
     0
 40
1.0
176
     0
 40
1.0
176
     0
  0
VISUALSTYLE
  5
39
102
{ACAD_REACTORS
330
2A
102
}
330
2A
100
AcDbVisualStyle
  2
Facepattern
 70
    15
177
     3
291
     1
 70
    58
 90
        2
176
     1
 90
        2
176
     1
 90
        0
176
     1
 90
        0
176
     1
 40
0.6
176
     1
 40
30.0
176
     1
 62
     7
420
 16777215
176
     1
 90
        1
176
     1
 90
        4
176
     1
 62
     7
176
     1
 62
   257
176
     1
 90
        1
176
     1
 90
        1
176
     1
 40
1.0
176
     1
 90
        8
176
     1
 62
     7
176
     1
 40
1.0
176
     1
 90
        1
176
     1
 90
        6
176
     1
 90
        2
176
     1
 62
     7
176
     1
 90
        5
176
     1
 90
        0
176
     1
 90
        0
176
     1
290
     0
176
     1
 90
        1
176
     1
 40
0.0
176
     1
 90
        0
176
     1
290
     0
176
     1
290
     1
176
     1
290
     1
176
     1
290
     0
176
     1
290
     0
176
     1
290
     0
176
     1
290
     0
176
     1
290
     0
176
     1
290
     0
176
     1
 90
       50
176
     1
 40
0.0
176
     1
 40
1.0
176
     1
 90
        0
176
     1
 62
    18
420
        0
176
     1
 90
       50
176
     1
 90
        3
176
     1
 62
     5
420
      255
176
     1
290
     0
176
     1
 90
       50
176
     1
 90
       50
176
     1
 90
       50
176
     1
290
     0
176
     1
 90
       50
176
     1
 62
   256
176
     0
 40
1.0
176
     0
 90
        2
176
     1
  1
strokes_ogs.tif
176
     1
290
     0
176
     1
 40
1.0
176
     1
 40
1.0
176
     1
  0
VISUALSTYLE
  5
2B
102
{ACAD_REACTORS
330
2A
102
}
330
2A
100
AcDbVisualStyle
  2
Flat
 70
     0
177
     3
291
     1
 70
    58
 90
        2
176
     1
 90
        1
176
     1
 90
        1
176
     1
 90
        2
176
     1
 40
0.6
176
     1
 40
30.0
176
     1
 62
     7
420
 16777215
176
     1
 90
        0
176
     1
 90
        0
176
     1
 62
     7
176
     1
 62
   257
176
     1
 90
        1
176
     1
 90
        1
176
     1
 40
1.0
176
     1
 90
        8
176
     1
 62
     7
176
     1
 40
1.0
176
     1
 90
        1
176
     1
 90
        6
176
     1
 90
        2
176
     1
 62
     7
176
     1
 90
        5
176
     1
 90
        0
176
     1
 90
        0
176
     1
290
     0
176
     1
 90
       13
176
     1
 40
0.0
176
     1
 90
        0
176
     1
290
     0
176
     1
290
     1
176
     1
290
     1
176
     1
290
     0
176
     1
290
     0
176
     1
290
     0
176
     1
290
     0
176
     1
290
     0
176
     1
290
     0
176
     1
 90
       50
176
     1
 40
0.0
176
     1
 40
1.0
176
     1
 90
        0
176
     1
 62
    18
420
        0
176
     1
 90
       50
176
     1
 90
        3
176
     1
 62
     5
420
      255
176
     1
290
     0
176
     1
 90
       50
176
     1
 90
       50
176
     1
 90
       50
176
     1
290
     0
176
     1
 90
       50
176
     1
 62
   256
176
     0
 40
1.0
176
     0
 90
        2
176
     1
  1
strokes_ogs.tif
176
     1
290
     0
176
     1
 40
1.0
176
     1
 40
1.0
176
     1
  0
VISUALSTYLE
  5
2C
102
{ACAD_REACTORS
330
2A
102
}
330
2A
100
AcDbVisualStyle
  2
FlatWithEdges
 70
     1
177
     3
291
     1
 70
    58
 90
        2
176
     1
 90
        1
176
     1
 90
        1
176
     1
 90
        2
176
     1
 40
0.6
176
     1
 40
30.0
176
     1
 62
     7
420
 16777215
176
     1
 90
        1
176
     1
 90
        0
176
     1
 62
     7
176
     1
 62
   257
176
     1
 90
        1
176
     1
 90
        1
176
     1
 40
1.0
176
     1
 90
        0
176
     1
 62
   257
176
     1
 40
1.0
176
     1
 90
        1
176
     1
 90
        6
176
     1
 90
        2
176
     1
 62
     7
176
     1
 90
        5
176
     1
 90
        0
176
     1
 90
        0
176
     1
290
     0
176
     1
 90
       13
176
     1
 40
0.0
176
     1
 90
        0
176
     1
290
     0
176
     1
290
     1
176
     1
290
     1
176
     1
290
     0
176
     1
290
     0
176
     1
290
     0
176
     1
290
     0
176
     1
290
     0
176
     1
290
     0
176
     1
 90
       50
176
     1
 40
0.0
176
     1
 40
1.0
176
     1
 90
        0
176
     1
 62
    18
420
        0
176
     1
 90
       50
176
     1
 90
        3
176
     1
 62
     5
420
      255
176
     1
290
     0
176
     1
 90
       50
176
     1
 90
       50
176
     1
 90
       50
176
     1
290
     0
176
     1
 90
       50
176
     1
 62
   256
176
     0
 40
1.0
176
     0
 90
        2
176
     1
  1
strokes_ogs.tif
176
     1
290
     0
176
     1
 40
1.0
176
     1
 40
1.0
176
     1
  0
VISUALSTYLE
  5
2D
102
{ACAD_REACTORS
330
2A
102
}
330
2A
100
AcDbVisualStyle
  2
Gouraud
 70
     2
177
     3
291
     1
 70
    58
 90
        2
176
     1
 90
        2
176
     1
 90
        1
176
     1
 90
        2
176
     1
 40
0.6
176
     1
 40
30.0
176
     1
 62
     7
420
 16777215
176
     1
 90
        0
176
     1
 90
        0
176
     1
 62
     7
176
     1
 62
   257
176
     1
 90
        1
176
     1
 90
        1
176
     1
 40
1.0
176
     1
 90
        0
176
     1
 62
     7
176
     1
 40
1.0
176
     1
 90
        1
176
     1
 90
        6
176
     1
 90
        2
176
     1
 62
     7
176
     1
 90
        5
176
     1
 90
        0
176
     1
 90
        0
176
     1
290
     0
176
     1
 90
       13
176
     1
 40
0.0
176
     1
 90
        0
176
     1
290
     0
176
     1
290
     1
176
     1
290
     1
176
     1
290
     0
176
     1
290
     0
176
     1
290
     0
176
     1
290
     0
176
     1
290
     0
176
     1
290
     0
176
     1
 90
       50
176
     1
 40
0.0
176
     1
 40
1.0
176
     1
 90
        0
176
     1
 62
    18
420
        0
176
     1
 90
       50
176
     1
 90
        3
176
     1
 62
     5
420
      255
176
     1
290
     0
176
     1
 90
       50
176
     1
 90
       50
176
     1
 90
       50
176
     1
290
     0
176
     1
 90
       50
176
     1
 62
   256
176
     0
 40
1.0
176
     0
 90
        2
176
     1
  1
strokes_ogs.tif
176
     1
290
     0
176
     1
 40
1.0
176
     1
 40
1.0
176
     1
  0
VISUALSTYLE
  5
2E
102
{ACAD_REACTORS
330
2A
102
}
330
2A
100
AcDbVisualStyle
  2
GouraudWithEdges
 70
     3
177
     3
291
     1
 70
    58
 90
        2
176
     1
 90
        2
176
     1
 90
        1
176
     1
 90
        2
176
     1
 40
0.6
176
     1
 40
30.0
176
     1
 62
     7
420
 16777215
176
     1
 90
        1
176
     1
 90
        0
176
     1
 62
     7
176
     1
 62
   257
176
     1
 90
        1
176
     1
 90
        1
176
     1
 40
1.0
176
     1
 90
        0
176
     1
 62
   257
176
     1
 40
1.0
176
     1
 90
        1
176
     1
 90
        6
176
     1
 90
        2
176
     1
 62
     7
176
     1
 90
        5
176
     1
 90
        0
176
     1
 90
        0
176
     1
290
     0
176
     1
 90
       13
176
     1
 40
0.0
176
     1
 90
        0
176
     1
290
     0
176
     1
290
     1
176
     1
290
     1
176
     1
290
     0
176
     1
290
     0
176
     1
290
     0
176
     1
290
     0
176
     1
290
     0
176
     1
290
     0
176
     1
 90
       50
176
     1
 40
0.0
176
     1
 40
1.0
176
     1
 90
        0
176
     1
 62
    18
420
        0
176
     1
 90
       50
176
     1
 90
        3
176
     1
 62
     5
420
      255
176
     1
290
     0
176
     1
 90
       50
176
     1
 90
       50
176
     1
 90
       50
176
     1
290
     0
176
     1
 90
       50
176
     1
 62
   256
176
     0
 40
1.0
176
     0
 90
        2
176
     1
  1
strokes_ogs.tif
176
     1
290
     0
176
     1
 40
1.0
176
     1
 40
1.0
176
     1
  0
VISUALSTYLE
  5
31
102
{ACAD_REACTORS
330
2A
102
}
330
2A
100
AcDbVisualStyle
  2
Hidden
 70
     6
177
     3
291
     0
 70
    58
 90
        1
176
     1
 90
        2
176
     1
 90
        2
176
     1
 90
        0
176
     1
 40
0.6
176
     1
 40
30.0
176
     1
 62
     7
420
 16777215
176
     1
 90
        2
176
     1
 90
        2
176
     1
 62
     7
176
     1
 62
   257
176
     1
 90
        2
176
     1
 90
        1
176
     1
 40
40.0
176
     1
 90
        0
176
     1
 62
   257
176
     1
 40
1.0
176
     1
 90
        1
176
     1
 90
        6
176
     1
 90
        2
176
     1
 62
     7
176
     1
 90
        3
176
     1
 90
        0
176
     1
 90
        0
176
     1
290
     0
176
     1
 90
        1
176
     1
 40
0.0
176
     1
 90
        0
176
     1
290
     0
176
     1
290
     1
176
     1
290
     1
176
     1
290
     0
176
     1
290
     0
176
     1
290
     0
176
     1
290
     0
176
     1
290
     0
176
     1
290
     0
176
     1
 90
       50
176
     1
 40
0.0
176
     1
 40
1.0
176
     1
 90
        0
176
     1
 62
    18
420
        0
176
     1
 90
       50
176
     1
 90
        3
176
     1
 62
     5
420
      255
176
     1
290
     0
176
     1
 90
       50
176
     1
 90
       50
176
     1
 90
       50
176
     1
290
     0
176
     1
 90
       50
176
     1
 62
   256
176
     0
 40
1.0
176
     0
 90
        2
176
     1
  1
strokes_ogs.tif
176
     1
290
     0
176
     1
 40
1.0
176
     1
 40
1.0
176
     1
  0
VISUALSTYLE
  5
3B
102
{ACAD_REACTORS
330
2A
102
}
330
2A
100
AcDbVisualStyle
  2
JitterOff
 70
    20
177
     3
291
     1
 70
    58
 90
        2
176
     0
 90
        2
176
     0
 90
        0
176
     0
 90
        0
176
     0
 40
0.6
176
     0
 40
30.0
176
     0
 62
     7
420
 16777215
176
     0
 90
        1
176
     0
 90
        4
176
     0
 62
     7
176
     0
 62
   257
176
     0
 90
        1
176
     0
 90
        1
176
     0
 40
1.0
176
     0
 90
       10
176
     2
 62
     7
176
     0
 40
1.0
176
     0
 90
        1
176
     0
 90
        6
176
     0
 90
        2
176
     0
 62
     7
176
     0
 90
        5
176
     0
 90
        0
176
     0
 90
        0
176
     0
290
     0
176
     0
 90
        1
176
     0
 40
0.0
176
     0
 90
        0
176
     0
290
     0
176
     0
290
     1
176
     0
290
     1
176
     0
290
     0
176
     0
290
     0
176
     0
290
     0
176
     0
290
     0
176
     0
290
     0
176
     0
290
     0
176
     0
 90
       50
176
     0
 40
0.0
176
     0
 40
1.0
176
     0
 90
        0
176
     0
 62
    18
420
        0
176
     0
 90
       50
176
     0
 90
        3
176
     0
 62
     5
420
      255
176
     0
290
     0
176
     0
 90
       50
176
     0
 90
       50
176
     0
 90
       50
176
     0
290
     0
176
     0
 90
       50
176
     0
 62
   256
176
     0
 40
1.0
176
     0
 90
        2
176
     0
  1
strokes_ogs.tif
176
     0
290
     0
176
     0
 40
1.0
176
     0
 40
1.0
176
     0
  0
VISUALSTYLE
  5
38
102
{ACAD_REACTORS
330
2A
102
}
330
2A
100
AcDbVisualStyle
  2
Linepattern
 70
    14
177
     3
291
     1
 70
    58
 90
        2
176
     1
 90
        2
176
     1
 90
        0
176
     1
 90
        0
176
     1
 40
0.6
176
     1
 40
30.0
176
     1
 62
     7
420
 16777215
176
     1
 90
        1
176
     1
 90
        4
176
     1
 62
     7
176
     1
 62
   257
176
     1
 90
        7
176
     1
 90
        7
176
     1
 40
1.0
176
     1
 90
        8
176
     1
 62
     7
176
     1
 40
1.0
176
     1
 90
        1
176
     1
 90
        6
176
     1
 90
        2
176
     1
 62
     7
176
     1
 90
        5
176
     1
 90
        0
176
     1
 90
        0
176
     1
290
     0
176
     1
 90
        1
176
     1
 40
0.0
176
     1
 90
        0
176
     1
290
     0
176
     1
290
     1
176
     1
290
     1
176
     1
290
     0
176
     1
290
     0
176
     1
290
     0
176
     1
290
     0
176
     1
290
     0
176
     1
290
     0
176
     1
 90
       50
176
     1
 40
0.0
176
     1
 40
1.0
176
     1
 90
        0
176
     1
 62
    18
420
        0
176
     1
 90
       50
176
     1
 90
        3
176
     1
 62
     5
420
      255
176
     1
290
     0
176
     1
 90
       50
176
     1
 90
       50
176
     1
 90
       50
176
     1
290
     0
176
     1
 90
       50
176
     1
 62
   256
176
     0
 40
1.0
176
     0
 90
        2
176
     1
  1
strokes_ogs.tif
176
     1
290
     0
176
     1
 40
1.0
176
     1
 40
1.0
176
     1
  0
VISUALSTYLE
  5
3C
102
{ACAD_REACTORS
330
2A
102
}
330
2A
100
AcDbVisualStyle
  2
OverhangOff
 70
    21
177
     3
291
     1
 70
    58
 90
        2
176
     0
 90
        2
176
     0
 90
        0
176
     0
 90
        0
176
     0
 40
0.6
176
     0
 40
30.0
176
     0
 62
     7
420
 16777215
176
     0
 90
        1
176
     0
 90
        4
176
     0
 62
     7
176
     0
 62
   257
176
     0
 90
        1
176
     0
 90
        1
176
     0
 40
1.0
176
     0
 90
        9
176
     2
 62
     7
176
     0
 40
1.0
176
     0
 90
        1
176
     0
 90
        6
176
     0
 90
        2
176
     0
 62
     7
176
     0
 90
        5
176
     0
 90
        0
176
     0
 90
        0
176
     0
290
     0
176
     0
 90
        1
176
     0
 40
0.0
176
     0
 90
        0
176
     0
290
     0
176
     0
290
     1
176
     0
290
     1
176
     0
290
     0
176
     0
290
     0
176
     0
290
     0
176
     0
290
     0
176
     0
290
     0
176
     0
290
     0
176
     0
 90
       50
176
     0
 40
0.0
176
     0
 40
1.0
176
     0
 90
        0
176
     0
 62
    18
420
        0
176
     0
 90
       50
176
     0
 90
        3
176
     0
 62
     5
420
      255
176
     0
290
     0
176
     0
 90
       50
176
     0
 90
       50
176
     0
 90
       50
176
     0
290
     0
176
     0
 90
       50
176
     0
 62
   256
176
     0
 40
1.0
176
     0
 90
        2
176
     0
  1
strokes_ogs.tif
176
     0
290
     0
176
     0
 40
1.0
176
     0
 40
1.0
176
     0
  0
VISUALSTYLE
  5
33
102
{ACAD_REACTORS
330
2A
102
}
330
2A
100
AcDbVisualStyle
  2
Realistic
 70
     8
177
     3
291
     0
 70
    58
 90
        2
176
     1
 90
        3
176
     1
 90
        0
176
     1
 90
        2
176
     1
 40
0.6
176
     1
 40
30.0
176
     1
 62
     7
420
 16777215
176
     1
 90
        0
176
     1
 90
        0
176
     1
 62
     7
176
     1
 62
   257
176
     1
 90
        1
176
     1
 90
        1
176
     1
 40
1.0
176
     1
 90
        8
176
     1
 62
   257
176
     1
 40
1.0
176
     1
 90
        1
176
     1
 90
        6
176
     1
 90
        2
176
     1
 62
     7
176
     1
 90
        3
176
     1
 90
        0
176
     1
 90
        0
176
     1
290
     0
176
     1
 90
       13
176
     1
 40
0.0
176
     1
 90
        0
176
     1
290
     0
176
     1
290
     1
176
     1
290
     1
176
     1
290
     0
176
     1
290
     0
176
     1
290
     0
176
     1
290
     0
176
     1
290
     0
176
     1
290
     0
176
     1
 90
       50
176
     1
 40
0.0
176
     1
 40
1.0
176
     1
 90
        0
176
     1
 62
    18
420
        0
176
     1
 90
       50
176
     1
 90
        3
176
     1
 62
     5
420
      255
176
     1
290
     0
176
     1
 90
       50
176
     1
 90
       50
176
     1
 90
       50
176
     1
290
     0
176
     1
 90
       50
176
     1
 62
   256
176
     0
 40
1.0
176
     0
 90
        2
176
     1
  1
strokes_ogs.tif
176
     1
290
     0
176
     1
 40
1.0
176
     1
 40
1.0
176
     1
  0
VISUALSTYLE
  5
42
102
{ACAD_REACTORS
330
2A
102
}
330
2A
100
AcDbVisualStyle
  2
Shaded
 70
    27
177
     3
291
     0
 70
    58
 90
        2
176
     1
 90
        2
176
     1
 90
        1
176
     1
 90
        2
176
     1
 40
0.6
176
     1
 40
30.0
176
     1
 62
     7
420
 16777215
176
     1
 90
        0
176
     1
 90
        4
176
     1
 62
     7
176
     1
 62
   257
176
     1
 90
        1
176
     1
 90
        1
176
     1
 40
1.0
176
     1
 90
        8
176
     1
 62
   257
176
     1
 40
1.0
176
     1
 90
        1
176
     1
 90
        6
176
     1
 90
        2
176
     1
 62
     8
420
  7895160
176
     1
 90
        3
176
     1
 90
        0
176
     1
 90
        0
176
     1
290
     0
176
     1
 90
        5
176
     1
 40
0.0
176
     1
 90
        0
176
     1
290
     0
176
     1
290
     1
176
     1
290
     1
176
     1
290
     0
176
     1
290
     0
176
     1
290
     0
176
     1
290
     0
176
     1
290
     0
176
     1
290
     0
176
     1
 90
       50
176
     1
 40
0.0
176
     1
 40
1.0
176
     1
 90
        0
176
     1
 62
    18
420
        0
176
     1
 90
       50
176
     1
 90
        3
176
     1
 62
     5
420
      255
176
     1
290
     0
176
     1
 90
       50
176
     1
 90
       50
176
     1
 90
       50
176
     1
290
     0
176
     1
 90
       50
176
     1
 62
   256
176
     0
 40
1.0
176
     0
 90
        2
176
     1
  1
strokes_ogs.tif
176
     1
290
     0
176
     1
 40
1.0
176
     1
 40
1.0
176
     1
  0
VISUALSTYLE
  5
41
102
{ACAD_REACTORS
330
2A
102
}
330
2A
100
AcDbVisualStyle
  2
Shaded with edges
 70
    26
177
     3
291
     0
 70
    58
 90
        2
176
     1
 90
        2
176
     1
 90
        1
176
     1
 90
        2
176
     1
 40
0.6
176
     1
 40
30.0
176
     1
 62
     7
420
 16777215
176
     1
 90
        1
176
     1
 90
       10
176
     1
 62
     7
176
     1
 62
   257
176
     1
 90
        2
176
     1
 90
        1
176
     1
 40
1.0
176
     1
 90
        8
176
     1
 62
   257
176
     1
 40
1.0
176
     1
 90
        1
176
     1
 90
        6
176
     1
 90
        2
176
     1
 62
     7
176
     1
 90
        3
176
     1
 90
        0
176
     1
 90
        0
176
     1
290
     0
176
     1
 90
        5
176
     1
 40
0.0
176
     1
 90
        0
176
     1
290
     0
176
     1
290
     1
176
     1
290
     1
176
     1
290
     0
176
     1
290
     0
176
     1
290
     0
176
     1
290
     0
176
     1
290
     0
176
     1
290
     0
176
     1
 90
       50
176
     1
 40
0.0
176
     1
 40
1.0
176
     1
 90
        0
176
     1
 62
    18
420
        0
176
     1
 90
       50
176
     1
 90
        3
176
     1
 62
     5
420
      255
176
     1
290
     0
176
     1
 90
       50
176
     1
 90
       50
176
     1
 90
       50
176
     1
290
     0
176
     1
 90
       50
176
     1
 62
   256
176
     0
 40
1.0
176
     0
 90
        2
176
     1
  1
strokes_ogs.tif
176
     1
290
     0
176
     1
 40
1.0
176
     1
 40
1.0
176
     1
  0
VISUALSTYLE
  5
3E
102
{ACAD_REACTORS
330
2A
102
}
330
2A
100
AcDbVisualStyle
  2
Shades of Gray
 70
    23
177
     3
291
     0
 70
    58
 90
        2
176
     1
 90
        2
176
     1
 90
        3
176
     1
 90
        0
176
     1
 40
0.6
176
     1
 40
30.0
176
     1
 62
     7
420
 16777215
176
     1
 90
        2
176
     1
 90
        2
176
     1
 62
     7
176
     1
 62
     7
176
     1
 90
        1
176
     1
 90
        1
176
     1
 40
40.0
176
     1
 90
        8
176
     1
 62
     7
176
     1
 40
1.0
176
     1
 90
        1
176
     1
 90
        6
176
     1
 90
        2
176
     1
 62
     7
176
     1
 90
        3
176
     1
 90
        0
176
     1
 90
        0
176
     1
290
     0
176
     1
 90
        1
176
     1
 40
0.0
176
     1
 90
        0
176
     1
290
     0
176
     1
290
     1
176
     1
290
     1
176
     1
290
     0
176
     1
290
     0
176
     1
290
     0
176
     1
290
     0
176
     1
290
     0
176
     1
290
     0
176
     1
 90
       50
176
     1
 40
0.0
176
     1
 40
1.0
176
     1
 90
        0
176
     1
 62
    18
420
        0
176
     1
 90
       50
176
     1
 90
        3
176
     1
 62
     5
420
      255
176
     1
290
     0
176
     1
 90
       50
176
     1
 90
       50
176
     1
 90
       50
176
     1
290
     0
176
     1
 90
       50
176
     1
 62
   256
176
     0
 40
1.0
176
     0
 90
        2
176
     1
  1
strokes_ogs.tif
176
     1
290
     0
176
     1
 40
1.0
176
     1
 40
1.0
176
     1
  0
VISUALSTYLE
  5
3F
102
{ACAD_REACTORS
330
2A
102
}
330
2A
100
AcDbVisualStyle
  2
Sketchy
 70
    24
177
     3
291
     0
 70
    58
 90
        1
176
     1
 90
        2
176
     1
 90
        2
176
     1
 90
        0
176
     1
 40
0.6
176
     1
 40
30.0
176
     1
 62
     7
420
 16777215
176
     1
 90
        2
176
     1
 90
        2
176
     1
 62
     7
176
     1
 62
     7
176
     1
 90
        1
176
     1
 90
        1
176
     1
 40
40.0
176
     1
 90
       11
176
     1
 62
     7
176
     1
 40
1.0
176
     1
 90
        1
176
     1
 90
        6
176
     1
 90
        2
176
     1
 62
     7
176
     1
 90
        6
176
     1
 90
        0
176
     1
 90
        0
176
     1
290
     0
176
     1
 90
        1
176
     1
 40
0.0
176
     1
 90
        0
176
     1
290
     0
176
     1
290
     1
176
     1
290
     1
176
     1
290
     0
176
     1
290
     0
176
     1
290
     0
176
     1
290
     0
176
     1
290
     0
176
     1
290
     0
176
     1
 90
       50
176
     1
 40
0.0
176
     1
 40
1.0
176
     1
 90
        0
176
     1
 62
    18
420
        0
176
     1
 90
       50
176
     1
 90
        3
176
     1
 62
     5
420
      255
176
     1
290
     0
176
     1
 90
       50
176
     1
 90
       50
176
     1
 90
       50
176
     1
290
     0
176
     1
 90
       50
176
     1
 62
   256
176
     0
 40
1.0
176
     0
 90
        2
176
     1
  1
strokes_ogs.tif
176
     1
290
     0
176
     1
 40
1.0
176
     1
 40
1.0
176
     1
  0
VISUALSTYLE
  5
37
102
{ACAD_REACTORS
330
2A
102
}
330
2A
100
AcDbVisualStyle
  2
Thicken
 70
    13
177
     3
291
     1
 70
    58
 90
        2
176
     1
 90
        2
176
     1
 90
        0
176
     1
 90
        0
176
     1
 40
0.6
176
     1
 40
30.0
176
     1
 62
     7
420
 16777215
176
     1
 90
        1
176
     1
 90
        4
176
     1
 62
     7
176
     1
 62
   257
176
     1
 90
        1
176
     1
 90
        1
176
     1
 40
1.0
176
     1
 90
       12
176
     1
 62
     7
176
     1
 40
1.0
176
     1
 90
        1
176
     1
 90
        6
176
     1
 90
        2
176
     1
 62
     7
176
     1
 90
        5
176
     1
 90
        0
176
     1
 90
        0
176
     1
290
     0
176
     1
 90
        1
176
     1
 40
0.0
176
     1
 90
        0
176
     1
290
     0
176
     1
290
     1
176
     1
290
     1
176
     1
290
     0
176
     1
290
     0
176
     1
290
     0
176
     1
290
     0
176
     1
290
     0
176
     1
290
     0
176
     1
 90
       50
176
     1
 40
0.0
176
     1
 40
1.0
176
     1
 90
        0
176
     1
 62
    18
420
        0
176
     1
 90
       50
176
     1
 90
        3
176
     1
 62
     5
420
      255
176
     1
290
     0
176
     1
 90
       50
176
     1
 90
       50
176
     1
 90
       50
176
     1
290
     0
176
     1
 90
       50
176
     1
 62
   256
176
     0
 40
1.0
176
     0
 90
        2
176
     1
  1
strokes_ogs.tif
176
     1
290
     0
176
     1
 40
1.0
176
     1
 40
1.0
176
     1
  0
VISUALSTYLE
  5
30
102
{ACAD_REACTORS
330
2A
102
}
330
2A
100
AcDbVisualStyle
  2
Wireframe
 70
     5
177
     3
291
     0
 70
    58
 90
        0
176
     1
 90
        2
176
     1
 90
        0
176
     1
 90
        0
176
     1
 40
0.6
176
     1
 40
30.0
176
     1
 62
     7
420
 16777215
176
     1
 90
        1
176
     1
 90
        4
176
     1
 62
     7
176
     1
 62
   257
176
     1
 90
        1
176
     1
 90
        1
176
     1
 40
1.0
176
     1
 90
        0
176
     1
 62
   257
176
     1
 40
1.0
176
     1
 90
        1
176
     1
 90
        6
176
     1
 90
        2
176
     1
 62
     7
176
     1
 90
        3
176
     1
 90
        0
176
     1
 90
        0
176
     1
290
     0
176
     1
 90
        1
176
     1
 40
0.0
176
     1
 90
        0
176
     1
290
     0
176
     1
290
     1
176
     1
290
     1
176
     1
290
     0
176
     1
290
     0
176
     1
290
     0
176
     1
290
     0
176
     1
290
     0
176
     1
290
     0
176
     1
 90
       50
176
     1
 40
0.0
176
     1
 40
1.0
176
     1
 90
        0
176
     1
 62
    18
420
        0
176
     1
 90
       50
176
     1
 90
        3
176
     1
 62
     5
420
      255
176
     1
290
     0
176
     1
 90
       50
176
     1
 90
       50
176
     1
 90
       50
176
     1
290
     0
176
     1
 90
       50
176
     1
 62
   256
176
     0
 40
1.0
176
     0
 90
        2
176
     1
  1
strokes_ogs.tif
176
     1
290
     0
176
     1
 40
1.0
176
     1
 40
1.0
176
     1
  0
VISUALSTYLE
  5
40
102
{ACAD_REACTORS
330
2A
102
}
330
2A
100
AcDbVisualStyle
  2
X-Ray
 70
    25
177
     3
291
     0
 70
    58
 90
        2
176
     1
 90
        2
176
     1
 90
        1
176
     1
 90
        1
176
     1
 40
0.5
176
     1
 40
30.0
176
     1
 62
     7
420
 16777215
176
     1
 90
        1
176
     1
 90
        0
176
     1
 62
     7
176
     1
 62
   257
176
     1
 90
        1
176
     1
 90
        1
176
     1
 40
1.0
176
     1
 90
        8
176
     1
 62
     7
176
     1
 40
1.0
176
     1
 90
        1
176
     1
 90
        6
176
     1
 90
        2
176
     1
 62
     7
176
     1
 90
        3
176
     1
 90
        0
176
     1
 90
        0
176
     1
290
     0
176
     1
 90
       13
176
     1
 40
0.0
176
     1
 90
        0
176
     1
290
     0
176
     1
290
     1
176
     1
290
     1
176
     1
290
     0
176
     1
290
     0
176
     1
290
     0
176
     1
290
     0
176
     1
290
     0
176
     1
290
     0
176
     1
 90
       50
176
     1
 40
0.0
176
     1
 40
1.0
176
     1
 90
        0
176
     1
 62
    18
420
        0
176
     1
 90
       50
176
     1
 90
        3
176
     1
 62
     5
420
      255
176
     1
290
     0
176
     1
 90
       50
176
     1
 90
       50
176
     1
 90
       50
176
     1
290
     0
176
     1
 90
       50
176
     1
 62
   256
176
     0
 40
1.0
176
     0
 90
        2
176
     1
  1
strokes_ogs.tif
176
     1
290
     0
176
     1
 40
1.0
176
     1
 40
1.0
176
     1
  0
DICTIONARYVAR
  5
1C1
102
{ACAD_REACTORS
330
1C0
102
}
330
1C0
100
DictionaryVariables
280
     0
  1
1:1
  0
DICTIONARYVAR
  5
1C6
102
{ACAD_REACTORS
330
1C0
102
}
330
1C0
100
DictionaryVariables
280
     0
  1
Standard
  0
DICTIONARYVAR
  5
1C5
102
{ACAD_REACTORS
330
1C0
102
}
330
1C0
100
DictionaryVariables
280
     0
  1
Standard
  0
DICTIONARY
  5
1C2
330
6A
100
AcDbDictionary
280
     1
281
     1
  3
ACAD_ROUNDTRIP_2008_TABLESTYLE_CELLSTYLEMAP
360
1C3
  0
CELLSTYLEMAP
  5
1C3
102
{ACAD_REACTORS
330
1C2
102
}
330
1C2
100
AcDbCellStyleMap
 90
        3
300
CELLSTYLE
  1
TABLEFORMAT_BEGIN
 90
        5
170
     1
 91
        0
 92
    32768
 62
   257
 93
        1
300
CONTENTFORMAT
  1
CONTENTFORMAT_BEGIN
 90
        0
 91
        0
 92
        4
 93
        0
300

 40
0.0
140
1.0
 94
        5
 62
     0
340
11
144
0.25
309
CONTENTFORMAT_END
171
     1
301
MARGIN
  1
CELLMARGIN_BEGIN
 40
0.06
 40
0.06
 40
0.06
 40
0.06
 40
0.06
 40
0.06
309
CELLMARGIN_END
 94
        6
 95
        1
302
GRIDFORMAT
  1
GRIDFORMAT_BEGIN
 90
        0
 91
        1
 62
     0
 92
       -2
340
14
 93
        0
 40
0.045
309
GRIDFORMAT_END
 95
        2
302
GRIDFORMAT
  1
GRIDFORMAT_BEGIN
 90
        0
 91
        1
 62
     0
 92
       -2
340
14
 93
        0
 40
0.045
309
GRIDFORMAT_END
 95
        4
302
GRIDFORMAT
  1
GRIDFORMAT_BEGIN
 90
        0
 91
        1
 62
     0
 92
       -2
340
14
 93
        0
 40
0.045
309
GRIDFORMAT_END
 95
        8
302
GRIDFORMAT
  1
GRIDFORMAT_BEGIN
 90
        0
 91
        1
 62
     0
 92
       -2
340
14
 93
        0
 40
0.045
309
GRIDFORMAT_END
 95
       16
302
GRIDFORMAT
  1
GRIDFORMAT_BEGIN
 90
        0
 91
        1
 62
     0
 92
       -2
340
14
 93
        0
 40
0.045
309
GRIDFORMAT_END
 95
       32
302
GRIDFORMAT
  1
GRIDFORMAT_BEGIN
 90
        0
 91
        1
 62
     0
 92
       -2
340
14
 93
        0
 40
0.045
309
GRIDFORMAT_END
309
TABLEFORMAT_END
  1
CELLSTYLE_BEGIN
 90
        1
 91
        1
300
_TITLE
309
CELLSTYLE_END
300
CELLSTYLE
  1
TABLEFORMAT_BEGIN
 90
        5
170
     1
 91
        0
 92
        0
 62
   257
 93
        1
300
CONTENTFORMAT
  1
CONTENTFORMAT_BEGIN
 90
        0
 91
        0
 92
        4
 93
        0
300

 40
0.0
140
1.0
 94
        5
 62
     0
340
11
144
0.18
309
CONTENTFORMAT_END
171
     1
301
MARGIN
  1
CELLMARGIN_BEGIN
 40
0.06
 40
0.06
 40
0.06
 40
0.06
 40
0.06
 40
0.06
309
CELLMARGIN_END
 94
        6
 95
        1
302
GRIDFORMAT
  1
GRIDFORMAT_BEGIN
 90
        0
 91
        1
 62
     0
 92
       -2
340
14
 93
        0
 40
0.045
309
GRIDFORMAT_END
 95
        2
302
GRIDFORMAT
  1
GRIDFORMAT_BEGIN
 90
        0
 91
        1
 62
     0
 92
       -2
340
14
 93
        0
 40
0.045
309
GRIDFORMAT_END
 95
        4
302
GRIDFORMAT
  1
GRIDFORMAT_BEGIN
 90
        0
 91
        1
 62
     0
 92
       -2
340
14
 93
        0
 40
0.045
309
GRIDFORMAT_END
 95
        8
302
GRIDFORMAT
  1
GRIDFORMAT_BEGIN
 90
        0
 91
        1
 62
     0
 92
       -2
340
14
 93
        0
 40
0.045
309
GRIDFORMAT_END
 95
       16
302
GRIDFORMAT
  1
GRIDFORMAT_BEGIN
 90
        0
 91
        1
 62
     0
 92
       -2
340
14
 93
        0
 40
0.045
309
GRIDFORMAT_END
 95
       32
302
GRIDFORMAT
  1
GRIDFORMAT_BEGIN
 90
        0
 91
        1
 62
     0
 92
       -2
340
14
 93
        0
 40
0.045
309
GRIDFORMAT_END
309
TABLEFORMAT_END
  1
CELLSTYLE_BEGIN
 90
        2
 91
        1
300
_HEADER
309
CELLSTYLE_END
300
CELLSTYLE
  1
TABLEFORMAT_BEGIN
 90
        5
170
     1
 91
        0
 92
        0
 62
   257
 93
        1
300
CONTENTFORMAT
  1
CONTENTFORMAT_BEGIN
 90
        0
 91
        0
 92
        4
 93
        0
300

 40
0.0
140
1.0
 94
        2
 62
     0
340
11
144
0.18
309
CONTENTFORMAT_END
171
     1
301
MARGIN
  1
CELLMARGIN_BEGIN
 40
0.06
 40
0.06
 40
0.06
 40
0.06
 40
0.06
 40
0.06
309
CELLMARGIN_END
 94
        6
 95
        1
302
GRIDFORMAT
  1
GRIDFORMAT_BEGIN
 90
        0
 91
        1
 62
     0
 92
       -2
340
14
 93
        0
 40
0.045
309
GRIDFORMAT_END
 95
        2
302
GRIDFORMAT
  1
GRIDFORMAT_BEGIN
 90
        0
 91
        1
 62
     0
 92
       -2
340
14
 93
        0
 40
0.045
309
GRIDFORMAT_END
 95
        4
302
GRIDFORMAT
  1
GRIDFORMAT_BEGIN
 90
        0
 91
        1
 62
     0
 92
       -2
340
14
 93
        0
 40
0.045
309
GRIDFORMAT_END
 95
        8
302
GRIDFORMAT
  1
GRIDFORMAT_BEGIN
 90
        0
 91
        1
 62
     0
 92
       -2
340
14
 93
        0
 40
0.045
309
GRIDFORMAT_END
 95
       16
302
GRIDFORMAT
  1
GRIDFORMAT_BEGIN
 90
        0
 91
        1
 62
     0
 92
       -2
340
14
 93
        0
 40
0.045
309
GRIDFORMAT_END
 95
       32
302
GRIDFORMAT
  1
GRIDFORMAT_BEGIN
 90
        0
 91
        1
 62
     0
 92
       -2
340
14
 93
        0
 40
0.045
309
GRIDFORMAT_END
309
TABLEFORMAT_END
  1
CELLSTYLE_BEGIN
 90
        3
 91
        2
300
_DATA
309
CELLSTYLE_END
  0
ENDSEC
  0
EOF