0
SECTION
  2
HEADER
  9
$ACADVER
  1
AC1027
  9
$ACADMAINTVER
 70
     8
  9
$DWGCODEPAGE
  3
ANSI_1252
  9
$REQUIREDVERSIONS
160
                 0
  9
$COMMENTS
  1
File was created by Cadenas
  9
$CUSTOMPROPERTYTAG
  1
NN
  9
$CUSTOMPROPERTY
  1
Grip Tight Tapped Base - Polymer Housing, Corrosion Resisitant Insert  Inch Bore
  9
$CUSTOMPROPERTYTAG
  1
NT
  9
$CUSTOMPROPERTY
  1
GTEZ Normal Duty Polymer Housed Tapped Base Pillow Blocks
  9
$CUSTOMPROPERTYTAG
  1
NB
  9
$CUSTOMPROPERTY
  1
129298
  9
$CUSTOMPROPERTYTAG
  1
NBSYN
  9
$CUSTOMPROPERTY
  1
$PN.$LUBE.
  9
$CUSTOMPROPERTYTAG
  1
LINA
  9
$CUSTOMPROPERTY
  1
129298
  9
$CUSTOMPROPERTYTAG
  1
SERIES
  9
$CUSTOMPROPERTY
  1
207
  9
$CUSTOMPROPERTYTAG
  1
SS
  9
$CUSTOMPROPERTY
  1
1-1/4
  9
$CUSTOMPROPERTYTAG
  1
PN
  9
$CUSTOMPROPERTY
  1
129298
  9
$CUSTOMPROPERTYTAG
  1
DESCRIPTION
  9
$CUSTOMPROPERTY
  1
TB-GTEZ-104-PCR
  9
$CUSTOMPROPERTYTAG
  1
A
  9
$CUSTOMPROPERTY
  1
1-5/8
  9
$CUSTOMPROPERTYTAG
  1
B
  9
$CUSTOMPROPERTY
  1
4-5/8
  9
$CUSTOMPROPERTYTAG
  1
C
  9
$CUSTOMPROPERTY
  1
1-57/64
  9
$CUSTOMPROPERTYTAG
  1
D
  9
$CUSTOMPROPERTY
  1
3-1/4
  9
$CUSTOMPROPERTYTAG
  1
J
  9
$CUSTOMPROPERTY
  1
3-53/64
  9
$CUSTOMPROPERTYTAG
  1
L
  9
$CUSTOMPROPERTY
  1
2-19/64
  9
$CUSTOMPROPERTYTAG
  1
M
  9
$CUSTOMPROPERTY
  1
1-7/8
  9
$CUSTOMPROPERTYTAG
  1
N
  9
$CUSTOMPROPERTY
  1
35/64
  9
$CUSTOMPROPERTYTAG
  1
R
  9
$CUSTOMPROPERTY
  1
1/2-13
  9
$CUSTOMPROPERTYTAG
  1
S
  9
$CUSTOMPROPERTY
  1
1-1/16
  9
$CUSTOMPROPERTYTAG
  1
Z
  9
$CUSTOMPROPERTY
  1
1-3/64
  9
$CUSTOMPROPERTYTAG
  1
COMPANY
  9
$CUSTOMPROPERTY
  1
baldor
  9
$INSBASE
 10
0.0
 20
0.0
 30
0.0
  9
$EXTMIN
 10
1.000000000000000E+20
 20
1.000000000000000E+20
 30
1.000000000000000E+20
  9
$EXTMAX
 10
-1.000000000000000E+20
 20
-1.000000000000000E+20
 30
-1.000000000000000E+20
  9
$LIMMIN
 10
0.0
 20
0.0
  9
$LIMMAX
 10
12.0
 20
9.0
  9
$ORTHOMODE
 70
     0
  9
$REGENMODE
 70
     1
  9
$FILLMODE
 70
     1
  9
$QTEXTMODE
 70
     0
  9
$MIRRTEXT
 70
     1
  9
$LTSCALE
 40
1.0
  9
$ATTMODE
 70
     1
  9
$TEXTSIZE
 40
0.2
  9
$TRACEWID
 40
0.05
  9
$TEXTSTYLE
  7
Standard
  9
$CLAYER
  8
0
  9
$CELTYPE
  6
ByLayer
  9
$CECOLOR
 62
   256
  9
$CELTSCALE
 40
1.0
  9
$DISPSILH
 70
     0
  9
$DIMSCALE
 40
1.0
  9
$DIMASZ
 40
0.18
  9
$DIMEXO
 40
0.0625
  9
$DIMDLI
 40
0.38
  9
$DIMRND
 40
0.0
  9
$DIMDLE
 40
0.0
  9
$DIMEXE
 40
0.18
  9
$DIMTP
 40
0.0
  9
$DIMTM
 40
0.0
  9
$DIMTXT
 40
0.18
  9
$DIMCEN
 40
0.09
  9
$DIMTSZ
 40
0.0
  9
$DIMTOL
 70
     0
  9
$DIMLIM
 70
     0
  9
$DIMTIH
 70
     1
  9
$DIMTOH
 70
     1
  9
$DIMSE1
 70
     0
  9
$DIMSE2
 70
     0
  9
$DIMTAD
 70
     0
  9
$DIMZIN
 70
     0
  9
$DIMBLK
  1

  9
$DIMASO
 70
     1
  9
$DIMSHO
 70
     1
  9
$DIMPOST
  1

  9
$DIMAPOST
  1

  9
$DIMALT
 70
     0
  9
$DIMALTD
 70
     2
  9
$DIMALTF
 40
25.4
  9
$DIMLFAC
 40
1.0
  9
$DIMTOFL
 70
     0
  9
$DIMTVP
 40
0.0
  9
$DIMTIX
 70
     0
  9
$DIMSOXD
 70
     0
  9
$DIMSAH
 70
     0
  9
$DIMBLK1
  1

  9
$DIMBLK2
  1

  9
$DIMSTYLE
  2
Standard
  9
$DIMCLRD
 70
     0
  9
$DIMCLRE
 70
     0
  9
$DIMCLRT
 70
     0
  9
$DIMTFAC
 40
1.0
  9
$DIMGAP
 40
0.09
  9
$DIMJUST
 70
     0
  9
$DIMSD1
 70
     0
  9
$DIMSD2
 70
     0
  9
$DIMTOLJ
 70
     1
  9
$DIMTZIN
 70
     0
  9
$DIMALTZ
 70
     0
  9
$DIMALTTZ
 70
     0
  9
$DIMUPT
 70
     0
  9
$DIMDEC
 70
     4
  9
$DIMTDEC
 70
     4
  9
$DIMALTU
 70
     2
  9
$DIMALTTD
 70
     2
  9
$DIMTXSTY
  7
Standard
  9
$DIMAUNIT
 70
     0
  9
$DIMADEC
 70
     0
  9
$DIMALTRND
 40
0.0
  9
$DIMAZIN
 70
     0
  9
$DIMDSEP
 70
    46
  9
$DIMATFIT
 70
     3
  9
$DIMFRAC
 70
     0
  9
$DIMLDRBLK
  1

  9
$DIMLUNIT
 70
     2
  9
$DIMLWD
 70
    -2
  9
$DIMLWE
 70
    -2
  9
$DIMTMOVE
 70
     0
  9
$DIMFXL
 40
1.0
  9
$DIMFXLON
 70
     0
  9
$DIMJOGANG
 40
0.7853981633974483
  9
$DIMTFILL
 70
     0
  9
$DIMTFILLCLR
 70
     0
  9
$DIMARCSYM
 70
     0
  9
$DIMLTYPE
  6

  9
$DIMLTEX1
  6

  9
$DIMLTEX2
  6

  9
$DIMTXTDIRECTION
 70
     0
  9
$LUNITS
 70
     2
  9
$LUPREC
 70
     4
  9
$SKETCHINC
 40
0.1
  9
$FILLETRAD
 40
0.5
  9
$AUNITS
 70
     0
  9
$AUPREC
 70
     0
  9
$MENU
  1
.
  9
$ELEVATION
 40
0.0
  9
$PELEVATION
 40
0.0
  9
$THICKNESS
 40
0.0
  9
$LIMCHECK
 70
     0
  9
$CHAMFERA
 40
0.0
  9
$CHAMFERB
 40
0.0
  9
$CHAMFERC
 40
0.0
  9
$CHAMFERD
 40
0.0
  9
$SKPOLY
 70
     0
  9
$TDCREATE
 40
2458168.992275937
  9
$TDUCREATE
 40
2458168.950609271
  9
$TDUPDATE
 40
2458168.992276296
  9
$TDUUPDATE
 40
2458168.95060963
  9
$TDINDWG
 40
0.0000000116
  9
$TDUSRTIMER
 40
0.0000000116
  9
$USRTIMER
 70
     1
  9
$ANGBASE
 50
0.0
  9
$ANGDIR
 70
     0
  9
$PDMODE
 70
     0
  9
$PDSIZE
 40
0.0
  9
$PLINEWID
 40
0.0
  9
$SPLFRAME
 70
     0
  9
$SPLINETYPE
 70
     6
  9
$SPLINESEGS
 70
     8
  9
$HANDSEED
  5
1AD
  9
$SURFTAB1
 70
     6
  9
$SURFTAB2
 70
     6
  9
$SURFTYPE
 70
     6
  9
$SURFU
 70
     6
  9
$SURFV
 70
     6
  9
$UCSBASE
  2

  9
$UCSNAME
  2

  9
$UCSORG
 10
0.0
 20
0.0
 30
0.0
  9
$UCSXDIR
 10
1.0
 20
0.0
 30
0.0
  9
$UCSYDIR
 10
0.0
 20
1.0
 30
0.0
  9
$UCSORTHOREF
  2

  9
$UCSORTHOVIEW
 70
     0
  9
$UCSORGTOP
 10
0.0
 20
0.0
 30
0.0
  9
$UCSORGBOTTOM
 10
0.0
 20
0.0
 30
0.0
  9
$UCSORGLEFT
 10
0.0
 20
0.0
 30
0.0
  9
$UCSORGRIGHT
 10
0.0
 20
0.0
 30
0.0
  9
$UCSORGFRONT
 10
0.0
 20
0.0
 30
0.0
  9
$UCSORGBACK
 10
0.0
 20
0.0
 30
0.0
  9
$PUCSBASE
  2

  9
$PUCSNAME
  2

  9
$PUCSORG
 10
0.0
 20
0.0
 30
0.0
  9
$PUCSXDIR
 10
1.0
 20
0.0
 30
0.0
  9
$PUCSYDIR
 10
0.0
 20
1.0
 30
0.0
  9
$PUCSORTHOREF
  2

  9
$PUCSORTHOVIEW
 70
     0
  9
$PUCSORGTOP
 10
0.0
 20
0.0
 30
0.0
  9
$PUCSORGBOTTOM
 10
0.0
 20
0.0
 30
0.0
  9
$PUCSORGLEFT
 10
0.0
 20
0.0
 30
0.0
  9
$PUCSORGRIGHT
 10
0.0
 20
0.0
 30
0.0
  9
$PUCSORGFRONT
 10
0.0
 20
0.0
 30
0.0
  9
$PUCSORGBACK
 10
0.0
 20
0.0
 30
0.0
  9
$USERI1
 70
     0
  9
$USERI2
 70
     0
  9
$USERI3
 70
     0
  9
$USERI4
 70
     0
  9
$USERI5
 70
     0
  9
$USERR1
 40
0.0
  9
$USERR2
 40
0.0
  9
$USERR3
 40
0.0
  9
$USERR4
 40
0.0
  9
$USERR5
 40
0.0
  9
$WORLDVIEW
 70
     1
  9
$SHADEDGE
 70
     3
  9
$SHADEDIF
 70
    70
  9
$TILEMODE
 70
     1
  9
$MAXACTVP
 70
    64
  9
$PINSBASE
 10
0.0
 20
0.0
 30
0.0
  9
$PLIMCHECK
 70
     0
  9
$PEXTMIN
 10
1.000000000000000E+20
 20
1.000000000000000E+20
 30
1.000000000000000E+20
  9
$PEXTMAX
 10
-1.000000000000000E+20
 20
-1.000000000000000E+20
 30
-1.000000000000000E+20
  9
$PLIMMIN
 10
0.0
 20
0.0
  9
$PLIMMAX
 10
12.0
 20
9.0
  9
$UNITMODE
 70
     0
  9
$VISRETAIN
 70
     1
  9
$PLINEGEN
 70
     0
  9
$PSLTSCALE
 70
     1
  9
$TREEDEPTH
 70
  3020
  9
$CMLSTYLE
  2
Standard
  9
$CMLJUST
 70
     0
  9
$CMLSCALE
 40
1.0
  9
$PROXYGRAPHICS
 70
     1
  9
$MEASUREMENT
 70
     0
  9
$CELWEIGHT
370
    -1
  9
$ENDCAPS
280
     0
  9
$JOINSTYLE
280
     0
  9
$LWDISPLAY
290
     0
  9
$INSUNITS
 70
     1
  9
$HYPERLINKBASE
  1

  9
$STYLESHEET
  1

  9
$XEDIT
290
     1
  9
$CEPSNTYPE
380
     0
  9
$PSTYLEMODE
290
     1
  9
$FINGERPRINTGUID
  2
{A3F1F85B-DDA0-447F-B959-96CFD8A4D57A}
  9
$VERSIONGUID
  2
{FAEB1C32-E019-11D5-929B-00C0DF256EC4}
  9
$EXTNAMES
290
     1
  9
$PSVPSCALE
 40
0.0
  9
$OLESTARTUP
290
     0
  9
$SORTENTS
280
   127
  9
$INDEXCTL
280
     0
  9
$HIDETEXT
280
     1
  9
$XCLIPFRAME
280
     2
  9
$HALOGAP
280
     0
  9
$OBSCOLOR
 70
   257
  9
$OBSLTYPE
280
     0
  9
$INTERSECTIONDISPLAY
280
     0
  9
$INTERSECTIONCOLOR
 70
   257
  9
$DIMASSOC
280
     2
  9
$PROJECTNAME
  1

  9
$CAMERADISPLAY
290
     0
  9
$LENSLENGTH
 40
50.0
  9
$CAMERAHEIGHT
 40
0.0
  9
$STEPSPERSEC
 40
2.0
  9
$STEPSIZE
 40
6.0
  9
$3DDWFPREC
 40
2.0
  9
$PSOLWIDTH
 40
0.25
  9
$PSOLHEIGHT
 40
4.0
  9
$LOFTANG1
 40
1.570796326794897
  9
$LOFTANG2
 40
1.570796326794897
  9
$LOFTMAG1
 40
0.0
  9
$LOFTMAG2
 40
0.0
  9
$LOFTPARAM
 70
     7
  9
$LOFTNORMALS
280
     1
  9
$LATITUDE
 40
37.795
  9
$LONGITUDE
 40
-122.394
  9
$NORTHDIRECTION
 40
0.0
  9
$TIMEZONE
 70
 -8000
  9
$LIGHTGLYPHDISPLAY
280
     1
  9
$TILEMODELIGHTSYNCH
280
     1
  9
$CMATERIAL
347
44
  9
$SOLIDHIST
280
     0
  9
$SHOWHIST
280
     1
  9
$DWFFRAME
280
     2
  9
$DGNFRAME
280
     2
  9
$REALWORLDSCALE
290
     1
  9
$INTERFERECOLOR
 62
   256
  9
$CSHADOW
280
     0
  9
$SHADOWPLANELOCATION
 40
0.0
  0
ENDSEC
  0
SECTION
  2
CLASSES
  0
CLASS
  1
ACDBDICTIONARYWDFLT
  2
AcDbDictionaryWithDefault
  3
ObjectDBX Classes
 90
        0
 91
        4
280
     0
281
     0
  0
CLASS
  1
VISUALSTYLE
  2
AcDbVisualStyle
  3
ObjectDBX Classes
 90
     4095
 91
        4
280
     0
281
     0
  0
CLASS
  1
MATERIAL
  2
AcDbMaterial
  3
ObjectDBX Classes
 90
     1153
 91
        4
280
     0
281
     0
  0
CLASS
  1
SCALE
  2
AcDbScale
  3
ObjectDBX Classes
 90
     1153
 91
        4
280
     0
281
     0
  0
CLASS
  1
TABLESTYLE
  2
AcDbTableStyle
  3
ObjectDBX Classes
 90
     4095
 91
        4
280
     0
281
     0
  0
CLASS
  1
MLEADERSTYLE
  2
AcDbMLeaderStyle
  3
ACDB_MLEADERSTYLE_CLASS
 90
     4095
 91
        4
280
     0
281
     0
  0
CLASS
  1
SUN
  2
AcDbSun
  3
SCENEOE
 90
     1153
 91
        4
280
     0
281
     0
  0
CLASS
  1
DICTIONARYVAR
  2
AcDbDictionaryVar
  3
ObjectDBX Classes
 90
        0
 91
        4
280
     0
281
     0
  0
CLASS
  1
CELLSTYLEMAP
  2
AcDbCellStyleMap
  3
ObjectDBX Classes
 90
     1152
 91
        4
280
     0
281
     0
  0
ENDSEC
  0
SECTION
  2
TABLES
  0
TABLE
  2
VPORT
  5
8
330
0
100
AcDbSymbolTable
 70
     1
  0
VPORT
  5
29
330
8
100
AcDbSymbolTableRecord
100
AcDbViewportTableRecord
  2
*Active
 70
     0
 10
0.0
 20
0.0
 11
1.0
 21
1.0
 12
-0.0519531250000007
 22
0.0208050204869625
 13
0.0
 23
0.0
 14
0.5
 24
0.5
 15
0.5
 25
0.5
 16
0.0
 26
0.0
 36
1.0
 17
0.0
 27
0.0
 37
0.0
 40
3.941932758206597
 41
0.5650186752585061
 42
50.0
 43
0.0
 44
0.0
 50
0.0
 51
0.0
 71
     0
 72
   100
 73
     1
 74
     3
 75
     0
 76
     0
 77
     0
 78
     0
281
     0
 65
     1
110
0.0
120
0.0
130
0.0
111
1.0
121
0.0
131
0.0
112
0.0
122
1.0
132
0.0
 79
     0
146
0.0
348
2F
 60
     3
 61
     5
292
     1
282
     1
141
0.0
142
0.0
 63
   250
361
6D
  0
ENDTAB
  0
TABLE
  2
LTYPE
  5
5
330
0
100
AcDbSymbolTable
 70
     3
  0
LTYPE
  5
14
330
5
100
AcDbSymbolTableRecord
100
AcDbLinetypeTableRecord
  2
ByBlock
 70
     0
  3

 72
    65
 73
     0
 40
0.0
  0
LTYPE
  5
15
330
5
100
AcDbSymbolTableRecord
100
AcDbLinetypeTableRecord
  2
ByLayer
 70
     0
  3

 72
    65
 73
     0
 40
0.0
  0
LTYPE
  5
16
330
5
100
AcDbSymbolTableRecord
100
AcDbLinetypeTableRecord
  2
Continuous
 70
     0
  3
Solid line
 72
    65
 73
     0
 40
0.0
  0
LTYPE
  5
9E
330
5
100
AcDbSymbolTableRecord
100
AcDbLinetypeTableRecord
  2
Dashed
 70
     0
  3

 72
    65
 73
     2
 40
2.0
 49
1.0
 74
     0
 49
-1.0
 74
     0
  0
LTYPE
  5
114
330
5
100
AcDbSymbolTableRecord
100
AcDbLinetypeTableRecord
  2
Center
 70
     0
  3

 72
    65
 73
     4
 40
1.5
 49
0.45
 74
     0
 49
-0.5
 74
     0
 49
0.05
 74
     0
 49
-0.5
 74
     0
  0
ENDTAB
  0
TABLE
  2
LAYER
  5
2
330
0
100
AcDbSymbolTable
 70
     7
  0
LAYER
  5
10
330
2
100
AcDbSymbolTableRecord
100
AcDbLayerTableRecord
  2
0
 70
     0
 62
     7
  6
Continuous
370
    -3
390
F
347
46
348
0
  0
LAYER
  5
72
330
2
100
AcDbSymbolTableRecord
100
AcDbLayerTableRecord
  2
AM_6
 70
     0
 62
    -2
  6
Continuous
370
    35
390
F
347
46
348
0
  0
LAYER
  5
9F
330
2
100
AcDbSymbolTableRecord
100
AcDbLayerTableRecord
  2
AM_9
 70
     0
 62
     6
  6
Dashed
370
    25
390
F
347
46
348
0
  0
LAYER
  5
115
330
2
100
AcDbSymbolTableRecord
100
AcDbLayerTableRecord
  2
AM_7
 70
     0
 62
     7
  6
Center
370
    25
390
F
347
46
348
0
  0
LAYER
  5
117
330
2
100
AcDbSymbolTableRecord
100
AcDbLayerTableRecord
  2
AM_4
 70
     0
 62
     7
  6
Continuous
370
    50
390
F
347
46
348
0
  0
LAYER
  5
128
330
2
100
AcDbSymbolTableRecord
100
AcDbLayerTableRecord
  2
AM_5
 70
     0
 62
     3
  6
Continuous
370
    25
390
F
347
46
348
0
  0
LAYER
  5
19F
330
2
100
AcDbSymbolTableRecord
100
AcDbLayerTableRecord
  2
ConnectionPoints
 70
     0
 62
     7
  6
Continuous
370
    50
390
F
347
46
348
0
  0
ENDTAB
  0
TABLE
  2
STYLE
  5
3
330
0
100
AcDbSymbolTable
 70
     1
  0
STYLE
  5
11
330
3
100
AcDbSymbolTableRecord
100
AcDbTextStyleTableRecord
  2
Standard
 70
     0
 40
0.0
 41
1.0
 50
0.0
 71
     0
 42
0.2
  3
txt
  4

  0
ENDTAB
  0
TABLE
  2
VIEW
  5
6
330
0
100
AcDbSymbolTable
 70
     0
  0
ENDTAB
  0
TABLE
  2
UCS
  5
7
330
0
100
AcDbSymbolTable
 70
     0
  0
ENDTAB
  0
TABLE
  2
APPID
  5
9
330
0
100
AcDbSymbolTable
 70
     1
  0
APPID
  5
12
330
9
100
AcDbSymbolTableRecord
100
AcDbRegAppTableRecord
  2
ACAD
 70
     0
  0
ENDTAB
  0
TABLE
  2
DIMSTYLE
  5
A
330
0
100
AcDbSymbolTable
 70
     1
100
AcDbDimStyleTable
  0
DIMSTYLE
105
27
330
A
100
AcDbSymbolTableRecord
100
AcDbDimStyleTableRecord
  2
Standard
 70
     0
178
     0
340
11
  0
ENDTAB
  0
TABLE
  2
BLOCK_RECORD
  5
1
330
0
100
AcDbSymbolTable
 70
     5
  0
BLOCK_RECORD
  5
1F
330
1
100
AcDbSymbolTableRecord
100
AcDbBlockTableRecord
  2
*Model_Space
340
22
 70
     0
280
     1
281
     0
  0
BLOCK_RECORD
  5
1B
330
1
100
AcDbSymbolTableRecord
100
AcDbBlockTableRecord
  2
*Paper_Space
340
1E
 70
     0
280
     1
281
     0
  0
BLOCK_RECORD
  5
23
330
1
100
AcDbSymbolTableRecord
100
AcDbBlockTableRecord
  2
*Paper_Space0
340
26
 70
     0
280
     1
281
     0
  0
BLOCK_RECORD
  5
6E
330
1
100
AcDbSymbolTableRecord
100
AcDbBlockTableRecord
  2
1_129298_2
340
0
102
{BLKREFS
331
6F
102
}
 70
     0
280
     1
281
     0
  0
BLOCK_RECORD
  5
88
330
1
100
AcDbSymbolTableRecord
100
AcDbBlockTableRecord
  2
2_INS_GT_07_CRI_0_in_129298_2
340
0
102
{BLKREFS
331
89
102
}
 70
     0
280
     1
281
     0
  0
BLOCK_RECORD
  5
CD
330
1
100
AcDbSymbolTableRecord
100
AcDbBlockTableRecord
  2
3_129972_0_in_129298_2
340
0
102
{BLKREFS
331
CE
102
}
 70
     0
280
     1
281
     0
  0
BLOCK_RECORD
  5
12A
330
1
100
AcDbSymbolTableRecord
100
AcDbBlockTableRecord
  2
4_TB_GTEZ_07_PCRI_0_in_129298_2
340
0
102
{BLKREFS
331
12B
102
}
 70
     0
280
     1
281
     0
  0
ENDTAB
  0
ENDSEC
  0
SECTION
  2
BLOCKS
  0
BLOCK
  5
20
330
1F
100
AcDbEntity
  8
0
100
AcDbBlockBegin
  2
*Model_Space
 70
     0
 10
0.0
 20
0.0
 30
0.0
  3
*Model_Space
  1

  0
ENDBLK
  5
21
330
1F
100
AcDbEntity
  8
0
100
AcDbBlockEnd
  0
BLOCK
  5
1C
330
1B
100
AcDbEntity
 67
     1
  8
0
100
AcDbBlockBegin
  2
*Paper_Space
 70
     0
 10
0.0
 20
0.0
 30
0.0
  3
*Paper_Space
  1

  0
ENDBLK
  5
1D
330
1B
100
AcDbEntity
 67
     1
  8
0
100
AcDbBlockEnd
  0
BLOCK
  5
24
330
23
100
AcDbEntity
  8
0
100
AcDbBlockBegin
  2
*Paper_Space0
 70
     0
 10
0.0
 20
0.0
 30
0.0
  3
*Paper_Space0
  1

  0
ENDBLK
  5
25
330
23
100
AcDbEntity
  8
0
100
AcDbBlockEnd
  0
BLOCK
  5
70
330
6E
100
AcDbEntity
  8
0
100
AcDbBlockBegin
  2
1_129298_2
 70
     2
 10
0.0
 20
0.0
 30
0.0
  3
1_129298_2
  1

  0
ATTDEF
  5
73
330
6E
100
AcDbEntity
  8
AM_6
100
AcDbText
 10
6.03984375
 20
1.953125
 30
0.0
 40
0.5
  1
Grip Tight Tapped Base - Polymer Housing, Corrosion Resisitant Insert  Inch Bore
100
AcDbAttributeDefinition
  3

  2
NN
 70
     8
280
     0
  0
ATTDEF
  5
74
330
6E
100
AcDbEntity
  8
AM_6
100
AcDbText
 10
6.03984375
 20
1.453125
 30
0.0
 40
0.5
  1
GTEZ Normal Duty Polymer Housed Tapped Base Pillow Blocks
100
AcDbAttributeDefinition
  3

  2
NT
 70
     8
280
     0
  0
ATTDEF
  5
75
330
6E
100
AcDbEntity
  8
AM_6
100
AcDbText
 10
6.03984375
 20
0.953125
 30
0.0
 40
0.5
  1
129298
100
AcDbAttributeDefinition
  3

  2
NB
 70
     8
280
     0
  0
ATTDEF
  5
76
330
6E
100
AcDbEntity
  8
AM_6
100
AcDbText
 10
6.03984375
 20
0.453125
 30
0.0
 40
0.5
  1
$PN.$LUBE.
100
AcDbAttributeDefinition
  3

  2
NBSYN
 70
     8
280
     0
  0
ATTDEF
  5
77
330
6E
100
AcDbEntity
  8
AM_6
100
AcDbText
 10
6.03984375
 20
-0.046875
 30
0.0
 40
0.5
  1
129298
100
AcDbAttributeDefinition
  3

  2
LINA
 70
     8
280
     0
  0
ATTDEF
  5
78
330
6E
100
AcDbEntity
  8
AM_6
100
AcDbText
 10
6.03984375
 20
-0.546875
 30
0.0
 40
0.5
  1
207
100
AcDbAttributeDefinition
  3

  2
SERIES
 70
     8
280
     0
  0
ATTDEF
  5
79
330
6E
100
AcDbEntity
  8
AM_6
100
AcDbText
 10
6.03984375
 20
-1.046875
 30
0.0
 40
0.5
  1
1-1/4
100
AcDbAttributeDefinition
  3

  2
SS
 70
     8
280
     0
  0
ATTDEF
  5
7A
330
6E
100
AcDbEntity
  8
AM_6
100
AcDbText
 10
6.03984375
 20
-1.546875
 30
0.0
 40
0.5
  1
129298
100
AcDbAttributeDefinition
  3

  2
PN
 70
     8
280
     0
  0
ATTDEF
  5
7B
330
6E
100
AcDbEntity
  8
AM_6
100
AcDbText
 10
6.03984375
 20
-2.046875
 30
0.0
 40
0.5
  1
TB-GTEZ-104-PCR
100
AcDbAttributeDefinition
  3

  2
DESCRIPTION
 70
     8
280
     0
  0
ATTDEF
  5
7C
330
6E
100
AcDbEntity
  8
AM_6
100
AcDbText
 10
6.03984375
 20
-2.546875
 30
0.0
 40
0.5
  1
1-5/8
100
AcDbAttributeDefinition
  3

  2
A
 70
     8
280
     0
  0
ATTDEF
  5
7D
330
6E
100
AcDbEntity
  8
AM_6
100
AcDbText
 10
6.03984375
 20
-3.046875
 30
0.0
 40
0.5
  1
4-5/8
100
AcDbAttributeDefinition
  3

  2
B
 70
     8
280
     0
  0
ATTDEF
  5
7E
330
6E
100
AcDbEntity
  8
AM_6
100
AcDbText
 10
6.03984375
 20
-3.546875
 30
0.0
 40
0.5
  1
1-57/64
100
AcDbAttributeDefinition
  3

  2
C
 70
     8
280
     0
  0
ATTDEF
  5
7F
330
6E
100
AcDbEntity
  8
AM_6
100
AcDbText
 10
6.03984375
 20
-4.046875
 30
0.0
 40
0.5
  1
3-1/4
100
AcDbAttributeDefinition
  3

  2
D
 70
     8
280
     0
  0
ATTDEF
  5
80
330
6E
100
AcDbEntity
  8
AM_6
100
AcDbText
 10
6.03984375
 20
-4.546875
 30
0.0
 40
0.5
  1
3-53/64
100
AcDbAttributeDefinition
  3

  2
J
 70
     8
280
     0
  0
ATTDEF
  5
81
330
6E
100
AcDbEntity
  8
AM_6
100
AcDbText
 10
6.03984375
 20
-5.046875
 30
0.0
 40
0.5
  1
2-19/64
100
AcDbAttributeDefinition
  3

  2
L
 70
     8
280
     0
  0
ATTDEF
  5
82
330
6E
100
AcDbEntity
  8
AM_6
100
AcDbText
 10
6.03984375
 20
-5.546875
 30
0.0
 40
0.5
  1
1-7/8
100
AcDbAttributeDefinition
  3

  2
M
 70
     8
280
     0
  0
ATTDEF
  5
83
330
6E
100
AcDbEntity
  8
AM_6
100
AcDbText
 10
6.03984375
 20
-6.046875
 30
0.0
 40
0.5
  1
35/64
100
AcDbAttributeDefinition
  3

  2
N
 70
     8
280
     0
  0
ATTDEF
  5
84
330
6E
100
AcDbEntity
  8
AM_6
100
AcDbText
 10
6.03984375
 20
-6.546875
 30
0.0
 40
0.5
  1
1/2-13
100
AcDbAttributeDefinition
  3

  2
R
 70
     8
280
     0
  0
ATTDEF
  5
85
330
6E
100
AcDbEntity
  8
AM_6
100
AcDbText
 10
6.03984375
 20
-7.046875
 30
0.0
 40
0.5
  1
1-1/16
100
AcDbAttributeDefinition
  3

  2
S
 70
     8
280
     0
  0
ATTDEF
  5
86
330
6E
100
AcDbEntity
  8
AM_6
100
AcDbText
 10
6.03984375
 20
-7.546875
 30
0.0
 40
0.5
  1
1-3/64
100
AcDbAttributeDefinition
  3

  2
Z
 70
     8
280
     0
  0
ATTDEF
  5
87
330
6E
100
AcDbEntity
  8
AM_6
100
AcDbText
 10
6.03984375
 20
-8.046875
 30
0.0
 40
0.5
  1
baldor
100
AcDbAttributeDefinition
  3

  2
COMPANY
 70
     8
280
     0
  0
INSERT
  5
89
330
6E
100
AcDbEntity
  8
0
100
AcDbBlockReference
  2
2_INS_GT_07_CRI_0_in_129298_2
 10
0.0
 20
0.0
 30
0.0
  0
INSERT
  5
CE
330
6E
100
AcDbEntity
  8
0
100
AcDbBlockReference
  2
3_129972_0_in_129298_2
 10
0.0
 20
0.0
 30
0.0
  0
INSERT
  5
12B
330
6E
100
AcDbEntity
  8
0
100
AcDbBlockReference
  2
4_TB_GTEZ_07_PCRI_0_in_129298_2
 10
0.0
 20
0.0
 30
0.0
  0
ENDBLK
  5
71
330
6E
100
AcDbEntity
  8
0
100
AcDbBlockEnd
  0
BLOCK
  5
8A
330
88
100
AcDbEntity
  8
0
100
AcDbBlockBegin
  2
2_INS_GT_07_CRI_0_in_129298_2
 70
     2
 10
0.0
 20
0.0
 30
0.0
  3
2_INS_GT_07_CRI_0_in_129298_2
  1

  0
ATTDEF
  5
8C
330
88
100
AcDbEntity
  8
AM_6
100
AcDbText
 10
5.50625
 20
1.417270403970111
 30
0.0
 40
0.5
  1
INS-GT-CR-I
100
AcDbAttributeDefinition
  3

  2
NN
 70
     8
280
     0
  0
ATTDEF
  5
8D
330
88
100
AcDbEntity
  8
AM_6
100
AcDbText
 10
5.50625
 20
0.9172704039701107
 30
0.0
 40
0.5
  1
GT Normal Duty Corrosion Resistant Bearing Inserts
100
AcDbAttributeDefinition
  3

  2
NT
 70
     8
280
     0
  0
ATTDEF
  5
8E
330
88
100
AcDbEntity
  8
AM_6
100
AcDbText
 10
5.50625
 20
0.4172704039701107
 30
0.0
 40
0.5
  1
INS-GT-07-CRI
100
AcDbAttributeDefinition
  3

  2
NB
 70
     8
280
     0
  0
ATTDEF
  5
8F
330
88
100
AcDbEntity
  8
AM_6
100
AcDbText
 10
5.50625
 20
-0.0827295960298893
 30
0.0
 40
0.5
  1
$PN.I
100
AcDbAttributeDefinition
  3

  2
NBSYN
 70
     8
280
     0
  0
ATTDEF
  5
90
330
88
100
AcDbEntity
  8
AM_6
100
AcDbText
 10
5.50625
 20
-0.5827295960298893
 30
0.0
 40
0.5
  1
INS-GT-07-CR
100
AcDbAttributeDefinition
  3

  2
LINA
 70
     8
280
     0
  0
ATTDEF
  5
91
330
88
100
AcDbEntity
  8
AM_6
100
AcDbText
 10
5.50625
 20
-1.082729596029889
 30
0.0
 40
0.5
  1
207
100
AcDbAttributeDefinition
  3

  2
SERIES
 70
     8
280
     0
  0
ATTDEF
  5
92
330
88
100
AcDbEntity
  8
AM_6
100
AcDbText
 10
5.50625
 20
-1.582729596029889
 30
0.0
 40
0.5
  1
INS-GT-07-CR
100
AcDbAttributeDefinition
  3

  2
PN
 70
     8
280
     0
  0
ATTDEF
  5
93
330
88
100
AcDbEntity
  8
AM_6
100
AcDbText
 10
5.50625
 20
-2.082729596029889
 30
0.0
 40
0.5
  1
INS-GT-07-CR
100
AcDbAttributeDefinition
  3

  2
DESCRIPTION
 70
     8
280
     0
  0
ATTDEF
  5
94
330
88
100
AcDbEntity
  8
AM_6
100
AcDbText
 10
5.50625
 20
-2.582729596029889
 30
0.0
 40
0.5
  1
1-5/8
100
AcDbAttributeDefinition
  3

  2
A
 70
     8
280
     0
  0
ATTDEF
  5
95
330
88
100
AcDbEntity
  8
AM_6
100
AcDbText
 10
5.50625
 20
-3.082729596029889
 30
0.0
 40
0.5
  1
0.7480
100
AcDbAttributeDefinition
  3

  2
C
 70
     8
280
     0
  0
ATTDEF
  5
96
330
88
100
AcDbEntity
  8
AM_6
100
AcDbText
 10
5.50625
 20
-3.582729596029889
 30
0.0
 40
0.5
  1
2.8346
100
AcDbAttributeDefinition
  3

  2
D
 70
     8
280
     0
  0
ATTDEF
  5
97
330
88
100
AcDbEntity
  8
AM_6
100
AcDbText
 10
5.50625
 20
-4.082729596029889
 30
0.0
 40
0.5
  1
0.202
100
AcDbAttributeDefinition
  3

  2
J
 70
     8
280
     0
  0
ATTDEF
  5
98
330
88
100
AcDbEntity
  8
AM_6
100
AcDbText
 10
5.50625
 20
-4.582729596029889
 30
0.0
 40
0.5
  1
2-19/64
100
AcDbAttributeDefinition
  3

  2
L
 70
     8
280
     0
  0
ATTDEF
  5
99
330
88
100
AcDbEntity
  8
AM_6
100
AcDbText
 10
5.50625
 20
-5.082729596029889
 30
0.0
 40
0.5
  1
10 - 32 x 1/4
100
AcDbAttributeDefinition
  3

  2
N
 70
     8
280
     0
  0
ATTDEF
  5
9A
330
88
100
AcDbEntity
  8
AM_6
100
AcDbText
 10
5.50625
 20
-5.582729596029889
 30
0.0
 40
0.5
  1
9/16
100
AcDbAttributeDefinition
  3

  2
W
 70
     8
280
     0
  0
ATTDEF
  5
9B
330
88
100
AcDbEntity
  8
AM_6
100
AcDbText
 10
5.50625
 20
-6.082729596029889
 30
0.0
 40
0.5
  1
1-3/64
100
AcDbAttributeDefinition
  3

  2
X
 70
     8
280
     0
  0
ATTDEF
  5
9C
330
88
100
AcDbEntity
  8
AM_6
100
AcDbText
 10
5.50625
 20
-6.582729596029889
 30
0.0
 40
0.5
  1
1-1/16
100
AcDbAttributeDefinition
  3

  2
Y
 70
     8
280
     0
  0
ATTDEF
  5
9D
330
88
100
AcDbEntity
  8
AM_6
100
AcDbText
 10
5.50625
 20
-7.082729596029889
 30
0.0
 40
0.5
  1
baldor
100
AcDbAttributeDefinition
  3

  2
COMPANY
 70
     8
280
     0
  0
LINE
  5
A0
330
88
100
AcDbEntity
  8
AM_9
100
AcDbLine
 10
-0.75523558523305
 20
1.0208333333333
 30
0.0
 11
-0.78515558523305
 21
0.99091333333333
 31
0.0
  0
LINE
  5
A1
330
88
100
AcDbEntity
  8
AM_9
100
AcDbLine
 10
-0.78515558523305
 20
-0.99091333333333
 30
0.0
 11
-0.75523558523305
 21
-1.0208333333333
 31
0.0
  0
LINE
  5
A2
330
88
100
AcDbEntity
  8
AM_9
100
AcDbLine
 10
-0.65429621023305
 20
1.0208333333333
 30
0.0
 11
-0.75523558523305
 21
1.0208333333333
 31
0.0
  0
LINE
  5
A3
330
88
100
AcDbEntity
  8
AM_9
100
AcDbLine
 10
-0.75523558523305
 20
-1.0208333333333
 30
0.0
 11
-0.65429621023305
 21
-1.0208333333333
 31
0.0
  0
LINE
  5
A4
330
88
100
AcDbEntity
  8
AM_9
100
AcDbLine
 10
-0.52343683523305
 20
0.93880205052083
 30
0.0
 11
-0.65429621023305
 21
0.93880205052083
 31
0.0
  0
LINE
  5
A5
330
88
100
AcDbEntity
  8
AM_9
100
AcDbLine
 10
-0.65429621023305
 20
-0.93880205052083
 30
0.0
 11
-0.52343683523305
 21
-0.93880205052083
 31
0.0
  0
LINE
  5
A6
330
88
100
AcDbEntity
  8
AM_9
100
AcDbLine
 10
-0.374
 20
1.0208333333333
 30
0.0
 11
-0.52343683523305
 21
1.0208333333333
 31
0.0
  0
LINE
  5
A7
330
88
100
AcDbEntity
  8
AM_9
100
AcDbLine
 10
-0.52343683523305
 20
-1.0208333333333
 30
0.0
 11
-0.374
 21
-1.0208333333333
 31
0.0
  0
ARC
  5
A8
330
88
100
AcDbEntity
  8
AM_9
100
AcDbCircle
 10
-0.3440799999999422
 20
-1.32232663738909
 30
0.0
 40
0.0299200000000578
100
AcDbArc
 50
180.0
 51
248.5875329530498
  0
ARC
  5
A9
330
88
100
AcDbEntity
  8
AM_9
100
AcDbCircle
 10
-0.3440799999999422
 20
1.32232663738909
 30
0.0
 40
0.0299200000000578
100
AcDbArc
 50
111.4124670469502
 51
180.0
  0
ARC
  5
AA
330
88
100
AcDbEntity
  8
AM_9
100
AcDbCircle
 10
0.0000000000134612
 20
-0.4448999999600577
 30
0.0
 40
0.9724000000420966
100
AcDbArc
 50
248.5875329532369
 51
254.9913735010243
  0
ARC
  5
AB
330
88
100
AcDbEntity
  8
AM_9
100
AcDbCircle
 10
0.0000000007183563
 20
0.4448999978174366
 30
0.0
 40
0.9724000022941689
100
AcDbArc
 50
105.0086265063991
 51
111.4124670393397
  0
ARC
  5
AC
330
88
100
AcDbEntity
  8
AM_9
100
AcDbCircle
 10
-0.2498799999999951
 20
-1.376903536474015
 30
0.0
 40
0.0074799999999952
100
AcDbArc
 50
254.9913811387371
 51
0.0
  0
ARC
  5
AD
330
88
100
AcDbEntity
  8
AM_9
100
AcDbCircle
 10
-0.2498799999999952
 20
1.376903536474015
 30
0.0
 40
0.0074799999999952
100
AcDbArc
 50
0.0000008537736463
 51
105.0086188612627
  0
LINE
  5
AE
330
88
100
AcDbEntity
  8
AM_9
100
AcDbLine
 10
-0.1616
 20
1.3425
 30
0.0
 11
-0.2424
 21
1.3425
 31
0.0
  0
LINE
  5
AF
330
88
100
AcDbEntity
  8
AM_9
100
AcDbLine
 10
-0.2424
 20
-1.3425
 30
0.0
 11
-0.1616
 21
-1.3425
 31
0.0
  0
ARC
  5
B0
330
88
100
AcDbEntity
  8
AM_9
100
AcDbCircle
 10
-0.1541199999999794
 20
-1.397432220977332
 30
0.0
 40
0.0074800000000206
100
AcDbArc
 50
180.0
 51
260.8091764945892
  0
ARC
  5
B1
330
88
100
AcDbEntity
  8
AM_9
100
AcDbCircle
 10
-0.1541199999999794
 20
1.397432220977332
 30
0.0
 40
0.0074800000000205
100
AcDbArc
 50
99.19082350541086
 51
180.0
  0
ARC
  5
B2
330
88
100
AcDbEntity
  8
AM_9
100
AcDbCircle
 10
-0.0000000000000781
 20
-0.4448999999997141
 30
0.0
 40
0.9724000000002915
100
AcDbArc
 50
260.8091764947268
 51
291.412467046882
  0
ARC
  5
B3
330
88
100
AcDbEntity
  8
AM_9
100
AcDbCircle
 10
-0.0000000000016549
 20
0.4448999999849861
 30
0.0
 40
0.9724000000145786
100
AcDbArc
 50
68.58753295334834
 51
99.19082350504286
  0
ARC
  5
B4
330
88
100
AcDbEntity
  8
AM_9
100
AcDbCircle
 10
0.3440799999999422
 20
-1.32232663738909
 30
0.0
 40
0.0299200000000578
100
AcDbArc
 50
291.4124670469502
 51
0.0
  0
ARC
  5
B5
330
88
100
AcDbEntity
  8
AM_9
100
AcDbCircle
 10
0.3440799999999422
 20
1.32232663738909
 30
0.0
 40
0.0299200000000578
100
AcDbArc
 50
0.0
 51
68.58753295304984
  0
LINE
  5
B6
330
88
100
AcDbEntity
  8
AM_9
100
AcDbLine
 10
0.47633
 20
1.0208333333333
 30
0.0
 11
0.374
 21
1.0208333333333
 31
0.0
  0
LINE
  5
B7
330
88
100
AcDbEntity
  8
AM_9
100
AcDbLine
 10
0.374
 20
-1.0208333333333
 30
0.0
 11
0.47633
 21
-1.0208333333333
 31
0.0
  0
LINE
  5
B8
330
88
100
AcDbEntity
  8
AM_9
100
AcDbLine
 10
0.50625
 20
0.99091333333333
 30
0.0
 11
0.47633
 21
1.0208333333333
 31
0.0
  0
LINE
  5
B9
330
88
100
AcDbEntity
  8
AM_9
100
AcDbLine
 10
0.47633
 20
-1.0208333333333
 30
0.0
 11
0.50625
 21
-0.99091333333333
 31
0.0
  0
LINE
  5
BA
330
88
100
AcDbEntity
  8
AM_9
100
AcDbLine
 10
0.50625
 20
0.88815851425998
 30
0.0
 11
-0.39257746023304
 21
0.85677076770833
 31
0.0
  0
LINE
  5
BB
330
88
100
AcDbEntity
  8
AM_9
100
AcDbLine
 10
-0.39257746023304
 20
-0.85677076770833
 30
0.0
 11
0.50625
 21
-0.88815851425998
 31
0.0
  0
LINE
  5
BC
330
88
100
AcDbEntity
  8
AM_9
100
AcDbLine
 10
-0.39257746023304
 20
0.85677076770833
 30
0.0
 11
-0.78515558523305
 21
0.85677076770833
 31
0.0
  0
LINE
  5
BD
330
88
100
AcDbEntity
  8
AM_9
100
AcDbLine
 10
-0.78515558523305
 20
-0.85677076770833
 30
0.0
 11
-0.39257746023304
 21
-0.85677076770833
 31
0.0
  0
LINE
  5
BE
330
88
100
AcDbEntity
  8
AM_9
100
AcDbLine
 10
-0.78515558523305
 20
0.99091333333333
 30
0.0
 11
-0.78515558523305
 21
-0.99091333333333
 31
0.0
  0
LINE
  5
BF
330
88
100
AcDbEntity
  8
AM_9
100
AcDbLine
 10
-0.75523558523305
 20
1.0208333333333
 30
0.0
 11
-0.75523558523305
 21
-1.0208333333333
 31
0.0
  0
LINE
  5
C0
330
88
100
AcDbEntity
  8
AM_9
100
AcDbLine
 10
-0.65429621023305
 20
1.0208333333333
 30
0.0
 11
-0.65429621023305
 21
-1.0208333333333
 31
0.0
  0
LINE
  5
C1
330
88
100
AcDbEntity
  8
AM_9
100
AcDbLine
 10
-0.52343683523305
 20
1.0208333333333
 30
0.0
 11
-0.52343683523305
 21
-1.0208333333333
 31
0.0
  0
LINE
  5
C2
330
88
100
AcDbEntity
  8
AM_9
100
AcDbLine
 10
-0.374
 20
1.3223266373891
 30
0.0
 11
-0.374
 21
-1.3223266373891
 31
0.0
  0
LINE
  5
C3
330
88
100
AcDbEntity
  8
AM_9
100
AcDbLine
 10
-0.35500317460317
 20
1.3501814512745
 30
0.0
 11
-0.35500317460317
 21
-1.3501814512745
 31
0.0
  0
LINE
  5
C4
330
88
100
AcDbEntity
  8
AM_9
100
AcDbLine
 10
-0.25181705329302
 20
1.3841283703503
 30
0.0
 11
-0.25181705329302
 21
-1.3841283703503
 31
0.0
  0
LINE
  5
C5
330
88
100
AcDbEntity
  8
AM_9
100
AcDbLine
 10
-0.2424
 20
1.376903536474
 30
0.0
 11
-0.2424
 21
-1.376903536474
 31
0.0
  0
LINE
  5
C6
330
88
100
AcDbEntity
  8
AM_9
100
AcDbLine
 10
-0.1616
 20
1.3974322209773
 30
0.0
 11
-0.1616
 21
-1.3974322209773
 31
0.0
  0
LINE
  5
C7
330
88
100
AcDbEntity
  8
AM_9
100
AcDbLine
 10
-0.15531472868217
 20
1.4048161916826
 30
0.0
 11
-0.15531472868217
 21
-1.4048161916826
 31
0.0
  0
LINE
  5
C8
330
88
100
AcDbEntity
  8
AM_9
100
AcDbLine
 10
0.35500317460317
 20
1.3501814512745
 30
0.0
 11
0.35500317460317
 21
-1.3501814512745
 31
0.0
  0
LINE
  5
C9
330
88
100
AcDbEntity
  8
AM_9
100
AcDbLine
 10
0.374
 20
1.3223266373891
 30
0.0
 11
0.374
 21
-1.3223266373891
 31
0.0
  0
LINE
  5
CA
330
88
100
AcDbEntity
  8
AM_9
100
AcDbLine
 10
0.47633
 20
1.0208333333333
 30
0.0
 11
0.47633
 21
-1.0208333333333
 31
0.0
  0
LINE
  5
CB
330
88
100
AcDbEntity
  8
AM_9
100
AcDbLine
 10
0.50625
 20
0.99091333333333
 30
0.0
 11
0.50625
 21
-0.99091333333333
 31
0.0
  0
LINE
  5
CC
330
88
100
AcDbEntity
  8
AM_9
100
AcDbLine
 10
-0.39257746023304
 20
0.85677076770833
 30
0.0
 11
-0.39257746023304
 21
-0.85677076770833
 31
0.0
  0
ENDBLK
  5
8B
330
88
100
AcDbEntity
  8
0
100
AcDbBlockEnd
  0
BLOCK
  5
CF
330
CD
100
AcDbEntity
  8
0
100
AcDbBlockBegin
  2
3_129972_0_in_129298_2
 70
     2
 10
0.0
 20
0.0
 30
0.0
  3
3_129972_0_in_129298_2
  1

  0
ATTDEF
  5
D1
330
CD
100
AcDbEntity
  8
AM_6
100
AcDbText
 10
5.5625
 20
1.1484375
 30
0.0
 40
0.5
  1
Grip Tight Adapter and Nut - Corrosion Resistant Inch Bore
100
AcDbAttributeDefinition
  3

  2
NN
 70
     8
280
     0
  0
ATTDEF
  5
D2
330
CD
100
AcDbEntity
  8
AM_6
100
AcDbText
 10
5.5625
 20
0.6484375
 30
0.0
 40
0.5
  1
GT and GTM Adapter & Lock Nut Assemblies
100
AcDbAttributeDefinition
  3

  2
NT
 70
     8
280
     0
  0
ATTDEF
  5
D3
330
CD
100
AcDbEntity
  8
AM_6
100
AcDbText
 10
5.5625
 20
0.1484375
 30
0.0
 40
0.5
  1
129972
100
AcDbAttributeDefinition
  3

  2
NB
 70
     8
280
     0
  0
ATTDEF
  5
D4
330
CD
100
AcDbEntity
  8
AM_6
100
AcDbText
 10
5.5625
 20
-0.3515625
 30
0.0
 40
0.5
  1
$PN.
100
AcDbAttributeDefinition
  3

  2
NBSYN
 70
     8
280
     0
  0
ATTDEF
  5
D5
330
CD
100
AcDbEntity
  8
AM_6
100
AcDbText
 10
5.5625
 20
-0.8515625
 30
0.0
 40
0.5
  1
129972
100
AcDbAttributeDefinition
  3

  2
LINA
 70
     8
280
     0
  0
ATTDEF
  5
D6
330
CD
100
AcDbEntity
  8
AM_6
100
AcDbText
 10
5.5625
 20
-1.3515625
 30
0.0
 40
0.5
  1
207
100
AcDbAttributeDefinition
  3

  2
SERIES
 70
     8
280
     0
  0
ATTDEF
  5
D7
330
CD
100
AcDbEntity
  8
AM_6
100
AcDbText
 10
5.5625
 20
-1.8515625
 30
0.0
 40
0.5
  1
1-1/4
100
AcDbAttributeDefinition
  3

  2
SS
 70
     8
280
     0
  0
ATTDEF
  5
D8
330
CD
100
AcDbEntity
  8
AM_6
100
AcDbText
 10
5.5625
 20
-2.3515625
 30
0.0
 40
0.5
  1
129972
100
AcDbAttributeDefinition
  3

  2
PN
 70
     8
280
     0
  0
ATTDEF
  5
D9
330
CD
100
AcDbEntity
  8
AM_6
100
AcDbText
 10
5.5625
 20
-2.8515625
 30
0.0
 40
0.5
  1
AN-GT-07-104-CR
100
AcDbAttributeDefinition
  3

  2
DESCRIPTION
 70
     8
280
     0
  0
ATTDEF
  5
DA
330
CD
100
AcDbEntity
  8
AM_6
100
AcDbText
 10
5.5625
 20
-3.3515625
 30
0.0
 40
0.5
  1
1-5/8
100
AcDbAttributeDefinition
  3

  2
A
 70
     8
280
     0
  0
ATTDEF
  5
DB
330
CD
100
AcDbEntity
  8
AM_6
100
AcDbText
 10
5.5625
 20
-3.8515625
 30
0.0
 40
0.5
  1
0.7480
100
AcDbAttributeDefinition
  3

  2
C
 70
     8
280
     0
  0
ATTDEF
  5
DC
330
CD
100
AcDbEntity
  8
AM_6
100
AcDbText
 10
5.5625
 20
-4.3515625
 30
0.0
 40
0.5
  1
2.8346
100
AcDbAttributeDefinition
  3

  2
D
 70
     8
280
     0
  0
ATTDEF
  5
DD
330
CD
100
AcDbEntity
  8
AM_6
100
AcDbText
 10
5.5625
 20
-4.8515625
 30
0.0
 40
0.5
  1
0.202
100
AcDbAttributeDefinition
  3

  2
J
 70
     8
280
     0
  0
ATTDEF
  5
DE
330
CD
100
AcDbEntity
  8
AM_6
100
AcDbText
 10
5.5625
 20
-5.3515625
 30
0.0
 40
0.5
  1
2-19/64
100
AcDbAttributeDefinition
  3

  2
L
 70
     8
280
     0
  0
ATTDEF
  5
DF
330
CD
100
AcDbEntity
  8
AM_6
100
AcDbText
 10
5.5625
 20
-5.8515625
 30
0.0
 40
0.5
  1
10 - 32 x 1/4
100
AcDbAttributeDefinition
  3

  2
N
 70
     8
280
     0
  0
ATTDEF
  5
E0
330
CD
100
AcDbEntity
  8
AM_6
100
AcDbText
 10
5.5625
 20
-6.3515625
 30
0.0
 40
0.5
  1
9/16
100
AcDbAttributeDefinition
  3

  2
W
 70
     8
280
     0
  0
ATTDEF
  5
E1
330
CD
100
AcDbEntity
  8
AM_6
100
AcDbText
 10
5.5625
 20
-6.8515625
 30
0.0
 40
0.5
  1
1-3/64
100
AcDbAttributeDefinition
  3

  2
X
 70
     8
280
     0
  0
ATTDEF
  5
E2
330
CD
100
AcDbEntity
  8
AM_6
100
AcDbText
 10
5.5625
 20
-7.3515625
 30
0.0
 40
0.5
  1
1-1/16
100
AcDbAttributeDefinition
  3

  2
Y
 70
     8
280
     0
  0
ATTDEF
  5
E3
330
CD
100
AcDbEntity
  8
AM_6
100
AcDbText
 10
5.5625
 20
-7.8515625
 30
0.0
 40
0.5
  1
baldor
100
AcDbAttributeDefinition
  3

  2
COMPANY
 70
     8
280
     0
  0
LINE
  5
E4
330
CD
100
AcDbEntity
  8
AM_9
100
AcDbLine
 10
-0.84320079978654
 20
-1.1484375
 30
0.0
 11
-0.5533575
 21
-1.1484375
 31
0.0
  0
LINE
  5
E5
330
CD
100
AcDbEntity
  8
AM_9
100
AcDbLine
 10
-0.5533575
 20
-1.1484375
 30
0.0
 11
-0.5234375
 21
-1.1185175
 31
0.0
  0
LINE
  5
E6
330
CD
100
AcDbEntity
  8
AM_9
100
AcDbLine
 10
-0.5234375
 20
0.93880208333333
 30
0.0
 11
-0.654296875
 21
0.93880208333333
 31
0.0
  0
LINE
  5
E7
330
CD
100
AcDbEntity
  8
AM_9
100
AcDbLine
 10
-0.654296875
 20
-0.93880208333333
 30
0.0
 11
-0.5234375
 21
-0.93880208333333
 31
0.0
  0
LINE
  5
E8
330
CD
100
AcDbEntity
  8
AM_9
100
AcDbLine
 10
-0.654296875
 20
1.0208333333333
 30
0.0
 11
-0.78515625
 21
1.0208333333333
 31
0.0
  0
LINE
  5
E9
330
CD
100
AcDbEntity
  8
AM_9
100
AcDbLine
 10
-0.78515625
 20
-1.0208333333333
 30
0.0
 11
-0.654296875
 21
-1.0208333333333
 31
0.0
  0
LINE
  5
EA
330
CD
100
AcDbEntity
  8
AM_9
100
AcDbLine
 10
-0.5234375
 20
1.1185175
 30
0.0
 11
-0.52445767553286
 21
1.1195376755329
 31
0.0
  0
LINE
  5
EB
330
CD
100
AcDbEntity
  8
AM_9
100
AcDbLine
 10
-1.0625
 20
-0.625
 30
0.0
 11
0.5625
 21
-0.625
 31
0.0
  0
LINE
  5
EC
330
CD
100
AcDbEntity
  8
AM_9
100
AcDbLine
 10
-0.392578125
 20
-0.85677083333333
 30
0.0
 11
0.5625
 21
-0.89012289638307
 31
0.0
  0
LINE
  5
ED
330
CD
100
AcDbEntity
  8
AM_9
100
AcDbLine
 10
-0.78515625
 20
-0.85677083333333
 30
0.0
 11
-0.392578125
 21
-0.85677083333333
 31
0.0
  0
LINE
  5
EE
330
CD
100
AcDbEntity
  8
AM_9
100
AcDbLine
 10
-1.016955
 20
-1.0412223468534
 30
0.0
 11
-1.016955
 21
-1.1484375
 31
0.0
  0
LINE
  5
EF
330
CD
100
AcDbEntity
  8
AM_9
100
AcDbLine
 10
-0.654296875
 20
1.0208333333333
 30
0.0
 11
-0.654296875
 21
-1.0208333333333
 31
0.0
  0
LINE
  5
F0
330
CD
100
AcDbEntity
  8
AM_9
100
AcDbLine
 10
-0.5234375
 20
-1.1185175
 30
0.0
 11
-0.5234375
 21
1.1185175
 31
0.0
  0
LINE
  5
F1
330
CD
100
AcDbEntity
  8
AM_9
100
AcDbLine
 10
-0.5533575
 20
1.1484375
 30
0.0
 11
-0.5533575
 21
1.0412223468534
 31
0.0
  0
LINE
  5
F2
330
CD
100
AcDbEntity
  8
AM_9
100
AcDbLine
 10
-1.016955
 20
1.1484375
 30
0.0
 11
-1.016955
 21
1.0412223468534
 31
0.0
  0
LINE
  5
F3
330
CD
100
AcDbEntity
  8
AM_9
100
AcDbLine
 10
-0.5234375
 20
0.97877081126623
 30
0.0
 11
-1.046875
 21
0.97877081126623
 31
0.0
  0
LINE
  5
F4
330
CD
100
AcDbEntity
  8
AM_9
100
AcDbLine
 10
-0.5234375
 20
1.0152073641031
 30
0.0
 11
-0.5533575
 21
1.0412223468534
 31
0.0
  0
LINE
  5
F5
330
CD
100
AcDbEntity
  8
AM_9
100
AcDbLine
 10
-0.5533575
 20
1.0412223468534
 30
0.0
 11
-1.016955
 21
1.0412223468534
 31
0.0
  0
LINE
  5
F6
330
CD
100
AcDbEntity
  8
AM_9
100
AcDbLine
 10
-1.016955
 20
1.0412223468534
 30
0.0
 11
-1.046875
 21
1.0152073641031
 31
0.0
  0
LINE
  5
F7
330
CD
100
AcDbEntity
  8
AM_9
100
AcDbLine
 10
-0.5234375
 20
-0.101
 30
0.0
 11
-1.046875
 21
-0.101
 31
0.0
  0
LINE
  5
F8
330
CD
100
AcDbEntity
  8
AM_9
100
AcDbLine
 10
-1.046875
 20
-1.0152073641031
 30
0.0
 11
-1.016955
 21
-1.0412223468534
 31
0.0
  0
LINE
  5
F9
330
CD
100
AcDbEntity
  8
AM_9
100
AcDbLine
 10
-1.016955
 20
-1.0412223468534
 30
0.0
 11
-0.5533575
 21
-1.0412223468534
 31
0.0
  0
LINE
  5
FA
330
CD
100
AcDbEntity
  8
AM_9
100
AcDbLine
 10
-0.5533575
 20
-1.0412223468534
 30
0.0
 11
-0.5234375
 21
-1.0152073641031
 31
0.0
  0
LINE
  5
FB
330
CD
100
AcDbEntity
  8
AM_9
100
AcDbLine
 10
-1.046875
 20
0.91420736410307
 30
0.0
 11
-1.016955
 21
0.94022234685339
 31
0.0
  0
LINE
  5
FC
330
CD
100
AcDbEntity
  8
AM_9
100
AcDbLine
 10
-0.5533575
 20
0.94022234685339
 30
0.0
 11
-0.5234375
 21
0.91420736410307
 31
0.0
  0
LINE
  5
FD
330
CD
100
AcDbEntity
  8
AM_9
100
AcDbLine
 10
-0.5234375
 20
0.87777081126623
 30
0.0
 11
-1.046875
 21
0.87777081126623
 31
0.0
  0
LINE
  5
FE
330
CD
100
AcDbEntity
  8
AM_9
100
AcDbLine
 10
-0.5234375
 20
0.101
 30
0.0
 11
-1.046875
 21
0.101
 31
0.0
  0
LINE
  5
FF
330
CD
100
AcDbEntity
  8
AM_9
100
AcDbLine
 10
-0.5234375
 20
-0.97877081126623
 30
0.0
 11
-1.046875
 21
-0.97877081126623
 31
0.0
  0
LINE
  5
100
330
CD
100
AcDbEntity
  8
AM_9
100
AcDbLine
 10
-0.5234375
 20
-0.91420736410307
 30
0.0
 11
-0.5533575
 21
-0.94022234685339
 31
0.0
  0
LINE
  5
101
330
CD
100
AcDbEntity
  8
AM_9
100
AcDbLine
 10
-1.016955
 20
-0.94022234685339
 30
0.0
 11
-1.046875
 21
-0.91420736410307
 31
0.0
  0
LINE
  5
102
330
CD
100
AcDbEntity
  8
AM_9
100
AcDbLine
 10
-0.5234375
 20
-0.87777081126623
 30
0.0
 11
-1.046875
 21
-0.87777081126623
 31
0.0
  0
LINE
  5
103
330
CD
100
AcDbEntity
  8
AM_9
100
AcDbLine
 10
-1.016955
 20
-0.049440673593561
 30
0.0
 11
-1.016955
 21
-0.94022234685339
 31
0.0
  0
LINE
  5
104
330
CD
100
AcDbEntity
  8
AM_9
100
AcDbLine
 10
-0.5533575
 20
-0.94022234685339
 30
0.0
 11
-1.016955
 21
-0.94022234685339
 31
0.0
  0
LINE
  5
105
330
CD
100
AcDbEntity
  8
AM_9
100
AcDbLine
 10
-0.5533575
 20
0.94022234685339
 30
0.0
 11
-0.5533575
 21
-1.1484375
 31
0.0
  0
LINE
  5
106
330
CD
100
AcDbEntity
  8
AM_9
100
AcDbLine
 10
-1.016955
 20
0.94022234685339
 30
0.0
 11
-0.5533575
 21
0.94022234685339
 31
0.0
  0
LINE
  5
107
330
CD
100
AcDbEntity
  8
AM_9
100
AcDbLine
 10
-1.016955
 20
0.94022234685339
 30
0.0
 11
-1.016955
 21
0.049440673593561
 31
0.0
  0
LWPOLYLINE
  5
108
330
CD
100
AcDbEntity
  8
AM_9
100
AcDbPolyline
 90
       23
 70
     0
 43
0.0
 10
-1.016955
 20
0.049440673593561
 10
-1.0177539781459
 20
0.046769571708201
 10
-1.0192270194591
 20
0.041386685580943
 10
-1.0205284772082
 20
0.035955483466332
 10
-1.0211131688343
 20
0.033224010458789
 10
-1.0216530479046
 20
0.030483107128052
 10
-1.0225962625222
 20
0.024976765323895
 10
-1.023354415016
 20
0.01944439520047
 10
-1.0239247009035
 20
0.013894459544715
 10
-1.0243053168325
 20
0.0083356948354584
 10
-1.0244955088401
 20
0.0027768257759451
 10
-1.0245192458302
 20
0.0
 10
-1.0244955088401
 20
-0.002776825775946
 10
-1.0243053168325
 20
-0.0083356948354592
 10
-1.0239247009035
 20
-0.013894459544716
 10
-1.023354415016
 20
-0.019444395200471
 10
-1.0225962625222
 20
-0.024976765323895
 10
-1.0216530479046
 20
-0.030483107128053
 10
-1.0211131688343
 20
-0.03322401045879
 10
-1.0205284772082
 20
-0.035955483466333
 10
-1.0192270194591
 20
-0.041386685580943
 10
-1.0177539781459
 20
-0.046769571708202
 10
-1.016955
 20
-0.049440673593562
  0
LWPOLYLINE
  5
109
330
CD
100
AcDbEntity
  8
AM_9
100
AcDbPolyline
 90
      131
 70
     0
 43
0.0
 10
-1.016955
 20
-0.049440673593562
 10
-1.016325547819
 20
-0.05036821260247
 10
-1.015035573596
 20
-0.052195780436772
 10
-1.0137057721993
 20
-0.053985373490795
 10
-1.0130265675521
 20
-0.05486545386737
 10
-1.0123381798831
 20
-0.055735476632759
 10
-1.0109349610533
 20
-0.057444634225796
 10
-1.0094984006812
 20
-0.059111466089949
 10
-1.0080308953788
 20
-0.060734681905523
 10
-1.0065349431826
 20
-0.06231309414742
 10
-1.0050131320508
 20
-0.063845629647531
 10
-1.0042433595804
 20
-0.064594392080702
 10
-1.0034681270355
 20
-0.065331339884882
 10
-1.0018898585176
 20
-0.066780899024304
 10
-1.0002663316108
 20
-0.06820475546653
 10
-0.99859857802615
 20
-0.069600714407222
 10
-0.99688777041752
 20
-0.070966623717512
 10
-0.995135210325
 20
-0.072300391709586
 10
-0.99424371263758
 20
-0.072954588910005
 10
-0.99334231824117
 20
-0.073600000498504
 10
-0.99151062312111
 20
-0.0748635176394
 10
-0.98964175131234
 20
-0.07608910618505
 10
-0.98869390615192
 20
-0.076687131445019
 10
-0.98773741487085
 20
-0.077275033281326
 10
-0.98579939922144
 20
-0.078419677391051
 10
-0.98382955011445
 20
-0.079521534210137
 10
-0.98283327792737
 20
-0.080055980515785
 10
-0.98182975982799
 20
-0.080579221313923
 10
-0.97980195256394
 20
-0.081591481546207
 10
-0.97774806898844
 20
-0.082557185138905
 10
-0.97567004987428
 20
-0.083475330526649
 10
-0.97356981881211
 20
-0.084345043798245
 10
-0.97144926523307
 20
-0.085165576235062
 10
-0.97038195387971
 20
-0.085557195509381
 10
-0.96931027574966
 20
-0.085936283404149
 10
-0.96715483085504
 20
-0.086656589145069
 10
-0.96498501946614
 20
-0.087325989322756
 10
-0.9628030264995
 20
-0.087944065092003
 10
-0.96061112011526
 20
-0.088510494384237
 10
-0.95841163883725
 20
-0.0890250616549
 10
-0.957309804451
 20
-0.089262860828121
 10
-0.95620697857982
 20
-0.089487665984513
 10
-0.95399957958609
 20
-0.089898327617557
 10
-0.95179191325844
 20
-0.090257193010752
 10
-0.9495864688412
 20
-0.090564538446601
 10
-0.94738573989535
 20
-0.090820772249858
 10
-0.9451922104877
 20
-0.091026435624098
 10
-0.94409891580267
 20
-0.091110508754328
 10
-0.94300834099956
 20
-0.09118220210324
 10
-0.9408365534436
 20
-0.091288875588825
 10
-0.93867921616132
 20
-0.091347386918179
 10
-0.93653742724733
 20
-0.091358782243333
 10
-0.9343880032641
 20
-0.091323461232009
 10
-0.93222299451592
 20
-0.091240478347969
 10
-0.93113537335526
 20
-0.09118079912868
 10
-0.93004473728122
 20
-0.091108842357507
 10
-0.92785562926617
 20
-0.090927686724392
 10
-0.9256581139474
 20
-0.090696273788751
 10
-0.92345466560281
 20
-0.090413997440143
 10
-0.92124777489445
 20
-0.090080384352848
 10
-0.91903993488445
 20
-0.089695093824933
 10
-0.91793643526397
 20
-0.089482998964935
 10
-0.91683362738076
 20
-0.089257916237787
 10
-0.91463130952671
 20
-0.088768770129684
 10
-0.91243540056545
 20
-0.088227697855442
 10
-0.91134059184129
 20
-0.087937735101238
 10
-0.91024826872923
 20
-0.087634859784963
 10
-0.90807221822384
 20
-0.086990526976377
 10
-0.90590947630091
 20
-0.086295072245408
 10
-0.90483376787357
 20
-0.085928315910131
 10
-0.90376218043565
 20
-0.085548959541738
 10
-0.90163236565534
 20
-0.084752731536408
 10
-0.8995219568219
 20
-0.083906997281367
 10
-0.89743283042583
 20
-0.083012449259501
 10
-0.89536689506559
 20
-0.082069899551531
 10
-0.89332608532519
 20
-0.081080287103459
 10
-0.89231570983775
 20
-0.080568160797364
 10
-0.89131234402388
 20
-0.080044678970338
 10
-0.88932760540614
 20
-0.078964270160089
 10
-0.88737377924758
 20
-0.077840382146552
 10
-0.88545273583817
 20
-0.076674460098579
 10
-0.88356629179629
 20
-0.075468068848942
 10
-0.88171619666283
 20
-0.074222887602669
 10
-0.88080530519275
 20
-0.073586305164437
 10
-0.87990412022344
 20
-0.072940703359437
 10
-0.87813164050935
 20
-0.071623402998915
 10
-0.87640023243172
 20
-0.070272963951624
 10
-0.87471125701144
 20
-0.068891443351091
 10
-0.8730659511755
 20
-0.067480965535768
 10
-0.87146541810174
 20
-0.066043707741563
 10
-0.87068223928599
 20
-0.065315719729763
 10
-0.86990716123002
 20
-0.064578558302501
 10
-0.8683739016409
 20
-0.063069066444128
 10
-0.86686528540987
 20
-0.061513324678192
 10
-0.86538382556227
 20
-0.059912234143202
 10
-0.86393199116698
 20
-0.058266838811088
 10
-0.86251219128042
 20
-0.056578317570132
 10
-0.86181503710681
 20
-0.05571828788305
 10
-0.86112676047578
 20
-0.054847975433385
 10
-0.85977794583367
 20
-0.053077233805609
 10
-0.85846789530559
 20
-0.05126761973353
 10
-0.85719864739632
 20
-0.049420754057992
 10
-0.85597212214524
 20
-0.047538338383242
 10
-0.8547901134211
 20
-0.045622140778737
 10
-0.8542163272504
 20
-0.044651940627116
 10
-0.8536542825776
 20
-0.043673980133465
 10
-0.85256615355077
 20
-0.041695709092626
 10
-0.85152710951058
 20
-0.039689195522694
 10
-0.85102638766656
 20
-0.038675930759532
 10
-0.8505383912098
 20
-0.0376563024742
 10
-0.84960109720085
 20
-0.035598866643158
 10
-0.84871618956803
 20
-0.033518683780717
 10
-0.84829365424387
 20
-0.032470630214864
 10
-0.84788453650649
 20
-0.031417587285193
 10
-0.84710694451517
 20
-0.029297539261414
 10
-0.84638414425426
 20
-0.027160627840962
 10
-0.84571677373859
 20
-0.025009053486646
 10
-0.84510536366342
 20
-0.022845114645848
 10
-0.84455032482564
 20
-0.020671192838739
 10
-0.84429403757917
 20
-0.019581251478275
 10
-0.8440519376021
 20
-0.018489737238748
 10
-0.84361034345055
 20
-0.016303248776354
 10
-0.84322553840757
 20
-0.014114263773488
 10
-0.84289736857038
 20
-0.011925337094547
 10
-0.84262552756614
 20
-0.0097390247811336
 10
-0.84240955603085
 20
-0.0075578661212229
 10
-0.84232233626334
 20
-0.006470003804369
 10
-0.84224884314197
 20
-0.0053843650892905
 10
-0.8421426302714
 20
-0.0032209710819733
 10
-0.84209001685043
 20
-0.0010700588639806
 10
-0.84208349166034
 20
0.0
  0
LWPOLYLINE
  5
10A
330
CD
100
AcDbEntity
  8
AM_9
100
AcDbPolyline
 90
      131
 70
     0
 43
0.0
 10
-0.84208349166034
 20
0.0
 10
-0.84209001685043
 20
0.0010700588639805
 10
-0.8421426302714
 20
0.0032209710819733
 10
-0.84224884314197
 20
0.0053843650892905
 10
-0.84232233626334
 20
0.006470003804369
 10
-0.84240955603085
 20
0.0075578661212229
 10
-0.84262552756614
 20
0.0097390247811335
 10
-0.84289736857038
 20
0.011925337094547
 10
-0.84322553840757
 20
0.014114263773488
 10
-0.84361034345055
 20
0.016303248776354
 10
-0.8440519376021
 20
0.018489737238748
 10
-0.84429403757917
 20
0.019581251478275
 10
-0.84455032482564
 20
0.020671192838739
 10
-0.84510536366342
 20
0.022845114645848
 10
-0.84571677373859
 20
0.025009053486646
 10
-0.84638414425426
 20
0.027160627840962
 10
-0.84710694451517
 20
0.029297539261415
 10
-0.84788453650649
 20
0.031417587285193
 10
-0.84829365424387
 20
0.032470630214864
 10
-0.84871618956803
 20
0.033518683780717
 10
-0.84960109720085
 20
0.035598866643158
 10
-0.8505383912098
 20
0.0376563024742
 10
-0.85102638766656
 20
0.038675930759532
 10
-0.85152710951058
 20
0.039689195522694
 10
-0.85256615355077
 20
0.041695709092626
 10
-0.8536542825776
 20
0.043673980133465
 10
-0.8542163272504
 20
0.044651940627116
 10
-0.8547901134211
 20
0.045622140778737
 10
-0.85597212214524
 20
0.047538338383242
 10
-0.85719864739632
 20
0.049420754057992
 10
-0.85846789530559
 20
0.05126761973353
 10
-0.85977794583367
 20
0.053077233805609
 10
-0.86112676047578
 20
0.054847975433385
 10
-0.86181503710681
 20
0.05571828788305
 10
-0.86251219128042
 20
0.056578317570132
 10
-0.86393199116698
 20
0.058266838811088
 10
-0.86538382556227
 20
0.059912234143202
 10
-0.86686528540987
 20
0.061513324678193
 10
-0.8683739016409
 20
0.063069066444128
 10
-0.86990716123002
 20
0.064578558302501
 10
-0.87068223928599
 20
0.065315719729763
 10
-0.87146541810174
 20
0.066043707741563
 10
-0.8730659511755
 20
0.067480965535768
 10
-0.87471125701144
 20
0.068891443351091
 10
-0.87640023243172
 20
0.070272963951624
 10
-0.87813164050935
 20
0.071623402998915
 10
-0.87990412022344
 20
0.072940703359438
 10
-0.88080530519275
 20
0.073586305164438
 10
-0.88171619666283
 20
0.074222887602669
 10
-0.88356629179629
 20
0.075468068848942
 10
-0.88545273583817
 20
0.076674460098579
 10
-0.88737377924758
 20
0.077840382146552
 10
-0.88932760540614
 20
0.078964270160089
 10
-0.89131234402388
 20
0.080044678970338
 10
-0.89231570983775
 20
0.080568160797364
 10
-0.89332608532519
 20
0.081080287103459
 10
-0.89536689506559
 20
0.082069899551531
 10
-0.89743283042583
 20
0.083012449259501
 10
-0.8995219568219
 20
0.083906997281367
 10
-0.90163236565534
 20
0.084752731536408
 10
-0.90376218043565
 20
0.085548959541738
 10
-0.90483376787357
 20
0.085928315910131
 10
-0.90590947630091
 20
0.086295072245408
 10
-0.90807221822385
 20
0.086990526976377
 10
-0.91024826872923
 20
0.087634859784963
 10
-0.91134059184129
 20
0.087937735101238
 10
-0.91243540056545
 20
0.088227697855442
 10
-0.91463130952671
 20
0.088768770129684
 10
-0.91683362738077
 20
0.089257916237787
 10
-0.91793643526397
 20
0.089482998964935
 10
-0.91903993488446
 20
0.089695093824933
 10
-0.92124777489445
 20
0.090080384352848
 10
-0.92345466560281
 20
0.090413997440143
 10
-0.9256581139474
 20
0.090696273788751
 10
-0.92785562926617
 20
0.090927686724392
 10
-0.93004473728122
 20
0.091108842357507
 10
-0.93113537335526
 20
0.09118079912868
 10
-0.93222299451592
 20
0.09124047834797
 10
-0.9343880032641
 20
0.091323461232009
 10
-0.93653742724733
 20
0.091358782243333
 10
-0.93867921616132
 20
0.091347386918179
 10
-0.9408365534436
 20
0.091288875588825
 10
-0.94300834099956
 20
0.09118220210324
 10
-0.94409891580267
 20
0.091110508754328
 10
-0.9451922104877
 20
0.091026435624098
 10
-0.94738573989535
 20
0.090820772249858
 10
-0.9495864688412
 20
0.090564538446601
 10
-0.95179191325844
 20
0.090257193010752
 10
-0.95399957958609
 20
0.089898327617557
 10
-0.95620697857983
 20
0.089487665984513
 10
-0.957309804451
 20
0.089262860828121
 10
-0.95841163883725
 20
0.0890250616549
 10
-0.96061112011526
 20
0.088510494384237
 10
-0.9628030264995
 20
0.087944065092003
 10
-0.96498501946614
 20
0.087325989322756
 10
-0.96715483085504
 20
0.086656589145069
 10
-0.96931027574966
 20
0.085936283404148
 10
-0.97038195387971
 20
0.085557195509381
 10
-0.97144926523307
 20
0.085165576235062
 10
-0.97356981881211
 20
0.084345043798245
 10
-0.97567004987428
 20
0.083475330526649
 10
-0.97774806898844
 20
0.082557185138905
 10
-0.97980195256394
 20
0.081591481546207
 10
-0.98182975982799
 20
0.080579221313923
 10
-0.98283327792737
 20
0.080055980515784
 10
-0.98382955011445
 20
0.079521534210136
 10
-0.98579939922144
 20
0.078419677391051
 10
-0.98773741487086
 20
0.077275033281326
 10
-0.98869390615192
 20
0.076687131445019
 10
-0.98964175131234
 20
0.076089106185049
 10
-0.99151062312111
 20
0.0748635176394
 10
-0.99334231824117
 20
0.073600000498504
 10
-0.99424371263758
 20
0.072954588910004
 10
-0.995135210325
 20
0.072300391709586
 10
-0.99688777041752
 20
0.070966623717512
 10
-0.99859857802615
 20
0.069600714407221
 10
-1.0002663316108
 20
0.06820475546653
 10
-1.0018898585176
 20
0.066780899024304
 10
-1.0034681270355
 20
0.065331339884882
 10
-1.0042433595804
 20
0.064594392080702
 10
-1.0050131320508
 20
0.06384562964753
 10
-1.0065349431826
 20
0.06231309414742
 10
-1.0080308953788
 20
0.060734681905522
 10
-1.0094984006812
 20
0.059111466089949
 10
-1.0109349610533
 20
0.057444634225796
 10
-1.0123381798831
 20
0.055735476632759
 10
-1.0130265675521
 20
0.05486545386737
 10
-1.0137057721993
 20
0.053985373490795
 10
-1.015035573596
 20
0.052195780436772
 10
-1.016325547819
 20
0.050368212602469
 10
-1.016955
 20
0.049440673593561
  0
CIRCLE
  5
10B
330
CD
100
AcDbEntity
  8
AM_9
100
AcDbCircle
 10
-0.93708349166032
 20
0.0
 30
0.0
 40
0.07799999999998
  0
LINE
  5
10C
330
CD
100
AcDbEntity
  8
AM_9
100
AcDbLine
 10
-1.0625
 20
-0.625
 30
0.0
 11
-1.0625
 21
0.62299678971886
 31
0.0
  0
LINE
  5
10D
330
CD
100
AcDbEntity
  8
AM_9
100
AcDbLine
 10
0.5625
 20
0.88871748641814
 30
0.0
 11
0.5625
 21
-0.89012289638307
 31
0.0
  0
LINE
  5
10E
330
CD
100
AcDbEntity
  8
AM_9
100
AcDbLine
 10
-0.392578125
 20
-0.85677083333333
 30
0.0
 11
-0.392578125
 21
0.85531062243532
 31
0.0
  0
LINE
  5
10F
330
CD
100
AcDbEntity
  8
AM_9
100
AcDbLine
 10
-0.78515625
 20
1.0208333333333
 30
0.0
 11
-0.78515625
 21
-1.0208333333333
 31
0.0
  0
LINE
  5
110
330
CD
100
AcDbEntity
  8
AM_9
100
AcDbLine
 10
-0.78515625
 20
0.85531062243532
 30
0.0
 11
-0.392578125
 21
0.85531062243532
 31
0.0
  0
LINE
  5
111
330
CD
100
AcDbEntity
  8
AM_9
100
AcDbLine
 10
-0.392578125
 20
0.85531062243532
 30
0.0
 11
0.5568984097898
 21
0.88852156517064
 31
0.0
  0
LINE
  5
112
330
CD
100
AcDbEntity
  8
AM_9
100
AcDbLine
 10
0.5625
 20
0.62299678971886
 30
0.0
 11
-1.0625
 21
0.62299678971886
 31
0.0
  0
LINE
  5
113
330
CD
100
AcDbEntity
  8
AM_9
100
AcDbLine
 10
-0.78515625
 20
0.85677083333333
 30
0.0
 11
-1.046875
 21
0.85677083333333
 31
0.0
  0
LINE
  5
116
330
CD
100
AcDbEntity
  8
AM_7
100
AcDbLine
 10
-0.93708349166032
 20
-0.099749999999979
 30
0.0
 11
-0.93708349166032
 21
0.099749999999979
 31
0.0
  0
LINE
  5
118
330
CD
100
AcDbEntity
  8
AM_4
100
AcDbLine
 10
-1.046875
 20
-1.1185175
 30
0.0
 11
-1.016955
 21
-1.1484375
 31
0.0
  0
LINE
  5
119
330
CD
100
AcDbEntity
  8
AM_4
100
AcDbLine
 10
-1.016955
 20
-1.1484375
 30
0.0
 11
-0.84320079978654
 21
-1.1484375
 31
0.0
  0
LINE
  5
11A
330
CD
100
AcDbEntity
  8
AM_4
100
AcDbLine
 10
-0.52445767553286
 20
1.1195376755329
 30
0.0
 11
-0.5533575
 21
1.1484375
 31
0.0
  0
LINE
  5
11B
330
CD
100
AcDbEntity
  8
AM_4
100
AcDbLine
 10
-0.5533575
 20
1.1484375
 30
0.0
 11
-1.016955
 21
1.1484375
 31
0.0
  0
LINE
  5
11C
330
CD
100
AcDbEntity
  8
AM_4
100
AcDbLine
 10
-1.016955
 20
1.1484375
 30
0.0
 11
-1.046875
 21
1.1185175
 31
0.0
  0
LINE
  5
11D
330
CD
100
AcDbEntity
  8
AM_4
100
AcDbLine
 10
-1.0625
 20
-0.85677083333333
 30
0.0
 11
-1.046875
 21
-0.85677083333333
 31
0.0
  0
LINE
  5
11E
330
CD
100
AcDbEntity
  8
AM_4
100
AcDbLine
 10
-1.016955
 20
-1.1484375
 30
0.0
 11
-1.016955
 21
-0.101
 31
0.0
  0
LINE
  5
11F
330
CD
100
AcDbEntity
  8
AM_4
100
AcDbLine
 10
-0.5533575
 20
0.91500693437966
 30
0.0
 11
-0.5533575
 21
1.1484375
 31
0.0
  0
LINE
  5
120
330
CD
100
AcDbEntity
  8
AM_4
100
AcDbLine
 10
-1.016955
 20
0.101
 30
0.0
 11
-1.016955
 21
1.1484375
 31
0.0
  0
LINE
  5
121
330
CD
100
AcDbEntity
  8
AM_4
100
AcDbLine
 10
-0.69599305923796
 20
-0.101
 30
0.0
 11
-1.046875
 21
-0.101
 31
0.0
  0
LINE
  5
122
330
CD
100
AcDbEntity
  8
AM_4
100
AcDbLine
 10
-1.046875
 20
0.101
 30
0.0
 11
-0.66760381062808
 21
0.101
 31
0.0
  0
LINE
  5
123
330
CD
100
AcDbEntity
  8
AM_4
100
AcDbLine
 10
-1.046875
 20
-1.1185175
 30
0.0
 11
-1.046875
 21
1.1185175
 31
0.0
  0
LINE
  5
124
330
CD
100
AcDbEntity
  8
AM_4
100
AcDbLine
 10
-1.0625
 20
-0.85677083333333
 30
0.0
 11
-1.0625
 21
0.85531062243532
 31
0.0
  0
LINE
  5
125
330
CD
100
AcDbEntity
  8
AM_4
100
AcDbLine
 10
0.5625
 20
0.84989943812257
 30
0.0
 11
0.5625
 21
0.88871748641814
 31
0.0
  0
LINE
  5
126
330
CD
100
AcDbEntity
  8
AM_4
100
AcDbLine
 10
-1.046875
 20
0.85531062243532
 30
0.0
 11
-1.0625
 21
0.85531062243532
 31
0.0
  0
LINE
  5
127
330
CD
100
AcDbEntity
  8
AM_4
100
AcDbLine
 10
0.5625
 20
0.88871748641814
 30
0.0
 11
0.5568984097898
 21
0.88852156517064
 31
0.0
  0
ARC
  5
129
330
CD
100
AcDbEntity
  8
AM_5
100
AcDbCircle
 10
-0.9370834916603168
 20
0.0
 30
0.0
 40
0.0950000000000001
100
AcDbArc
 50
74.99999999999994
 51
15.00000000000002
  0
ENDBLK
  5
D0
330
CD
100
AcDbEntity
  8
0
100
AcDbBlockEnd
  0
BLOCK
  5
12C
330
12A
100
AcDbEntity
  8
0
100
AcDbBlockBegin
  2
4_TB_GTEZ_07_PCRI_0_in_129298_2
 70
     2
 10
0.0
 20
0.0
 30
0.0
  3
4_TB_GTEZ_07_PCRI_0_in_129298_2
  1

  0
ATTDEF
  5
12E
330
12A
100
AcDbEntity
  8
AM_6
100
AcDbText
 10
6.03984375
 20
1.953125
 30
0.0
 40
0.5
  1
TB-GTEZ-PCR-I-Body
100
AcDbAttributeDefinition
  3

  2
NN
 70
     8
280
     0
  0
ATTDEF
  5
12F
330
12A
100
AcDbEntity
  8
AM_6
100
AcDbText
 10
6.03984375
 20
1.453125
 30
0.0
 40
0.5
  1
GTEZ Normal Duty Polymer Housed Tapped Base Pillow Blocks
100
AcDbAttributeDefinition
  3

  2
NT
 70
     8
280
     0
  0
ATTDEF
  5
130
330
12A
100
AcDbEntity
  8
AM_6
100
AcDbText
 10
6.03984375
 20
0.953125
 30
0.0
 40
0.5
  1
TB-GTEZ-07-PCRI
100
AcDbAttributeDefinition
  3

  2
NB
 70
     8
280
     0
  0
ATTDEF
  5
131
330
12A
100
AcDbEntity
  8
AM_6
100
AcDbText
 10
6.03984375
 20
0.453125
 30
0.0
 40
0.5
  1
$PN.$LUBE.I
100
AcDbAttributeDefinition
  3

  2
NBSYN
 70
     8
280
     0
  0
ATTDEF
  5
132
330
12A
100
AcDbEntity
  8
AM_6
100
AcDbText
 10
6.03984375
 20
-0.046875
 30
0.0
 40
0.5
  1
TB-GTEZ-07-PCR
100
AcDbAttributeDefinition
  3

  2
LINA
 70
     8
280
     0
  0
ATTDEF
  5
133
330
12A
100
AcDbEntity
  8
AM_6
100
AcDbText
 10
6.03984375
 20
-0.546875
 30
0.0
 40
0.5
  1
207
100
AcDbAttributeDefinition
  3

  2
SERIES
 70
     8
280
     0
  0
ATTDEF
  5
134
330
12A
100
AcDbEntity
  8
AM_6
100
AcDbText
 10
6.03984375
 20
-1.046875
 30
0.0
 40
0.5
  1
TB-GTEZ-07-PCR
100
AcDbAttributeDefinition
  3

  2
PN
 70
     8
280
     0
  0
ATTDEF
  5
135
330
12A
100
AcDbEntity
  8
AM_6
100
AcDbText
 10
6.03984375
 20
-1.546875
 30
0.0
 40
0.5
  1
TB-GTEZ-07-PCR
100
AcDbAttributeDefinition
  3

  2
DESCRIPTION
 70
     8
280
     0
  0
ATTDEF
  5
136
330
12A
100
AcDbEntity
  8
AM_6
100
AcDbText
 10
6.03984375
 20
-2.046875
 30
0.0
 40
0.5
  1
1-5/8
100
AcDbAttributeDefinition
  3

  2
A
 70
     8
280
     0
  0
ATTDEF
  5
137
330
12A
100
AcDbEntity
  8
AM_6
100
AcDbText
 10
6.03984375
 20
-2.546875
 30
0.0
 40
0.5
  1
4-5/8
100
AcDbAttributeDefinition
  3

  2
B
 70
     8
280
     0
  0
ATTDEF
  5
138
330
12A
100
AcDbEntity
  8
AM_6
100
AcDbText
 10
6.03984375
 20
-3.046875
 30
0.0
 40
0.5
  1
1-57/64
100
AcDbAttributeDefinition
  3

  2
C
 70
     8
280
     0
  0
ATTDEF
  5
139
330
12A
100
AcDbEntity
  8
AM_6
100
AcDbText
 10
6.03984375
 20
-3.546875
 30
0.0
 40
0.5
  1
3-1/4
100
AcDbAttributeDefinition
  3

  2
D
 70
     8
280
     0
  0
ATTDEF
  5
13A
330
12A
100
AcDbEntity
  8
AM_6
100
AcDbText
 10
6.03984375
 20
-4.046875
 30
0.0
 40
0.5
  1
3-53/64
100
AcDbAttributeDefinition
  3

  2
J
 70
     8
280
     0
  0
ATTDEF
  5
13B
330
12A
100
AcDbEntity
  8
AM_6
100
AcDbText
 10
6.03984375
 20
-4.546875
 30
0.0
 40
0.5
  1
2-19/64
100
AcDbAttributeDefinition
  3

  2
L
 70
     8
280
     0
  0
ATTDEF
  5
13C
330
12A
100
AcDbEntity
  8
AM_6
100
AcDbText
 10
6.03984375
 20
-5.046875
 30
0.0
 40
0.5
  1
1-7/8
100
AcDbAttributeDefinition
  3

  2
M
 70
     8
280
     0
  0
ATTDEF
  5
13D
330
12A
100
AcDbEntity
  8
AM_6
100
AcDbText
 10
6.03984375
 20
-5.546875
 30
0.0
 40
0.5
  1
35/64
100
AcDbAttributeDefinition
  3

  2
N
 70
     8
280
     0
  0
ATTDEF
  5
13E
330
12A
100
AcDbEntity
  8
AM_6
100
AcDbText
 10
6.03984375
 20
-6.046875
 30
0.0
 40
0.5
  1
1/2-13
100
AcDbAttributeDefinition
  3

  2
R
 70
     8
280
     0
  0
ATTDEF
  5
13F
330
12A
100
AcDbEntity
  8
AM_6
100
AcDbText
 10
6.03984375
 20
-6.546875
 30
0.0
 40
0.5
  1
1-1/16
100
AcDbAttributeDefinition
  3

  2
S
 70
     8
280
     0
  0
ATTDEF
  5
140
330
12A
100
AcDbEntity
  8
AM_6
100
AcDbText
 10
6.03984375
 20
-7.046875
 30
0.0
 40
0.5
  1
1-3/64
100
AcDbAttributeDefinition
  3

  2
Z
 70
     8
280
     0
  0
ATTDEF
  5
141
330
12A
100
AcDbEntity
  8
AM_6
100
AcDbText
 10
6.03984375
 20
-7.546875
 30
0.0
 40
0.5
  1
baldor
100
AcDbAttributeDefinition
  3

  2
COMPANY
 70
     8
280
     0
  0
LINE
  5
142
330
12A
100
AcDbEntity
  8
AM_9
100
AcDbLine
 10
-0.88098695995672
 20
-1.4173
 30
0.0
 11
0.88098695995672
 21
-1.4173
 31
0.0
  0
LINE
  5
143
330
12A
100
AcDbEntity
  8
AM_9
100
AcDbLine
 10
0.48260990990932
 20
1.4173
 30
0.0
 11
-0.48260990990932
 21
1.4173
 31
0.0
  0
LWPOLYLINE
  5
144
330
12A
100
AcDbEntity
  8
AM_9
100
AcDbPolyline
 90
      263
 70
     0
 43
0.0
 10
-0.080787899725917
 20
1.508019149454
 10
-0.080086504784301
 20
1.5080935490814
 10
-0.078691472386806
 20
1.5082528712943
 10
-0.077306995419781
 20
1.5084260277591
 10
-0.076618794856115
 20
1.5085177201301
 10
-0.075933328785525
 20
1.5086127825424
 10
-0.074570728064632
 20
1.50881289899
 10
-0.073219449734234
 20
1.5090261393136
 10
-0.071879751308017
 20
1.5092522641811
 10
-0.070551891401564
 20
1.5094910323162
 10
-0.06923612972669
 20
1.5097422001077
 10
-0.068582867169163
 20
1.509872357015
 10
-0.067932727018531
 20
1.5100055212344
 10
-0.066641944899208
 20
1.5102807463058
 10
-0.065364045681908
 20
1.5105676225223
 10
-0.064099292119224
 20
1.5108658933565
 10
-0.062847947099562
 20
1.5111752982583
 10
-0.061610273295395
 20
1.5114955723852
 10
-0.060996645028575
 20
1.5116597014108
 10
-0.06038653276706
 20
1.5118264463597
 10
-0.059176986525755
 20
1.5121676460555
 10
-0.057982080606278
 20
1.5125188364747
 10
-0.057390752821416
 20
1.5126979179298
 10
-0.056803647857457
 20
1.5128792354809
 10
-0.05564212526479
 20
1.5132484307149
 10
-0.054497551659579
 20
1.5136261271113
 10
-0.053931633377416
 20
1.513818071497
 10
-0.05336996777794
 20
1.5140120312333
 10
-0.052259416442649
 20
1.5144058507565
 10
-0.051165942670992
 20
1.514807293967
 10
-0.050089593710606
 20
1.515216069276
 10
-0.049030419005543
 20
1.5156318847553
 10
-0.047988470095047
 20
1.5160544476954
 10
-0.047473971952153
 20
1.5162681676747
 10
-0.046963800447746
 20
1.5164834641887
 10
-0.045956465234159
 20
1.5169186387419
 10
-0.044966521040586
 20
1.5173596739182
 10
-0.043994025527603
 20
1.5178062700129
 10
-0.0430390370365
 20
1.5182581247641
 10
-0.042101614147139
 20
1.5187149331007
 10
-0.041639508055529
 20
1.5189450987072
 10
-0.041181815190787
 20
1.519176386929
 10
-0.040279697721583
 20
1.5196421749616
 10
-0.039395317950385
 20
1.5201119825877
 10
-0.038528730144813
 20
1.5205854917887
 10
-0.037679985999378
 20
1.5210623810995
 10
-0.036849133979693
 20
1.5215423256167
 10
-0.03644043161322
 20
1.5217833411181
 10
-0.036036417485841
 20
1.5220248773642
 10
-0.035243777918863
 20
1.5225085187704
 10
-0.034471468412614
 20
1.5229926694267
 10
-0.033719207249812
 20
1.5234770715696
 10
-0.032986719729279
 20
1.5239614720414
 10
-0.03227373815846
 20
1.5244456215995
 10
-0.031924480344047
 20
1.5246875253091
 10
-0.031580001753913
 20
1.5249292742749
 10
-0.030905256452506
 20
1.5254121867858
 10
-0.030249254636945
 20
1.5258941180097
 10
-0.02961175478011
 20
1.5263748285196
 10
-0.028992521013437
 20
1.5268540801888
 10
-0.028391322625342
 20
1.5273316358664
 10
-0.028097415873161
 20
1.5275697038024
 10
-0.027807933496292
 20
1.5278072591274
 10
-0.02724213147775
 20
1.5282807140996
 10
-0.026693697722679
 20
1.5287517653692
 10
-0.026425926283012
 20
1.5289863161686
 10
-0.026162415975733
 20
1.5292201779653
 10
-0.025648071831572
 20
1.5296857174251
 10
-0.025150451970024
 20
1.5301481499389
 10
-0.024907847087805
 20
1.5303781282576
 10
-0.02466934337693
 20
1.530607242574
 10
-0.024204532559648
 20
1.5310627635771
 10
-0.023755804766156
 20
1.531514482752
 10
-0.023322943216651
 20
1.5319621719114
 10
-0.022905728356374
 20
1.5324056053986
 10
-0.022504945804121
 20
1.5328434433203
 10
-0.022311752462978
 20
1.5330589231615
 10
-0.022123322354182
 20
1.5332720080987
 10
-0.021760410019087
 20
1.5336909518714
 10
-0.021415531614206
 20
1.534100203474
 10
-0.021088020499964
 20
1.5344997100138
 10
-0.020777220936361
 20
1.5348894363922
 10
-0.020482488460265
 20
1.5352693647833
 10
-0.020340949165607
 20
1.5354556537483
 10
-0.020203190279725
 20
1.5356394940702
 10
-0.019938705679296
 20
1.5359998392348
 10
-0.019688426430284
 20
1.5363504307042
 10
-0.018915842123116
 20
1.5375014669255
 10
-0.017911070069406
 20
1.5392084108894
 10
-0.017219928654998
 20
1.5406027330186
 10
-0.016964130171418
 20
1.5411930180203
 10
-0.016755585344934
 20
1.5417185674303
 10
-0.016423021921778
 20
1.5426795084157
 10
-0.016176516070335
 20
1.5435606381771
 10
-0.016081322403086
 20
1.5439735355591
 10
-0.015812064673485
 20
1.5461595943891
 10
-0.01597713084007
 20
1.548438634223
 10
-0.016105103493223
 20
1.5490884572231
 10
-0.016280831734582
 20
1.5497910746551
 10
-0.016392717865413
 20
1.5501755354068
 10
-0.016523330611386
 20
1.5505839740239
 10
-0.016849917089488
 20
1.5514781392834
 10
-0.017280527172778
 20
1.5524832363606
 10
-0.017837201245784
 20
1.5536065069593
 10
-0.018543317379771
 20
1.5548518730406
 10
-0.019422699999477
 20
1.5562193907083
 10
-0.019934723508061
 20
1.5569478810226
 10
-0.020498785207948
 20
1.5577051435916
 10
-0.021794050109856
 20
1.5593015960514
 10
-0.023329134015894
 20
1.560997540866
 10
-0.025080239416108
 20
1.5627388279894
 10
-0.027024824763477
 20
1.5644873323692
 10
-0.02915890910607
 20
1.5662291482425
 10
-0.030295661777691
 20
1.5670936147639
 10
-0.03147815883489
 20
1.5679518656542
 10
-0.033978253851386
 20
1.5696444238446
 10
-0.036655100182755
 20
1.5712968863822
 10
-0.039502320726762
 20
1.5728987941963
 10
-0.042488175859456
 20
1.5744282846306
 10
-0.045595620900371
 20
1.575875380911
 10
-0.047191617943308
 20
1.5765663183306
 10
-0.048814060243995
 20
1.5772347094419
 10
-0.052133131271101
 20
1.5785017100337
 10
-0.055542584291174
 20
1.5796724972654
 10
-0.059032183090156
 20
1.580743771908
 10
-0.062591583140079
 20
1.5817127580193
 10
-0.066200731220438
 20
1.5825750599541
 10
-0.06801843207942
 20
1.5829654646259
 10
-0.069843506955429
 20
1.5833287822995
 10
-0.073511742058348
 20
1.5839744663658
 10
-0.077197455572045
 20
1.5845128515338
 10
-0.079044395880644
 20
1.5847420901503
 10
-0.080892742918053
 20
1.5849448684063
 10
-0.084589699960039
 20
1.5852716504821
 10
-0.088280380726982
 20
1.585494557418
 10
-0.090120869582897
 20
1.5855675515184
 10
-0.091956632077411
 20
1.5856152009729
 10
-0.095603518194256
 20
1.5856355480966
 10
-0.099211515573254
 20
1.5855584299278
 10
-0.10277574563552
 20
1.5853868795461
 10
-0.10629135803164
 20
1.585123949802
 10
-0.10975348992364
 20
1.5847727472658
 10
-0.1114629723513
 20
1.5845650378746
 10
-0.11315724613366
 20
1.5843364674479
 10
-0.11649769790368
 20
1.5838184288716
 10
-0.11976989782082
 20
1.5832221040082
 10
-0.12296644883625
 20
1.5825516956026
 10
-0.12607496810409
 20
1.5818131512278
 10
-0.12909275829324
 20
1.5810108096037
 10
-0.13056704519164
 20
1.5805870098516
 10
-0.13201794106
 20
1.5801488154003
 10
-0.13484858102909
 20
1.5792313298696
 10
-0.1375826886108
 20
1.5782625690686
 10
-0.1402182363689
 20
1.577246837563
 10
-0.14275318727689
 20
1.5761885564118
 10
-0.14518553312169
 20
1.5750922843918
 10
-0.14636209128969
 20
1.5745316245777
 10
-0.14750903948526
 20
1.5739648957755
 10
-0.14971387964617
 20
1.5728160612651
 10
-0.15180182364981
 20
1.5716502814864
 10
-0.15377493986222
 20
1.5704717637663
 10
-0.15563514383649
 20
1.5692846866813
 10
-0.15738422930943
 20
1.5680932363986
 10
-0.15821764073949
 20
1.5674971877678
 10
-0.15902391349288
 20
1.5669016307804
 10
-0.16055589376374
 20
1.5657141298443
 10
-0.16198191241499
 20
1.5645350316265
 10
-0.16335028615146
 20
1.5633262351319
 10
-0.16478268295448
 20
1.5619650725307
 10
-0.16623856527642
 20
1.560459235325
 10
-0.16695862857929
 20
1.5596590506026
 10
-0.16766443880177
 20
1.5588319837802
 10
-0.16900664275154
 20
1.5571142312058
 10
-0.17021417770393
 20
1.5553454673807
 10
-0.1707502081849
 20
1.5544617798203
 10
-0.17122115860739
 20
1.5536143160301
 10
-0.17198226071779
 20
1.5520345943981
 10
-0.17253529049565
 20
1.5505955620064
 10
-0.17274453369483
 20
1.5499228937993
 10
-0.17291393989458
 20
1.5492771344661
 10
-0.1731457432158
 20
1.5480471628839
 10
-0.17324905955621
 20
1.546838989298
 10
-0.17317791288318
 20
1.5451593638993
 10
-0.17295156151386
 20
1.5438387117627
 10
-0.1728468233651
 20
1.5434055730812
 10
-0.17271978378612
 20
1.5429449109162
 10
-0.17264706770804
 20
1.5427038867062
 10
-0.17256776874023
 20
1.5424555802878
 10
-0.1723880700957
 20
1.5419368284291
 10
-0.17217804217345
 20
1.5413883974592
 10
-0.17193521107216
 20
1.5408106023838
 10
-0.17165738878007
 20
1.5402043776656
 10
-0.17134278218089
 20
1.5395712867744
 10
-0.17117125568352
 20
1.5392453201734
 10
-0.17099053676104
 20
1.5389143022988
 10
-0.17060440637552
 20
1.5382435140872
 10
-0.17018547172256
 20
1.5375624420665
 10
-0.16996374055553
 20
1.5372185004736
 10
-0.16973386574487
 20
1.5368725234547
 10
-0.16924980733057
 20
1.5361751402714
 10
-0.16873356547974
 20
1.5354715866407
 10
-0.1684634652192
 20
1.5351178707634
 10
-0.16818542581508
 20
1.5347630471672
 10
-0.16760566070617
 20
1.5340505848502
 10
-0.1669945038311
 20
1.5333351369891
 10
-0.1663521296029
 20
1.5326175175651
 10
-0.16567863754208
 20
1.5318984246461
 10
-0.16497404138255
 20
1.531178451453
 10
-0.16461005839451
 20
1.5308182947514
 10
-0.16423826245637
 20
1.5304580998356
 10
-0.16347112671546
 20
1.5297377950444
 10
-0.162672364615
 20
1.5290179008313
 10
-0.16184161300407
 20
1.5282987340798
 10
-0.16097874089454
 20
1.5275808416398
 10
-0.16008532283539
 20
1.5268661153012
 10
-0.15962740479757
 20
1.5265102866857
 10
-0.15916210633477
 20
1.5261556261286
 10
-0.15820964786101
 20
1.5254502266114
 10
-0.15722851017475
 20
1.5247507232857
 10
-0.15621925941785
 20
1.5240578790979
 10
-0.15518246288238
 20
1.52337241597
 10
-0.15411868737715
 20
1.5226950174654
 10
-0.15357685922143
 20
1.5223595462325
 10
-0.15302849810643
 20
1.5220263314708
 10
-0.15191245797526
 20
1.5213669728276
 10
-0.15077112723828
 20
1.5207175258582
 10
-0.14960506341252
 20
1.5200785467483
 10
-0.14841482138035
 20
1.5194505657568
 10
-0.14720095361492
 20
1.5188340892369
 10
-0.14658533214158
 20
1.5185303173049
 10
-0.14596401046723
 20
1.5182296014583
 10
-0.14470454046146
 20
1.5176375662315
 10
-0.1434230905523
 20
1.5170584283396
 10
-0.14212103372398
 20
1.516492966954
 10
-0.14080222436164
 20
1.5159429028224
 10
-0.13946769992614
 20
1.5154086196582
 10
-0.13879476429284
 20
1.5151474656179
 10
-0.13811816193733
 20
1.5148903380267
 10
-0.13675429939588
 20
1.5143882597884
 10
-0.13537679072008
 20
1.5139025698426
 10
-0.13468312865772
 20
1.5136659239923
 10
-0.13398630562346
 20
1.5134334376093
 10
-0.13258350690111
 20
1.51298101827
 10
-0.13116905209853
 20
1.5125454537803
 10
-0.13045765809427
 20
1.5123340330515
 10
-0.12974359504137
 20
1.5121268736776
 10
-0.12830778720968
 20
1.5117253957005
 10
-0.12686227894404
 20
1.5113411262416
 10
-0.12540772047495
 20
1.5109741606527
 10
-0.12394476277
 20
1.5106245834228
 10
-0.1224740581963
 20
1.5102924682476
 10
-0.12173600520234
 20
1.5101329790055
 10
-0.12099626099794
 20
1.5099778780085
 10
-0.1195120275904
 20
1.5096808646798
 10
-0.11802201667534
 20
1.5094014691795
 10
-0.11652691827293
 20
1.5091397260938
 10
-0.11502886105105
 20
1.5088958822082
 10
-0.11352919948019
 20
1.5086699896127
 10
-0.11277891691939
 20
1.5085637414136
 10
-0.1120284121669
 20
1.5084619403385
 10
-0.11052697071598
 20
1.5082716237669
 10
-0.1090253411606
 20
1.5080989267209
 10
-0.1082746002758
 20
1.5080191494541
  0
LINE
  5
145
330
12A
100
AcDbEntity
  8
AM_9
100
AcDbLine
 10
-0.015791049999979
 20
1.3854381705918
 30
0.0
 11
-0.015791049999979
 21
1.3993575675795
 31
0.0
  0
LINE
  5
146
330
12A
100
AcDbEntity
  8
AM_9
100
AcDbLine
 10
-0.17327145000002
 20
1.3993575675795
 30
0.0
 11
-0.17327145000002
 21
1.3854381705918
 31
0.0
  0
LINE
  5
147
330
12A
100
AcDbEntity
  8
AM_9
100
AcDbLine
 10
-0.21615
 20
-1.84115
 30
0.0
 11
-0.25
 21
-1.875
 31
0.0
  0
LINE
  5
148
330
12A
100
AcDbEntity
  8
AM_9
100
AcDbLine
 10
0.25
 20
-1.875
 30
0.0
 11
0.21615
 21
-1.84115
 31
0.0
  0
LINE
  5
149
330
12A
100
AcDbEntity
  8
AM_9
100
AcDbLine
 10
-0.21615
 20
-1.2694950801638
 30
0.0
 11
-0.21615
 21
-1.84115
 31
0.0
  0
LINE
  5
14A
330
12A
100
AcDbEntity
  8
AM_9
100
AcDbLine
 10
0.21615
 20
-1.84115
 30
0.0
 11
0.21615
 21
-1.2694950801638
 31
0.0
  0
LINE
  5
14B
330
12A
100
AcDbEntity
  8
AM_9
100
AcDbLine
 10
0.0
 20
-1.1447008194785
 30
0.0
 11
-0.21615
 21
-1.2694950801638
 31
0.0
  0
LINE
  5
14C
330
12A
100
AcDbEntity
  8
AM_9
100
AcDbLine
 10
0.21615
 20
-1.2694950801638
 30
0.0
 11
0.0
 21
-1.1447008194785
 31
0.0
  0
LINE
  5
14D
330
12A
100
AcDbEntity
  8
AM_9
100
AcDbLine
 10
-0.88098695995672
 20
-1.4173
 30
0.0
 11
-0.53907088014108
 21
1.0155593219165
 31
0.0
  0
LINE
  5
14E
330
12A
100
AcDbEntity
  8
AM_9
100
AcDbLine
 10
0.55265801055069
 20
0.91888186558587
 30
0.0
 11
0.48260990990932
 21
1.4173
 31
0.0
  0
LINE
  5
14F
330
12A
100
AcDbEntity
  8
AM_9
100
AcDbLine
 10
0.21615
 20
-1.2694950801638
 30
0.0
 11
-0.21615
 21
-1.2694950801638
 31
0.0
  0
LINE
  5
150
330
12A
100
AcDbEntity
  8
AM_9
100
AcDbLine
 10
0.21615
 20
-1.84115
 30
0.0
 11
-0.21615
 21
-1.84115
 31
0.0
  0
ELLIPSE
  5
151
330
12A
100
AcDbEntity
  8
AM_9
100
AcDbEllipse
 10
-0.0945312499999975
 20
1.62791168384629
 30
0.0
 11
0.07418013027140254
 21
0.0
 31
0.0
210
0.0
220
0.0
230
1.0
 40
0.7071067811865445
 41
0.4808136547624668
 42
2.660778998827327
  0
ELLIPSE
  5
152
330
12A
100
AcDbEntity
  8
AM_9
100
AcDbEllipse
 10
-0.094531250000021
 20
1.590132812585211
 30
0.0
 11
0.09889033813683795
 21
0.0
 31
0.0
210
0.0
220
0.0
230
1.0
 40
0.7071067811865487
 41
0.4808136547757114
 42
2.660778999586689
  0
ELLIPSE
  5
153
330
12A
100
AcDbEntity
  8
AM_9
100
AcDbEllipse
 10
-0.0945312499999824
 20
1.51071316774481
 30
0.0
 11
0.1102359999999982
 21
0.0
 31
0.0
210
0.0
220
0.0
230
1.0
 40
0.7071067811865477
 41
0.5776086532551687
 42
2.563977678314866
  0
ELLIPSE
  5
154
330
12A
100
AcDbEntity
  8
AM_9
100
AcDbEllipse
 10
-0.0945312500000015
 20
1.496793770757199
 30
0.0
 11
0.1102359999999585
 21
0.0
 31
0.0
210
0.0
220
0.0
230
1.0
 40
0.7071067811860934
 41
0.0
 42
3.141592653589793
  0
LWPOLYLINE
  5
155
330
12A
100
AcDbEntity
  8
AM_9
100
AcDbPolyline
 90
      131
 70
     0
 43
0.0
 10
-0.09453125
 20
1.4401440415826
 10
-0.093958640153907
 20
1.4401425950298
 10
-0.092813541589401
 20
1.4401310230667
 10
-0.091668806382312
 20
1.4401078815884
 10
-0.091096650714975
 20
1.4400919737152
 10
-0.090524676685513
 20
1.4400731754901
 10
-0.089381394523791
 20
1.4400269121135
 10
-0.088239201742648
 20
1.4399691012449
 10
-0.087098339957142
 20
1.4398997551134
 10
-0.085959050500779
 20
1.4398188883882
 10
-0.084821574374459
 20
1.4397265181755
 10
-0.084253591519352
 20
1.4396760252726
 10
-0.083686152195497
 20
1.4396226640151
 10
-0.082553024146726
 20
1.4395073478757
 10
-0.081422429925684
 20
1.439380594151
 10
-0.080294608693918
 20
1.4392424296539
 10
-0.079169799026382
 20
1.4390928836112
 10
-0.078048238860978
 20
1.4389319876573
 10
-0.077488751510586
 20
1.4388472940061
 10
-0.076930165448222
 20
1.4387597758276
 10
-0.075815815301054
 20
1.4385762845509
 10
-0.074705424144808
 20
1.4383815526425
 10
-0.074151786624813
 20
1.4382799842314
 10
-0.073599226867351
 20
1.4381756212951
 10
-0.072497457469391
 20
1.4379585340706
 10
-0.07140034901498
 20
1.4377303368908
 10
-0.070853615205867
 20
1.4376120870612
 10
-0.070308133582212
 20
1.4374910780277
 10
-0.069221042214129
 20
1.4372408080932
 10
-0.068139304869851
 20
1.4369795800285
 10
-0.067063150375925
 20
1.4367074490926
 10
-0.065992806377926
 20
1.4364244728512
 10
-0.064928499292297
 20
1.4361307111639
 10
-0.064398679998878
 20
1.4359798051084
 10
-0.063870454258458
 20
1.4358262261719
 10
-0.062818895091177
 20
1.4355110822849
 10
-0.061774044233226
 20
1.4351853461671
 10
-0.060736122708331
 20
1.4348490867236
 10
-0.059705350074408
 20
1.4345023750852
 10
-0.05868194437713
 20
1.4341452845942
 10
-0.058173071844141
 20
1.4339628707991
 10
-0.057666122103792
 20
1.433777890788
 10
-0.056658098137523
 20
1.4334002713837
 10
-0.055658085711828
 20
1.4330125062615
 10
-0.054666296365481
 20
1.4326146774476
 10
-0.053682939897778
 20
1.4322068690973
 10
-0.052708224324155
 20
1.4317891674768
 10
-0.052224171378838
 20
1.4315766342212
 10
-0.051742355832189
 20
1.4313616609451
 10
-0.050785538737978
 20
1.4309244399352
 10
-0.049837975442922
 20
1.4304775969352
 10
-0.048899866390908
 20
1.4300212264685
 10
-0.047971410025909
 20
1.4295554250741
 10
-0.047052802750007
 20
1.4290802912856
 10
-0.046597253327555
 20
1.4288392560759
 10
-0.046144238881844
 20
1.4285959256112
 10
-0.04524591061552
 20
1.4281024305116
 10
-0.044358007979932
 20
1.4275999103789
 10
-0.043480718798582
 20
1.4270884715143
 10
-0.042614228649844
 20
1.4265682221055
 10
-0.041758720827702
 20
1.4260392722041
 10
-0.041335141934287
 20
1.4257715694638
 10
-0.040914376302985
 20
1.4255017337023
 10
-0.040081373685078
 20
1.4249557203086
 10
-0.039259889184146
 20
1.4244013475249
 10
-0.038853520628
 20
1.4241210629401
 10
-0.038450096573853
 20
1.4238387326208
 10
-0.037652167154607
 20
1.4232679946099
 10
-0.036866269717322
 20
1.4226892542238
 10
-0.036477885044088
 20
1.4223969213323
 10
-0.036092570507713
 20
1.422102633887
 10
-0.035331233191128
 20
1.421508257691
 10
-0.034582418817929
 20
1.4209062513678
 10
-0.033846285789423
 20
1.4202967422634
 10
-0.033122989824353
 20
1.4196798593112
 10
-0.03241268392596
 20
1.4190557330041
 10
-0.032062449314783
 20
1.4187409947913
 10
-0.031715518349616
 20
1.4184244953675
 10
-0.03103164057104
 20
1.4177862799308
 10
-0.030361195255102
 20
1.4171412216998
 10
-0.029704324225219
 20
1.4164894571275
 10
-0.029061166433358
 20
1.4158311240857
 10
-0.028431857930638
 20
1.4151663618357
 10
-0.028122438878386
 20
1.4148316136494
 10
-0.027816531838555
 20
1.4144953109987
 10
-0.02721531832082
 20
1.4138181135262
 10
-0.026628344555822
 20
1.41313491267
 10
-0.026055734709729
 20
1.4124458529517
 10
-0.025497609910221
 20
1.4117510801323
 10
-0.024954088220867
 20
1.4110507411815
 10
-0.024687839593361
 20
1.4106985306576
 10
-0.024425284616151
 20
1.4103449842463
 10
-0.023911310957149
 20
1.4096339586196
 10
-0.023412275967867
 20
1.4089178147092
 10
-0.022928285212244
 20
1.4081967040054
 10
-0.02245944107182
 20
1.4074707790492
 10
-0.022005842724075
 20
1.4067401933999
 10
-0.021784790834135
 20
1.4063732010731
 10
-0.021567586121457
 20
1.4060051016028
 10
-0.021144763971079
 20
1.4052656591563
 10
-0.020737465715108
 20
1.4045220224794
 10
-0.020345777511847
 20
1.4037743488779
 10
-0.019969782217509
 20
1.403022796512
 10
-0.019609559368691
 20
1.4022675243621
 10
-0.019435386554674
 20
1.4018885432657
 10
-0.019265185165544
 20
1.4015086921956
 10
-0.018936732455661
 20
1.4007464605329
 10
-0.018624270718661
 20
1.3999809906135
 10
-0.018474057252813
 20
1.3995970918832
 10
-0.018327866051497
 20
1.399212444362
 10
-0.018047581154469
 20
1.3984409843537
 10
-0.017783475317964
 20
1.3976667737804
 10
-0.017657507140154
 20
1.3972786881892
 10
-0.017535604409913
 20
1.3968899764154
 10
-0.017304020863973
 20
1.3961107565796
 10
-0.017088773668433
 20
1.3953292791061
 10
-0.016889908355857
 20
1.3945457093056
 10
-0.016707466993445
 20
1.3937602129314
 10
-0.016541488174142
 20
1.3929729561445
 10
-0.016464683326433
 20
1.3925787196243
 10
-0.016392007008465
 20
1.3921841054781
 10
-0.016259055117086
 20
1.3913938278026
 10
-0.016142660624134
 20
1.3906022902904
 10
-0.016042848151252
 20
1.3898096603802
 10
-0.015959638812387
 20
1.3890161057419
 10
-0.015893050209319
 20
1.388221794241
 10
-0.015865993222979
 20
1.3878244071697
 10
-0.015843096427948
 20
1.387426893903
 10
-0.015809788035301
 20
1.3866315728782
 10
-0.01579313207731
 20
1.3858359994057
 10
-0.015791049999979
 20
1.3854381705918
  0
LWPOLYLINE
  5
156
330
12A
100
AcDbEntity
  8
AM_9
100
AcDbPolyline
 90
      131
 70
     0
 43
0.0
 10
-0.015791049999979
 20
1.3854381705918
 10
-0.015799378199192
 20
1.3846425340032
 10
-0.015865993222979
 20
1.3830519340139
 10
-0.015999166907592
 20
1.381463353019
 10
-0.016090680233295
 20
1.380670239773
 10
-0.0161987865748
 20
1.3798781351166
 10
-0.016464683326433
 20
1.3782976215593
 10
-0.016796632187294
 20
1.3767231496194
 10
-0.017194352295508
 20
1.3751560514573
 10
-0.017657507140154
 20
1.3735976529944
 10
-0.018185704845997
 20
1.3720492727916
 10
-0.018474057252813
 20
1.3712792493005
 10
-0.018778498505042
 20
1.370512220933
 10
-0.019435386554674
 20
1.368987797918
 10
-0.020155813202021
 20
1.3674772935605
 10
-0.020939168894216
 20
1.3659819858982
 10
-0.021784790834135
 20
1.3645031401106
 10
-0.022691963541195
 20
1.3630420074488
 10
-0.023168393587158
 20
1.3623184704867
 10
-0.023659919456718
 20
1.3615998241769
 10
-0.024687839593361
 20
1.360177810526
 10
-0.025774854228068
 20
1.3587771696617
 10
-0.026340236500914
 20
1.3580852350965
 10
-0.026920043637933
 20
1.3573990866658
 10
-0.028122438878386
 20
1.3560447275342
 10
-0.029381022603012
 20
1.35471523819
 10
-0.030031054202259
 20
1.3540601720615
 10
-0.030694729924327
 20
1.3534117435138
 10
-0.032062449314783
 20
1.3521353463923
 10
-0.033483023547229
 20
1.3508871267849
 10
-0.034955250674041
 20
1.34966814081
 10
-0.036477885044088
 20
1.3484794198514
 10
-0.03804963835668
 20
1.3473219696857
 10
-0.038853520628
 20
1.3467552782436
 10
-0.039669180751598
 20
1.3461967696313
 10
-0.041335141934287
 20
1.3451047717199
 10
-0.043046112335265
 20
1.3440468998906
 10
-0.044800644302758
 20
1.3430240492086
 10
-0.046597253327555
 20
1.3420370851078
 10
-0.048434419299056
 20
1.3410868426582
 10
-0.049367726686419
 20
1.3406257445351
 10
-0.050310587791435
 20
1.34017412586
 10
-0.052224171378838
 20
1.3392997069625
 10
-0.054173550978508
 20
1.3384643258115
 10
-0.056157077220684
 20
1.3376686892229
 10
-0.058173071844141
 20
1.3369134703846
 10
-0.060219829116158
 20
1.3361993082872
 10
-0.061254203546876
 20
1.3358578137163
 10
-0.062295617275744
 20
1.335526807183
 10
-0.064398679998878
 20
1.3348965360753
 10
-0.066527237884537
 20
1.3343090282362
 10
-0.068679489960242
 20
1.333764780756
 10
-0.070853615205867
 20
1.3332642541225
 10
-0.073047774094399
 20
1.3328078718311
 10
-0.074151786624813
 20
1.3325963569522
 10
-0.075260110148363
 20
1.3323960200269
 10
-0.077488751510586
 20
1.3320290471775
 10
-0.07973181252798
 20
1.3317072637787
 10
-0.081987395346986
 20
1.3314309420913
 10
-0.084253591519352
 20
1.3312003159111
 10
-0.086528483616868
 20
1.3310155803707
 10
-0.087668589384899
 20
1.3309404719563
 10
-0.088810146853706
 20
1.3308768917751
 10
-0.091096650714975
 20
1.3307843674684
 10
-0.093386060590135
 20
1.3307380857356
 10
-0.09453125
 20
1.3307322996011
 10
-0.095676439409865
 20
1.3307380857356
 10
-0.097965849285025
 20
1.3307843674684
 10
-0.10025235314629
 20
1.3308768917751
 10
-0.1013939106151
 20
1.3309404719563
 10
-0.10253401638313
 20
1.3310155803707
 10
-0.10480890848065
 20
1.3312003159111
 10
-0.10707510465301
 20
1.3314309420913
 10
-0.10933068747202
 20
1.3317072637787
 10
-0.11157374848941
 20
1.3320290471775
 10
-0.11380238985164
 20
1.3323960200269
 10
-0.11491071337519
 20
1.3325963569522
 10
-0.1160147259056
 20
1.3328078718311
 10
-0.11820888479413
 20
1.3332642541225
 10
-0.12038301003976
 20
1.333764780756
 10
-0.12253526211546
 20
1.3343090282362
 10
-0.12466382000112
 20
1.3348965360753
 10
-0.12676688272426
 20
1.335526807183
 10
-0.12780829645312
 20
1.3358578137163
 10
-0.12884267088384
 20
1.3361993082872
 10
-0.13088942815586
 20
1.3369134703846
 10
-0.13290542277932
 20
1.3376686892229
 10
-0.13488894902149
 20
1.3384643258115
 10
-0.13683832862116
 20
1.3392997069625
 10
-0.13875191220857
 20
1.34017412586
 10
-0.13969477331358
 20
1.3406257445351
 10
-0.14062808070094
 20
1.3410868426582
 10
-0.14246524667245
 20
1.3420370851078
 10
-0.14426185569724
 20
1.3430240492086
 10
-0.14601638766473
 20
1.3440468998906
 10
-0.14772735806571
 20
1.3451047717199
 10
-0.1493933192484
 20
1.3461967696313
 10
-0.150208979372
 20
1.3467552782436
 10
-0.15101286164332
 20
1.3473219696857
 10
-0.15258461495591
 20
1.3484794198514
 10
-0.15410724932596
 20
1.34966814081
 10
-0.15557947645277
 20
1.3508871267849
 10
-0.15700005068522
 20
1.3521353463923
 10
-0.15836777007567
 20
1.3534117435138
 10
-0.15903144579774
 20
1.3540601720615
 10
-0.15968147739699
 20
1.35471523819
 10
-0.16094006112161
 20
1.3560447275342
 10
-0.16214245636207
 20
1.3573990866658
 10
-0.16272226349909
 20
1.3580852350965
 10
-0.16328764577193
 20
1.3587771696617
 10
-0.16437466040664
 20
1.360177810526
 10
-0.16540258054328
 20
1.3615998241769
 10
-0.16589410641284
 20
1.3623184704867
 10
-0.1663705364588
 20
1.3630420074488
 10
-0.16727770916586
 20
1.3645031401106
 10
-0.16812333110578
 20
1.3659819858982
 10
-0.16890668679798
 20
1.3674772935605
 10
-0.16962711344533
 20
1.368987797918
 10
-0.17028400149496
 20
1.370512220933
 10
-0.17058844274719
 20
1.3712792493005
 10
-0.170876795154
 20
1.3720492727916
 10
-0.17140499285985
 20
1.3735976529944
 10
-0.17186814770449
 20
1.3751560514573
 10
-0.17226586781271
 20
1.3767231496194
 10
-0.17259781667357
 20
1.3782976215593
 10
-0.1728637134252
 20
1.3798781351166
 10
-0.1729718197667
 20
1.380670239773
 10
-0.17306333309241
 20
1.381463353019
 10
-0.17319650677702
 20
1.3830519340139
 10
-0.17326312180081
 20
1.3846425340032
 10
-0.17327145000002
 20
1.3854381705918
  0
LWPOLYLINE
  5
157
330
12A
100
AcDbEntity
  8
AM_9
100
AcDbPolyline
 90
      131
 70
     0
 43
0.0
 10
-0.17327145000002
 20
1.3854381705918
 10
-0.17326936792269
 20
1.3858359994057
 10
-0.1732527119647
 20
1.3866315728782
 10
-0.17321940357205
 20
1.387426893903
 10
-0.17319650677702
 20
1.3878244071697
 10
-0.17316944979068
 20
1.388221794241
 10
-0.17310286118761
 20
1.3890161057419
 10
-0.17301965184875
 20
1.3898096603802
 10
-0.17291983937587
 20
1.3906022902904
 10
-0.17280344488291
 20
1.3913938278026
 10
-0.17267049299153
 20
1.3921841054781
 10
-0.17259781667357
 20
1.3925787196243
 10
-0.17252101182586
 20
1.3929729561445
 10
-0.17235503300655
 20
1.3937602129314
 10
-0.17217259164414
 20
1.3945457093056
 10
-0.17197372633157
 20
1.3953292791061
 10
-0.17175847913603
 20
1.3961107565796
 10
-0.17152689559009
 20
1.3968899764154
 10
-0.17140499285985
 20
1.3972786881892
 10
-0.17127902468204
 20
1.3976667737804
 10
-0.17101491884553
 20
1.3984409843537
 10
-0.1707346339485
 20
1.399212444362
 10
-0.17058844274719
 20
1.3995970918832
 10
-0.17043822928134
 20
1.3999809906135
 10
-0.17012576754434
 20
1.4007464605329
 10
-0.16979731483446
 20
1.4015086921956
 10
-0.16962711344533
 20
1.4018885432657
 10
-0.16945294063131
 20
1.4022675243621
 10
-0.16909271778249
 20
1.403022796512
 10
-0.16871672248815
 20
1.4037743488779
 10
-0.16832503428489
 20
1.4045220224794
 10
-0.16791773602892
 20
1.4052656591563
 10
-0.16749491387854
 20
1.4060051016028
 10
-0.16727770916586
 20
1.4063732010731
 10
-0.16705665727592
 20
1.4067401933999
 10
-0.16660305892818
 20
1.4074707790492
 10
-0.16613421478776
 20
1.4081967040054
 10
-0.16565022403213
 20
1.4089178147092
 10
-0.16515118904285
 20
1.4096339586196
 10
-0.16463721538385
 20
1.4103449842463
 10
-0.16437466040664
 20
1.4106985306576
 10
-0.16410841177913
 20
1.4110507411815
 10
-0.16356489008978
 20
1.4117510801323
 10
-0.16300676529027
 20
1.4124458529517
 10
-0.16243415544418
 20
1.41313491267
 10
-0.16184718167918
 20
1.4138181135262
 10
-0.16124596816144
 20
1.4144953109987
 10
-0.16094006112161
 20
1.4148316136494
 10
-0.16063064206936
 20
1.4151663618357
 10
-0.16000133356664
 20
1.4158311240857
 10
-0.15935817577478
 20
1.4164894571275
 10
-0.1587013047449
 20
1.4171412216998
 10
-0.15803085942896
 20
1.4177862799308
 10
-0.15734698165038
 20
1.4184244953675
 10
-0.15700005068522
 20
1.4187409947913
 10
-0.15664981607404
 20
1.4190557330041
 10
-0.15593951017565
 20
1.4196798593112
 10
-0.15521621421058
 20
1.4202967422634
 10
-0.15448008118207
 20
1.4209062513678
 10
-0.15373126680887
 20
1.421508257691
 10
-0.15296992949229
 20
1.422102633887
 10
-0.15258461495591
 20
1.4223969213323
 10
-0.15219623028268
 20
1.4226892542238
 10
-0.15141033284539
 20
1.4232679946099
 10
-0.15061240342615
 20
1.4238387326208
 10
-0.150208979372
 20
1.4241210629401
 10
-0.14980261081585
 20
1.4244013475249
 10
-0.14898112631492
 20
1.4249557203086
 10
-0.14814812369702
 20
1.4255017337023
 10
-0.14772735806571
 20
1.4257715694638
 10
-0.1473037791723
 20
1.4260392722041
 10
-0.14644827135016
 20
1.4265682221055
 10
-0.14558178120142
 20
1.4270884715143
 10
-0.14470449202007
 20
1.4275999103789
 10
-0.14381658938448
 20
1.4281024305116
 10
-0.14291826111816
 20
1.4285959256112
 10
-0.14246524667245
 20
1.4288392560759
 10
-0.14200969724999
 20
1.4290802912856
 10
-0.14109108997409
 20
1.4295554250741
 10
-0.14016263360909
 20
1.4300212264685
 10
-0.13922452455708
 20
1.4304775969352
 10
-0.13827696126202
 20
1.4309244399352
 10
-0.13732014416781
 20
1.4313616609451
 10
-0.13683832862116
 20
1.4315766342212
 10
-0.13635427567584
 20
1.4317891674768
 10
-0.13537956010222
 20
1.4322068690973
 10
-0.13439620363452
 20
1.4326146774476
 10
-0.13340441428817
 20
1.4330125062615
 10
-0.13240440186248
 20
1.4334002713837
 10
-0.13139637789621
 20
1.433777890788
 10
-0.13088942815586
 20
1.4339628707991
 10
-0.13038055562287
 20
1.4341452845942
 10
-0.12935714992559
 20
1.4345023750852
 10
-0.12832637729167
 20
1.4348490867236
 10
-0.12728845576677
 20
1.4351853461671
 10
-0.12624360490882
 20
1.4355110822849
 10
-0.12519204574154
 20
1.4358262261719
 10
-0.12466382000112
 20
1.4359798051084
 10
-0.1241340007077
 20
1.4361307111639
 10
-0.12306969362207
 20
1.4364244728512
 10
-0.12199934962407
 20
1.4367074490926
 10
-0.12092319513015
 20
1.4369795800285
 10
-0.11984145778587
 20
1.4372408080932
 10
-0.11875436641779
 20
1.4374910780277
 10
-0.11820888479413
 20
1.4376120870612
 10
-0.11766215098502
 20
1.4377303368908
 10
-0.11656504253061
 20
1.4379585340706
 10
-0.11546327313265
 20
1.4381756212951
 10
-0.11491071337519
 20
1.4382799842314
 10
-0.11435707585519
 20
1.4383815526425
 10
-0.11324668469895
 20
1.4385762845509
 10
-0.11213233455178
 20
1.4387597758276
 10
-0.11157374848941
 20
1.4388472940061
 10
-0.11101426113902
 20
1.4389319876573
 10
-0.10989270097362
 20
1.4390928836112
 10
-0.10876789130608
 20
1.4392424296539
 10
-0.10764007007432
 20
1.439380594151
 10
-0.10650947585327
 20
1.4395073478757
 10
-0.1053763478045
 20
1.4396226640151
 10
-0.10480890848065
 20
1.4396760252726
 10
-0.10424092562554
 20
1.4397265181755
 10
-0.10310344949922
 20
1.4398188883882
 10
-0.10196416004286
 20
1.4398997551134
 10
-0.10082329825735
 20
1.4399691012449
 10
-0.099681105476209
 20
1.4400269121135
 10
-0.098537823314487
 20
1.4400731754901
 10
-0.097965849285025
 20
1.4400919737152
 10
-0.097393693617688
 20
1.4401078815884
 10
-0.096248958410599
 20
1.4401310230667
 10
-0.095103859846093
 20
1.4401425950298
 10
-0.09453125
 20
1.4401440415826
  0
ELLIPSE
  5
158
330
12A
100
AcDbEntity
  8
AM_9
100
AcDbEllipse
 10
-0.0945312500000254
 20
1.399357567579518
 30
0.0
 11
0.07874020000004632
 21
0.0
 31
0.0
210
0.0
220
0.0
230
1.0
 40
0.7071067811865464
 41
4.71238898038469
 42
6.283185307179586
  0
ELLIPSE
  5
159
330
12A
100
AcDbEntity
  8
AM_9
100
AcDbEllipse
 10
-0.0945312499999995
 20
1.3993575675795
 30
0.0
 11
0.07874020000002044
 21
0.0
 31
0.0
210
0.0
220
0.0
230
1.0
 40
0.7071067811865475
 41
0.0
 42
3.141592653589793
  0
ELLIPSE
  5
15A
330
12A
100
AcDbEntity
  8
AM_9
100
AcDbEllipse
 10
-0.0945312499999753
 20
1.399357567579516
 30
0.0
 11
0.07874020000004471
 21
0.0
 31
0.0
210
0.0
220
0.0
230
1.0
 40
0.7071067811865467
 41
3.141592653589793
 42
4.71238898038469
  0
ELLIPSE
  5
15B
330
12A
100
AcDbEntity
  8
AM_9
100
AcDbEllipse
 10
-0.0945312500002695
 20
1.496793770757682
 30
0.0
 11
0.1574799999992356
 21
0.0
 31
0.0
210
0.0
220
0.0
230
1.0
 40
0.7071067811865532
 41
0.8768995550998495
 42
2.264692793654611
  0
LWPOLYLINE
  5
15C
330
12A
100
AcDbEntity
  8
AM_9
100
AcDbPolyline
 90
        5
 70
     0
 43
0.0
 10
0.0059102671808149
 20
1.590108792626
 10
0.0043717618158617
 20
1.5914622793108
 10
0.0012398141774287
 20
1.5941621919517
 10
-0.0019717205479195
 20
1.5968565917783
 10
-0.003609840932883
 20
1.5982032213576
  0
LWPOLYLINE
  5
15D
330
12A
100
AcDbEntity
  8
AM_9
100
AcDbPolyline
 90
       23
 70
     0
 43
0.0
 10
-0.0036098409328829
 20
1.5206591758883
 10
-0.0021605429026465
 20
1.5182996119391
 10
0.0006871110342541
 20
1.5137059366234
 10
0.0034715061218197
 20
1.5092708766833
 10
0.0048416487136819
 20
1.5071097609321
 10
0.0061979367898951
 20
1.5049847081086
 10
0.0088713852443026
 20
1.5008383979138
 10
0.011496555089734
 20
1.4968235388758
 10
0.014077901709072
 20
1.4929322911499
 10
0.016619659833371
 20
1.4891573299001
 10
0.01912586867993
 20
1.4854917982
 10
0.02036685662601
 20
1.4836980430469
 10
0.021600394988247
 20
1.4819292645571
 10
0.024046954243584
 20
1.4784636845037
 10
0.026469130344303
 20
1.4750893657635
 10
0.028870393940997
 20
1.4718009365678
 10
0.031254119651971
 20
1.4685933167474
 10
0.033623602340215
 20
1.4654616912685
 10
0.034804014216963
 20
1.4639229381846
 10
0.035982072621047
 20
1.4624014859223
 10
0.038332711756786
 20
1.4594083449062
 10
0.040678666084671
 20
1.4564781100665
 10
0.041850863600675
 20
1.4550353323068
  0
LWPOLYLINE
  5
15E
330
12A
100
AcDbEntity
  8
AM_9
100
AcDbPolyline
 90
       23
 70
     0
 43
0.0
 10
0.041850863600675
 20
1.4550353323068
 10
0.043023061116689
 20
1.4536068174832
 10
0.045369015444591
 20
1.4507906488326
 10
0.047719654580344
 20
1.4480259124989
 10
0.048897712984436
 20
1.4466617179051
 10
0.05007812486119
 20
1.4453090597046
 10
0.052447607549444
 20
1.4426366537764
 10
0.054831333260427
 20
1.4400053555618
 10
0.057232596857128
 20
1.4374119093627
 10
0.059654772957852
 20
1.4348531292614
 10
0.062101332213191
 20
1.4323258857132
 10
0.063334870575428
 20
1.431073124314
 10
0.064575858521508
 20
1.4298270922863
 10
0.067082067368065
 20
1.4273536924242
 10
0.069623825492359
 20
1.4249026461034
 10
0.072205172111692
 20
1.4224709162571
 10
0.074830341957114
 20
1.4200554548241
 10
0.07750379041151
 20
1.4176531882727
 10
0.078860078487717
 20
1.4164560319199
 10
0.080230221079572
 20
1.4152610024385
 10
0.083014616167122
 20
1.4128757264953
 10
0.085862270104004
 20
1.4104941158583
 10
0.08731156813423
 20
1.4093036464336
  0
LWPOLYLINE
  5
15F
330
12A
100
AcDbEntity
  8
AM_9
100
AcDbPolyline
 90
       23
 70
     0
 43
0.0
 10
-0.23091336360068
 20
1.4550353323068
 10
-0.22974116608466
 20
1.4564781032752
 10
-0.22739521175676
 20
1.4594083256878
 10
-0.22504457262101
 20
1.4624014558061
 10
-0.22386651421691
 20
1.4639229031896
 10
-0.22268610234016
 20
1.4654616517735
 10
-0.22031661965191
 20
1.4685932693858
 10
-0.21793289394092
 20
1.4718008828498
 10
-0.21553163034422
 20
1.4750893072007
 10
-0.2131094542435
 20
1.4784636226132
 10
-0.21066289498816
 20
1.4819292008661
 10
-0.20942935662592
 20
1.4836979790326
 10
-0.20818836867984
 20
1.4854917342497
 10
-0.20568215983328
 20
1.4891572672505
 10
-0.20314040170899
 20
1.4929322313838
 10
-0.20055905508966
 20
1.4968234836042
 10
-0.19793388524423
 20
1.5008383487806
 10
-0.19526043678984
 20
1.504984666796
 10
-0.19390414871363
 20
1.5071097241742
 10
-0.19253400612178
 20
1.5092708449177
 10
-0.18974961103423
 20
1.5137059161813
 10
-0.18690195709734
 20
1.5182996046537
 10
-0.18545265906712
 20
1.5206591758883
  0
LWPOLYLINE
  5
160
330
12A
100
AcDbEntity
  8
AM_9
100
AcDbPolyline
 90
        5
 70
     0
 43
0.0
 10
-0.18545265906712
 20
1.5982032213576
 10
-0.18709080172053
 20
1.5968565651414
 10
-0.19030237926768
 20
1.5941621137808
 10
-0.19343436770836
 20
1.5914621516892
 10
-0.19497289281047
 20
1.5901086409759
  0
LWPOLYLINE
  5
161
330
12A
100
AcDbEntity
  8
AM_9
100
AcDbPolyline
 90
       23
 70
     0
 43
0.0
 10
-0.27637406813423
 20
1.4093036464336
 10
-0.27492477010399
 20
1.4104941231437
 10
-0.27207711616709
 20
1.4128757469375
 10
-0.26929272107953
 20
1.4152610342042
 10
-0.26792257848767
 20
1.416456068678
 10
-0.26656629041145
 20
1.4176532295854
 10
-0.26389284195705
 20
1.4200555039575
 10
-0.26126767211161
 20
1.422470971529
 10
-0.25868632549228
 20
1.4249027058697
 10
-0.25614456736798
 20
1.427353755074
 10
-0.25363835852142
 20
1.4298271562368
 10
-0.25239737057534
 20
1.4310731883286
 10
-0.2511638322131
 20
1.4323259494044
 10
-0.24871727295777
 20
1.4348531911521
 10
-0.24629509685705
 20
1.4374119679258
 10
-0.24389383326035
 20
1.44000540928
 10
-0.24151010754938
 20
1.4426367011381
 10
-0.23914062486114
 20
1.4453090991998
 10
-0.23796021298439
 20
1.4466617529002
 10
-0.2367821545803
 20
1.4480259426152
 10
-0.23443151544456
 20
1.4507906680511
 10
-0.23208556111668
 20
1.4536068242746
 10
-0.23091336360068
 20
1.4550353323068
  0
LWPOLYLINE
  5
162
330
12A
100
AcDbEntity
  8
AM_9
100
AcDbPolyline
 90
       23
 70
     0
 43
0.0
 10
-0.09453125
 20
1.5107130970341
 10
-0.091972256918084
 20
1.5107215958695
 10
-0.086890227203377
 20
1.5107887623026
 10
-0.081849082703061
 20
1.5109212842209
 10
-0.079341298088704
 20
1.5110115363083
 10
-0.076840730911297
 20
1.5111175363704
 10
-0.071857457834028
 20
1.5113761260364
 10
-0.066891876725885
 20
1.5116958767089
 10
-0.061936881598637
 20
1.512075814023
 10
-0.05698560479598
 20
1.5125151537148
 10
-0.052031378023887
 20
1.5130132913736
 10
-0.049551120147481
 20
1.5132842675853
 10
-0.047067696304125
 20
1.5135697938063
 10
-0.042088184383541
 20
1.5141843918601
 10
-0.037086565185474
 20
1.514856974575
 10
-0.032056629934045
 20
1.5155875845595
 10
-0.026992209618405
 20
1.5163764145038
 10
-0.021887147493477
 20
1.5172238047597
 10
-0.019317448531149
 20
1.5176696063743
 10
-0.016735272337251
 20
1.5181302419335
 10
-0.011530372202955
 20
1.5190963584525
 10
-0.006266168417998
 20
1.5201229330762
 10
-0.0036098409328829
 20
1.5206591758883
  0
LINE
  5
163
330
12A
100
AcDbEntity
  8
AM_9
100
AcDbLine
 10
-0.003609840932883
 20
1.5982032213576
 30
0.0
 11
-0.003609840932883
 21
1.5206591758883
 31
0.0
  0
LWPOLYLINE
  5
164
330
12A
100
AcDbEntity
  8
AM_9
100
AcDbPolyline
 90
       23
 70
     0
 43
0.0
 10
-0.003609840932883
 20
1.5982032213576
 10
-0.006266230038759
 20
1.5987394761192
 10
-0.011530550469895
 20
1.5997660727943
 10
-0.016735557806049
 20
1.6007322088179
 10
-0.019317783810387
 20
1.6011928531461
 10
-0.021887529920173
 20
1.6016386628605
 10
-0.026992677931055
 20
1.6024860672728
 10
-0.032057172196686
 20
1.603274908597
 10
-0.037087168553983
 20
1.604005527133
 10
-0.042088835052819
 20
1.6046781155317
 10
-0.047068379445913
 20
1.6052927163757
 10
-0.049551813625698
 20
1.6055782429024
 10
-0.05203207771439
 20
1.6058492186928
 10
-0.056986303932272
 20
1.6063473533332
 10
-0.061937561802651
 20
1.6067866871228
 10
-0.066892518234563
 20
1.6071666156884
 10
-0.071858039373946
 20
1.6074863548235
 10
-0.076841229555763
 20
1.6077449302438
 10
-0.079341746127384
 20
1.6078509221995
 10
-0.081849473709362
 20
1.6079411655456
 10
-0.086890483827383
 20
1.6080736681509
 10
-0.091972350202953
 20
1.6081408129764
 10
-0.09453125
 20
1.6081493002117
  0
LWPOLYLINE
  5
165
330
12A
100
AcDbEntity
  8
AM_9
100
AcDbPolyline
 90
       23
 70
     0
 43
0.0
 10
-0.09453125
 20
1.6081493002117
 10
-0.097090149797047
 20
1.6081408129764
 10
-0.10217201617262
 20
1.6080736681509
 10
-0.10721302629064
 20
1.6079411655456
 10
-0.10972075387262
 20
1.6078509221995
 10
-0.11222127044424
 20
1.6077449302438
 10
-0.11720446062605
 20
1.6074863548235
 10
-0.12216998176544
 20
1.6071666156884
 10
-0.12712493819735
 20
1.6067866871228
 10
-0.13207619606773
 20
1.6063473533332
 10
-0.13703042228561
 20
1.6058492186928
 10
-0.1395106863743
 20
1.6055782429024
 10
-0.14199412055409
 20
1.6052927163757
 10
-0.14697366494718
 20
1.6046781155317
 10
-0.15197533144602
 20
1.604005527133
 10
-0.15700532780331
 20
1.603274908597
 10
-0.16206982206894
 20
1.6024860672728
 10
-0.16717497007983
 20
1.6016386628605
 10
-0.16974471618961
 20
1.6011928531461
 10
-0.17232694219395
 20
1.6007322088179
 10
-0.17753194953011
 20
1.5997660727943
 10
-0.18279626996124
 20
1.5987394761192
 10
-0.18545265906712
 20
1.5982032213576
  0
LINE
  5
166
330
12A
100
AcDbEntity
  8
AM_9
100
AcDbLine
 10
-0.18545265906712
 20
1.5982032213576
 30
0.0
 11
-0.18545265906712
 21
1.5206591758883
 31
0.0
  0
LWPOLYLINE
  5
167
330
12A
100
AcDbEntity
  8
AM_9
100
AcDbPolyline
 90
       23
 70
     0
 43
0.0
 10
-0.18545265906712
 20
1.5206591758883
 10
-0.182796331582
 20
1.5201229452821
 10
-0.17753212779705
 20
1.5190963930525
 10
-0.17232722766275
 20
1.518130296246
 10
-0.16974505146885
 20
1.5176696695391
 10
-0.16717535250652
 20
1.5172238761077
 10
-0.16207029038159
 20
1.5163765002079
 10
-0.15700587006595
 20
1.5155876819309
 10
-0.15197593481453
 20
1.5148570809085
 10
-0.14697431561646
 20
1.5141845044266
 10
-0.14199480369587
 20
1.5135699098448
 10
-0.13951137985252
 20
1.5132843843123
 10
-0.13703112197611
 20
1.5130134080836
 10
-0.13207689520402
 20
1.5125152682478
 10
-0.12712561840136
 20
1.5120759234735
 10
-0.12217062327412
 20
1.5116959781054
 10
-0.11720504216597
 20
1.5113762163308
 10
-0.1122217690887
 20
1.5111176124278
 10
-0.1097212019113
 20
1.5110116040412
 10
-0.10721341729694
 20
1.5109213428076
 10
-0.10217227279662
 20
1.5107888000739
 10
-0.097090243081916
 20
1.510721609356
 10
-0.09453125
 20
1.5107130970341
  0
LINE
  5
168
330
12A
100
AcDbEntity
  8
AM_9
100
AcDbLine
 10
-0.25
 20
-1.875
 30
0.0
 11
0.25
 21
-1.875
 31
0.0
  0
LINE
  5
169
330
12A
100
AcDbEntity
  8
AM_5
100
AcDbLine
 10
-0.25
 20
-1.875
 30
0.0
 11
-0.25
 21
-1.328125
 31
0.0
  0
LINE
  5
16A
330
12A
100
AcDbEntity
  8
AM_5
100
AcDbLine
 10
-0.25
 20
-1.328125
 30
0.0
 11
0.25
 21
-1.328125
 31
0.0
  0
LINE
  5
16B
330
12A
100
AcDbEntity
  8
AM_5
100
AcDbLine
 10
0.25
 20
-1.875
 30
0.0
 11
0.25
 21
-1.328125
 31
0.0
  0
ELLIPSE
  5
16C
330
12A
100
AcDbEntity
  8
AM_9
100
AcDbEllipse
 10
-0.0945312499999588
 20
1.57449941696271
 30
0.0
 11
0.09501648074316209
 21
0.0
 31
0.0
210
0.0
220
0.0
230
1.0
 40
0.7071067811865482
 41
0.0
 42
6.283185307179586
  0
ELLIPSE
  5
16D
330
12A
100
AcDbEntity
  8
AM_9
100
AcDbEllipse
 10
-0.0945312500000947
 20
1.399357567579307
 30
0.0
 11
0.1574800000001904
 21
0.0
 31
0.0
210
0.0
220
0.0
230
1.0
 40
0.7071067811865525
 41
0.0
 42
6.283185307179586
  0
LINE
  5
16E
330
12A
100
AcDbEntity
  8
AM_7
100
AcDbLine
 10
1.03984375
 20
0.0
 30
0.0
 11
-1.14375
 21
0.0
 31
0.0
  0
LINE
  5
16F
330
12A
100
AcDbEntity
  8
AM_7
100
AcDbLine
 10
0.0
 20
-1.108185860452425
 30
0.0
 11
0.0
 21
-1.911514959026075
 31
0.0
  0
LWPOLYLINE
  5
170
330
12A
100
AcDbEntity
  8
AM_4
100
AcDbPolyline
 90
      131
 70
     0
 43
0.0
 10
-0.0287617429492
 20
1.6521713589201
 10
-0.029145256209363
 20
1.6526851977962
 10
-0.029930860438865
 20
1.6537019972513
 10
-0.030740931146507
 20
1.6547040862741
 10
-0.03115502782195
 20
1.6551995385653
 10
-0.031575104948939
 20
1.6556912230235
 10
-0.032433019721027
 20
1.6566631715099
 10
-0.033314298962213
 20
1.6576196847433
 10
-0.034217877410512
 20
1.6585598207712
 10
-0.035142984204585
 20
1.6594830459344
 10
-0.036089223472811
 20
1.6603892379032
 10
-0.036570145481394
 20
1.6608359086088
 10
-0.037056204419899
 20
1.6612782757539
 10
-0.038043540653188
 20
1.6621500395193
 10
-0.039050849520914
 20
1.6630044098026
 10
-0.040077751469704
 20
1.6638412674539
 10
-0.041123869428015
 20
1.6646604933061
 10
-0.04218882822174
 20
1.6654619679683
 10
-0.042728256073419
 20
1.6658560111935
 10
-0.043272254027551
 20
1.6662455716724
 10
-0.04437377386896
 20
1.6670111841696
 10
-0.045493015159405
 20
1.6677586846718
 10
-0.04605916492028
 20
1.6681256050258
 10
-0.046629605296046
 20
1.6684879518333
 10
-0.047783171307298
 20
1.6691988637688
 10
-0.048953339556472
 20
1.6698912981011
 10
-0.049544532517052
 20
1.6702305478062
 10
-0.050139735503281
 20
1.6705651320343
 10
-0.051341983524345
 20
1.6712202424469
 10
-0.052559706793229
 20
1.6718565059999
 10
-0.05379252721997
 20
1.672473799253
 10
-0.055040065449481
 20
1.6730719987862
 10
-0.056301844582833
 20
1.6736509380956
 10
-0.056937563264434
 20
1.6739329765694
 10
-0.057576326319437
 20
1.6742100040082
 10
-0.058862802248053
 20
1.6747490135513
 10
-0.060160906324159
 20
1.675267939675
 10
-0.061470273149702
 20
1.6757667513272
 10
-0.062790537663351
 20
1.6762454136642
 10
-0.064121334886627
 20
1.6767038882626
 10
-0.064790569180726
 20
1.6769255422258
 10
-0.065462299722755
 20
1.6771421333302
 10
-0.066813066804913
 20
1.6775601039084
 10
-0.068173270390359
 20
1.677957752066
 10
-0.069542544296821
 20
1.6783350270786
 10
-0.070920521877384
 20
1.6786918755914
 10
-0.07230683603004
 20
1.6790282417628
 10
-0.073003004486432
 20
1.6791887258704
 10
-0.073701119237968
 20
1.6793440673862
 10
-0.075103003636544
 20
1.679639291988
 10
-0.07651212110302
 20
1.679913852899
 10
-0.077928103364751
 20
1.6801676852991
 10
-0.079350582121818
 20
1.6804007222329
 10
-0.080779189179834
 20
1.6806128945943
 10
-0.081495675823901
 20
1.6807111343662
 10
-0.082213556588694
 20
1.6808041310813
 10
-0.083653316783003
 20
1.6809743581178
 10
-0.08509810259514
 20
1.6811234997317
 10
-0.086546112795859
 20
1.6812513614207
 10
-0.087995597920042
 20
1.6813578344554
 10
-0.089446190057426
 20
1.681442959309
 10
-0.090171786266195
 20
1.681477527834
 10
-0.090897521228423
 20
1.6815067728827
 10
-0.092349223351239
 20
1.6815493086862
 10
-0.093800928228477
 20
1.6815705969936
 10
-0.094526666607133
 20
1.6815732819449
 10
-0.095252267550012
 20
1.6815706649741
 10
-0.096702872908929
 20
1.6815495367967
 10
-0.09815237582731
 20
1.6815072337094
 10
-0.09887659871043
 20
1.6814781474291
 10
-0.099600407788654
 20
1.681443774091
 10
-0.10104660027369
 20
1.681359173478
 10
-0.10249058479637
 20
1.6812534445639
 10
-0.10393199293677
 20
1.6811265971727
 10
-0.1053704563677
 20
1.6809786382067
 10
-0.10680560687167
 20
1.6808095715681
 10
-0.10752182473941
 20
1.6807171232459
 10
-0.10823707634501
 20
1.6806193980562
 10
-0.1096644967858
 20
1.6804081152397
 10
-0.11108750026228
 20
1.6801757173059
 10
-0.11250571885846
 20
1.6799221948867
 10
-0.11391878459356
 20
1.6796475348636
 10
-0.11532628596092
 20
1.6793517296088
 10
-0.1160273124201
 20
1.6791960098432
 10
-0.1167261748561
 20
1.679035153328
 10
-0.1181172308548
 20
1.6786980778601
 10
-0.11949910038143
 20
1.6783405973287
 10
-0.1208714299878
 20
1.6779628034741
 10
-0.12223386645049
 20
1.6775647856534
 10
-0.12358605684947
 20
1.6771466308133
 10
-0.12425819958472
 20
1.6769300285107
 10
-0.12492764862361
 20
1.6767084234393
 10
-0.1262582895989
 20
1.6762502454833
 10
-0.12757762798543
 20
1.6757721762729
 10
-0.12888531233914
 20
1.6752742924034
 10
-0.13018099148475
 20
1.6747566676189
 10
-0.13146431439638
 20
1.6742193726832
 10
-0.13210123257009
 20
1.6739433701745
 10
-0.13273493003251
 20
1.673662475246
 10
-0.13399248712239
 20
1.6730860397089
 10
-0.13523663390122
 20
1.6724901270944
 10
-0.13646701779157
 20
1.6718747949242
 10
-0.13768328502916
 20
1.6712400971111
 10
-0.13888508023132
 20
1.6705860838713
 10
-0.13948043920016
 20
1.6702518486319
 10
-0.1400720459071
 20
1.6699128016611
 10
-0.14124382190822
 20
1.6692202931468
 10
-0.14239983116274
 20
1.6685087314126
 10
-0.14297152829406
 20
1.6681460015185
 10
-0.14353893257619
 20
1.6677786741421
 10
-0.14466066672592
 20
1.6670302922207
 10
-0.14576464243178
 20
1.6662637166132
 10
-0.14630984882833
 20
1.6658736472745
 10
-0.14685046923242
 20
1.6654790789059
 10
-0.14791775710377
 20
1.6646765112845
 10
-0.14896611612334
 20
1.6638561465465
 10
-0.14999515608395
 20
1.6630181181511
 10
-0.15100448606113
 20
1.6621625603109
 10
-0.15199371393874
 20
1.6612896081298
 10
-0.15248066660307
 20
1.6608466516697
 10
-0.15296244589839
 20
1.6603993977887
 10
-0.15391028587821
 20
1.6594920667831
 10
-0.15483669029042
 20
1.6585679016139
 10
-0.15574096588781
 20
1.6576273713959
 10
-0.15662270162192
 20
1.6566706863724
 10
-0.15748149437212
 20
1.6556980535246
 10
-0.15790216099338
 20
1.6552058227349
 10
-0.15831694040738
 20
1.6547096849345
 10
-0.15912863512305
 20
1.6537057980836
 10
-0.15991617278451
 20
1.6526866161648
 10
-0.16030075555806
 20
1.6521713609436
  0
LINE
  5
171
330
12A
100
AcDbEntity
  8
AM_4
100
AcDbLine
 10
-0.0068532071423878
 20
1.6224736519178
 30
0.0
 11
-0.028761744468355
 21
1.6521713609794
 31
0.0
  0
LINE
  5
172
330
12A
100
AcDbEntity
  8
AM_4
100
AcDbLine
 10
-0.16030075553164
 20
1.6521713609794
 30
0.0
 11
-0.18220929285761
 21
1.6224736519178
 31
0.0
  0
LWPOLYLINE
  5
173
330
12A
100
AcDbEntity
  8
AM_4
100
AcDbPolyline
 90
      131
 70
     0
 43
0.0
 10
-0.18220929289647
 20
1.6224736518652
 10
-0.18265474507648
 20
1.6218633033077
 10
-0.18352501402784
 20
1.6206313319509
 10
-0.18436745347518
 20
1.6193845331907
 10
-0.18477811843834
 20
1.6187556517408
 10
-0.18518168339818
 20
1.6181231580421
 10
-0.18596729061414
 20
1.6168475161993
 10
-0.18672310504839
 20
1.6155592540749
 10
-0.1874485192734
 20
1.614259276297
 10
-0.18814330399847
 20
1.6129478886946
 10
-0.18880722689126
 20
1.6116254035046
 10
-0.18912754178498
 20
1.6109600987178
 10
-0.18944005286404
 20
1.6102921396823
 10
-0.1900415443818
 20
1.6089484231647
 10
-0.19061146178804
 20
1.6075945870796
 10
-0.19114956364338
 20
1.6062309718996
 10
-0.19165560707141
 20
1.6048579255353
 10
-0.19212934810571
 20
1.6034758033676
 10
-0.19235402877191
 20
1.6027814519499
 10
-0.19257054203131
 20
1.602084968215
 10
-0.19297894371349
 20
1.6006857902382
 10
-0.19335430790656
 20
1.5992786467787
 10
-0.19352952434489
 20
1.5985722078221
 10
-0.19369638953481
 20
1.5978639221358
 10
-0.19400494393805
 20
1.5964420072828
 10
-0.19427972707401
 20
1.5950132995265
 10
-0.19440437836107
 20
1.5942965241043
 10
-0.19452049567033
 20
1.5935782021151
 10
-0.19472700731909
 20
1.5921371237999
 10
-0.19489902050752
 20
1.5906904783591
 10
-0.1950362905307
 20
1.5892387332256
 10
-0.19513840264739
 20
1.5877853809852
 10
-0.19520528276742
 20
1.5863326693423
 10
-0.19522554836606
 20
1.585606686308
 10
-0.19523705098226
 20
1.5848810225117
 10
-0.19523382726441
 20
1.5834308646536
 10
-0.19519573178747
 20
1.5819826193378
 10
-0.1951228851659
 20
1.5805367089828
 10
-0.19501540861348
 20
1.5790935542831
 10
-0.19487342402008
 20
1.5776535736334
 10
-0.19478952948423
 20
1.5769349035571
 10
-0.1946970539482
 20
1.5762171825623
 10
-0.19448642155133
 20
1.5747847931845
 10
-0.1942416504179
 20
1.5733568136813
 10
-0.19396286434507
 20
1.5719336478194
 10
-0.19365018704784
 20
1.570515694515
 10
-0.1933037418097
 20
1.5691033474515
 10
-0.19311789452316
 20
1.5683993977745
 10
-0.1929236510817
 20
1.5676969947566
 10
-0.19251003603721
 20
1.5662970187457
 10
-0.19206301609036
 20
1.5649037957336
 10
-0.19158270838601
 20
1.5635176959207
 10
-0.19106922726958
 20
1.562139083354
 10
-0.19052282209412
 20
1.5607686517985
 10
-0.19023769607205
 20
1.5600875101197
 10
-0.18994475225486
 20
1.5594093184509
 10
-0.18933559673453
 20
1.5580619455
 10
-0.18869572589484
 20
1.556726848752
 10
-0.18802550903445
 20
1.5554043362282
 10
-0.18732531433255
 20
1.5540947082918
 10
-0.18659550880391
 20
1.5527982578166
 10
-0.18621961634569
 20
1.5521550636524
 10
-0.1858364582695
 20
1.5515152703941
 10
-0.18504852734539
 20
1.5502460245726
 10
-0.18423207945228
 20
1.5489907921223
 10
-0.18381327489169
 20
1.5483685140564
 10
-0.18338747684671
 20
1.5477498383223
 10
-0.18251508067422
 20
1.5465234222619
 10
-0.18161525104411
 20
1.5453117971525
 10
-0.18115516095626
 20
1.5447116088032
 10
-0.1806883471245
 20
1.5441152106428
 10
-0.17973472725591
 20
1.5429339051348
 10
-0.17875474908094
 20
1.5417681180944
 10
-0.17774876968729
 20
1.5406180823524
 10
-0.17671714576082
 20
1.5394840263948
 10
-0.17566023374529
 20
1.5383661746358
 10
-0.17512240606661
 20
1.5378133944105
 10
-0.17457839000497
 20
1.537264747675
 10
-0.17347197098663
 20
1.5361799625341
 10
-0.17234133363063
 20
1.5351120331088
 10
-0.17118743810652
 20
1.534061708821
 10
-0.17001120672517
 20
1.5330296255832
 10
-0.16881300768021
 20
1.532015890862
 10
-0.16820578421411
 20
1.5315159379351
 10
-0.16759320508864
 20
1.5310206127242
 10
-0.16635215955429
 20
1.5300439000963
 10
-0.16509022870567
 20
1.5290858629736
 10
-0.16380776770491
 20
1.5281466125832
 10
-0.1625051297245
 20
1.527226261505
 10
-0.16118266638934
 20
1.5263249237541
 10
-0.16051410977385
 20
1.525881420911
 10
-0.15984072818199
 20
1.5254427148287
 10
-0.15847966480955
 20
1.5245797517277
 10
-0.15709982553105
 20
1.5237361529417
 10
-0.15570155944458
 20
1.5229120384216
 10
-0.15428521573388
 20
1.5221075295292
 10
-0.15285114387441
 20
1.5213227489723
 10
-0.15212756922143
 20
1.5209377955155
 10
-0.15139969379946
 20
1.5205578207292
 10
-0.14993121602685
 20
1.5198128699664
 10
-0.14844606174734
 20
1.5190880229513
 10
-0.14694458287618
 20
1.5183834069651
 10
-0.14542713206926
 20
1.5176991502182
 10
-0.14389406270578
 20
1.517035381771
 10
-0.14312178168272
 20
1.5167112212059
 10
-0.14234572883948
 20
1.5163922314628
 10
-0.14078248512077
 20
1.5157698298523
 10
-0.13920576470711
 20
1.5151687101741
 10
-0.13841290980763
 20
1.5148763189193
 10
-0.13761712037434
 20
1.5145893779472
 10
-0.13601692278786
 20
1.5140318614886
 10
-0.1344055414545
 20
1.513496192026
 10
-0.13359577227137
 20
1.5132365605018
 10
-0.13278334559651
 20
1.5129824037865
 10
-0.13115070430614
 20
1.5124905338242
 10
-0.12950798666916
 20
1.5120206218546
 10
-0.12785556185965
 20
1.5115727100992
 10
-0.12619379920852
 20
1.511146843141
 10
-0.12452306824812
 20
1.5107430677923
 10
-0.12368445519199
 20
1.5105494796806
 10
-0.12284373873543
 20
1.5103614329768
 10
-0.12115618065636
 20
1.5100019896271
 10
-0.11946076421353
 20
1.5096647905975
 10
-0.11775785980012
 20
1.5093498905945
 10
-0.11604783796226
 20
1.5090573461252
 10
-0.11433106935245
 20
1.5087872154637
 10
-0.1134702708531
 20
1.5086605740007
 10
-0.11260792467652
 20
1.5085395586367
 10
-0.1108787746367
 20
1.5083144374288
 10
-0.10914398987318
 20
1.5081119154067
 10
-0.10827460026398
 20
1.5080191494529
  0
LWPOLYLINE
  5
174
330
12A
100
AcDbEntity
  8
AM_4
100
AcDbPolyline
 90
      131
 70
     0
 43
0.0
 10
-0.080787899635198
 20
1.5080191494633
 10
-0.079920323387253
 20
1.5081117158792
 10
-0.078188333583812
 20
1.5083138685909
 10
-0.076460873479505
 20
1.5085386962775
 10
-0.075598959332537
 20
1.5086596068902
 10
-0.074738318319021
 20
1.5087861788923
 10
-0.073021043243423
 20
1.5090562985026
 10
-0.071309423295041
 20
1.5093490393794
 10
-0.069603833435713
 20
1.5096643881038
 10
-0.067904648580622
 20
1.5100023336886
 10
-0.066212243649949
 20
1.5103628677154
 10
-0.065368700837389
 20
1.5105516035029
 10
-0.064526993640566
 20
1.5107459844852
 10
-0.062849273720015
 20
1.511151681183
 10
-0.061180284291346
 20
1.5115797403634
 10
-0.059522231688948
 20
1.5120296180798
 10
-0.057875535671381
 20
1.5125011871377
 10
-0.05624054730446
 20
1.5129943391317
 10
-0.055427553156759
 20
1.5132489753141
 10
-0.054617617496287
 20
1.5135089673427
 10
-0.053007096933545
 20
1.514044966745
 10
-0.05140933603093
 20
1.5146022340314
 10
-0.050615349873508
 20
1.5148888113274
 10
-0.049824684896573
 20
1.5151806676546
 10
-0.048253493316234
 20
1.515780167883
 10
-0.046696110758943
 20
1.5164006368695
 10
-0.04592270699318
 20
1.5167187046046
 10
-0.045152886406689
 20
1.5170419787314
 10
-0.043624169210637
 20
1.5177040996393
 10
-0.042110307976238
 20
1.5183869079127
 10
-0.040611651479466
 20
1.5190903141199
 10
-0.039128548616257
 20
1.5198142311791
 10
-0.037661348587082
 20
1.5205585744584
 10
-0.036933821397381
 20
1.5209383801767
 10
-0.036210401118356
 20
1.5213232618713
 10
-0.034776056722234
 20
1.5221082139644
 10
-0.033358666996062
 20
1.5229133539936
 10
-0.031958584962509
 20
1.5237386079857
 10
-0.030576165451139
 20
1.5245839047803
 10
-0.029211765521811
 20
1.5254491760492
 10
-0.028536435205117
 20
1.525889281532
 10
-0.027865902610774
 20
1.526334250699
 10
-0.026539955228828
 20
1.5272383492751
 10
-0.025234476244374
 20
1.5281611875933
 10
-0.023949837485164
 20
1.5291025961427
 10
-0.022686409525599
 20
1.5300624040521
 10
-0.021444561797707
 20
1.5310404391001
 10
-0.020831845691335
 20
1.5315362376111
 10
-0.020224662738532
 20
1.5320365277068
 10
-0.019027079971978
 20
1.5330504949027
 10
-0.01785218052278
 20
1.5340821642751
 10
-0.016700331059892
 20
1.5351313578869
 10
-0.015571898166247
 20
1.5361978961664
 10
-0.014467248631481
 20
1.5372815977684
 10
-0.01392395737841
 20
1.5378298276183
 10
-0.013386749763936
 20
1.5383822794019
 10
-0.012330769717955
 20
1.5394997556266
 10
-0.011299677832256
 20
1.5406338386154
 10
-0.010293844975011
 20
1.5417843378852
 10
-0.0093136438910766
 20
1.5429510599947
 10
-0.0083594495468198
 20
1.5441338082111
 10
-0.0078922227698599
 20
1.5447311296419
 10
-0.007431639467955
 20
1.5453323821485
 10
-0.0065305940659168
 20
1.546546577379
 10
-0.0056566969484715
 20
1.5477761850204
 10
-0.0052300498199339
 20
1.5483967018953
 10
-0.0048103352105535
 20
1.5490209913036
 10
-0.0039924357956531
 20
1.5502799325479
 10
-0.0032040700788197
 20
1.5515515428045
 10
-0.0028210433246661
 20
1.552192004924
 10
-0.0024454963128012
 20
1.5528355226988
 10
-0.0017169695555508
 20
1.5541315758654
 10
-0.0010187474849383
 20
1.5554393995443
 10
-0.0003510901767584
 20
1.5567586842557
 10
0.0002857401412887
 20
1.5580891135143
 10
0.0008914793564441
 20
1.5594303635911
 10
0.0011826068193073
 20
1.5601049432423
 10
0.0014658617546286
 20
1.5607821033231
 10
0.0020086203164071
 20
1.5621439939787
 10
0.0025194870198041
 20
1.5635156891795
 10
0.0029981931439551
 20
1.5648968348822
 10
0.0034444695669874
 20
1.5662870694228
 10
0.0038580470510464
 20
1.567686023623
 10
0.0040524895880995
 20
1.5683886532131
 10
0.0042386565069969
 20
1.5690933209602
 10
0.0045860292310909
 20
1.5705085777981
 10
0.0048998971057938
 20
1.5719314036774
 10
0.0051799927570261
 20
1.5733614016611
 10
0.0054260496603189
 20
1.574798168731
 10
0.0056378021887993
 20
1.5762412962282
 10
0.005730719652704
 20
1.5769650187366
 10
0.0058148551152483
 20
1.5776891849943
 10
0.0059567373669645
 20
1.5791379907662
 10
0.0060635083609676
 20
1.5805870775882
 10
0.0061352558921887
 20
1.582036024409
 10
0.0061720674750511
 20
1.5834844093563
 10
0.0061740306905241
 20
1.5849318102611
 10
0.0061619716154254
 20
1.5856550098247
 10
0.006141233454433
 20
1.5863778052125
 10
0.0060737642046259
 20
1.5878219731332
 10
0.0059717120058512
 20
1.5892638943643
 10
0.0058351665724436
 20
1.5907031512491
 10
0.0056642182101395
 20
1.5921393287044
 10
0.0054589576795142
 20
1.5935720147705
 10
0.005343488787584
 20
1.5942869207775
 10
0.0052194759846447
 20
1.5950008011289
 10
0.0049458640916216
 20
1.5964252835791
 10
0.0046382125824619
 20
1.5978450624668
 10
0.0044716500752718
 20
1.5985530645181
 10
0.0042966112507848
 20
1.5992597430541
 10
0.0039211486463027
 20
1.6006689358278
 10
0.0035119115757405
 20
1.6020722567381
 10
0.0032946541352128
 20
1.6027715967648
 10
0.003068984568222
 20
1.6034693273631
 10
0.0025924509441765
 20
1.6048597704121
 10
0.0020831650242015
 20
1.6062411870584
 10
0.0015420420629784
 20
1.6076115505545
 10
0.0009694423768
 20
1.6089705232125
 10
0.0003657257613515
 20
1.6103177752487
 10
0.0000523108748194
 20
1.6109869051367
 10
-0.0002687486064426
 20
1.6116529847757
 10
-0.000933622266499
 20
1.6129758377407
 10
-0.0016285375677497
 20
1.6142860278164
 10
-0.002353137749415
 20
1.6155832562453
 10
-0.0031070670072732
 20
1.6168672316459
 10
-0.0038899705417519
 20
1.618137669783
 10
-0.0042921770698116
 20
1.6187677254455
 10
-0.0047014945855646
 20
1.6193942933099
 10
-0.0055412864095239
 20
1.6206368314863
 10
-0.0064089943059955
 20
1.6218650198788
 10
-0.0068532071430485
 20
1.6224736519187
  0
LINE
  5
175
330
12A
100
AcDbEntity
  8
AM_4
100
AcDbLine
 10
0.015704749999993
 20
1.4967937707572
 30
0.0
 11
0.015704749999993
 21
1.5102781865889
 31
0.0
  0
LINE
  5
176
330
12A
100
AcDbEntity
  8
AM_4
100
AcDbLine
 10
-0.20476724999999
 20
1.5102781865889
 30
0.0
 11
-0.20476724999999
 21
1.497228751913
 31
0.0
  0
LINE
  5
177
330
12A
100
AcDbEntity
  8
AM_4
100
AcDbLine
 10
-0.9453125
 20
-1.875
 30
0.0
 11
0.9453125
 21
-1.875
 31
0.0
  0
LINE
  5
178
330
12A
100
AcDbEntity
  8
AM_4
100
AcDbLine
 10
-0.55265801055069
 20
0.91888186558587
 30
0.0
 11
0.55265801055069
 21
0.91888186558587
 31
0.0
  0
LINE
  5
179
330
12A
100
AcDbEntity
  8
AM_4
100
AcDbLine
 10
-0.41429275216588
 20
1.903401835727
 30
0.0
 11
0.41429275216588
 21
1.903401835727
 31
0.0
  0
LINE
  5
17A
330
12A
100
AcDbEntity
  8
AM_4
100
AcDbLine
 10
-0.53907088014108
 20
1.0155593219165
 30
0.0
 11
0.53907088014108
 21
1.0155593219165
 31
0.0
  0
LINE
  5
17B
330
12A
100
AcDbEntity
  8
AM_4
100
AcDbLine
 10
-0.40730461715491
 20
1.953125
 30
0.0
 11
0.40730461715491
 21
1.953125
 31
0.0
  0
LINE
  5
17C
330
12A
100
AcDbEntity
  8
AM_4
100
AcDbLine
 10
-0.40730461715491
 20
1.953125
 30
0.0
 11
-0.9453125
 21
-1.875
 31
0.0
  0
LINE
  5
17D
330
12A
100
AcDbEntity
  8
AM_4
100
AcDbLine
 10
0.9453125
 20
-1.875
 30
0.0
 11
0.40730461715491
 21
1.953125
 31
0.0
  0
ELLIPSE
  5
17E
330
12A
100
AcDbEntity
  8
AM_4
100
AcDbEllipse
 10
-0.09453125
 20
1.6359880234764
 30
0.0
 11
-0.05631349694459298
 21
8.391365022570420E-10
 31
0.0
210
0.0
220
0.0
230
1.0
 40
0.7071067811865497
 41
0.0
 42
6.283185307179586
  0
ELLIPSE
  5
17F
330
12A
100
AcDbEntity
  8
AM_4
100
AcDbEllipse
 10
-0.0945312500000535
 20
1.627911683846328
 30
0.0
 11
0.07418013027142739
 21
0.0
 31
0.0
210
0.0
220
0.0
230
1.0
 40
0.707106781186547
 41
4.71238898038469
 42
6.763998961941059
  0
ELLIPSE
  5
180
330
12A
100
AcDbEntity
  8
AM_4
100
AcDbEllipse
 10
-0.0945312499999567
 20
1.627911683846321
 30
0.0
 11
0.07418013027141807
 21
0.0
 31
0.0
210
0.0
220
0.0
230
1.0
 40
0.7071067811865461
 41
2.66077899882811
 42
4.71238898038469
  0
ELLIPSE
  5
181
330
12A
100
AcDbEntity
  8
AM_4
100
AcDbEllipse
 10
-0.0945312499999479
 20
1.590132812585164
 30
0.0
 11
0.09889033813680362
 21
1.473580869090611E-9
 31
0.0
210
0.0
220
0.0
230
1.0
 40
0.7071067811865493
 41
4.71238896984745
 42
6.763998943136686
  0
ELLIPSE
  5
182
330
12A
100
AcDbEntity
  8
AM_4
100
AcDbEllipse
 10
-0.0945312499999957
 20
1.590132812585207
 30
0.0
 11
0.09889033813686338
 21
1.473580869091502E-9
 31
0.0
210
0.0
220
0.0
230
1.0
 40
0.7071067811865464
 41
2.660778980767202
 42
4.712388969847933
  0
ELLIPSE
  5
183
330
12A
100
AcDbEntity
  8
AM_4
100
AcDbEllipse
 10
-0.0945312500000338
 20
1.510713167744824
 30
0.0
 11
0.110236000000062
 21
0.0
 31
0.0
210
0.0
220
0.0
230
1.0
 40
0.7071067811865477
 41
2.563977678314757
 42
6.283185307179586
  0
ELLIPSE
  5
184
330
12A
100
AcDbEntity
  8
AM_4
100
AcDbEllipse
 10
-0.0945312499998857
 20
1.510713167744818
 30
0.0
 11
0.1102359999999137
 21
0.0
 31
0.0
210
0.0
220
0.0
230
1.0
 40
0.7071067811865399
 41
0.0
 42
0.5776086532555728
  0
ELLIPSE
  5
185
330
12A
100
AcDbEntity
  8
AM_4
100
AcDbEllipse
 10
-0.0945312500000692
 20
1.496793770757284
 30
0.0
 11
0.110236000000026
 21
1.642644405365379E-9
 31
0.0
210
0.0
220
0.0
230
1.0
 40
0.707106781187324
 41
4.712388969848606
 42
6.283187037607677
  0
ELLIPSE
  5
186
330
12A
100
AcDbEntity
  8
AM_4
100
AcDbEllipse
 10
-0.0945312499999287
 20
1.496793770757288
 30
0.0
 11
0.1102360000000312
 21
0.0
 31
0.0
210
0.0
220
0.0
230
1.0
 40
0.7071067811873232
 41
3.141592653589793
 42
4.71238898038469
  0
ELLIPSE
  5
187
330
12A
100
AcDbEntity
  8
AM_4
100
AcDbEllipse
 10
-0.0945312500000946
 20
1.496793770757293
 30
0.0
 11
0.15748000000019
 21
0.0
 31
0.0
210
0.0
220
0.0
230
1.0
 40
0.7071067811865526
 41
4.71238898038469
 42
7.160084862282527
  0
ELLIPSE
  5
188
330
12A
100
AcDbEntity
  8
AM_4
100
AcDbEllipse
 10
-0.0945312499999085
 20
1.496793770757295
 30
0.0
 11
0.1574800000001933
 21
0.0
 31
0.0
210
0.0
220
0.0
230
1.0
 40
0.7071067811865519
 41
2.264692793654147
 42
4.71238898038469
  0
LWPOLYLINE
  5
189
330
12A
100
AcDbEntity
  8
AM_4
100
AcDbPolyline
 90
       23
 70
     0
 43
0.0
 10
-0.18545265906712
 20
1.3754921624483
 10
-0.18279626996124
 20
1.3760284172099
 10
-0.1775319495301
 20
1.377055013885
 10
-0.17232694219395
 20
1.3780211499086
 10
-0.16974471618961
 20
1.3784817942368
 10
-0.16717497007983
 20
1.3789276039512
 10
-0.16206982206894
 20
1.3797750083635
 10
-0.15700532780331
 20
1.3805638496877
 10
-0.15197533144601
 20
1.3812944682237
 10
-0.14697366494718
 20
1.3819670566224
 10
-0.14199412055408
 20
1.3825816574664
 10
-0.1395106863743
 20
1.3828671839931
 10
-0.13703042228561
 20
1.3831381597835
 10
-0.13207619606773
 20
1.3836362944239
 10
-0.12712493819735
 20
1.3840756282135
 10
-0.12216998176543
 20
1.3844555567791
 10
-0.11720446062605
 20
1.3847752959142
 10
-0.11222127044423
 20
1.3850338713345
 10
-0.10972075387261
 20
1.3851398632902
 10
-0.10721302629064
 20
1.3852301066364
 10
-0.10217201617262
 20
1.3853626092416
 10
-0.097090149797047
 20
1.3854297540671
 10
-0.09453125
 20
1.3854382413025
  0
LWPOLYLINE
  5
18A
330
12A
100
AcDbEntity
  8
AM_4
100
AcDbPolyline
 90
       23
 70
     0
 43
0.0
 10
-0.09453125
 20
1.3854382413025
 10
-0.091972350202953
 20
1.3854297540671
 10
-0.086890483827383
 20
1.3853626092416
 10
-0.081849473709364
 20
1.3852301066364
 10
-0.079341746127386
 20
1.3851398632902
 10
-0.076841229555765
 20
1.3850338713345
 10
-0.071858039373948
 20
1.3847752959142
 10
-0.066892518234566
 20
1.3844555567791
 10
-0.061937561802653
 20
1.3840756282135
 10
-0.056986303932275
 20
1.3836362944239
 10
-0.052032077714393
 20
1.3831381597835
 10
-0.049551813625701
 20
1.3828671839931
 10
-0.047068379445916
 20
1.3825816574664
 10
-0.042088835052821
 20
1.3819670566224
 10
-0.037087168553985
 20
1.3812944682237
 10
-0.032057172196688
 20
1.3805638496877
 10
-0.026992677931057
 20
1.3797750083635
 10
-0.021887529920175
 20
1.3789276039512
 10
-0.019317783810388
 20
1.3784817942368
 10
-0.01673555780605
 20
1.3780211499086
 10
-0.011530550469896
 20
1.377055013885
 10
-0.0062662300387591
 20
1.3760284172099
 10
-0.0036098409328829
 20
1.3754921624483
  0
LWPOLYLINE
  5
18B
330
12A
100
AcDbEntity
  8
AM_4
100
AcDbPolyline
 90
       23
 70
     0
 43
0.0
 10
-0.003609840932883
 20
1.297948116979
 10
-0.006266168417998
 20
1.2974118866185
 10
-0.011530372202954
 20
1.2963853363586
 10
-0.016735272337251
 20
1.2954192435067
 10
-0.019317448531148
 20
1.2949586195276
 10
-0.021887147493476
 20
1.2945128293282
 10
-0.026992209618405
 20
1.2936654614198
 10
-0.032056629934044
 20
1.2928766531974
 10
-0.037086565185473
 20
1.2921460643304
 10
-0.04208818438354
 20
1.2914735021484
 10
-0.047067696304124
 20
1.2908589240614
 10
-0.04955112014748
 20
1.290573407617
 10
-0.052031378023886
 20
1.290302441047
 10
-0.056985604795979
 20
1.2898043222745
 10
-0.061936881598636
 20
1.2893650009523
 10
-0.066891876725883
 20
1.2889850815056
 10
-0.071857457834027
 20
1.2886653482118
 10
-0.076840730911296
 20
1.2884067754481
 10
-0.079341298088703
 20
1.2883007836622
 10
-0.08184908270306
 20
1.2882105397362
 10
-0.086890227203376
 20
1.2880780338015
 10
-0.091972256918084
 20
1.2880108829077
 10
-0.09453125
 20
1.2880023916782
  0
LWPOLYLINE
  5
18C
330
12A
100
AcDbEntity
  8
AM_4
100
AcDbPolyline
 90
       23
 70
     0
 43
0.0
 10
-0.09453125
 20
1.2880023916782
 10
-0.097090243081916
 20
1.28801088066
 10
-0.10217227279662
 20
1.2880780275063
 10
-0.10721341729694
 20
1.2882105299718
 10
-0.1097212019113
 20
1.2883007723734
 10
-0.1122217690887
 20
1.2884067627719
 10
-0.11720504216597
 20
1.2886653331627
 10
-0.12217062327412
 20
1.2889850646062
 10
-0.12712561840136
 20
1.2893649827105
 10
-0.13207689520402
 20
1.2898043031857
 10
-0.13703112197611
 20
1.2903024215954
 10
-0.13951137985252
 20
1.2905733881625
 10
-0.14199480369588
 20
1.2908589047216
 10
-0.14697431561646
 20
1.2914734833873
 10
-0.15197593481453
 20
1.2921460466081
 10
-0.15700587006596
 20
1.2928766369688
 10
-0.1620702903816
 20
1.2936654471358
 10
-0.16717535250652
 20
1.2945128174369
 10
-0.16974505146885
 20
1.2949586090001
 10
-0.17232722766275
 20
1.2954192344546
 10
-0.17753212779705
 20
1.296385330592
 10
-0.182796331582
 20
1.2974118845841
 10
-0.18545265906712
 20
1.297948116979
  0
LINE
  5
18D
330
12A
100
AcDbEntity
  8
AM_4
100
AcDbLine
 10
-0.003609840932883
 20
1.3754921624483
 30
0.0
 11
-0.003609840932883
 21
1.297948116979
 31
0.0
  0
LWPOLYLINE
  5
18E
330
12A
100
AcDbEntity
  8
AM_4
100
AcDbPolyline
 90
       23
 70
     0
 43
0.0
 10
-0.0036098409328829
 20
1.3754921624483
 10
-0.0021605429026464
 20
1.3778517263975
 10
0.0006871110342542
 20
1.3824454017132
 10
0.0034715061218198
 20
1.3868804616533
 10
0.004841648713682
 20
1.3890415774045
 10
0.0061979367898952
 20
1.391166630228
 10
0.0088713852443027
 20
1.3953129404228
 10
0.011496555089734
 20
1.3993277994608
 10
0.014077901709073
 20
1.4032190471867
 10
0.016619659833372
 20
1.4069940084365
 10
0.019125868679931
 20
1.4106595401366
 10
0.020366856626011
 20
1.4124532952897
 10
0.021600394988247
 20
1.4142220737795
 10
0.024046954243584
 20
1.4176876538328
 10
0.026469130344303
 20
1.421061972573
 10
0.028870393940997
 20
1.4243504017687
 10
0.031254119651972
 20
1.4275580215892
 10
0.033623602340215
 20
1.4306896470681
 10
0.034804014216963
 20
1.432228400152
 10
0.035982072621048
 20
1.4337498524143
 10
0.038332711756787
 20
1.4367429934303
 10
0.040678666084672
 20
1.43967322827
 10
0.041850863600676
 20
1.4411160060298
  0
LWPOLYLINE
  5
18F
330
12A
100
AcDbEntity
  8
AM_4
100
AcDbPolyline
 90
       23
 70
     0
 43
0.0
 10
0.041850863600676
 20
1.4411160060298
 10
0.04302306111669
 20
1.4425445208534
 10
0.045369015444591
 20
1.445360689504
 10
0.047719654580345
 20
1.4481254258376
 10
0.048897712984437
 20
1.4494896204314
 10
0.050078124861191
 20
1.4508422786319
 10
0.052447607549445
 20
1.4535146845601
 10
0.054831333260428
 20
1.4561459827748
 10
0.057232596857129
 20
1.4587394289738
 10
0.059654772957852
 20
1.4612982090752
 10
0.062101332213191
 20
1.4638254526234
 10
0.063334870575428
 20
1.4650782140225
 10
0.064575858521508
 20
1.4663242460502
 10
0.067082067368065
 20
1.4687976459124
 10
0.06962382549236
 20
1.4712486922332
 10
0.072205172111692
 20
1.4736804220794
 10
0.074830341957114
 20
1.4760958835125
 10
0.077503790411511
 20
1.4784981500639
 10
0.078860078487717
 20
1.4796953064166
 10
0.080230221079572
 20
1.4808903358981
 10
0.083014616167122
 20
1.4832756118413
 10
0.085862270104004
 20
1.4856572224783
 10
0.08731156813423
 20
1.486847691903
  0
LWPOLYLINE
  5
190
330
12A
100
AcDbEntity
  8
AM_4
100
AcDbPolyline
 90
       23
 70
     0
 43
0.0
 10
0.08731156813423
 20
1.4093036464336
 10
0.085862270103994
 20
1.4069440824844
 10
0.083014616167093
 20
1.4023504071687
 10
0.080230221079528
 20
1.3979153472286
 10
0.078860078487666
 20
1.3957542314775
 10
0.077503790411453
 20
1.393629178654
 10
0.074830341957045
 20
1.3894828684592
 10
0.072205172111614
 20
1.3854680094212
 10
0.069623825492276
 20
1.3815767616952
 10
0.067082067367977
 20
1.3778018004455
 10
0.064575858521418
 20
1.3741362687453
 10
0.063334870575338
 20
1.3723425135923
 10
0.062101332213102
 20
1.3705737351024
 10
0.059654772957765
 20
1.3671081550491
 10
0.057232596857046
 20
1.3637338363089
 10
0.054831333260352
 20
1.3604454071132
 10
0.052447607549378
 20
1.3572377872927
 10
0.050078124861135
 20
1.3541061618139
 10
0.048897712984387
 20
1.3525674087299
 10
0.047719654580302
 20
1.3510459564677
 10
0.045369015444564
 20
1.3480528154516
 10
0.043023061116679
 20
1.3451225806119
 10
0.041850863600675
 20
1.3436798028521
  0
LWPOLYLINE
  5
191
330
12A
100
AcDbEntity
  8
AM_4
100
AcDbPolyline
 90
       23
 70
     0
 43
0.0
 10
0.041850863600675
 20
1.3436798028521
 10
0.040678666084661
 20
1.3422512880285
 10
0.038332711756759
 20
1.3394351193779
 10
0.035982072621005
 20
1.3366703830443
 10
0.034804014216914
 20
1.3353061884505
 10
0.03362360234016
 20
1.33395353025
 10
0.031254119651905
 20
1.3312811243218
 10
0.028870393940922
 20
1.3286498261071
 10
0.026469130344221
 20
1.3260563799081
 10
0.024046954243497
 20
1.3234975998067
 10
0.021600394988158
 20
1.3209703562585
 10
0.020366856625921
 20
1.3197175948594
 10
0.019125868679841
 20
1.3184715628317
 10
0.016619659833284
 20
1.3159981629696
 10
0.014077901708989
 20
1.3135471166487
 10
0.011496555089657
 20
1.3111153868025
 10
0.0088713852442339
 20
1.3086999253695
 10
0.0061979367898374
 20
1.306297658818
 10
0.0048416487136305
 20
1.3051005024653
 10
0.0034715061217753
 20
1.3039054729839
 10
0.0006871110342255
 20
1.3015201970406
 10
-0.0021605429026567
 20
1.2991385864037
 10
-0.003609840932883
 20
1.297948116979
  0
LINE
  5
192
330
12A
100
AcDbEntity
  8
AM_4
100
AcDbLine
 10
0.08731156813423
 20
1.486847691903
 30
0.0
 11
0.08731156813423
 21
1.4093036464336
 31
0.0
  0
LWPOLYLINE
  5
193
330
12A
100
AcDbEntity
  8
AM_4
100
AcDbPolyline
 90
       23
 70
     0
 43
0.0
 10
0.08731156813423
 20
1.486847691903
 10
0.085862270103994
 20
1.4892072558522
 10
0.083014616167093
 20
1.4938009311679
 10
0.080230221079528
 20
1.498235991108
 10
0.078860078487666
 20
1.5003971068591
 10
0.077503790411453
 20
1.5025221596826
 10
0.074830341957045
 20
1.5066684698774
 10
0.072205172111614
 20
1.5106833289154
 10
0.069623825492276
 20
1.5145745766414
 10
0.067082067367977
 20
1.5183495378911
 10
0.064575858521418
 20
1.5220150695913
 10
0.063334870575338
 20
1.5238088247443
 10
0.062101332213102
 20
1.5255776032342
 10
0.059654772957765
 20
1.5290431832875
 10
0.057232596857046
 20
1.5324175020277
 10
0.054831333260352
 20
1.5357059312234
 10
0.052447607549378
 20
1.5389135510439
 10
0.050078124861134
 20
1.5420451765227
 10
0.048897712984386
 20
1.5435839296067
 10
0.047719654580302
 20
1.5451053818689
 10
0.045369015444563
 20
1.548098522885
 10
0.043023061116679
 20
1.5510287577247
 10
0.041850863600674
 20
1.5524715354844
  0
LWPOLYLINE
  5
194
330
12A
100
AcDbEntity
  8
AM_4
100
AcDbPolyline
 90
       23
 70
     0
 43
0.0
 10
0.041850863600674
 20
1.5524715354844
 10
0.040899678027342
 20
1.5536318008367
 10
0.03899647384355
 20
1.5559251948743
 10
0.037090768115078
 20
1.5581840484126
 10
0.036136453897092
 20
1.5593011247565
 10
0.035180885019526
 20
1.5604102820319
 10
0.033265136493139
 20
1.5626057646475
 10
0.031341817228799
 20
1.5647723187602
 10
0.029409199567231
 20
1.5669117255358
 10
0.027465528248957
 20
1.5690257297422
 10
0.02550901499307
 20
1.5711160445731
 10
0.024525373390767
 20
1.5721528463798
 10
0.023537832866995
 20
1.5731843563876
 10
0.021550110409148
 20
1.575232329394
 10
0.019543925463621
 20
1.5772616103051
 10
0.017517298682843
 20
1.5792738329949
 10
0.01546818665031
 20
1.5812706231853
 10
0.013394474571119
 20
1.5832536031933
 10
0.012347711214823
 20
1.5842404216107
 10
0.011293968472883
 20
1.585224396771
 10
0.0091643868537315
 20
1.5871846340703
 10
0.0070033517072505
 20
1.5891359567693
 10
0.0059102671808149
 20
1.590108792626
  0
LWPOLYLINE
  5
195
330
12A
100
AcDbEntity
  8
AM_4
100
AcDbPolyline
 90
       23
 70
     0
 43
0.0
 10
-0.19497289281047
 20
1.5901086409759
 10
-0.19606597288539
 20
1.5891358045669
 10
-0.19822699939292
 20
1.5871844815729
 10
-0.20035657270067
 20
1.5852242450536
 10
-0.20141031140098
 20
1.584240270685
 10
-0.20245707078723
 20
1.5832534533266
 10
-0.2045307751283
 20
1.5812704762379
 10
-0.20657987967163
 20
1.5792736900353
 10
-0.20860649918883
 20
1.5772614724034
 10
-0.21061267707433
 20
1.5752321976238
 10
-0.2126003926547
 20
1.5731842318281
 10
-0.21358792980188
 20
1.5721527258326
 10
-0.21457156806577
 20
1.5711159283109
 10
-0.21652807474993
 20
1.5690256228733
 10
-0.21847173962125
 20
1.5669116291674
 10
-0.22040435094278
 20
1.564772234013
 10
-0.22232766395667
 20
1.5626056926576
 10
-0.22424340630532
 20
1.560410223953
 10
-0.22519897211611
 20
1.5593010740717
 10
-0.22615328327932
 20
1.5581840054179
 10
-0.22805898292618
 20
1.5559251681593
 10
-0.22996218105223
 20
1.5536317916212
 10
-0.23091336360067
 20
1.5524715354844
  0
LWPOLYLINE
  5
196
330
12A
100
AcDbEntity
  8
AM_4
100
AcDbPolyline
 90
       23
 70
     0
 43
0.0
 10
-0.23091336360067
 20
1.5524715354844
 10
-0.23208556111669
 20
1.551028764516
 10
-0.23443151544459
 20
1.5480985421034
 10
-0.23678215458034
 20
1.5451054119851
 10
-0.23796021298444
 20
1.5435839646016
 10
-0.23914062486119
 20
1.5420452160177
 10
-0.24151010754944
 20
1.5389135984053
 10
-0.24389383326043
 20
1.5357059849413
 10
-0.24629509685713
 20
1.5324175605905
 10
-0.24871727295785
 20
1.529043245178
 10
-0.25116383221319
 20
1.5255776669251
 10
-0.25239737057543
 20
1.5238088887586
 10
-0.25363835852151
 20
1.5220151335415
 10
-0.25614456736806
 20
1.5183496005407
 10
-0.25868632549236
 20
1.5145746364075
 10
-0.26126767211169
 20
1.5106833841871
 10
-0.26389284195711
 20
1.5066685190107
 10
-0.26656629041151
 20
1.5025222009952
 10
-0.26792257848772
 20
1.500397143617
 10
-0.26929272107957
 20
1.4982360228736
 10
-0.27207711616712
 20
1.49380095161
 10
-0.274924770104
 20
1.4892072631376
 10
-0.27637406813423
 20
1.486847691903
  0
LWPOLYLINE
  5
197
330
12A
100
AcDbEntity
  8
AM_4
100
AcDbPolyline
 90
       23
 70
     0
 43
0.0
 10
-0.23091336360068
 20
1.3436798028521
 10
-0.23208556111669
 20
1.3451225738205
 10
-0.23443151544459
 20
1.3480527962331
 10
-0.23678215458034
 20
1.3510459263515
 10
-0.23796021298444
 20
1.3525673737349
 10
-0.23914062486119
 20
1.3541061223188
 10
-0.24151010754944
 20
1.3572377399312
 10
-0.24389383326043
 20
1.3604453533952
 10
-0.24629509685713
 20
1.363733777746
 10
-0.24871727295785
 20
1.3671080931586
 10
-0.25116383221319
 20
1.3705736714114
 10
-0.25239737057543
 20
1.3723424495779
 10
-0.25363835852151
 20
1.3741362047951
 10
-0.25614456736806
 20
1.3778017377958
 10
-0.25868632549236
 20
1.3815767019291
 10
-0.26126767211169
 20
1.3854679541495
 10
-0.26389284195711
 20
1.3894828193259
 10
-0.26656629041151
 20
1.3936291373414
 10
-0.26792257848772
 20
1.3957541947196
 10
-0.26929272107957
 20
1.397915315463
 10
-0.27207711616712
 20
1.4023503867266
 10
-0.274924770104
 20
1.406944075199
 10
-0.27637406813423
 20
1.4093036464336
  0
LINE
  5
198
330
12A
100
AcDbEntity
  8
AM_4
100
AcDbLine
 10
-0.27637406813423
 20
1.486847691903
 30
0.0
 11
-0.27637406813423
 21
1.4093036464336
 31
0.0
  0
LWPOLYLINE
  5
199
330
12A
100
AcDbEntity
  8
AM_4
100
AcDbPolyline
 90
       23
 70
     0
 43
0.0
 10
-0.27637406813423
 20
1.486847691903
 10
-0.27492477010399
 20
1.4856572151929
 10
-0.27207711616709
 20
1.4832755913991
 10
-0.26929272107953
 20
1.4808903041324
 10
-0.26792257848767
 20
1.4796952696586
 10
-0.26656629041145
 20
1.4784981087512
 10
-0.26389284195705
 20
1.4760958343791
 10
-0.26126767211162
 20
1.4736803668076
 10
-0.25868632549228
 20
1.4712486324669
 10
-0.25614456736798
 20
1.4687975832625
 10
-0.25363835852142
 20
1.4663241820998
 10
-0.25239737057534
 20
1.465078150008
 10
-0.2511638322131
 20
1.4638253889322
 10
-0.24871727295777
 20
1.4612981471845
 10
-0.24629509685705
 20
1.4587393704108
 10
-0.24389383326035
 20
1.4561459290566
 10
-0.24151010754938
 20
1.4535146371985
 10
-0.23914062486114
 20
1.4508422391368
 10
-0.23796021298439
 20
1.4494895854364
 10
-0.2367821545803
 20
1.4481253957214
 10
-0.23443151544456
 20
1.4453606702855
 10
-0.23208556111668
 20
1.442544514062
 10
-0.23091336360068
 20
1.4411160060298
  0
LWPOLYLINE
  5
19A
330
12A
100
AcDbEntity
  8
AM_4
100
AcDbPolyline
 90
       23
 70
     0
 43
0.0
 10
-0.23091336360068
 20
1.4411160060298
 10
-0.22974116608466
 20
1.4396732350614
 10
-0.22739521175676
 20
1.4367430126488
 10
-0.22504457262101
 20
1.4337498825304
 10
-0.22386651421691
 20
1.432228435147
 10
-0.22268610234016
 20
1.4306896865631
 10
-0.22031661965191
 20
1.4275580689507
 10
-0.21793289394092
 20
1.4243504554867
 10
-0.21553163034422
 20
1.4210620311359
 10
-0.2131094542435
 20
1.4176877157233
 10
-0.21066289498816
 20
1.4142221374705
 10
-0.20942935662592
 20
1.412453359304
 10
-0.20818836867984
 20
1.4106596040868
 10
-0.20568215983328
 20
1.4069940710861
 10
-0.20314040170899
 20
1.4032191069528
 10
-0.20055905508966
 20
1.3993278547324
 10
-0.19793388524423
 20
1.395312989556
 10
-0.19526043678984
 20
1.3911666715406
 10
-0.19390414871363
 20
1.3890416141624
 10
-0.19253400612178
 20
1.3868804934189
 10
-0.18974961103423
 20
1.3824454221553
 10
-0.18690195709734
 20
1.3778517336829
 10
-0.18545265906712
 20
1.3754921624483
  0
LINE
  5
19B
330
12A
100
AcDbEntity
  8
AM_4
100
AcDbLine
 10
-0.18545265906712
 20
1.3754921624483
 30
0.0
 11
-0.18545265906712
 21
1.297948116979
 31
0.0
  0
LWPOLYLINE
  5
19C
330
12A
100
AcDbEntity
  8
AM_4
100
AcDbPolyline
 90
       23
 70
     0
 43
0.0
 10
-0.18545265906712
 20
1.297948116979
 10
-0.18690195709735
 20
1.2991385936891
 10
-0.18974961103425
 20
1.3015202174828
 10
-0.19253400612182
 20
1.3039055047496
 10
-0.19390414871368
 20
1.3051005392233
 10
-0.19526043678989
 20
1.3062977001308
 10
-0.1979338852443
 20
1.3086999745029
 10
-0.20055905508973
 20
1.3111154420743
 10
-0.20314040170907
 20
1.313547176415
 10
-0.20568215983337
 20
1.3159982256194
 10
-0.20818836867993
 20
1.3184716267821
 10
-0.20942935662601
 20
1.3197176588739
 10
-0.21066289498825
 20
1.3209704199497
 10
-0.21310945424358
 20
1.3234976616975
 10
-0.2155316303443
 20
1.3260564384712
 10
-0.217932893941
 20
1.3286498798253
 10
-0.22031661965197
 20
1.3312811716835
 10
-0.22268610234021
 20
1.3339535697452
 10
-0.22386651421696
 20
1.3353062234456
 10
-0.22504457262105
 20
1.3366704131605
 10
-0.22739521175679
 20
1.3394351385964
 10
-0.22974116608467
 20
1.3422512948199
 10
-0.23091336360068
 20
1.3436798028521
  0
LINE
  5
19D
330
12A
100
AcDbEntity
  8
AM_5
100
AcDbLine
 10
-0.25
 20
-1.328125
 30
0.0
 11
-0.21615
 21
-1.2694950801638
 31
0.0
  0
LINE
  5
19E
330
12A
100
AcDbEntity
  8
AM_5
100
AcDbLine
 10
0.25
 20
-1.328125
 30
0.0
 11
0.21615
 21
-1.2694950801638
 31
0.0
  0
ENDBLK
  5
12D
330
12A
100
AcDbEntity
  8
0
100
AcDbBlockEnd
  0
ENDSEC
  0
SECTION
  2
ENTITIES
  0
INSERT
  5
6F
330
1F
100
AcDbEntity
  8
0
100
AcDbBlockReference
  2
1_129298_2
 10
0.0
 20
0.0
 30
0.0
  0
POINT
  5
1A0
330
1F
100
AcDbEntity
  8
ConnectionPoints
100
AcDbPoint
 10
0.0
 20
0.0
 30
0.0
  0
POINT
  5
1A1
330
1F
100
AcDbEntity
  8
ConnectionPoints
100
AcDbPoint
 10
0.5625
 20
0.0
 30
0.0
  0
POINT
  5
1A2
330
1F
100
AcDbEntity
  8
ConnectionPoints
100
AcDbPoint
 10
0.0
 20
0.0
 30
0.0
  0
POINT
  5
1A3
330
1F
100
AcDbEntity
  8
ConnectionPoints
100
AcDbPoint
 10
0.0
 20
0.0
 30
0.0
  0
ENDSEC
  0
SECTION
  2
OBJECTS
  0
DICTIONARY
  5
C
330
0
100
AcDbDictionary
281
     1
  3
ACAD_DETAILVIEWSTYLE
350
1AB
  3
ACAD_GROUP
350
D
  3
ACAD_LAYOUT
350
1A
  3
ACAD_MATERIAL
350
43
  3
ACAD_MLEADERSTYLE
350
6B
  3
ACAD_MLINESTYLE
350
17
  3
ACAD_PLOTSETTINGS
350
19
  3
ACAD_PLOTSTYLENAME
350
E
  3
ACAD_SCALELIST
350
47
  3
ACAD_SECTIONVIEWSTYLE
350
1AC
  3
ACAD_TABLESTYLE
350
69
  3
ACAD_VISUALSTYLE
350
2A
  3
ACDB_RECOMPOSE_DATA
350
1A8
  3
AcDbVariableDictionary
350
1A4
  0
SUN
  5
6D
330
29
100
AcDbSun
 90
        1
290
     0
 63
     7
421
 16777215
 40
1.0
291
     1
 91
  2455826
 92
 54000000
292
     0
 70
     2
 71
   256
280
     1
  0
DICTIONARY
  5
1AB
102
{ACAD_REACTORS
330
C
102
}
330
C
100
AcDbDictionary
281
     1
  0
DICTIONARY
  5
D
102
{ACAD_REACTORS
330
C
102
}
330
C
100
AcDbDictionary
281
     1
  0
DICTIONARY
  5
1A
102
{ACAD_REACTORS
330
C
102
}
330
C
100
AcDbDictionary
281
     1
  3
Layout1
350
1E
  3
Layout2
350
26
  3
Model
350
22
  0
DICTIONARY
  5
43
102
{ACAD_REACTORS
330
C
102
}
330
C
100
AcDbDictionary
281
     1
  3
ByBlock
350
45
  3
ByLayer
350
44
  3
Global
350
46
  0
DICTIONARY
  5
6B
102
{ACAD_REACTORS
330
C
102
}
330
C
100
AcDbDictionary
281
     1
  3
Standard
350
6C
  0
DICTIONARY
  5
17
102
{ACAD_REACTORS
330
C
102
}
330
C
100
AcDbDictionary
281
     1
  3
Standard
350
18
  0
DICTIONARY
  5
19
102
{ACAD_REACTORS
330
C
102
}
330
C
100
AcDbDictionary
281
     1
  0
ACDBDICTIONARYWDFLT
  5
E
102
{ACAD_REACTORS
330
C
102
}
330
C
100
AcDbDictionary
281
     1
  3
Normal
350
F
100
AcDbDictionaryWithDefault
340
F
  0
DICTIONARY
  5
47
102
{ACAD_REACTORS
330
C
102
}
330
C
100
AcDbDictionary
281
     1
  3
A0
350
48
  3
A1
350
49
  3
A2
350
4A
  3
A3
350
4B
  3
A4
350
4C
  3
A5
350
4D
  3
A6
350
4E
  3
A7
350
4F
  3
A8
350
50
  3
A9
350
51
  3
B0
350
52
  3
B1
350
53
  3
B2
350
54
  3
B3
350
55
  3
B4
350
56
  3
B5
350
57
  3
B6
350
58
  3
B7
350
59
  3
B8
350
5A
  3
B9
350
5B
  3
C0
350
5C
  3
C1
350
5D
  3
C2
350
5E
  3
C3
350
5F
  3
C4
350
60
  3
C5
350
61
  3
C6
350
62
  3
C7
350
63
  3
C8
350
64
  3
C9
350
65
  3
D0
350
66
  3
D1
350
67
  3
D2
350
68
  0
DICTIONARY
  5
1AC
102
{ACAD_REACTORS
330
C
102
}
330
C
100
AcDbDictionary
281
     1
  0
DICTIONARY
  5
69
102
{ACAD_REACTORS
330
C
102
}
330
C
100
AcDbDictionary
281
     1
  3
Standard
350
6A
  0
DICTIONARY
  5
2A
102
{ACAD_REACTORS
330
C
102
}
330
C
100
AcDbDictionary
281
     1
  3
2dWireframe
350
2F
  3
Basic
350
32
  3
Brighten
350
36
  3
ColorChange
350
3A
  3
Conceptual
350
34
  3
Dim
350
35
  3
EdgeColorOff
350
3D
  3
Facepattern
350
39
  3
Flat
350
2B
  3
FlatWithEdges
350
2C
  3
Gouraud
350
2D
  3
GouraudWithEdges
350
2E
  3
Hidden
350
31
  3
JitterOff
350
3B
  3
Linepattern
350
38
  3
OverhangOff
350
3C
  3
Realistic
350
33
  3
Shaded
350
42
  3
Shaded with edges
350
41
  3
Shades of Gray
350
3E
  3
Sketchy
350
3F
  3
Thicken
350
37
  3
Wireframe
350
30
  3
X-Ray
350
40
  0
XRECORD
  5
1A8
102
{ACAD_REACTORS
330
C
102
}
330
C
100
AcDbXrecord
280
     1
 90
        1
330
6A
  0
DICTIONARY
  5
1A4
102
{ACAD_REACTORS
330
C
102
}
330
C
100
AcDbDictionary
281
     1
  3
CANNOSCALE
350
1A5
  3
CMLEADERSTYLE
350
1AA
  3
CTABLESTYLE
350
1A9
  0
LAYOUT
  5
1E
102
{ACAD_REACTORS
330
1A
102
}
330
1A
100
AcDbPlotSettings
  1

  2
none_device
  4

  6

 40
0.0
 41
0.0
 42
0.0
 43
0.0
 44
0.0
 45
0.0
 46
0.0
 47
0.0
 48
0.0
 49
0.0
140
0.0
141
0.0
142
1.0
143
1.0
 70
   688
 72
     0
 73
     0
 74
     5
  7

 75
    16
 76
     0
 77
     2
 78
   300
147
1.0
148
0.0
149
0.0
100
AcDbLayout
  1
Layout1
 70
     1
 71
     1
 10
0.0
 20
0.0
 11
12.0
 21
9.0
 12
0.0
 22
0.0
 32
0.0
 14
1.000000000000000E+20
 24
1.000000000000000E+20
 34
1.000000000000000E+20
 15
-1.000000000000000E+20
 25
-1.000000000000000E+20
 35
-1.000000000000000E+20
146
0.0
 13
0.0
 23
0.0
 33
0.0
 16
1.0
 26
0.0
 36
0.0
 17
0.0
 27
1.0
 37
0.0
 76
     0
330
1B
  0
LAYOUT
  5
26
102
{ACAD_REACTORS
330
1A
102
}
330
1A
100
AcDbPlotSettings
  1

  2
none_device
  4

  6

 40
0.0
 41
0.0
 42
0.0
 43
0.0
 44
0.0
 45
0.0
 46
0.0
 47
0.0
 48
0.0
 49
0.0
140
0.0
141
0.0
142
1.0
143
1.0
 70
   688
 72
     0
 73
     0
 74
     5
  7

 75
    16
 76
     0
 77
     2
 78
   300
147
1.0
148
0.0
149
0.0
100
AcDbLayout
  1
Layout2
 70
     1
 71
     2
 10
0.0
 20
0.0
 11
0.0
 21
0.0
 12
0.0
 22
0.0
 32
0.0
 14
0.0
 24
0.0
 34
0.0
 15
0.0
 25
0.0
 35
0.0
146
0.0
 13
0.0
 23
0.0
 33
0.0
 16
1.0
 26
0.0
 36
0.0
 17
0.0
 27
1.0
 37
0.0
 76
     0
330
23
  0
LAYOUT
  5
22
102
{ACAD_REACTORS
330
1A
102
}
330
1A
100
AcDbPlotSettings
  1

  2
none_device
  4
Letter_(8.50_x_11.00_Inches)
  6

 40
6.35
 41
6.35
 42
6.35000508
 43
6.35000508
 44
215.9
 45
279.4
 46
0.0
 47
0.0
 48
0.0
 49
0.0
140
0.0
141
0.0
142
1.0
143
1.0
 70
  1712
 72
     0
 73
     0
 74
     0
  7

 75
     0
 76
     0
 77
     2
 78
   300
147
1.0
148
0.0
149
0.0
100
AcDbLayout
  1
Model
 70
     1
 71
     0
 10
0.0
 20
0.0
 11
12.0
 21
9.0
 12
0.0
 22
0.0
 32
0.0
 14
1.000000000000000E+20
 24
1.000000000000000E+20
 34
1.000000000000000E+20
 15
-1.000000000000000E+20
 25
-1.000000000000000E+20
 35
-1.000000000000000E+20
146
0.0
 13
0.0
 23
0.0
 33
0.0
 16
1.0
 26
0.0
 36
0.0
 17
0.0
 27
1.0
 37
0.0
 76
     0
330
1F
331
29
  0
MATERIAL
  5
45
102
{ACAD_REACTORS
330
43
102
}
330
43
100
AcDbMaterial
  1
ByBlock
 72
     1
 94
      127
  0
MATERIAL
  5
44
102
{ACAD_REACTORS
330
43
102
}
330
43
100
AcDbMaterial
  1
ByLayer
 72
     1
 94
      127
  0
MATERIAL
  5
46
102
{ACAD_REACTORS
330
43
102
}
330
43
100
AcDbMaterial
  1
Global
 72
     1
 94
      127
  0
MLEADERSTYLE
  5
6C
102
{ACAD_REACTORS
330
6B
102
}
330
6B
100
AcDbMLeaderStyle
179
     2
170
     2
171
     1
172
     0
 90
        2
 40
0.0
 41
0.0
173
     1
 91
-1056964608
340
14
 92
       -2
290
     1
 42
0.09
291
     1
 43
0.36
  3
Standard
341
0
 44
0.18
300

342
11
174
     1
178
     6
175
     1
176
     0
 93
-1056964608
 45
0.18
292
     0
297
     0
 46
0.18
343
0
 94
-1056964608
 47
1.0
 49
1.0
140
1.0
293
     1
141
0.0
294
     1
177
     0
142
1.0
295
     0
296
     0
143
0.125
271
     0
272
     9
273
     9
298
     0
  0
MLINESTYLE
  5
18
102
{ACAD_REACTORS
330
17
102
}
330
17
100
AcDbMlineStyle
  2
Standard
 70
     0
  3

 62
   256
 51
90.0
 52
90.0
 71
     2
 49
0.5
 62
   256
  6
BYLAYER
 49
-0.5
 62
   256
  6
BYLAYER
  0
ACDBPLACEHOLDER
  5
F
102
{ACAD_REACTORS
330
E
102
}
330
E
  0
SCALE
  5
48
102
{ACAD_REACTORS
330
47
102
}
330
47
100
AcDbScale
 70
     0
300
1:1
140
1.0
141
1.0
290
     1
  0
SCALE
  5
49
102
{ACAD_REACTORS
330
47
102
}
330
47
100
AcDbScale
 70
     0
300
1:2
140
1.0
141
2.0
290
     0
  0
SCALE
  5
4A
102
{ACAD_REACTORS
330
47
102
}
330
47
100
AcDbScale
 70
     0
300
1:4
140
1.0
141
4.0
290
     0
  0
SCALE
  5
4B
102
{ACAD_REACTORS
330
47
102
}
330
47
100
AcDbScale
 70
     0
300
1:5
140
1.0
141
5.0
290
     0
  0
SCALE
  5
4C
102
{ACAD_REACTORS
330
47
102
}
330
47
100
AcDbScale
 70
     0
300
1:8
140
1.0
141
8.0
290
     0
  0
SCALE
  5
4D
102
{ACAD_REACTORS
330
47
102
}
330
47
100
AcDbScale
 70
     0
300
1:10
140
1.0
141
10.0
290
     0
  0
SCALE
  5
4E
102
{ACAD_REACTORS
330
47
102
}
330
47
100
AcDbScale
 70
     0
300
1:16
140
1.0
141
16.0
290
     0
  0
SCALE
  5
4F
102
{ACAD_REACTORS
330
47
102
}
330
47
100
AcDbScale
 70
     0
300
1:20
140
1.0
141
20.0
290
     0
  0
SCALE
  5
50
102
{ACAD_REACTORS
330
47
102
}
330
47
100
AcDbScale
 70
     0
300
1:30
140
1.0
141
30.0
290
     0
  0
SCALE
  5
51
102
{ACAD_REACTORS
330
47
102
}
330
47
100
AcDbScale
 70
     0
300
1:40
140
1.0
141
40.0
290
     0
  0
SCALE
  5
52
102
{ACAD_REACTORS
330
47
102
}
330
47
100
AcDbScale
 70
     0
300
1:50
140
1.0
141
50.0
290
     0
  0
SCALE
  5
53
102
{ACAD_REACTORS
330
47
102
}
330
47
100
AcDbScale
 70
     0
300
1:100
140
1.0
141
100.0
290
     0
  0
SCALE
  5
54
102
{ACAD_REACTORS
330
47
102
}
330
47
100
AcDbScale
 70
     0
300
2:1
140
2.0
141
1.0
290
     0
  0
SCALE
  5
55
102
{ACAD_REACTORS
330
47
102
}
330
47
100
AcDbScale
 70
     0
300
4:1
140
4.0
141
1.0
290
     0
  0
SCALE
  5
56
102
{ACAD_REACTORS
330
47
102
}
330
47
100
AcDbScale
 70
     0
300
8:1
140
8.0
141
1.0
290
     0
  0
SCALE
  5
57
102
{ACAD_REACTORS
330
47
102
}
330
47
100
AcDbScale
 70
     0
300
10:1
140
10.0
141
1.0
290
     0
  0
SCALE
  5
58
102
{ACAD_REACTORS
330
47
102
}
330
47
100
AcDbScale
 70
     0
300
100:1
140
100.0
141
1.0
290
     0
  0
SCALE
  5
59
102
{ACAD_REACTORS
330
47
102
}
330
47
100
AcDbScale
 70
     0
300
1/128" = 1'-0"
140
0.0078125
141
12.0
290
     0
  0
SCALE
  5
5A
102
{ACAD_REACTORS
330
47
102
}
330
47
100
AcDbScale
 70
     0
300
1/64" = 1'-0"
140
0.015625
141
12.0
290
     0
  0
SCALE
  5
5B
102
{ACAD_REACTORS
330
47
102
}
330
47
100
AcDbScale
 70
     0
300
1/32" = 1'-0"
140
0.03125
141
12.0
290
     0
  0
SCALE
  5
5C
102
{ACAD_REACTORS
330
47
102
}
330
47
100
AcDbScale
 70
     0
300
1/16" = 1'-0"
140
0.0625
141
12.0
290
     0
  0
SCALE
  5
5D
102
{ACAD_REACTORS
330
47
102
}
330
47
100
AcDbScale
 70
     0
300
3/32" = 1'-0"
140
0.09375
141
12.0
290
     0
  0
SCALE
  5
5E
102
{ACAD_REACTORS
330
47
102
}
330
47
100
AcDbScale
 70
     0
300
1/8" = 1'-0"
140
0.125
141
12.0
290
     0
  0
SCALE
  5
5F
102
{ACAD_REACTORS
330
47
102
}
330
47
100
AcDbScale
 70
     0
300
3/16" = 1'-0"
140
0.1875
141
12.0
290
     0
  0
SCALE
  5
60
102
{ACAD_REACTORS
330
47
102
}
330
47
100
AcDbScale
 70
     0
300
1/4" = 1'-0"
140
0.25
141
12.0
290
     0
  0
SCALE
  5
61
102
{ACAD_REACTORS
330
47
102
}
330
47
100
AcDbScale
 70
     0
300
3/8" = 1'-0"
140
0.375
141
12.0
290
     0
  0
SCALE
  5
62
102
{ACAD_REACTORS
330
47
102
}
330
47
100
AcDbScale
 70
     0
300
1/2" = 1'-0"
140
0.5
141
12.0
290
     0
  0
SCALE
  5
63
102
{ACAD_REACTORS
330
47
102
}
330
47
100
AcDbScale
 70
     0
300
3/4" = 1'-0"
140
0.75
141
12.0
290
     0
  0
SCALE
  5
64
102
{ACAD_REACTORS
330
47
102
}
330
47
100
AcDbScale
 70
     0
300
1" = 1'-0"
140
1.0
141
12.0
290
     0
  0
SCALE
  5
65
102
{ACAD_REACTORS
330
47
102
}
330
47
100
AcDbScale
 70
     0
300
1-1/2" = 1'-0"
140
1.5
141
12.0
290
     0
  0
SCALE
  5
66
102
{ACAD_REACTORS
330
47
102
}
330
47
100
AcDbScale
 70
     0
300
3" = 1'-0"
140
3.0
141
12.0
290
     0
  0
SCALE
  5
67
102
{ACAD_REACTORS
330
47
102
}
330
47
100
AcDbScale
 70
     0
300
6" = 1'-0"
140
6.0
141
12.0
290
     0
  0
SCALE
  5
68
102
{ACAD_REACTORS
330
47
102
}
330
47
100
AcDbScale
 70
     0
300
1'-0" = 1'-0"
140
12.0
141
12.0
290
     0
  0
TABLESTYLE
  5
6A
102
{ACAD_REACTORS
330
69
102
}
102
{ACAD_XDICTIONARY
360
1A6
102
}
330
69
100
AcDbTableStyle
  3
Standard
 70
     0
 71
     0
 40
0.06
 41
0.06
280
     0
281
     0
  7
Standard
140
0.18
170
     2
 62
     0
 63
   257
283
     0
 90
        4
 91
        0
  1

274
    -2
284
     1
 64
     0
275
    -2
285
     1
 65
     0
276
    -2
286
     1
 66
     0
277
    -2
287
     1
 67
     0
278
    -2
288
     1
 68
     0
279
    -2
289
     1
 69
     0
  7
Standard
140
0.25
170
     5
 62
     0
 63
   257
283
     0
 90
        4
 91
        0
  1

274
    -2
284
     1
 64
     0
275
    -2
285
     1
 65
     0
276
    -2
286
     1
 66
     0
277
    -2
287
     1
 67
     0
278
    -2
288
     1
 68
     0
279
    -2
289
     1
 69
     0
  7
Standard
140
0.18
170
     5
 62
     0
 63
   257
283
     0
 90
        4
 91
        0
  1

274
    -2
284
     1
 64
     0
275
    -2
285
     1
 65
     0
276
    -2
286
     1
 66
     0
277
    -2
287
     1
 67
     0
278
    -2
288
     1
 68
     0
279
    -2
289
     1
 69
     0
  0
VISUALSTYLE
  5
2F
102
{ACAD_REACTORS
330
2A
102
}
330
2A
100
AcDbVisualStyle
  2
2dWireframe
 70
     4
177
     3
291
     0
 70
    58
 90
        0
176
     1
 90
        2
176
     1
 90
        0
176
     1
 90
        0
176
     1
 40
0.6
176
     1
 40
30.0
176
     1
 62
     7
420
 16777215
176
     1
 90
        1
176
     1
 90
        4
176
     1
 62
     7
176
     1
 62
   257
176
     1
 90
        1
176
     1
 90
        1
176
     1
 40
1.0
176
     1
 90
        0
176
     1
 62
   257
176
     1
 40
1.0
176
     1
 90
        1
176
     1
 90
        6
176
     1
 90
        2
176
     1
 62
     7
176
     1
 90
        5
176
     1
 90
        0
176
     1
 90
        0
176
     1
290
     0
176
     1
 90
        1
176
     1
 40
0.0
176
     1
 90
        0
176
     1
290
     1
176
     1
290
     1
176
     1
290
     0
176
     1
290
     0
176
     1
290
     0
176
     1
290
     0
176
     1
290
     0
176
     1
290
     0
176
     1
290
     0
176
     1
 90
       50
176
     1
 40
0.0
176
     1
 40
1.0
176
     1
 90
        0
176
     1
 62
    18
420
        0
176
     1
 90
       50
176
     1
 90
        3
176
     1
 62
     5
420
      255
176
     1
290
     0
176
     1
 90
       50
176
     1
 90
       50
176
     1
 90
       50
176
     1
290
     0
176
     1
 90
       50
176
     1
 62
   256
176
     0
 40
1.0
176
     0
 90
        2
176
     1
  1
strokes_ogs.tif
176
     1
290
     0
176
     1
 40
1.0
176
     1
 40
1.0
176
     1
  0
VISUALSTYLE
  5
32
102
{ACAD_REACTORS
330
2A
102
}
330
2A
100
AcDbVisualStyle
  2
Basic
 70
     7
177
     3
291
     1
 70
    58
 90
        1
176
     1
 90
        0
176
     1
 90
        1
176
     1
 90
        0
176
     1
 40
0.6
176
     1
 40
30.0
176
     1
 62
     7
420
 16777215
176
     1
 90
        0
176
     1
 90
        4
176
     1
 62
     7
176
     1
 62
   257
176
     1
 90
        1
176
     1
 90
        1
176
     1
 40
1.0
176
     1
 90
        8
176
     1
 62
     7
176
     1
 40
1.0
176
     1
 90
        1
176
     1
 90
        6
176
     1
 90
        2
176
     1
 62
     7
176
     1
 90
        5
176
     1
 90
        0
176
     1
 90
        0
176
     1
290
     0
176
     1
 90
        1
176
     1
 40
0.0
176
     1
 90
        0
176
     1
290
     0
176
     1
290
     1
176
     1
290
     1
176
     1
290
     0
176
     1
290
     0
176
     1
290
     0
176
     1
290
     0
176
     1
290
     0
176
     1
290
     0
176
     1
 90
       50
176
     1
 40
0.0
176
     1
 40
1.0
176
     1
 90
        0
176
     1
 62
    18
420
        0
176
     1
 90
       50
176
     1
 90
        3
176
     1
 62
     5
420
      255
176
     1
290
     0
176
     1
 90
       50
176
     1
 90
       50
176
     1
 90
       50
176
     1
290
     0
176
     1
 90
       50
176
     1
 62
   256
176
     0
 40
1.0
176
     0
 90
        2
176
     1
  1
strokes_ogs.tif
176
     1
290
     0
176
     1
 40
1.0
176
     1
 40
1.0
176
     1
  0
VISUALSTYLE
  5
36
102
{ACAD_REACTORS
330
2A
102
}
330
2A
100
AcDbVisualStyle
  2
Brighten
 70
    12
177
     3
291
     1
 70
    58
 90
        2
176
     1
 90
        2
176
     1
 90
        0
176
     1
 90
        0
176
     1
 40
0.6
176
     1
 40
30.0
176
     1
 62
     7
420
 16777215
176
     1
 90
        1
176
     1
 90
        4
176
     1
 62
     7
176
     1
 62
   257
176
     1
 90
        1
176
     1
 90
        1
176
     1
 40
1.0
176
     1
 90
        8
176
     1
 62
     7
176
     1
 40
1.0
176
     1
 90
        1
176
     1
 90
        6
176
     1
 90
        2
176
     1
 62
     7
176
     1
 90
        5
176
     1
 90
        0
176
     1
 90
        0
176
     1
290
     0
176
     1
 90
        1
176
     1
 40
50.0
176
     1
 90
        0
176
     1
290
     0
176
     1
290
     1
176
     1
290
     1
176
     1
290
     0
176
     1
290
     0
176
     1
290
     0
176
     1
290
     0
176
     1
290
     0
176
     1
290
     0
176
     1
 90
       50
176
     1
 40
0.0
176
     1
 40
1.0
176
     1
 90
        0
176
     1
 62
    18
420
        0
176
     1
 90
       50
176
     1
 90
        3
176
     1
 62
     5
420
      255
176
     1
290
     0
176
     1
 90
       50
176
     1
 90
       50
176
     1
 90
       50
176
     1
290
     0
176
     1
 90
       50
176
     1
 62
   256
176
     0
 40
1.0
176
     0
 90
        2
176
     1
  1
strokes_ogs.tif
176
     1
290
     0
176
     1
 40
1.0
176
     1
 40
1.0
176
     1
  0
VISUALSTYLE
  5
3A
102
{ACAD_REACTORS
330
2A
102
}
330
2A
100
AcDbVisualStyle
  2
ColorChange
 70
    16
177
     3
291
     1
 70
    58
 90
        2
176
     1
 90
        2
176
     1
 90
        3
176
     1
 90
        0
176
     1
 40
0.6
176
     1
 40
30.0
176
     1
 62
     8
420
  8421504
176
     1
 90
        1
176
     1
 90
        4
176
     1
 62
     7
176
     1
 62
   257
176
     1
 90
        1
176
     1
 90
        1
176
     1
 40
1.0
176
     1
 90
        8
176
     1
 62
     8
420
  8421504
176
     1
 40
1.0
176
     1
 90
        1
176
     1
 90
        6
176
     1
 90
        2
176
     1
 62
     7
176
     1
 90
        5
176
     1
 90
        0
176
     1
 90
        0
176
     1
290
     0
176
     1
 90
        1
176
     1
 40
0.0
176
     1
 90
        0
176
     1
290
     0
176
     1
290
     1
176
     1
290
     1
176
     1
290
     0
176
     1
290
     0
176
     1
290
     0
176
     1
290
     0
176
     1
290
     0
176
     1
290
     0
176
     1
 90
       50
176
     1
 40
0.0
176
     1
 40
1.0
176
     1
 90
        0
176
     1
 62
    18
420
        0
176
     1
 90
       50
176
     1
 90
        3
176
     1
 62
     5
420
      255
176
     1
290
     0
176
     1
 90
       50
176
     1
 90
       50
176
     1
 90
       50
176
     1
290
     0
176
     1
 90
       50
176
     1
 62
   256
176
     0
 40
1.0
176
     0
 90
        2
176
     1
  1
strokes_ogs.tif
176
     1
290
     0
176
     1
 40
1.0
176
     1
 40
1.0
176
     1
  0
VISUALSTYLE
  5
34
102
{ACAD_REACTORS
330
2A
102
}
330
2A
100
AcDbVisualStyle
  2
Conceptual
 70
     9
177
     3
291
     0
 70
    58
 90
        3
176
     1
 90
        2
176
     1
 90
        0
176
     1
 90
        0
176
     1
 40
0.6
176
     1
 40
30.0
176
     1
 62
     7
420
 16777215
176
     1
 90
        2
176
     1
 90
        2
176
     1
 62
     7
176
     1
 62
   257
176
     1
 90
        1
176
     1
 90
        1
176
     1
 40
179.0
176
     1
 90
        8
176
     1
 62
     7
176
     1
 40
1.0
176
     1
 90
        1
176
     1
 90
        6
176
     1
 90
        2
176
     1
 62
     7
176
     1
 90
        3
176
     1
 90
        0
176
     1
 90
        0
176
     1
290
     0
176
     1
 90
        1
176
     1
 40
0.0
176
     1
 90
        0
176
     1
290
     0
176
     1
290
     1
176
     1
290
     1
176
     1
290
     0
176
     1
290
     0
176
     1
290
     0
176
     1
290
     0
176
     1
290
     0
176
     1
290
     0
176
     1
 90
       50
176
     1
 40
0.0
176
     1
 40
1.0
176
     1
 90
        0
176
     1
 62
    18
420
        0
176
     1
 90
       50
176
     1
 90
        3
176
     1
 62
     5
420
      255
176
     1
290
     0
176
     1
 90
       50
176
     1
 90
       50
176
     1
 90
       50
176
     1
290
     0
176
     1
 90
       50
176
     1
 62
   256
176
     0
 40
1.0
176
     0
 90
        2
176
     1
  1
strokes_ogs.tif
176
     1
290
     0
176
     1
 40
1.0
176
     1
 40
1.0
176
     1
  0
VISUALSTYLE
  5
35
102
{ACAD_REACTORS
330
2A
102
}
330
2A
100
AcDbVisualStyle
  2
Dim
 70
    11
177
     3
291
     1
 70
    58
 90
        2
176
     1
 90
        2
176
     1
 90
        0
176
     1
 90
        0
176
     1
 40
0.6
176
     1
 40
30.0
176
     1
 62
     7
420
 16777215
176
     1
 90
        1
176
     1
 90
        4
176
     1
 62
     7
176
     1
 62
   257
176
     1
 90
        1
176
     1
 90
        1
176
     1
 40
1.0
176
     1
 90
        8
176
     1
 62
     7
176
     1
 40
1.0
176
     1
 90
        1
176
     1
 90
        6
176
     1
 90
        2
176
     1
 62
     7
176
     1
 90
        5
176
     1
 90
        0
176
     1
 90
        0
176
     1
290
     0
176
     1
 90
        1
176
     1
 40
-50.0
176
     1
 90
        0
176
     1
290
     0
176
     1
290
     1
176
     1
290
     1
176
     1
290
     0
176
     1
290
     0
176
     1
290
     0
176
     1
290
     0
176
     1
290
     0
176
     1
290
     0
176
     1
 90
       50
176
     1
 40
0.0
176
     1
 40
1.0
176
     1
 90
        0
176
     1
 62
    18
420
        0
176
     1
 90
       50
176
     1
 90
        3
176
     1
 62
     5
420
      255
176
     1
290
     0
176
     1
 90
       50
176
     1
 90
       50
176
     1
 90
       50
176
     1
290
     0
176
     1
 90
       50
176
     1
 62
   256
176
     0
 40
1.0
176
     0
 90
        2
176
     1
  1
strokes_ogs.tif
176
     1
290
     0
176
     1
 40
1.0
176
     1
 40
1.0
176
     1
  0
VISUALSTYLE
  5
3D
102
{ACAD_REACTORS
330
2A
102
}
330
2A
100
AcDbVisualStyle
  2
EdgeColorOff
 70
    22
177
     3
291
     1
 70
    58
 90
        2
176
     0
 90
        2
176
     0
 90
        0
176
     0
 90
        0
176
     0
 40
0.6
176
     0
 40
30.0
176
     0
 62
     7
420
 16777215
176
     0
 90
        1
176
     0
 90
        4
176
     0
 62
     7
176
     0
 62
   257
176
     0
 90
        1
176
     0
 90
        1
176
     0
 40
1.0
176
     0
 90
        8
176
     2
 62
     7
176
     0
 40
1.0
176
     0
 90
        1
176
     0
 90
        6
176
     0
 90
        2
176
     0
 62
     7
176
     0
 90
        5
176
     0
 90
        0
176
     0
 90
        0
176
     0
290
     0
176
     0
 90
        1
176
     0
 40
0.0
176
     0
 90
        0
176
     0
290
     0
176
     0
290
     1
176
     0
290
     1
176
     0
290
     0
176
     0
290
     0
176
     0
290
     0
176
     0
290
     0
176
     0
290
     0
176
     0
290
     0
176
     0
 90
       50
176
     0
 40
0.0
176
     0
 40
1.0
176
     0
 90
        0
176
     0
 62
    18
420
        0
176
     0
 90
       50
176
     0
 90
        3
176
     0
 62
     5
420
      255
176
     0
290
     0
176
     0
 90
       50
176
     0
 90
       50
176
     0
 90
       50
176
     0
290
     0
176
     0
 90
       50
176
     0
 62
   256
176
     0
 40
1.0
176
     0
 90
        2
176
     0
  1
strokes_ogs.tif
176
     0
290
     0
176
     0
 40
1.0
176
     0
 40
1.0
176
     0
  0
VISUALSTYLE
  5
39
102
{ACAD_REACTORS
330
2A
102
}
330
2A
100
AcDbVisualStyle
  2
Facepattern
 70
    15
177
     3
291
     1
 70
    58
 90
        2
176
     1
 90
        2
176
     1
 90
        0
176
     1
 90
        0
176
     1
 40
0.6
176
     1
 40
30.0
176
     1
 62
     7
420
 16777215
176
     1
 90
        1
176
     1
 90
        4
176
     1
 62
     7
176
     1
 62
   257
176
     1
 90
        1
176
     1
 90
        1
176
     1
 40
1.0
176
     1
 90
        8
176
     1
 62
     7
176
     1
 40
1.0
176
     1
 90
        1
176
     1
 90
        6
176
     1
 90
        2
176
     1
 62
     7
176
     1
 90
        5
176
     1
 90
        0
176
     1
 90
        0
176
     1
290
     0
176
     1
 90
        1
176
     1
 40
0.0
176
     1
 90
        0
176
     1
290
     0
176
     1
290
     1
176
     1
290
     1
176
     1
290
     0
176
     1
290
     0
176
     1
290
     0
176
     1
290
     0
176
     1
290
     0
176
     1
290
     0
176
     1
 90
       50
176
     1
 40
0.0
176
     1
 40
1.0
176
     1
 90
        0
176
     1
 62
    18
420
        0
176
     1
 90
       50
176
     1
 90
        3
176
     1
 62
     5
420
      255
176
     1
290
     0
176
     1
 90
       50
176
     1
 90
       50
176
     1
 90
       50
176
     1
290
     0
176
     1
 90
       50
176
     1
 62
   256
176
     0
 40
1.0
176
     0
 90
        2
176
     1
  1
strokes_ogs.tif
176
     1
290
     0
176
     1
 40
1.0
176
     1
 40
1.0
176
     1
  0
VISUALSTYLE
  5
2B
102
{ACAD_REACTORS
330
2A
102
}
330
2A
100
AcDbVisualStyle
  2
Flat
 70
     0
177
     3
291
     1
 70
    58
 90
        2
176
     1
 90
        1
176
     1
 90
        1
176
     1
 90
        2
176
     1
 40
0.6
176
     1
 40
30.0
176
     1
 62
     7
420
 16777215
176
     1
 90
        0
176
     1
 90
        0
176
     1
 62
     7
176
     1
 62
   257
176
     1
 90
        1
176
     1
 90
        1
176
     1
 40
1.0
176
     1
 90
        8
176
     1
 62
     7
176
     1
 40
1.0
176
     1
 90
        1
176
     1
 90
        6
176
     1
 90
        2
176
     1
 62
     7
176
     1
 90
        5
176
     1
 90
        0
176
     1
 90
        0
176
     1
290
     0
176
     1
 90
       13
176
     1
 40
0.0
176
     1
 90
        0
176
     1
290
     0
176
     1
290
     1
176
     1
290
     1
176
     1
290
     0
176
     1
290
     0
176
     1
290
     0
176
     1
290
     0
176
     1
290
     0
176
     1
290
     0
176
     1
 90
       50
176
     1
 40
0.0
176
     1
 40
1.0
176
     1
 90
        0
176
     1
 62
    18
420
        0
176
     1
 90
       50
176
     1
 90
        3
176
     1
 62
     5
420
      255
176
     1
290
     0
176
     1
 90
       50
176
     1
 90
       50
176
     1
 90
       50
176
     1
290
     0
176
     1
 90
       50
176
     1
 62
   256
176
     0
 40
1.0
176
     0
 90
        2
176
     1
  1
strokes_ogs.tif
176
     1
290
     0
176
     1
 40
1.0
176
     1
 40
1.0
176
     1
  0
VISUALSTYLE
  5
2C
102
{ACAD_REACTORS
330
2A
102
}
330
2A
100
AcDbVisualStyle
  2
FlatWithEdges
 70
     1
177
     3
291
     1
 70
    58
 90
        2
176
     1
 90
        1
176
     1
 90
        1
176
     1
 90
        2
176
     1
 40
0.6
176
     1
 40
30.0
176
     1
 62
     7
420
 16777215
176
     1
 90
        1
176
     1
 90
        0
176
     1
 62
     7
176
     1
 62
   257
176
     1
 90
        1
176
     1
 90
        1
176
     1
 40
1.0
176
     1
 90
        0
176
     1
 62
   257
176
     1
 40
1.0
176
     1
 90
        1
176
     1
 90
        6
176
     1
 90
        2
176
     1
 62
     7
176
     1
 90
        5
176
     1
 90
        0
176
     1
 90
        0
176
     1
290
     0
176
     1
 90
       13
176
     1
 40
0.0
176
     1
 90
        0
176
     1
290
     0
176
     1
290
     1
176
     1
290
     1
176
     1
290
     0
176
     1
290
     0
176
     1
290
     0
176
     1
290
     0
176
     1
290
     0
176
     1
290
     0
176
     1
 90
       50
176
     1
 40
0.0
176
     1
 40
1.0
176
     1
 90
        0
176
     1
 62
    18
420
        0
176
     1
 90
       50
176
     1
 90
        3
176
     1
 62
     5
420
      255
176
     1
290
     0
176
     1
 90
       50
176
     1
 90
       50
176
     1
 90
       50
176
     1
290
     0
176
     1
 90
       50
176
     1
 62
   256
176
     0
 40
1.0
176
     0
 90
        2
176
     1
  1
strokes_ogs.tif
176
     1
290
     0
176
     1
 40
1.0
176
     1
 40
1.0
176
     1
  0
VISUALSTYLE
  5
2D
102
{ACAD_REACTORS
330
2A
102
}
330
2A
100
AcDbVisualStyle
  2
Gouraud
 70
     2
177
     3
291
     1
 70
    58
 90
        2
176
     1
 90
        2
176
     1
 90
        1
176
     1
 90
        2
176
     1
 40
0.6
176
     1
 40
30.0
176
     1
 62
     7
420
 16777215
176
     1
 90
        0
176
     1
 90
        0
176
     1
 62
     7
176
     1
 62
   257
176
     1
 90
        1
176
     1
 90
        1
176
     1
 40
1.0
176
     1
 90
        0
176
     1
 62
     7
176
     1
 40
1.0
176
     1
 90
        1
176
     1
 90
        6
176
     1
 90
        2
176
     1
 62
     7
176
     1
 90
        5
176
     1
 90
        0
176
     1
 90
        0
176
     1
290
     0
176
     1
 90
       13
176
     1
 40
0.0
176
     1
 90
        0
176
     1
290
     0
176
     1
290
     1
176
     1
290
     1
176
     1
290
     0
176
     1
290
     0
176
     1
290
     0
176
     1
290
     0
176
     1
290
     0
176
     1
290
     0
176
     1
 90
       50
176
     1
 40
0.0
176
     1
 40
1.0
176
     1
 90
        0
176
     1
 62
    18
420
        0
176
     1
 90
       50
176
     1
 90
        3
176
     1
 62
     5
420
      255
176
     1
290
     0
176
     1
 90
       50
176
     1
 90
       50
176
     1
 90
       50
176
     1
290
     0
176
     1
 90
       50
176
     1
 62
   256
176
     0
 40
1.0
176
     0
 90
        2
176
     1
  1
strokes_ogs.tif
176
     1
290
     0
176
     1
 40
1.0
176
     1
 40
1.0
176
     1
  0
VISUALSTYLE
  5
2E
102
{ACAD_REACTORS
330
2A
102
}
330
2A
100
AcDbVisualStyle
  2
GouraudWithEdges
 70
     3
177
     3
291
     1
 70
    58
 90
        2
176
     1
 90
        2
176
     1
 90
        1
176
     1
 90
        2
176
     1
 40
0.6
176
     1
 40
30.0
176
     1
 62
     7
420
 16777215
176
     1
 90
        1
176
     1
 90
        0
176
     1
 62
     7
176
     1
 62
   257
176
     1
 90
        1
176
     1
 90
        1
176
     1
 40
1.0
176
     1
 90
        0
176
     1
 62
   257
176
     1
 40
1.0
176
     1
 90
        1
176
     1
 90
        6
176
     1
 90
        2
176
     1
 62
     7
176
     1
 90
        5
176
     1
 90
        0
176
     1
 90
        0
176
     1
290
     0
176
     1
 90
       13
176
     1
 40
0.0
176
     1
 90
        0
176
     1
290
     0
176
     1
290
     1
176
     1
290
     1
176
     1
290
     0
176
     1
290
     0
176
     1
290
     0
176
     1
290
     0
176
     1
290
     0
176
     1
290
     0
176
     1
 90
       50
176
     1
 40
0.0
176
     1
 40
1.0
176
     1
 90
        0
176
     1
 62
    18
420
        0
176
     1
 90
       50
176
     1
 90
        3
176
     1
 62
     5
420
      255
176
     1
290
     0
176
     1
 90
       50
176
     1
 90
       50
176
     1
 90
       50
176
     1
290
     0
176
     1
 90
       50
176
     1
 62
   256
176
     0
 40
1.0
176
     0
 90
        2
176
     1
  1
strokes_ogs.tif
176
     1
290
     0
176
     1
 40
1.0
176
     1
 40
1.0
176
     1
  0
VISUALSTYLE
  5
31
102
{ACAD_REACTORS
330
2A
102
}
330
2A
100
AcDbVisualStyle
  2
Hidden
 70
     6
177
     3
291
     0
 70
    58
 90
        1
176
     1
 90
        2
176
     1
 90
        2
176
     1
 90
        0
176
     1
 40
0.6
176
     1
 40
30.0
176
     1
 62
     7
420
 16777215
176
     1
 90
        2
176
     1
 90
        2
176
     1
 62
     7
176
     1
 62
   257
176
     1
 90
        2
176
     1
 90
        1
176
     1
 40
40.0
176
     1
 90
        0
176
     1
 62
   257
176
     1
 40
1.0
176
     1
 90
        1
176
     1
 90
        6
176
     1
 90
        2
176
     1
 62
     7
176
     1
 90
        3
176
     1
 90
        0
176
     1
 90
        0
176
     1
290
     0
176
     1
 90
        1
176
     1
 40
0.0
176
     1
 90
        0
176
     1
290
     0
176
     1
290
     1
176
     1
290
     1
176
     1
290
     0
176
     1
290
     0
176
     1
290
     0
176
     1
290
     0
176
     1
290
     0
176
     1
290
     0
176
     1
 90
       50
176
     1
 40
0.0
176
     1
 40
1.0
176
     1
 90
        0
176
     1
 62
    18
420
        0
176
     1
 90
       50
176
     1
 90
        3
176
     1
 62
     5
420
      255
176
     1
290
     0
176
     1
 90
       50
176
     1
 90
       50
176
     1
 90
       50
176
     1
290
     0
176
     1
 90
       50
176
     1
 62
   256
176
     0
 40
1.0
176
     0
 90
        2
176
     1
  1
strokes_ogs.tif
176
     1
290
     0
176
     1
 40
1.0
176
     1
 40
1.0
176
     1
  0
VISUALSTYLE
  5
3B
102
{ACAD_REACTORS
330
2A
102
}
330
2A
100
AcDbVisualStyle
  2
JitterOff
 70
    20
177
     3
291
     1
 70
    58
 90
        2
176
     0
 90
        2
176
     0
 90
        0
176
     0
 90
        0
176
     0
 40
0.6
176
     0
 40
30.0
176
     0
 62
     7
420
 16777215
176
     0
 90
        1
176
     0
 90
        4
176
     0
 62
     7
176
     0
 62
   257
176
     0
 90
        1
176
     0
 90
        1
176
     0
 40
1.0
176
     0
 90
       10
176
     2
 62
     7
176
     0
 40
1.0
176
     0
 90
        1
176
     0
 90
        6
176
     0
 90
        2
176
     0
 62
     7
176
     0
 90
        5
176
     0
 90
        0
176
     0
 90
        0
176
     0
290
     0
176
     0
 90
        1
176
     0
 40
0.0
176
     0
 90
        0
176
     0
290
     0
176
     0
290
     1
176
     0
290
     1
176
     0
290
     0
176
     0
290
     0
176
     0
290
     0
176
     0
290
     0
176
     0
290
     0
176
     0
290
     0
176
     0
 90
       50
176
     0
 40
0.0
176
     0
 40
1.0
176
     0
 90
        0
176
     0
 62
    18
420
        0
176
     0
 90
       50
176
     0
 90
        3
176
     0
 62
     5
420
      255
176
     0
290
     0
176
     0
 90
       50
176
     0
 90
       50
176
     0
 90
       50
176
     0
290
     0
176
     0
 90
       50
176
     0
 62
   256
176
     0
 40
1.0
176
     0
 90
        2
176
     0
  1
strokes_ogs.tif
176
     0
290
     0
176
     0
 40
1.0
176
     0
 40
1.0
176
     0
  0
VISUALSTYLE
  5
38
102
{ACAD_REACTORS
330
2A
102
}
330
2A
100
AcDbVisualStyle
  2
Linepattern
 70
    14
177
     3
291
     1
 70
    58
 90
        2
176
     1
 90
        2
176
     1
 90
        0
176
     1
 90
        0
176
     1
 40
0.6
176
     1
 40
30.0
176
     1
 62
     7
420
 16777215
176
     1
 90
        1
176
     1
 90
        4
176
     1
 62
     7
176
     1
 62
   257
176
     1
 90
        7
176
     1
 90
        7
176
     1
 40
1.0
176
     1
 90
        8
176
     1
 62
     7
176
     1
 40
1.0
176
     1
 90
        1
176
     1
 90
        6
176
     1
 90
        2
176
     1
 62
     7
176
     1
 90
        5
176
     1
 90
        0
176
     1
 90
        0
176
     1
290
     0
176
     1
 90
        1
176
     1
 40
0.0
176
     1
 90
        0
176
     1
290
     0
176
     1
290
     1
176
     1
290
     1
176
     1
290
     0
176
     1
290
     0
176
     1
290
     0
176
     1
290
     0
176
     1
290
     0
176
     1
290
     0
176
     1
 90
       50
176
     1
 40
0.0
176
     1
 40
1.0
176
     1
 90
        0
176
     1
 62
    18
420
        0
176
     1
 90
       50
176
     1
 90
        3
176
     1
 62
     5
420
      255
176
     1
290
     0
176
     1
 90
       50
176
     1
 90
       50
176
     1
 90
       50
176
     1
290
     0
176
     1
 90
       50
176
     1
 62
   256
176
     0
 40
1.0
176
     0
 90
        2
176
     1
  1
strokes_ogs.tif
176
     1
290
     0
176
     1
 40
1.0
176
     1
 40
1.0
176
     1
  0
VISUALSTYLE
  5
3C
102
{ACAD_REACTORS
330
2A
102
}
330
2A
100
AcDbVisualStyle
  2
OverhangOff
 70
    21
177
     3
291
     1
 70
    58
 90
        2
176
     0
 90
        2
176
     0
 90
        0
176
     0
 90
        0
176
     0
 40
0.6
176
     0
 40
30.0
176
     0
 62
     7
420
 16777215
176
     0
 90
        1
176
     0
 90
        4
176
     0
 62
     7
176
     0
 62
   257
176
     0
 90
        1
176
     0
 90
        1
176
     0
 40
1.0
176
     0
 90
        9
176
     2
 62
     7
176
     0
 40
1.0
176
     0
 90
        1
176
     0
 90
        6
176
     0
 90
        2
176
     0
 62
     7
176
     0
 90
        5
176
     0
 90
        0
176
     0
 90
        0
176
     0
290
     0
176
     0
 90
        1
176
     0
 40
0.0
176
     0
 90
        0
176
     0
290
     0
176
     0
290
     1
176
     0
290
     1
176
     0
290
     0
176
     0
290
     0
176
     0
290
     0
176
     0
290
     0
176
     0
290
     0
176
     0
290
     0
176
     0
 90
       50
176
     0
 40
0.0
176
     0
 40
1.0
176
     0
 90
        0
176
     0
 62
    18
420
        0
176
     0
 90
       50
176
     0
 90
        3
176
     0
 62
     5
420
      255
176
     0
290
     0
176
     0
 90
       50
176
     0
 90
       50
176
     0
 90
       50
176
     0
290
     0
176
     0
 90
       50
176
     0
 62
   256
176
     0
 40
1.0
176
     0
 90
        2
176
     0
  1
strokes_ogs.tif
176
     0
290
     0
176
     0
 40
1.0
176
     0
 40
1.0
176
     0
  0
VISUALSTYLE
  5
33
102
{ACAD_REACTORS
330
2A
102
}
330
2A
100
AcDbVisualStyle
  2
Realistic
 70
     8
177
     3
291
     0
 70
    58
 90
        2
176
     1
 90
        3
176
     1
 90
        0
176
     1
 90
        2
176
     1
 40
0.6
176
     1
 40
30.0
176
     1
 62
     7
420
 16777215
176
     1
 90
        0
176
     1
 90
        0
176
     1
 62
     7
176
     1
 62
   257
176
     1
 90
        1
176
     1
 90
        1
176
     1
 40
1.0
176
     1
 90
        8
176
     1
 62
   257
176
     1
 40
1.0
176
     1
 90
        1
176
     1
 90
        6
176
     1
 90
        2
176
     1
 62
     7
176
     1
 90
        3
176
     1
 90
        0
176
     1
 90
        0
176
     1
290
     0
176
     1
 90
       13
176
     1
 40
0.0
176
     1
 90
        0
176
     1
290
     0
176
     1
290
     1
176
     1
290
     1
176
     1
290
     0
176
     1
290
     0
176
     1
290
     0
176
     1
290
     0
176
     1
290
     0
176
     1
290
     0
176
     1
 90
       50
176
     1
 40
0.0
176
     1
 40
1.0
176
     1
 90
        0
176
     1
 62
    18
420
        0
176
     1
 90
       50
176
     1
 90
        3
176
     1
 62
     5
420
      255
176
     1
290
     0
176
     1
 90
       50
176
     1
 90
       50
176
     1
 90
       50
176
     1
290
     0
176
     1
 90
       50
176
     1
 62
   256
176
     0
 40
1.0
176
     0
 90
        2
176
     1
  1
strokes_ogs.tif
176
     1
290
     0
176
     1
 40
1.0
176
     1
 40
1.0
176
     1
  0
VISUALSTYLE
  5
42
102
{ACAD_REACTORS
330
2A
102
}
330
2A
100
AcDbVisualStyle
  2
Shaded
 70
    27
177
     3
291
     0
 70
    58
 90
        2
176
     1
 90
        2
176
     1
 90
        1
176
     1
 90
        2
176
     1
 40
0.6
176
     1
 40
30.0
176
     1
 62
     7
420
 16777215
176
     1
 90
        0
176
     1
 90
        4
176
     1
 62
     7
176
     1
 62
   257
176
     1
 90
        1
176
     1
 90
        1
176
     1
 40
1.0
176
     1
 90
        8
176
     1
 62
   257
176
     1
 40
1.0
176
     1
 90
        1
176
     1
 90
        6
176
     1
 90
        2
176
     1
 62
     8
420
  7895160
176
     1
 90
        3
176
     1
 90
        0
176
     1
 90
        0
176
     1
290
     0
176
     1
 90
        5
176
     1
 40
0.0
176
     1
 90
        0
176
     1
290
     0
176
     1
290
     1
176
     1
290
     1
176
     1
290
     0
176
     1
290
     0
176
     1
290
     0
176
     1
290
     0
176
     1
290
     0
176
     1
290
     0
176
     1
 90
       50
176
     1
 40
0.0
176
     1
 40
1.0
176
     1
 90
        0
176
     1
 62
    18
420
        0
176
     1
 90
       50
176
     1
 90
        3
176
     1
 62
     5
420
      255
176
     1
290
     0
176
     1
 90
       50
176
     1
 90
       50
176
     1
 90
       50
176
     1
290
     0
176
     1
 90
       50
176
     1
 62
   256
176
     0
 40
1.0
176
     0
 90
        2
176
     1
  1
strokes_ogs.tif
176
     1
290
     0
176
     1
 40
1.0
176
     1
 40
1.0
176
     1
  0
VISUALSTYLE
  5
41
102
{ACAD_REACTORS
330
2A
102
}
330
2A
100
AcDbVisualStyle
  2
Shaded with edges
 70
    26
177
     3
291
     0
 70
    58
 90
        2
176
     1
 90
        2
176
     1
 90
        1
176
     1
 90
        2
176
     1
 40
0.6
176
     1
 40
30.0
176
     1
 62
     7
420
 16777215
176
     1
 90
        1
176
     1
 90
       10
176
     1
 62
     7
176
     1
 62
   257
176
     1
 90
        2
176
     1
 90
        1
176
     1
 40
1.0
176
     1
 90
        8
176
     1
 62
   257
176
     1
 40
1.0
176
     1
 90
        1
176
     1
 90
        6
176
     1
 90
        2
176
     1
 62
     7
176
     1
 90
        3
176
     1
 90
        0
176
     1
 90
        0
176
     1
290
     0
176
     1
 90
        5
176
     1
 40
0.0
176
     1
 90
        0
176
     1
290
     0
176
     1
290
     1
176
     1
290
     1
176
     1
290
     0
176
     1
290
     0
176
     1
290
     0
176
     1
290
     0
176
     1
290
     0
176
     1
290
     0
176
     1
 90
       50
176
     1
 40
0.0
176
     1
 40
1.0
176
     1
 90
        0
176
     1
 62
    18
420
        0
176
     1
 90
       50
176
     1
 90
        3
176
     1
 62
     5
420
      255
176
     1
290
     0
176
     1
 90
       50
176
     1
 90
       50
176
     1
 90
       50
176
     1
290
     0
176
     1
 90
       50
176
     1
 62
   256
176
     0
 40
1.0
176
     0
 90
        2
176
     1
  1
strokes_ogs.tif
176
     1
290
     0
176
     1
 40
1.0
176
     1
 40
1.0
176
     1
  0
VISUALSTYLE
  5
3E
102
{ACAD_REACTORS
330
2A
102
}
330
2A
100
AcDbVisualStyle
  2
Shades of Gray
 70
    23
177
     3
291
     0
 70
    58
 90
        2
176
     1
 90
        2
176
     1
 90
        3
176
     1
 90
        0
176
     1
 40
0.6
176
     1
 40
30.0
176
     1
 62
     7
420
 16777215
176
     1
 90
        2
176
     1
 90
        2
176
     1
 62
     7
176
     1
 62
     7
176
     1
 90
        1
176
     1
 90
        1
176
     1
 40
40.0
176
     1
 90
        8
176
     1
 62
     7
176
     1
 40
1.0
176
     1
 90
        1
176
     1
 90
        6
176
     1
 90
        2
176
     1
 62
     7
176
     1
 90
        3
176
     1
 90
        0
176
     1
 90
        0
176
     1
290
     0
176
     1
 90
        1
176
     1
 40
0.0
176
     1
 90
        0
176
     1
290
     0
176
     1
290
     1
176
     1
290
     1
176
     1
290
     0
176
     1
290
     0
176
     1
290
     0
176
     1
290
     0
176
     1
290
     0
176
     1
290
     0
176
     1
 90
       50
176
     1
 40
0.0
176
     1
 40
1.0
176
     1
 90
        0
176
     1
 62
    18
420
        0
176
     1
 90
       50
176
     1
 90
        3
176
     1
 62
     5
420
      255
176
     1
290
     0
176
     1
 90
       50
176
     1
 90
       50
176
     1
 90
       50
176
     1
290
     0
176
     1
 90
       50
176
     1
 62
   256
176
     0
 40
1.0
176
     0
 90
        2
176
     1
  1
strokes_ogs.tif
176
     1
290
     0
176
     1
 40
1.0
176
     1
 40
1.0
176
     1
  0
VISUALSTYLE
  5
3F
102
{ACAD_REACTORS
330
2A
102
}
330
2A
100
AcDbVisualStyle
  2
Sketchy
 70
    24
177
     3
291
     0
 70
    58
 90
        1
176
     1
 90
        2
176
     1
 90
        2
176
     1
 90
        0
176
     1
 40
0.6
176
     1
 40
30.0
176
     1
 62
     7
420
 16777215
176
     1
 90
        2
176
     1
 90
        2
176
     1
 62
     7
176
     1
 62
     7
176
     1
 90
        1
176
     1
 90
        1
176
     1
 40
40.0
176
     1
 90
       11
176
     1
 62
     7
176
     1
 40
1.0
176
     1
 90
        1
176
     1
 90
        6
176
     1
 90
        2
176
     1
 62
     7
176
     1
 90
        6
176
     1
 90
        0
176
     1
 90
        0
176
     1
290
     0
176
     1
 90
        1
176
     1
 40
0.0
176
     1
 90
        0
176
     1
290
     0
176
     1
290
     1
176
     1
290
     1
176
     1
290
     0
176
     1
290
     0
176
     1
290
     0
176
     1
290
     0
176
     1
290
     0
176
     1
290
     0
176
     1
 90
       50
176
     1
 40
0.0
176
     1
 40
1.0
176
     1
 90
        0
176
     1
 62
    18
420
        0
176
     1
 90
       50
176
     1
 90
        3
176
     1
 62
     5
420
      255
176
     1
290
     0
176
     1
 90
       50
176
     1
 90
       50
176
     1
 90
       50
176
     1
290
     0
176
     1
 90
       50
176
     1
 62
   256
176
     0
 40
1.0
176
     0
 90
        2
176
     1
  1
strokes_ogs.tif
176
     1
290
     0
176
     1
 40
1.0
176
     1
 40
1.0
176
     1
  0
VISUALSTYLE
  5
37
102
{ACAD_REACTORS
330
2A
102
}
330
2A
100
AcDbVisualStyle
  2
Thicken
 70
    13
177
     3
291
     1
 70
    58
 90
        2
176
     1
 90
        2
176
     1
 90
        0
176
     1
 90
        0
176
     1
 40
0.6
176
     1
 40
30.0
176
     1
 62
     7
420
 16777215
176
     1
 90
        1
176
     1
 90
        4
176
     1
 62
     7
176
     1
 62
   257
176
     1
 90
        1
176
     1
 90
        1
176
     1
 40
1.0
176
     1
 90
       12
176
     1
 62
     7
176
     1
 40
1.0
176
     1
 90
        1
176
     1
 90
        6
176
     1
 90
        2
176
     1
 62
     7
176
     1
 90
        5
176
     1
 90
        0
176
     1
 90
        0
176
     1
290
     0
176
     1
 90
        1
176
     1
 40
0.0
176
     1
 90
        0
176
     1
290
     0
176
     1
290
     1
176
     1
290
     1
176
     1
290
     0
176
     1
290
     0
176
     1
290
     0
176
     1
290
     0
176
     1
290
     0
176
     1
290
     0
176
     1
 90
       50
176
     1
 40
0.0
176
     1
 40
1.0
176
     1
 90
        0
176
     1
 62
    18
420
        0
176
     1
 90
       50
176
     1
 90
        3
176
     1
 62
     5
420
      255
176
     1
290
     0
176
     1
 90
       50
176
     1
 90
       50
176
     1
 90
       50
176
     1
290
     0
176
     1
 90
       50
176
     1
 62
   256
176
     0
 40
1.0
176
     0
 90
        2
176
     1
  1
strokes_ogs.tif
176
     1
290
     0
176
     1
 40
1.0
176
     1
 40
1.0
176
     1
  0
VISUALSTYLE
  5
30
102
{ACAD_REACTORS
330
2A
102
}
330
2A
100
AcDbVisualStyle
  2
Wireframe
 70
     5
177
     3
291
     0
 70
    58
 90
        0
176
     1
 90
        2
176
     1
 90
        0
176
     1
 90
        0
176
     1
 40
0.6
176
     1
 40
30.0
176
     1
 62
     7
420
 16777215
176
     1
 90
        1
176
     1
 90
        4
176
     1
 62
     7
176
     1
 62
   257
176
     1
 90
        1
176
     1
 90
        1
176
     1
 40
1.0
176
     1
 90
        0
176
     1
 62
   257
176
     1
 40
1.0
176
     1
 90
        1
176
     1
 90
        6
176
     1
 90
        2
176
     1
 62
     7
176
     1
 90
        3
176
     1
 90
        0
176
     1
 90
        0
176
     1
290
     0
176
     1
 90
        1
176
     1
 40
0.0
176
     1
 90
        0
176
     1
290
     0
176
     1
290
     1
176
     1
290
     1
176
     1
290
     0
176
     1
290
     0
176
     1
290
     0
176
     1
290
     0
176
     1
290
     0
176
     1
290
     0
176
     1
 90
       50
176
     1
 40
0.0
176
     1
 40
1.0
176
     1
 90
        0
176
     1
 62
    18
420
        0
176
     1
 90
       50
176
     1
 90
        3
176
     1
 62
     5
420
      255
176
     1
290
     0
176
     1
 90
       50
176
     1
 90
       50
176
     1
 90
       50
176
     1
290
     0
176
     1
 90
       50
176
     1
 62
   256
176
     0
 40
1.0
176
     0
 90
        2
176
     1
  1
strokes_ogs.tif
176
     1
290
     0
176
     1
 40
1.0
176
     1
 40
1.0
176
     1
  0
VISUALSTYLE
  5
40
102
{ACAD_REACTORS
330
2A
102
}
330
2A
100
AcDbVisualStyle
  2
X-Ray
 70
    25
177
     3
291
     0
 70
    58
 90
        2
176
     1
 90
        2
176
     1
 90
        1
176
     1
 90
        1
176
     1
 40
0.5
176
     1
 40
30.0
176
     1
 62
     7
420
 16777215
176
     1
 90
        1
176
     1
 90
        0
176
     1
 62
     7
176
     1
 62
   257
176
     1
 90
        1
176
     1
 90
        1
176
     1
 40
1.0
176
     1
 90
        8
176
     1
 62
     7
176
     1
 40
1.0
176
     1
 90
        1
176
     1
 90
        6
176
     1
 90
        2
176
     1
 62
     7
176
     1
 90
        3
176
     1
 90
        0
176
     1
 90
        0
176
     1
290
     0
176
     1
 90
       13
176
     1
 40
0.0
176
     1
 90
        0
176
     1
290
     0
176
     1
290
     1
176
     1
290
     1
176
     1
290
     0
176
     1
290
     0
176
     1
290
     0
176
     1
290
     0
176
     1
290
     0
176
     1
290
     0
176
     1
 90
       50
176
     1
 40
0.0
176
     1
 40
1.0
176
     1
 90
        0
176
     1
 62
    18
420
        0
176
     1
 90
       50
176
     1
 90
        3
176
     1
 62
     5
420
      255
176
     1
290
     0
176
     1
 90
       50
176
     1
 90
       50
176
     1
 90
       50
176
     1
290
     0
176
     1
 90
       50
176
     1
 62
   256
176
     0
 40
1.0
176
     0
 90
        2
176
     1
  1
strokes_ogs.tif
176
     1
290
     0
176
     1
 40
1.0
176
     1
 40
1.0
176
     1
  0
DICTIONARYVAR
  5
1A5
102
{ACAD_REACTORS
330
1A4
102
}
330
1A4
100
DictionaryVariables
280
     0
  1
1:1
  0
DICTIONARYVAR
  5
1AA
102
{ACAD_REACTORS
330
1A4
102
}
330
1A4
100
DictionaryVariables
280
     0
  1
Standard
  0
DICTIONARYVAR
  5
1A9
102
{ACAD_REACTORS
330
1A4
102
}
330
1A4
100
DictionaryVariables
280
     0
  1
Standard
  0
DICTIONARY
  5
1A6
330
6A
100
AcDbDictionary
280
     1
281
     1
  3
ACAD_ROUNDTRIP_2008_TABLESTYLE_CELLSTYLEMAP
360
1A7
  0
CELLSTYLEMAP
  5
1A7
102
{ACAD_REACTORS
330
1A6
102
}
330
1A6
100
AcDbCellStyleMap
 90
        3
300
CELLSTYLE
  1
TABLEFORMAT_BEGIN
 90
        5
170
     1
 91
        0
 92
    32768
 62
   257
 93
        1
300
CONTENTFORMAT
  1
CONTENTFORMAT_BEGIN
 90
        0
 91
        0
 92
        4
 93
        0
300

 40
0.0
140
1.0
 94
        5
 62
     0
340
11
144
0.25
309
CONTENTFORMAT_END
171
     1
301
MARGIN
  1
CELLMARGIN_BEGIN
 40
0.06
 40
0.06
 40
0.06
 40
0.06
 40
0.06
 40
0.06
309
CELLMARGIN_END
 94
        6
 95
        1
302
GRIDFORMAT
  1
GRIDFORMAT_BEGIN
 90
        0
 91
        1
 62
     0
 92
       -2
340
14
 93
        0
 40
0.045
309
GRIDFORMAT_END
 95
        2
302
GRIDFORMAT
  1
GRIDFORMAT_BEGIN
 90
        0
 91
        1
 62
     0
 92
       -2
340
14
 93
        0
 40
0.045
309
GRIDFORMAT_END
 95
        4
302
GRIDFORMAT
  1
GRIDFORMAT_BEGIN
 90
        0
 91
        1
 62
     0
 92
       -2
340
14
 93
        0
 40
0.045
309
GRIDFORMAT_END
 95
        8
302
GRIDFORMAT
  1
GRIDFORMAT_BEGIN
 90
        0
 91
        1
 62
     0
 92
       -2
340
14
 93
        0
 40
0.045
309
GRIDFORMAT_END
 95
       16
302
GRIDFORMAT
  1
GRIDFORMAT_BEGIN
 90
        0
 91
        1
 62
     0
 92
       -2
340
14
 93
        0
 40
0.045
309
GRIDFORMAT_END
 95
       32
302
GRIDFORMAT
  1
GRIDFORMAT_BEGIN
 90
        0
 91
        1
 62
     0
 92
       -2
340
14
 93
        0
 40
0.045
309
GRIDFORMAT_END
309
TABLEFORMAT_END
  1
CELLSTYLE_BEGIN
 90
        1
 91
        1
300
_TITLE
309
CELLSTYLE_END
300
CELLSTYLE
  1
TABLEFORMAT_BEGIN
 90
        5
170
     1
 91
        0
 92
        0
 62
   257
 93
        1
300
CONTENTFORMAT
  1
CONTENTFORMAT_BEGIN
 90
        0
 91
        0
 92
        4
 93
        0
300

 40
0.0
140
1.0
 94
        5
 62
     0
340
11
144
0.18
309
CONTENTFORMAT_END
171
     1
301
MARGIN
  1
CELLMARGIN_BEGIN
 40
0.06
 40
0.06
 40
0.06
 40
0.06
 40
0.06
 40
0.06
309
CELLMARGIN_END
 94
        6
 95
        1
302
GRIDFORMAT
  1
GRIDFORMAT_BEGIN
 90
        0
 91
        1
 62
     0
 92
       -2
340
14
 93
        0
 40
0.045
309
GRIDFORMAT_END
 95
        2
302
GRIDFORMAT
  1
GRIDFORMAT_BEGIN
 90
        0
 91
        1
 62
     0
 92
       -2
340
14
 93
        0
 40
0.045
309
GRIDFORMAT_END
 95
        4
302
GRIDFORMAT
  1
GRIDFORMAT_BEGIN
 90
        0
 91
        1
 62
     0
 92
       -2
340
14
 93
        0
 40
0.045
309
GRIDFORMAT_END
 95
        8
302
GRIDFORMAT
  1
GRIDFORMAT_BEGIN
 90
        0
 91
        1
 62
     0
 92
       -2
340
14
 93
        0
 40
0.045
309
GRIDFORMAT_END
 95
       16
302
GRIDFORMAT
  1
GRIDFORMAT_BEGIN
 90
        0
 91
        1
 62
     0
 92
       -2
340
14
 93
        0
 40
0.045
309
GRIDFORMAT_END
 95
       32
302
GRIDFORMAT
  1
GRIDFORMAT_BEGIN
 90
        0
 91
        1
 62
     0
 92
       -2
340
14
 93
        0
 40
0.045
309
GRIDFORMAT_END
309
TABLEFORMAT_END
  1
CELLSTYLE_BEGIN
 90
        2
 91
        1
300
_HEADER
309
CELLSTYLE_END
300
CELLSTYLE
  1
TABLEFORMAT_BEGIN
 90
        5
170
     1
 91
        0
 92
        0
 62
   257
 93
        1
300
CONTENTFORMAT
  1
CONTENTFORMAT_BEGIN
 90
        0
 91
        0
 92
        4
 93
        0
300

 40
0.0
140
1.0
 94
        2
 62
     0
340
11
144
0.18
309
CONTENTFORMAT_END
171
     1
301
MARGIN
  1
CELLMARGIN_BEGIN
 40
0.06
 40
0.06
 40
0.06
 40
0.06
 40
0.06
 40
0.06
309
CELLMARGIN_END
 94
        6
 95
        1
302
GRIDFORMAT
  1
GRIDFORMAT_BEGIN
 90
        0
 91
        1
 62
     0
 92
       -2
340
14
 93
        0
 40
0.045
309
GRIDFORMAT_END
 95
        2
302
GRIDFORMAT
  1
GRIDFORMAT_BEGIN
 90
        0
 91
        1
 62
     0
 92
       -2
340
14
 93
        0
 40
0.045
309
GRIDFORMAT_END
 95
        4
302
GRIDFORMAT
  1
GRIDFORMAT_BEGIN
 90
        0
 91
        1
 62
     0
 92
       -2
340
14
 93
        0
 40
0.045
309
GRIDFORMAT_END
 95
        8
302
GRIDFORMAT
  1
GRIDFORMAT_BEGIN
 90
        0
 91
        1
 62
     0
 92
       -2
340
14
 93
        0
 40
0.045
309
GRIDFORMAT_END
 95
       16
302
GRIDFORMAT
  1
GRIDFORMAT_BEGIN
 90
        0
 91
        1
 62
     0
 92
       -2
340
14
 93
        0
 40
0.045
309
GRIDFORMAT_END
 95
       32
302
GRIDFORMAT
  1
GRIDFORMAT_BEGIN
 90
        0
 91
        1
 62
     0
 92
       -2
340
14
 93
        0
 40
0.045
309
GRIDFORMAT_END
309
TABLEFORMAT_END
  1
CELLSTYLE_BEGIN
 90
        3
 91
        2
300
_DATA
309
CELLSTYLE_END
  0
ENDSEC
  0
EOF