0
SECTION
  2
HEADER
  9
$ACADVER
  1
AC1027
  9
$ACADMAINTVER
 70
     8
  9
$DWGCODEPAGE
  3
ANSI_1252
  9
$REQUIREDVERSIONS
160
                 0
  9
$COMMENTS
  1
File was created by Cadenas
  9
$CUSTOMPROPERTYTAG
  1
NN
  9
$CUSTOMPROPERTY
  1
Grip Tight Tapped Base - Polymer Housing, Corrosion Resisitant Insert  Inch Bore
  9
$CUSTOMPROPERTYTAG
  1
NT
  9
$CUSTOMPROPERTY
  1
GTEZ Normal Duty Polymer Housed Tapped Base Pillow Blocks
  9
$CUSTOMPROPERTYTAG
  1
NB
  9
$CUSTOMPROPERTY
  1
129295
  9
$CUSTOMPROPERTYTAG
  1
NBSYN
  9
$CUSTOMPROPERTY
  1
$PN.$LUBE.
  9
$CUSTOMPROPERTYTAG
  1
LINA
  9
$CUSTOMPROPERTY
  1
129295
  9
$CUSTOMPROPERTYTAG
  1
SERIES
  9
$CUSTOMPROPERTY
  1
206
  9
$CUSTOMPROPERTYTAG
  1
SS
  9
$CUSTOMPROPERTY
  1
1-3/16
  9
$CUSTOMPROPERTYTAG
  1
PN
  9
$CUSTOMPROPERTY
  1
129295
  9
$CUSTOMPROPERTYTAG
  1
DESCRIPTION
  9
$CUSTOMPROPERTY
  1
TB-GTEZ-103-PCR
  9
$CUSTOMPROPERTYTAG
  1
A
  9
$CUSTOMPROPERTY
  1
1-39/64
  9
$CUSTOMPROPERTYTAG
  1
B
  9
$CUSTOMPROPERTY
  1
4-3/8
  9
$CUSTOMPROPERTYTAG
  1
C
  9
$CUSTOMPROPERTY
  1
1-37/64
  9
$CUSTOMPROPERTYTAG
  1
D
  9
$CUSTOMPROPERTY
  1
3
  9
$CUSTOMPROPERTYTAG
  1
J
  9
$CUSTOMPROPERTY
  1
3-3/8
  9
$CUSTOMPROPERTYTAG
  1
L
  9
$CUSTOMPROPERTY
  1
2
  9
$CUSTOMPROPERTYTAG
  1
M
  9
$CUSTOMPROPERTY
  1
1-11/16
  9
$CUSTOMPROPERTYTAG
  1
N
  9
$CUSTOMPROPERTY
  1
29/64
  9
$CUSTOMPROPERTYTAG
  1
R
  9
$CUSTOMPROPERTY
  1
7/16-14
  9
$CUSTOMPROPERTYTAG
  1
S
  9
$CUSTOMPROPERTY
  1
1-5/64
  9
$CUSTOMPROPERTYTAG
  1
Z
  9
$CUSTOMPROPERTY
  1
1-1/32
  9
$CUSTOMPROPERTYTAG
  1
COMPANY
  9
$CUSTOMPROPERTY
  1
baldor
  9
$INSBASE
 10
0.0
 20
0.0
 30
0.0
  9
$EXTMIN
 10
1.000000000000000E+20
 20
1.000000000000000E+20
 30
1.000000000000000E+20
  9
$EXTMAX
 10
-1.000000000000000E+20
 20
-1.000000000000000E+20
 30
-1.000000000000000E+20
  9
$LIMMIN
 10
0.0
 20
0.0
  9
$LIMMAX
 10
12.0
 20
9.0
  9
$ORTHOMODE
 70
     0
  9
$REGENMODE
 70
     1
  9
$FILLMODE
 70
     1
  9
$QTEXTMODE
 70
     0
  9
$MIRRTEXT
 70
     1
  9
$LTSCALE
 40
1.0
  9
$ATTMODE
 70
     1
  9
$TEXTSIZE
 40
0.2
  9
$TRACEWID
 40
0.05
  9
$TEXTSTYLE
  7
Standard
  9
$CLAYER
  8
0
  9
$CELTYPE
  6
ByLayer
  9
$CECOLOR
 62
   256
  9
$CELTSCALE
 40
1.0
  9
$DISPSILH
 70
     0
  9
$DIMSCALE
 40
1.0
  9
$DIMASZ
 40
0.18
  9
$DIMEXO
 40
0.0625
  9
$DIMDLI
 40
0.38
  9
$DIMRND
 40
0.0
  9
$DIMDLE
 40
0.0
  9
$DIMEXE
 40
0.18
  9
$DIMTP
 40
0.0
  9
$DIMTM
 40
0.0
  9
$DIMTXT
 40
0.18
  9
$DIMCEN
 40
0.09
  9
$DIMTSZ
 40
0.0
  9
$DIMTOL
 70
     0
  9
$DIMLIM
 70
     0
  9
$DIMTIH
 70
     1
  9
$DIMTOH
 70
     1
  9
$DIMSE1
 70
     0
  9
$DIMSE2
 70
     0
  9
$DIMTAD
 70
     0
  9
$DIMZIN
 70
     0
  9
$DIMBLK
  1

  9
$DIMASO
 70
     1
  9
$DIMSHO
 70
     1
  9
$DIMPOST
  1

  9
$DIMAPOST
  1

  9
$DIMALT
 70
     0
  9
$DIMALTD
 70
     2
  9
$DIMALTF
 40
25.4
  9
$DIMLFAC
 40
1.0
  9
$DIMTOFL
 70
     0
  9
$DIMTVP
 40
0.0
  9
$DIMTIX
 70
     0
  9
$DIMSOXD
 70
     0
  9
$DIMSAH
 70
     0
  9
$DIMBLK1
  1

  9
$DIMBLK2
  1

  9
$DIMSTYLE
  2
Standard
  9
$DIMCLRD
 70
     0
  9
$DIMCLRE
 70
     0
  9
$DIMCLRT
 70
     0
  9
$DIMTFAC
 40
1.0
  9
$DIMGAP
 40
0.09
  9
$DIMJUST
 70
     0
  9
$DIMSD1
 70
     0
  9
$DIMSD2
 70
     0
  9
$DIMTOLJ
 70
     1
  9
$DIMTZIN
 70
     0
  9
$DIMALTZ
 70
     0
  9
$DIMALTTZ
 70
     0
  9
$DIMUPT
 70
     0
  9
$DIMDEC
 70
     4
  9
$DIMTDEC
 70
     4
  9
$DIMALTU
 70
     2
  9
$DIMALTTD
 70
     2
  9
$DIMTXSTY
  7
Standard
  9
$DIMAUNIT
 70
     0
  9
$DIMADEC
 70
     0
  9
$DIMALTRND
 40
0.0
  9
$DIMAZIN
 70
     0
  9
$DIMDSEP
 70
    46
  9
$DIMATFIT
 70
     3
  9
$DIMFRAC
 70
     0
  9
$DIMLDRBLK
  1

  9
$DIMLUNIT
 70
     2
  9
$DIMLWD
 70
    -2
  9
$DIMLWE
 70
    -2
  9
$DIMTMOVE
 70
     0
  9
$DIMFXL
 40
1.0
  9
$DIMFXLON
 70
     0
  9
$DIMJOGANG
 40
0.7853981633974483
  9
$DIMTFILL
 70
     0
  9
$DIMTFILLCLR
 70
     0
  9
$DIMARCSYM
 70
     0
  9
$DIMLTYPE
  6

  9
$DIMLTEX1
  6

  9
$DIMLTEX2
  6

  9
$DIMTXTDIRECTION
 70
     0
  9
$LUNITS
 70
     2
  9
$LUPREC
 70
     4
  9
$SKETCHINC
 40
0.1
  9
$FILLETRAD
 40
0.5
  9
$AUNITS
 70
     0
  9
$AUPREC
 70
     0
  9
$MENU
  1
.
  9
$ELEVATION
 40
0.0
  9
$PELEVATION
 40
0.0
  9
$THICKNESS
 40
0.0
  9
$LIMCHECK
 70
     0
  9
$CHAMFERA
 40
0.0
  9
$CHAMFERB
 40
0.0
  9
$CHAMFERC
 40
0.0
  9
$CHAMFERD
 40
0.0
  9
$SKPOLY
 70
     0
  9
$TDCREATE
 40
2458168.963897523
  9
$TDUCREATE
 40
2458168.922230856
  9
$TDUPDATE
 40
2458168.963897708
  9
$TDUUPDATE
 40
2458168.922231042
  9
$TDINDWG
 40
0.0000000116
  9
$TDUSRTIMER
 40
0.0000000116
  9
$USRTIMER
 70
     1
  9
$ANGBASE
 50
0.0
  9
$ANGDIR
 70
     0
  9
$PDMODE
 70
     0
  9
$PDSIZE
 40
0.0
  9
$PLINEWID
 40
0.0
  9
$SPLFRAME
 70
     0
  9
$SPLINETYPE
 70
     6
  9
$SPLINESEGS
 70
     8
  9
$HANDSEED
  5
1D1
  9
$SURFTAB1
 70
     6
  9
$SURFTAB2
 70
     6
  9
$SURFTYPE
 70
     6
  9
$SURFU
 70
     6
  9
$SURFV
 70
     6
  9
$UCSBASE
  2

  9
$UCSNAME
  2

  9
$UCSORG
 10
0.0
 20
0.0
 30
0.0
  9
$UCSXDIR
 10
1.0
 20
0.0
 30
0.0
  9
$UCSYDIR
 10
0.0
 20
1.0
 30
0.0
  9
$UCSORTHOREF
  2

  9
$UCSORTHOVIEW
 70
     0
  9
$UCSORGTOP
 10
0.0
 20
0.0
 30
0.0
  9
$UCSORGBOTTOM
 10
0.0
 20
0.0
 30
0.0
  9
$UCSORGLEFT
 10
0.0
 20
0.0
 30
0.0
  9
$UCSORGRIGHT
 10
0.0
 20
0.0
 30
0.0
  9
$UCSORGFRONT
 10
0.0
 20
0.0
 30
0.0
  9
$UCSORGBACK
 10
0.0
 20
0.0
 30
0.0
  9
$PUCSBASE
  2

  9
$PUCSNAME
  2

  9
$PUCSORG
 10
0.0
 20
0.0
 30
0.0
  9
$PUCSXDIR
 10
1.0
 20
0.0
 30
0.0
  9
$PUCSYDIR
 10
0.0
 20
1.0
 30
0.0
  9
$PUCSORTHOREF
  2

  9
$PUCSORTHOVIEW
 70
     0
  9
$PUCSORGTOP
 10
0.0
 20
0.0
 30
0.0
  9
$PUCSORGBOTTOM
 10
0.0
 20
0.0
 30
0.0
  9
$PUCSORGLEFT
 10
0.0
 20
0.0
 30
0.0
  9
$PUCSORGRIGHT
 10
0.0
 20
0.0
 30
0.0
  9
$PUCSORGFRONT
 10
0.0
 20
0.0
 30
0.0
  9
$PUCSORGBACK
 10
0.0
 20
0.0
 30
0.0
  9
$USERI1
 70
     0
  9
$USERI2
 70
     0
  9
$USERI3
 70
     0
  9
$USERI4
 70
     0
  9
$USERI5
 70
     0
  9
$USERR1
 40
0.0
  9
$USERR2
 40
0.0
  9
$USERR3
 40
0.0
  9
$USERR4
 40
0.0
  9
$USERR5
 40
0.0
  9
$WORLDVIEW
 70
     1
  9
$SHADEDGE
 70
     3
  9
$SHADEDIF
 70
    70
  9
$TILEMODE
 70
     1
  9
$MAXACTVP
 70
    64
  9
$PINSBASE
 10
0.0
 20
0.0
 30
0.0
  9
$PLIMCHECK
 70
     0
  9
$PEXTMIN
 10
1.000000000000000E+20
 20
1.000000000000000E+20
 30
1.000000000000000E+20
  9
$PEXTMAX
 10
-1.000000000000000E+20
 20
-1.000000000000000E+20
 30
-1.000000000000000E+20
  9
$PLIMMIN
 10
0.0
 20
0.0
  9
$PLIMMAX
 10
12.0
 20
9.0
  9
$UNITMODE
 70
     0
  9
$VISRETAIN
 70
     1
  9
$PLINEGEN
 70
     0
  9
$PSLTSCALE
 70
     1
  9
$TREEDEPTH
 70
  3020
  9
$CMLSTYLE
  2
Standard
  9
$CMLJUST
 70
     0
  9
$CMLSCALE
 40
1.0
  9
$PROXYGRAPHICS
 70
     1
  9
$MEASUREMENT
 70
     0
  9
$CELWEIGHT
370
    -1
  9
$ENDCAPS
280
     0
  9
$JOINSTYLE
280
     0
  9
$LWDISPLAY
290
     0
  9
$INSUNITS
 70
     1
  9
$HYPERLINKBASE
  1

  9
$STYLESHEET
  1

  9
$XEDIT
290
     1
  9
$CEPSNTYPE
380
     0
  9
$PSTYLEMODE
290
     1
  9
$FINGERPRINTGUID
  2
{02BD6009-28AE-4F03-936C-D969BE181ABB}
  9
$VERSIONGUID
  2
{FAEB1C32-E019-11D5-929B-00C0DF256EC4}
  9
$EXTNAMES
290
     1
  9
$PSVPSCALE
 40
0.0
  9
$OLESTARTUP
290
     0
  9
$SORTENTS
280
   127
  9
$INDEXCTL
280
     0
  9
$HIDETEXT
280
     1
  9
$XCLIPFRAME
280
     2
  9
$HALOGAP
280
     0
  9
$OBSCOLOR
 70
   257
  9
$OBSLTYPE
280
     0
  9
$INTERSECTIONDISPLAY
280
     0
  9
$INTERSECTIONCOLOR
 70
   257
  9
$DIMASSOC
280
     2
  9
$PROJECTNAME
  1

  9
$CAMERADISPLAY
290
     0
  9
$LENSLENGTH
 40
50.0
  9
$CAMERAHEIGHT
 40
0.0
  9
$STEPSPERSEC
 40
2.0
  9
$STEPSIZE
 40
6.0
  9
$3DDWFPREC
 40
2.0
  9
$PSOLWIDTH
 40
0.25
  9
$PSOLHEIGHT
 40
4.0
  9
$LOFTANG1
 40
1.570796326794897
  9
$LOFTANG2
 40
1.570796326794897
  9
$LOFTMAG1
 40
0.0
  9
$LOFTMAG2
 40
0.0
  9
$LOFTPARAM
 70
     7
  9
$LOFTNORMALS
280
     1
  9
$LATITUDE
 40
37.795
  9
$LONGITUDE
 40
-122.394
  9
$NORTHDIRECTION
 40
0.0
  9
$TIMEZONE
 70
 -8000
  9
$LIGHTGLYPHDISPLAY
280
     1
  9
$TILEMODELIGHTSYNCH
280
     1
  9
$CMATERIAL
347
44
  9
$SOLIDHIST
280
     0
  9
$SHOWHIST
280
     1
  9
$DWFFRAME
280
     2
  9
$DGNFRAME
280
     2
  9
$REALWORLDSCALE
290
     1
  9
$INTERFERECOLOR
 62
   256
  9
$CSHADOW
280
     0
  9
$SHADOWPLANELOCATION
 40
0.0
  0
ENDSEC
  0
SECTION
  2
CLASSES
  0
CLASS
  1
ACDBDICTIONARYWDFLT
  2
AcDbDictionaryWithDefault
  3
ObjectDBX Classes
 90
        0
 91
        4
280
     0
281
     0
  0
CLASS
  1
VISUALSTYLE
  2
AcDbVisualStyle
  3
ObjectDBX Classes
 90
     4095
 91
        4
280
     0
281
     0
  0
CLASS
  1
MATERIAL
  2
AcDbMaterial
  3
ObjectDBX Classes
 90
     1153
 91
        4
280
     0
281
     0
  0
CLASS
  1
SCALE
  2
AcDbScale
  3
ObjectDBX Classes
 90
     1153
 91
        4
280
     0
281
     0
  0
CLASS
  1
TABLESTYLE
  2
AcDbTableStyle
  3
ObjectDBX Classes
 90
     4095
 91
        4
280
     0
281
     0
  0
CLASS
  1
MLEADERSTYLE
  2
AcDbMLeaderStyle
  3
ACDB_MLEADERSTYLE_CLASS
 90
     4095
 91
        4
280
     0
281
     0
  0
CLASS
  1
SUN
  2
AcDbSun
  3
SCENEOE
 90
     1153
 91
        4
280
     0
281
     0
  0
CLASS
  1
DICTIONARYVAR
  2
AcDbDictionaryVar
  3
ObjectDBX Classes
 90
        0
 91
        4
280
     0
281
     0
  0
CLASS
  1
CELLSTYLEMAP
  2
AcDbCellStyleMap
  3
ObjectDBX Classes
 90
     1152
 91
        4
280
     0
281
     0
  0
ENDSEC
  0
SECTION
  2
TABLES
  0
TABLE
  2
VPORT
  5
8
330
0
100
AcDbSymbolTable
 70
     1
  0
VPORT
  5
29
330
8
100
AcDbSymbolTableRecord
100
AcDbViewportTableRecord
  2
*Active
 70
     0
 10
0.0
 20
0.0
 11
1.0
 21
1.0
 12
0.0
 22
-0.1453124999999993
 13
0.0
 23
0.0
 14
0.5
 24
0.5
 15
0.5
 25
0.5
 16
0.0
 26
0.0
 36
1.0
 17
0.0
 27
0.0
 37
0.0
 40
2.06709375
 41
2.158828064764842
 42
50.0
 43
0.0
 44
0.0
 50
0.0
 51
0.0
 71
     0
 72
   100
 73
     1
 74
     3
 75
     0
 76
     0
 77
     0
 78
     0
281
     0
 65
     1
110
0.0
120
0.0
130
0.0
111
1.0
121
0.0
131
0.0
112
0.0
122
1.0
132
0.0
 79
     0
146
0.0
348
2F
 60
     3
 61
     5
292
     1
282
     1
141
0.0
142
0.0
 63
   250
361
6D
  0
ENDTAB
  0
TABLE
  2
LTYPE
  5
5
330
0
100
AcDbSymbolTable
 70
     3
  0
LTYPE
  5
14
330
5
100
AcDbSymbolTableRecord
100
AcDbLinetypeTableRecord
  2
ByBlock
 70
     0
  3

 72
    65
 73
     0
 40
0.0
  0
LTYPE
  5
15
330
5
100
AcDbSymbolTableRecord
100
AcDbLinetypeTableRecord
  2
ByLayer
 70
     0
  3

 72
    65
 73
     0
 40
0.0
  0
LTYPE
  5
16
330
5
100
AcDbSymbolTableRecord
100
AcDbLinetypeTableRecord
  2
Continuous
 70
     0
  3
Solid line
 72
    65
 73
     0
 40
0.0
  0
LTYPE
  5
9E
330
5
100
AcDbSymbolTableRecord
100
AcDbLinetypeTableRecord
  2
Dashed
 70
     0
  3

 72
    65
 73
     2
 40
2.0
 49
1.0
 74
     0
 49
-1.0
 74
     0
  0
LTYPE
  5
111
330
5
100
AcDbSymbolTableRecord
100
AcDbLinetypeTableRecord
  2
Center
 70
     0
  3

 72
    65
 73
     4
 40
1.5
 49
0.45
 74
     0
 49
-0.5
 74
     0
 49
0.05
 74
     0
 49
-0.5
 74
     0
  0
ENDTAB
  0
TABLE
  2
LAYER
  5
2
330
0
100
AcDbSymbolTable
 70
     7
  0
LAYER
  5
10
330
2
100
AcDbSymbolTableRecord
100
AcDbLayerTableRecord
  2
0
 70
     0
 62
     7
  6
Continuous
370
    -3
390
F
347
46
348
0
  0
LAYER
  5
72
330
2
100
AcDbSymbolTableRecord
100
AcDbLayerTableRecord
  2
AM_6
 70
     0
 62
    -2
  6
Continuous
370
    35
390
F
347
46
348
0
  0
LAYER
  5
9F
330
2
100
AcDbSymbolTableRecord
100
AcDbLayerTableRecord
  2
AM_9
 70
     0
 62
     6
  6
Dashed
370
    25
390
F
347
46
348
0
  0
LAYER
  5
CA
330
2
100
AcDbSymbolTableRecord
100
AcDbLayerTableRecord
  2
AM_4
 70
     0
 62
     7
  6
Continuous
370
    50
390
F
347
46
348
0
  0
LAYER
  5
10E
330
2
100
AcDbSymbolTableRecord
100
AcDbLayerTableRecord
  2
AM_5
 70
     0
 62
     3
  6
Continuous
370
    25
390
F
347
46
348
0
  0
LAYER
  5
112
330
2
100
AcDbSymbolTableRecord
100
AcDbLayerTableRecord
  2
AM_7
 70
     0
 62
     7
  6
Center
370
    25
390
F
347
46
348
0
  0
LAYER
  5
1C3
330
2
100
AcDbSymbolTableRecord
100
AcDbLayerTableRecord
  2
ConnectionPoints
 70
     0
 62
     7
  6
Continuous
370
    50
390
F
347
46
348
0
  0
ENDTAB
  0
TABLE
  2
STYLE
  5
3
330
0
100
AcDbSymbolTable
 70
     1
  0
STYLE
  5
11
330
3
100
AcDbSymbolTableRecord
100
AcDbTextStyleTableRecord
  2
Standard
 70
     0
 40
0.0
 41
1.0
 50
0.0
 71
     0
 42
0.2
  3
txt
  4

  0
ENDTAB
  0
TABLE
  2
VIEW
  5
6
330
0
100
AcDbSymbolTable
 70
     0
  0
ENDTAB
  0
TABLE
  2
UCS
  5
7
330
0
100
AcDbSymbolTable
 70
     0
  0
ENDTAB
  0
TABLE
  2
APPID
  5
9
330
0
100
AcDbSymbolTable
 70
     1
  0
APPID
  5
12
330
9
100
AcDbSymbolTableRecord
100
AcDbRegAppTableRecord
  2
ACAD
 70
     0
  0
ENDTAB
  0
TABLE
  2
DIMSTYLE
  5
A
330
0
100
AcDbSymbolTable
 70
     1
100
AcDbDimStyleTable
  0
DIMSTYLE
105
27
330
A
100
AcDbSymbolTableRecord
100
AcDbDimStyleTableRecord
  2
Standard
 70
     0
178
     0
340
11
  0
ENDTAB
  0
TABLE
  2
BLOCK_RECORD
  5
1
330
0
100
AcDbSymbolTable
 70
     5
  0
BLOCK_RECORD
  5
1F
330
1
100
AcDbSymbolTableRecord
100
AcDbBlockTableRecord
  2
*Model_Space
340
22
 70
     0
280
     1
281
     0
  0
BLOCK_RECORD
  5
1B
330
1
100
AcDbSymbolTableRecord
100
AcDbBlockTableRecord
  2
*Paper_Space
340
1E
 70
     0
280
     1
281
     0
  0
BLOCK_RECORD
  5
23
330
1
100
AcDbSymbolTableRecord
100
AcDbBlockTableRecord
  2
*Paper_Space0
340
26
 70
     0
280
     1
281
     0
  0
BLOCK_RECORD
  5
6E
330
1
100
AcDbSymbolTableRecord
100
AcDbBlockTableRecord
  2
1_129295_4
340
0
102
{BLKREFS
331
6F
102
}
 70
     0
280
     1
281
     0
  0
BLOCK_RECORD
  5
88
330
1
100
AcDbSymbolTableRecord
100
AcDbBlockTableRecord
  2
2_INS_GT_06_CRI_0_in_129295_4
340
0
102
{BLKREFS
331
89
102
}
 70
     0
280
     1
281
     0
  0
BLOCK_RECORD
  5
D3
330
1
100
AcDbSymbolTableRecord
100
AcDbBlockTableRecord
  2
3_129971_0_in_129295_4
340
0
102
{BLKREFS
331
D4
102
}
 70
     0
280
     1
281
     0
  0
BLOCK_RECORD
  5
132
330
1
100
AcDbSymbolTableRecord
100
AcDbBlockTableRecord
  2
4_TB_GTEZ_06_PCRI_0_in_129295_4
340
0
102
{BLKREFS
331
133
102
}
 70
     0
280
     1
281
     0
  0
ENDTAB
  0
ENDSEC
  0
SECTION
  2
BLOCKS
  0
BLOCK
  5
20
330
1F
100
AcDbEntity
  8
0
100
AcDbBlockBegin
  2
*Model_Space
 70
     0
 10
0.0
 20
0.0
 30
0.0
  3
*Model_Space
  1

  0
ENDBLK
  5
21
330
1F
100
AcDbEntity
  8
0
100
AcDbBlockEnd
  0
BLOCK
  5
1C
330
1B
100
AcDbEntity
 67
     1
  8
0
100
AcDbBlockBegin
  2
*Paper_Space
 70
     0
 10
0.0
 20
0.0
 30
0.0
  3
*Paper_Space
  1

  0
ENDBLK
  5
1D
330
1B
100
AcDbEntity
 67
     1
  8
0
100
AcDbBlockEnd
  0
BLOCK
  5
24
330
23
100
AcDbEntity
  8
0
100
AcDbBlockBegin
  2
*Paper_Space0
 70
     0
 10
0.0
 20
0.0
 30
0.0
  3
*Paper_Space0
  1

  0
ENDBLK
  5
25
330
23
100
AcDbEntity
  8
0
100
AcDbBlockEnd
  0
BLOCK
  5
70
330
6E
100
AcDbEntity
  8
0
100
AcDbBlockBegin
  2
1_129295_4
 70
     2
 10
0.0
 20
0.0
 30
0.0
  3
1_129295_4
  1

  0
ATTDEF
  5
73
330
6E
100
AcDbEntity
  8
AM_6
100
AcDbText
 10
7.1875
 20
0.86796875
 30
0.0
 40
0.5
  1
Grip Tight Tapped Base - Polymer Housing, Corrosion Resisitant Insert  Inch Bore
100
AcDbAttributeDefinition
  3

  2
NN
 70
     8
280
     0
  0
ATTDEF
  5
74
330
6E
100
AcDbEntity
  8
AM_6
100
AcDbText
 10
7.1875
 20
0.36796875
 30
0.0
 40
0.5
  1
GTEZ Normal Duty Polymer Housed Tapped Base Pillow Blocks
100
AcDbAttributeDefinition
  3

  2
NT
 70
     8
280
     0
  0
ATTDEF
  5
75
330
6E
100
AcDbEntity
  8
AM_6
100
AcDbText
 10
7.1875
 20
-0.13203125
 30
0.0
 40
0.5
  1
129295
100
AcDbAttributeDefinition
  3

  2
NB
 70
     8
280
     0
  0
ATTDEF
  5
76
330
6E
100
AcDbEntity
  8
AM_6
100
AcDbText
 10
7.1875
 20
-0.63203125
 30
0.0
 40
0.5
  1
$PN.$LUBE.
100
AcDbAttributeDefinition
  3

  2
NBSYN
 70
     8
280
     0
  0
ATTDEF
  5
77
330
6E
100
AcDbEntity
  8
AM_6
100
AcDbText
 10
7.1875
 20
-1.13203125
 30
0.0
 40
0.5
  1
129295
100
AcDbAttributeDefinition
  3

  2
LINA
 70
     8
280
     0
  0
ATTDEF
  5
78
330
6E
100
AcDbEntity
  8
AM_6
100
AcDbText
 10
7.1875
 20
-1.63203125
 30
0.0
 40
0.5
  1
206
100
AcDbAttributeDefinition
  3

  2
SERIES
 70
     8
280
     0
  0
ATTDEF
  5
79
330
6E
100
AcDbEntity
  8
AM_6
100
AcDbText
 10
7.1875
 20
-2.13203125
 30
0.0
 40
0.5
  1
1-3/16
100
AcDbAttributeDefinition
  3

  2
SS
 70
     8
280
     0
  0
ATTDEF
  5
7A
330
6E
100
AcDbEntity
  8
AM_6
100
AcDbText
 10
7.1875
 20
-2.63203125
 30
0.0
 40
0.5
  1
129295
100
AcDbAttributeDefinition
  3

  2
PN
 70
     8
280
     0
  0
ATTDEF
  5
7B
330
6E
100
AcDbEntity
  8
AM_6
100
AcDbText
 10
7.1875
 20
-3.13203125
 30
0.0
 40
0.5
  1
TB-GTEZ-103-PCR
100
AcDbAttributeDefinition
  3

  2
DESCRIPTION
 70
     8
280
     0
  0
ATTDEF
  5
7C
330
6E
100
AcDbEntity
  8
AM_6
100
AcDbText
 10
7.1875
 20
-3.63203125
 30
0.0
 40
0.5
  1
1-39/64
100
AcDbAttributeDefinition
  3

  2
A
 70
     8
280
     0
  0
ATTDEF
  5
7D
330
6E
100
AcDbEntity
  8
AM_6
100
AcDbText
 10
7.1875
 20
-4.13203125
 30
0.0
 40
0.5
  1
4-3/8
100
AcDbAttributeDefinition
  3

  2
B
 70
     8
280
     0
  0
ATTDEF
  5
7E
330
6E
100
AcDbEntity
  8
AM_6
100
AcDbText
 10
7.1875
 20
-4.63203125
 30
0.0
 40
0.5
  1
1-37/64
100
AcDbAttributeDefinition
  3

  2
C
 70
     8
280
     0
  0
ATTDEF
  5
7F
330
6E
100
AcDbEntity
  8
AM_6
100
AcDbText
 10
7.1875
 20
-5.13203125
 30
0.0
 40
0.5
  1
3
100
AcDbAttributeDefinition
  3

  2
D
 70
     8
280
     0
  0
ATTDEF
  5
80
330
6E
100
AcDbEntity
  8
AM_6
100
AcDbText
 10
7.1875
 20
-5.63203125
 30
0.0
 40
0.5
  1
3-3/8
100
AcDbAttributeDefinition
  3

  2
J
 70
     8
280
     0
  0
ATTDEF
  5
81
330
6E
100
AcDbEntity
  8
AM_6
100
AcDbText
 10
7.1875
 20
-6.13203125
 30
0.0
 40
0.5
  1
2
100
AcDbAttributeDefinition
  3

  2
L
 70
     8
280
     0
  0
ATTDEF
  5
82
330
6E
100
AcDbEntity
  8
AM_6
100
AcDbText
 10
7.1875
 20
-6.63203125
 30
0.0
 40
0.5
  1
1-11/16
100
AcDbAttributeDefinition
  3

  2
M
 70
     8
280
     0
  0
ATTDEF
  5
83
330
6E
100
AcDbEntity
  8
AM_6
100
AcDbText
 10
7.1875
 20
-7.13203125
 30
0.0
 40
0.5
  1
29/64
100
AcDbAttributeDefinition
  3

  2
N
 70
     8
280
     0
  0
ATTDEF
  5
84
330
6E
100
AcDbEntity
  8
AM_6
100
AcDbText
 10
7.1875
 20
-7.63203125
 30
0.0
 40
0.5
  1
7/16-14
100
AcDbAttributeDefinition
  3

  2
R
 70
     8
280
     0
  0
ATTDEF
  5
85
330
6E
100
AcDbEntity
  8
AM_6
100
AcDbText
 10
7.1875
 20
-8.13203125
 30
0.0
 40
0.5
  1
1-5/64
100
AcDbAttributeDefinition
  3

  2
S
 70
     8
280
     0
  0
ATTDEF
  5
86
330
6E
100
AcDbEntity
  8
AM_6
100
AcDbText
 10
7.1875
 20
-8.63203125
 30
0.0
 40
0.5
  1
1-1/32
100
AcDbAttributeDefinition
  3

  2
Z
 70
     8
280
     0
  0
ATTDEF
  5
87
330
6E
100
AcDbEntity
  8
AM_6
100
AcDbText
 10
7.1875
 20
-9.13203125
 30
0.0
 40
0.5
  1
baldor
100
AcDbAttributeDefinition
  3

  2
COMPANY
 70
     8
280
     0
  0
INSERT
  5
89
330
6E
100
AcDbEntity
  8
0
100
AcDbBlockReference
  2
2_INS_GT_06_CRI_0_in_129295_4
 10
0.0
 20
0.0
 30
0.0
  0
INSERT
  5
D4
330
6E
100
AcDbEntity
  8
0
100
AcDbBlockReference
  2
3_129971_0_in_129295_4
 10
0.0
 20
0.0
 30
0.0
  0
INSERT
  5
133
330
6E
100
AcDbEntity
  8
0
100
AcDbBlockReference
  2
4_TB_GTEZ_06_PCRI_0_in_129295_4
 10
0.0
 20
0.0
 30
0.0
  0
ENDBLK
  5
71
330
6E
100
AcDbEntity
  8
0
100
AcDbBlockEnd
  0
BLOCK
  5
8A
330
88
100
AcDbEntity
  8
0
100
AcDbBlockBegin
  2
2_INS_GT_06_CRI_0_in_129295_4
 70
     2
 10
0.0
 20
0.0
 30
0.0
  3
2_INS_GT_06_CRI_0_in_129295_4
  1

  0
ATTDEF
  5
8C
330
88
100
AcDbEntity
  8
AM_6
100
AcDbText
 10
6.22042791533218
 20
0.478125
 30
0.0
 40
0.5
  1
INS-GT-CR-I
100
AcDbAttributeDefinition
  3

  2
NN
 70
     8
280
     0
  0
ATTDEF
  5
8D
330
88
100
AcDbEntity
  8
AM_6
100
AcDbText
 10
6.22042791533218
 20
-0.021875
 30
0.0
 40
0.5
  1
GT Normal Duty Corrosion Resistant Bearing Inserts
100
AcDbAttributeDefinition
  3

  2
NT
 70
     8
280
     0
  0
ATTDEF
  5
8E
330
88
100
AcDbEntity
  8
AM_6
100
AcDbText
 10
6.22042791533218
 20
-0.521875
 30
0.0
 40
0.5
  1
INS-GT-06-CRI
100
AcDbAttributeDefinition
  3

  2
NB
 70
     8
280
     0
  0
ATTDEF
  5
8F
330
88
100
AcDbEntity
  8
AM_6
100
AcDbText
 10
6.22042791533218
 20
-1.021875
 30
0.0
 40
0.5
  1
$PN.I
100
AcDbAttributeDefinition
  3

  2
NBSYN
 70
     8
280
     0
  0
ATTDEF
  5
90
330
88
100
AcDbEntity
  8
AM_6
100
AcDbText
 10
6.22042791533218
 20
-1.521875
 30
0.0
 40
0.5
  1
INS-GT-06-CR
100
AcDbAttributeDefinition
  3

  2
LINA
 70
     8
280
     0
  0
ATTDEF
  5
91
330
88
100
AcDbEntity
  8
AM_6
100
AcDbText
 10
6.22042791533218
 20
-2.021875
 30
0.0
 40
0.5
  1
206
100
AcDbAttributeDefinition
  3

  2
SERIES
 70
     8
280
     0
  0
ATTDEF
  5
92
330
88
100
AcDbEntity
  8
AM_6
100
AcDbText
 10
6.22042791533218
 20
-2.521875
 30
0.0
 40
0.5
  1
INS-GT-06-CR
100
AcDbAttributeDefinition
  3

  2
PN
 70
     8
280
     0
  0
ATTDEF
  5
93
330
88
100
AcDbEntity
  8
AM_6
100
AcDbText
 10
6.22042791533218
 20
-3.021875
 30
0.0
 40
0.5
  1
INS-GT-06-CR
100
AcDbAttributeDefinition
  3

  2
DESCRIPTION
 70
     8
280
     0
  0
ATTDEF
  5
94
330
88
100
AcDbEntity
  8
AM_6
100
AcDbText
 10
6.22042791533218
 20
-3.521875
 30
0.0
 40
0.5
  1
1-39/64
100
AcDbAttributeDefinition
  3

  2
A
 70
     8
280
     0
  0
ATTDEF
  5
95
330
88
100
AcDbEntity
  8
AM_6
100
AcDbText
 10
6.22042791533218
 20
-4.021875
 30
0.0
 40
0.5
  1
0.7087
100
AcDbAttributeDefinition
  3

  2
C
 70
     8
280
     0
  0
ATTDEF
  5
96
330
88
100
AcDbEntity
  8
AM_6
100
AcDbText
 10
6.22042791533218
 20
-4.521875
 30
0.0
 40
0.5
  1
2.4409
100
AcDbAttributeDefinition
  3

  2
D
 70
     8
280
     0
  0
ATTDEF
  5
97
330
88
100
AcDbEntity
  8
AM_6
100
AcDbText
 10
6.22042791533218
 20
-5.021875
 30
0.0
 40
0.5
  1
0.190
100
AcDbAttributeDefinition
  3

  2
J
 70
     8
280
     0
  0
ATTDEF
  5
98
330
88
100
AcDbEntity
  8
AM_6
100
AcDbText
 10
6.22042791533218
 20
-5.521875
 30
0.0
 40
0.5
  1
2
100
AcDbAttributeDefinition
  3

  2
L
 70
     8
280
     0
  0
ATTDEF
  5
99
330
88
100
AcDbEntity
  8
AM_6
100
AcDbText
 10
6.22042791533218
 20
-6.021875
 30
0.0
 40
0.5
  1
10 - 32 x 1/4
100
AcDbAttributeDefinition
  3

  2
N
 70
     8
280
     0
  0
ATTDEF
  5
9A
330
88
100
AcDbEntity
  8
AM_6
100
AcDbText
 10
6.22042791533218
 20
-6.521875
 30
0.0
 40
0.5
  1
17/32
100
AcDbAttributeDefinition
  3

  2
W
 70
     8
280
     0
  0
ATTDEF
  5
9B
330
88
100
AcDbEntity
  8
AM_6
100
AcDbText
 10
6.22042791533218
 20
-7.021875
 30
0.0
 40
0.5
  1
1-1/32
100
AcDbAttributeDefinition
  3

  2
X
 70
     8
280
     0
  0
ATTDEF
  5
9C
330
88
100
AcDbEntity
  8
AM_6
100
AcDbText
 10
6.22042791533218
 20
-7.521875
 30
0.0
 40
0.5
  1
1-5/64
100
AcDbAttributeDefinition
  3

  2
Y
 70
     8
280
     0
  0
ATTDEF
  5
9D
330
88
100
AcDbEntity
  8
AM_6
100
AcDbText
 10
6.22042791533218
 20
-8.021875
 30
0.0
 40
0.5
  1
baldor
100
AcDbAttributeDefinition
  3

  2
COMPANY
 70
     8
280
     0
  0
LINE
  5
A0
330
88
100
AcDbEntity
  8
AM_9
100
AcDbLine
 10
-0.88888888888889
 20
-0.74508884515494
 30
0.0
 11
-0.86054088888889
 21
-0.77343684515494
 31
0.0
  0
LINE
  5
A1
330
88
100
AcDbEntity
  8
AM_9
100
AcDbLine
 10
0.86054088888889
 20
-0.77343684515494
 30
0.0
 11
0.88888888888889
 21
-0.74508884515494
 31
0.0
  0
LINE
  5
A2
330
88
100
AcDbEntity
  8
AM_9
100
AcDbLine
 10
-0.88888888888889
 20
-0.64453059515494
 30
0.0
 11
-0.88888888888889
 21
-0.74508884515494
 31
0.0
  0
LINE
  5
A3
330
88
100
AcDbEntity
  8
AM_9
100
AcDbLine
 10
0.88888888888889
 20
-0.74508884515494
 30
0.0
 11
0.88888888888889
 21
-0.64453059515494
 31
0.0
  0
LINE
  5
A4
330
88
100
AcDbEntity
  8
AM_9
100
AcDbLine
 10
-0.81746028888889
 20
-0.51562434515494
 30
0.0
 11
-0.81746028888889
 21
-0.64453059515494
 31
0.0
  0
LINE
  5
A5
330
88
100
AcDbEntity
  8
AM_9
100
AcDbLine
 10
0.81746028888889
 20
-0.64453059515494
 30
0.0
 11
0.81746028888889
 21
-0.51562434515494
 31
0.0
  0
LINE
  5
A6
330
88
100
AcDbEntity
  8
AM_9
100
AcDbLine
 10
-0.88888888888889
 20
-0.35435
 30
0.0
 11
-0.88888888888889
 21
-0.43435719466671
 31
0.0
  0
LINE
  5
A7
330
88
100
AcDbEntity
  8
AM_9
100
AcDbLine
 10
0.88888888888889
 20
-0.43435719466671
 30
0.0
 11
0.88888888888889
 21
-0.35435
 31
0.0
  0
ARC
  5
A8
330
88
100
AcDbEntity
  8
AM_9
100
AcDbCircle
 10
1.130466548018268
 20
-0.3260019999999643
 30
0.0
 40
0.0283480000000357
100
AcDbArc
 50
270.0
 51
338.5875329530664
  0
ARC
  5
A9
330
88
100
AcDbEntity
  8
AM_9
100
AcDbCircle
 10
-1.130466548018268
 20
-0.3260019999999643
 30
0.0
 40
0.0283480000000357
100
AcDbArc
 50
201.4124670469336
 51
270.0
  0
ARC
  5
AA
330
88
100
AcDbEntity
  8
AM_9
100
AcDbCircle
 10
0.2991399999893474
 20
0.000000000003552
 30
0.0
 40
0.9213100000112201
100
AcDbArc
 50
338.5875329531523
 51
345.0993329992301
  0
ARC
  5
AB
330
88
100
AcDbEntity
  8
AM_9
100
AcDbCircle
 10
-0.299139999989431
 20
0.0000000000035246
 30
0.0
 40
0.9213100000111323
100
AcDbArc
 50
194.9006670007696
 51
201.412467046848
  0
ARC
  5
AC
330
88
100
AcDbEntity
  8
AM_9
100
AcDbCircle
 10
1.182620501290232
 20
-0.2350869999999931
 30
0.0
 40
0.007086999999993
100
AcDbArc
 50
345.0993456676986
 51
90.0
  0
ARC
  5
AD
330
88
100
AcDbEntity
  8
AM_9
100
AcDbCircle
 10
-1.182620501290232
 20
-0.2350869999999931
 30
0.0
 40
0.0070869999999931
100
AcDbArc
 50
90.0
 51
194.9006543323015
  0
LINE
  5
AE
330
88
100
AcDbEntity
  8
AM_9
100
AcDbLine
 10
-1.14958
 20
-0.152
 30
0.0
 11
-1.14958
 21
-0.228
 31
0.0
  0
LINE
  5
AF
330
88
100
AcDbEntity
  8
AM_9
100
AcDbLine
 10
1.14958
 20
-0.228
 30
0.0
 11
1.14958
 21
-0.152
 31
0.0
  0
ARC
  5
B0
330
88
100
AcDbEntity
  8
AM_9
100
AcDbCircle
 10
1.20180489693568
 20
-0.1449129999998909
 30
0.0
 40
0.0070870000001091
100
AcDbArc
 50
270.0
 51
350.8796090867764
  0
ARC
  5
B1
330
88
100
AcDbEntity
  8
AM_9
100
AcDbCircle
 10
-1.20180489693568
 20
-0.1449129999998909
 30
0.0
 40
0.0070870000001093
100
AcDbArc
 50
189.1203909132235
 51
270.0
  0
ARC
  5
B2
330
88
100
AcDbEntity
  8
AM_9
100
AcDbCircle
 10
0.299139999998545
 20
-0.0000000000002181
 30
0.0
 40
0.9213100000014401
100
AcDbArc
 50
350.8796090875786
 51
21.41246704686352
  0
ARC
  5
B3
330
88
100
AcDbEntity
  8
AM_9
100
AcDbCircle
 10
-0.2991399999981663
 20
-0.0000000000002589
 30
0.0
 40
0.9213100000018076
100
AcDbArc
 50
158.5875329531427
 51
189.1203909124152
  0
ARC
  5
B4
330
88
100
AcDbEntity
  8
AM_9
100
AcDbCircle
 10
1.130466548018268
 20
0.3260019999999643
 30
0.0
 40
0.0283480000000357
100
AcDbArc
 50
21.4124670469336
 51
90.0
  0
ARC
  5
B5
330
88
100
AcDbEntity
  8
AM_9
100
AcDbCircle
 10
-1.130466548018268
 20
0.3260019999999643
 30
0.0
 40
0.0283480000000357
100
AcDbArc
 50
90.0
 51
158.5875329530664
  0
LINE
  5
B6
330
88
100
AcDbEntity
  8
AM_9
100
AcDbLine
 10
-0.88888888888889
 20
0.43450283490285
 30
0.0
 11
-0.88888888888889
 21
0.35435
 31
0.0
  0
LINE
  5
B7
330
88
100
AcDbEntity
  8
AM_9
100
AcDbLine
 10
0.88888888888889
 20
0.35435
 30
0.0
 11
0.88888888888889
 21
0.43450283490285
 31
0.0
  0
LINE
  5
B8
330
88
100
AcDbEntity
  8
AM_9
100
AcDbLine
 10
-0.77623267526132
 20
0.478125
 30
0.0
 11
-0.74603168888889
 21
-0.38671809515494
 31
0.0
  0
LINE
  5
B9
330
88
100
AcDbEntity
  8
AM_9
100
AcDbLine
 10
0.74603168888889
 20
-0.38671809515494
 30
0.0
 11
0.77623267526132
 21
0.478125
 31
0.0
  0
LINE
  5
BA
330
88
100
AcDbEntity
  8
AM_9
100
AcDbLine
 10
-0.74603168888889
 20
-0.38671809515494
 30
0.0
 11
-0.74603168888889
 21
-0.77343684515494
 31
0.0
  0
LINE
  5
BB
330
88
100
AcDbEntity
  8
AM_9
100
AcDbLine
 10
0.74603168888889
 20
-0.77343684515494
 30
0.0
 11
0.74603168888889
 21
-0.38671809515494
 31
0.0
  0
LINE
  5
BC
330
88
100
AcDbEntity
  8
AM_9
100
AcDbLine
 10
-0.86054088888889
 20
-0.77343684515494
 30
0.0
 11
0.86054088888889
 21
-0.77343684515494
 31
0.0
  0
LINE
  5
BD
330
88
100
AcDbEntity
  8
AM_9
100
AcDbLine
 10
-0.88888888888889
 20
-0.74508884515494
 30
0.0
 11
0.88888888888889
 21
-0.74508884515494
 31
0.0
  0
LINE
  5
BE
330
88
100
AcDbEntity
  8
AM_9
100
AcDbLine
 10
-0.88888888888889
 20
-0.64453059515494
 30
0.0
 11
0.88888888888889
 21
-0.64453059515494
 31
0.0
  0
LINE
  5
BF
330
88
100
AcDbEntity
  8
AM_9
100
AcDbLine
 10
-0.88888888888889
 20
-0.51562434515494
 30
0.0
 11
0.88888888888889
 21
-0.51562434515494
 31
0.0
  0
LINE
  5
C0
330
88
100
AcDbEntity
  8
AM_9
100
AcDbLine
 10
-1.1304665480183
 20
-0.35435
 30
0.0
 11
1.1304665480183
 21
-0.35435
 31
0.0
  0
LINE
  5
C1
330
88
100
AcDbEntity
  8
AM_9
100
AcDbLine
 10
-1.156857867003
 20
-0.33635126984127
 30
0.0
 11
1.156857867003
 21
-0.33635126984127
 31
0.0
  0
LINE
  5
C2
330
88
100
AcDbEntity
  8
AM_9
100
AcDbLine
 10
-1.1894691877528
 20
-0.23690937831893
 30
0.0
 11
1.1894691877528
 21
-0.23690937831893
 31
0.0
  0
LINE
  5
C3
330
88
100
AcDbEntity
  8
AM_9
100
AcDbLine
 10
-1.1826205012902
 20
-0.228
 30
0.0
 11
1.1826205012902
 21
-0.228
 31
0.0
  0
LINE
  5
C4
330
88
100
AcDbEntity
  8
AM_9
100
AcDbLine
 10
-1.2018048969357
 20
-0.152
 30
0.0
 11
1.2018048969357
 21
-0.152
 31
0.0
  0
LINE
  5
C5
330
88
100
AcDbEntity
  8
AM_9
100
AcDbLine
 10
-1.2088022992376
 20
-0.14603635658915
 30
0.0
 11
1.2088022992376
 21
-0.14603635658915
 31
0.0
  0
LINE
  5
C6
330
88
100
AcDbEntity
  8
AM_9
100
AcDbLine
 10
-1.156857867003
 20
0.33635126984127
 30
0.0
 11
1.156857867003
 21
0.33635126984127
 31
0.0
  0
LINE
  5
C7
330
88
100
AcDbEntity
  8
AM_9
100
AcDbLine
 10
-1.1304665480183
 20
0.35435
 30
0.0
 11
1.1304665480183
 21
0.35435
 31
0.0
  0
LINE
  5
C8
330
88
100
AcDbEntity
  8
AM_9
100
AcDbLine
 10
-0.86054088888889
 20
0.478125
 30
0.0
 11
0.86054088888889
 21
0.478125
 31
0.0
  0
LINE
  5
C9
330
88
100
AcDbEntity
  8
AM_9
100
AcDbLine
 10
-0.74603168888889
 20
-0.38671809515494
 30
0.0
 11
0.74603168888889
 21
-0.38671809515494
 31
0.0
  0
LINE
  5
CB
330
88
100
AcDbEntity
  8
AM_4
100
AcDbLine
 10
-0.88888888888889
 20
-0.43498717257747
 30
0.0
 11
-0.88888888888889
 21
-0.51562434515494
 31
0.0
  0
LINE
  5
CC
330
88
100
AcDbEntity
  8
AM_4
100
AcDbLine
 10
0.88888888888889
 20
-0.51562434515494
 30
0.0
 11
0.88888888888889
 21
-0.43498717257747
 31
0.0
  0
LINE
  5
CD
330
88
100
AcDbEntity
  8
AM_4
100
AcDbLine
 10
-0.88888888888889
 20
0.449777
 30
0.0
 11
-0.88888888888889
 21
0.43450283490285
 31
0.0
  0
LINE
  5
CE
330
88
100
AcDbEntity
  8
AM_4
100
AcDbLine
 10
0.88888888888889
 20
0.43450283490285
 30
0.0
 11
0.88888888888889
 21
0.449777
 31
0.0
  0
LINE
  5
CF
330
88
100
AcDbEntity
  8
AM_4
100
AcDbLine
 10
-0.86054088888889
 20
0.478125
 30
0.0
 11
-0.88888888888889
 21
0.449777
 31
0.0
  0
LINE
  5
D0
330
88
100
AcDbEntity
  8
AM_4
100
AcDbLine
 10
0.88888888888889
 20
0.449777
 30
0.0
 11
0.86054088888889
 21
0.478125
 31
0.0
  0
LINE
  5
D1
330
88
100
AcDbEntity
  8
AM_4
100
AcDbLine
 10
0.88888888888889
 20
0.449777
 30
0.0
 11
-0.88888888888889
 21
0.449777
 31
0.0
  0
LINE
  5
D2
330
88
100
AcDbEntity
  8
AM_4
100
AcDbLine
 10
0.85937074103304
 20
0.478125
 30
0.0
 11
-0.85937074103304
 21
0.478125
 31
0.0
  0
ENDBLK
  5
8B
330
88
100
AcDbEntity
  8
0
100
AcDbBlockEnd
  0
BLOCK
  5
D5
330
D3
100
AcDbEntity
  8
0
100
AcDbBlockBegin
  2
3_129971_0_in_129295_4
 70
     2
 10
0.0
 20
0.0
 30
0.0
  3
3_129971_0_in_129295_4
  1

  0
ATTDEF
  5
D7
330
D3
100
AcDbEntity
  8
AM_6
100
AcDbText
 10
5.99547727246783
 20
0.53125
 30
0.0
 40
0.5
  1
Grip Tight Adapter and Nut - Corrosion Resistant Inch Bore
100
AcDbAttributeDefinition
  3

  2
NN
 70
     8
280
     0
  0
ATTDEF
  5
D8
330
D3
100
AcDbEntity
  8
AM_6
100
AcDbText
 10
5.99547727246783
 20
0.03125
 30
0.0
 40
0.5
  1
GT and GTM Adapter & Lock Nut Assemblies
100
AcDbAttributeDefinition
  3

  2
NT
 70
     8
280
     0
  0
ATTDEF
  5
D9
330
D3
100
AcDbEntity
  8
AM_6
100
AcDbText
 10
5.99547727246783
 20
-0.46875
 30
0.0
 40
0.5
  1
129971
100
AcDbAttributeDefinition
  3

  2
NB
 70
     8
280
     0
  0
ATTDEF
  5
DA
330
D3
100
AcDbEntity
  8
AM_6
100
AcDbText
 10
5.99547727246783
 20
-0.96875
 30
0.0
 40
0.5
  1
$PN.
100
AcDbAttributeDefinition
  3

  2
NBSYN
 70
     8
280
     0
  0
ATTDEF
  5
DB
330
D3
100
AcDbEntity
  8
AM_6
100
AcDbText
 10
5.99547727246783
 20
-1.46875
 30
0.0
 40
0.5
  1
129971
100
AcDbAttributeDefinition
  3

  2
LINA
 70
     8
280
     0
  0
ATTDEF
  5
DC
330
D3
100
AcDbEntity
  8
AM_6
100
AcDbText
 10
5.99547727246783
 20
-1.96875
 30
0.0
 40
0.5
  1
206
100
AcDbAttributeDefinition
  3

  2
SERIES
 70
     8
280
     0
  0
ATTDEF
  5
DD
330
D3
100
AcDbEntity
  8
AM_6
100
AcDbText
 10
5.99547727246783
 20
-2.46875
 30
0.0
 40
0.5
  1
1-3/16
100
AcDbAttributeDefinition
  3

  2
SS
 70
     8
280
     0
  0
ATTDEF
  5
DE
330
D3
100
AcDbEntity
  8
AM_6
100
AcDbText
 10
5.99547727246783
 20
-2.96875
 30
0.0
 40
0.5
  1
129971
100
AcDbAttributeDefinition
  3

  2
PN
 70
     8
280
     0
  0
ATTDEF
  5
DF
330
D3
100
AcDbEntity
  8
AM_6
100
AcDbText
 10
5.99547727246783
 20
-3.46875
 30
0.0
 40
0.5
  1
AN-GT-06-103-CR
100
AcDbAttributeDefinition
  3

  2
DESCRIPTION
 70
     8
280
     0
  0
ATTDEF
  5
E0
330
D3
100
AcDbEntity
  8
AM_6
100
AcDbText
 10
5.99547727246783
 20
-3.96875
 30
0.0
 40
0.5
  1
1-39/64
100
AcDbAttributeDefinition
  3

  2
A
 70
     8
280
     0
  0
ATTDEF
  5
E1
330
D3
100
AcDbEntity
  8
AM_6
100
AcDbText
 10
5.99547727246783
 20
-4.46875
 30
0.0
 40
0.5
  1
0.7087
100
AcDbAttributeDefinition
  3

  2
C
 70
     8
280
     0
  0
ATTDEF
  5
E2
330
D3
100
AcDbEntity
  8
AM_6
100
AcDbText
 10
5.99547727246783
 20
-4.96875
 30
0.0
 40
0.5
  1
2.4409
100
AcDbAttributeDefinition
  3

  2
D
 70
     8
280
     0
  0
ATTDEF
  5
E3
330
D3
100
AcDbEntity
  8
AM_6
100
AcDbText
 10
5.99547727246783
 20
-5.46875
 30
0.0
 40
0.5
  1
0.190
100
AcDbAttributeDefinition
  3

  2
J
 70
     8
280
     0
  0
ATTDEF
  5
E4
330
D3
100
AcDbEntity
  8
AM_6
100
AcDbText
 10
5.99547727246783
 20
-5.96875
 30
0.0
 40
0.5
  1
2
100
AcDbAttributeDefinition
  3

  2
L
 70
     8
280
     0
  0
ATTDEF
  5
E5
330
D3
100
AcDbEntity
  8
AM_6
100
AcDbText
 10
5.99547727246783
 20
-6.46875
 30
0.0
 40
0.5
  1
10 - 32 x 1/4
100
AcDbAttributeDefinition
  3

  2
N
 70
     8
280
     0
  0
ATTDEF
  5
E6
330
D3
100
AcDbEntity
  8
AM_6
100
AcDbText
 10
5.99547727246783
 20
-6.96875
 30
0.0
 40
0.5
  1
17/32
100
AcDbAttributeDefinition
  3

  2
W
 70
     8
280
     0
  0
ATTDEF
  5
E7
330
D3
100
AcDbEntity
  8
AM_6
100
AcDbText
 10
5.99547727246783
 20
-7.46875
 30
0.0
 40
0.5
  1
1-1/32
100
AcDbAttributeDefinition
  3

  2
X
 70
     8
280
     0
  0
ATTDEF
  5
E8
330
D3
100
AcDbEntity
  8
AM_6
100
AcDbText
 10
5.99547727246783
 20
-7.96875
 30
0.0
 40
0.5
  1
1-5/64
100
AcDbAttributeDefinition
  3

  2
Y
 70
     8
280
     0
  0
ATTDEF
  5
E9
330
D3
100
AcDbEntity
  8
AM_6
100
AcDbText
 10
5.99547727246783
 20
-8.46875
 30
0.0
 40
0.5
  1
baldor
100
AcDbAttributeDefinition
  3

  2
COMPANY
 70
     8
280
     0
  0
LINE
  5
EA
330
D3
100
AcDbEntity
  8
AM_9
100
AcDbLine
 10
-0.81746031746032
 20
-0.515625
 30
0.0
 11
-0.81746031746032
 21
-0.64453125
 31
0.0
  0
LINE
  5
EB
330
D3
100
AcDbEntity
  8
AM_9
100
AcDbLine
 10
0.81746031746032
 20
-0.64453125
 30
0.0
 11
0.81746031746032
 21
-0.515625
 31
0.0
  0
LINE
  5
EC
330
D3
100
AcDbEntity
  8
AM_9
100
AcDbLine
 10
-0.88888888888889
 20
-0.64453125
 30
0.0
 11
-0.88888888888889
 21
-0.7734375
 31
0.0
  0
LINE
  5
ED
330
D3
100
AcDbEntity
  8
AM_9
100
AcDbLine
 10
0.88888888888889
 20
-0.7734375
 30
0.0
 11
0.88888888888889
 21
-0.64453125
 31
0.0
  0
LINE
  5
EE
330
D3
100
AcDbEntity
  8
AM_9
100
AcDbLine
 10
-0.983
 20
-0.8313647333418
 30
0.0
 11
-1.0
 21
-0.8143647333418
 31
0.0
  0
LINE
  5
EF
330
D3
100
AcDbEntity
  8
AM_9
100
AcDbLine
 10
-0.9992686333291
 20
-1.0036333666709
 30
0.0
 11
-0.983
 21
-0.9873647333418
 31
0.0
  0
LINE
  5
F0
330
D3
100
AcDbEntity
  8
AM_9
100
AcDbLine
 10
-0.767
 20
-0.8313647333418
 30
0.0
 11
-0.983
 21
-0.8313647333418
 31
0.0
  0
LINE
  5
F1
330
D3
100
AcDbEntity
  8
AM_9
100
AcDbLine
 10
-0.983
 20
-0.9873647333418
 30
0.0
 11
-0.767
 21
-0.9873647333418
 31
0.0
  0
LINE
  5
F2
330
D3
100
AcDbEntity
  8
AM_9
100
AcDbLine
 10
-0.75
 20
-0.8143647333418
 30
0.0
 11
-0.767
 21
-0.8313647333418
 31
0.0
  0
LINE
  5
F3
330
D3
100
AcDbEntity
  8
AM_9
100
AcDbLine
 10
-0.767
 20
-0.9873647333418
 30
0.0
 11
-0.75
 21
-1.0043647333418
 31
0.0
  0
LINE
  5
F4
330
D3
100
AcDbEntity
  8
AM_9
100
AcDbLine
 10
-0.59375
 20
0.53125
 30
0.0
 11
-0.59375
 21
-1.078125
 31
0.0
  0
LINE
  5
F5
330
D3
100
AcDbEntity
  8
AM_9
100
AcDbLine
 10
0.59375
 20
-1.078125
 30
0.0
 11
0.59375
 21
0.53125
 31
0.0
  0
LINE
  5
F6
330
D3
100
AcDbEntity
  8
AM_9
100
AcDbLine
 10
-0.77623389422494
 20
0.47815761534859
 30
0.0
 11
-0.74603174603175
 21
-0.38671875
 31
0.0
  0
LINE
  5
F7
330
D3
100
AcDbEntity
  8
AM_9
100
AcDbLine
 10
0.74603174603175
 20
-0.38671875
 30
0.0
 11
0.77623389422494
 21
0.47815761534859
 31
0.0
  0
LINE
  5
F8
330
D3
100
AcDbEntity
  8
AM_9
100
AcDbLine
 10
-0.74603174603175
 20
-0.38671875
 30
0.0
 11
-0.74603174603175
 21
-0.7734375
 31
0.0
  0
LINE
  5
F9
330
D3
100
AcDbEntity
  8
AM_9
100
AcDbLine
 10
0.74603174603175
 20
-0.7734375
 30
0.0
 11
0.74603174603175
 21
-0.38671875
 31
0.0
  0
LINE
  5
FA
330
D3
100
AcDbEntity
  8
AM_9
100
AcDbLine
 10
-0.88888888888889
 20
-0.64453125
 30
0.0
 11
0.88888888888889
 21
-0.64453125
 31
0.0
  0
LINE
  5
FB
330
D3
100
AcDbEntity
  8
AM_9
100
AcDbLine
 10
-0.971652
 20
-0.515625
 30
0.0
 11
-0.40122593438947
 21
-0.515625
 31
0.0
  0
LINE
  5
FC
330
D3
100
AcDbEntity
  8
AM_9
100
AcDbLine
 10
0.96699669549797
 20
-0.515625
 30
0.0
 11
0.93333316399966
 21
-0.515625
 31
0.0
  0
LINE
  5
FD
330
D3
100
AcDbEntity
  8
AM_9
100
AcDbLine
 10
0.93333316399966
 20
-0.515625
 30
0.0
 11
0.93333316399966
 21
-1.03125
 31
0.0
  0
LINE
  5
FE
330
D3
100
AcDbEntity
  8
AM_9
100
AcDbLine
 10
-0.38439416864031
 20
-0.515625
 30
0.0
 11
-0.38439416864031
 21
-1.03125
 31
0.0
  0
LINE
  5
FF
330
D3
100
AcDbEntity
  8
AM_9
100
AcDbLine
 10
-0.99987405869016
 20
-1.002902
 30
0.0
 11
-0.99792948094928
 21
-0.97644034274797
 31
0.0
  0
LWPOLYLINE
  5
100
330
D3
100
AcDbEntity
  8
AM_9
100
AcDbPolyline
 90
      131
 70
     0
 43
0.0
 10
-0.99792948094928
 20
-0.97644034274797
 10
-0.99789702625051
 20
-0.97591045060291
 10
-0.99783226227752
 20
-0.97484032086449
 10
-0.99776731340452
 20
-0.9737494064773
 10
-0.99773478425022
 20
-0.97319607292328
 10
-0.99770223237209
 20
-0.97263754240716
 10
-0.99763710233265
 20
-0.97150506387896
 10
-0.99757200795357
 20
-0.97035233625472
 10
-0.99750703511701
 20
-0.96917975364663
 10
-0.99744227061862
 20
-0.96798773747802
 10
-0.99737780186639
 20
-0.96677673499212
 10
-0.99734570580372
 20
-0.96616426032487
 10
-0.99731371658096
 20
-0.96554721770768
 10
-0.99725010249864
 20
-0.96429967981995
 10
-0.99718704707835
 20
-0.96303463654515
 10
-0.99712463721383
 20
-0.96175262240583
 10
-0.99706295895235
 20
-0.96045418945444
 10
-0.99700209722121
 20
-0.95913990543175
 10
-0.99697199872275
 20
-0.95847700050887
 10
-0.99694213556323
 20
-0.95781035185691
 10
-0.99688315588279
 20
-0.95646612204534
 10
-0.99682523820331
 20
-0.9551078190508
 10
-0.99679670205022
 20
-0.95442358070276
 10
-0.99676846043799
 20
-0.95373605352808
 10
-0.99671289817467
 20
-0.95235144151255
 10
-0.99665862447655
 20
-0.95095460211332
 10
-0.99663199293611
 20
-0.95025179086907
 10
-0.99660570969981
 20
-0.94954615511698
 10
-0.99655422132971
 20
-0.94812671849933
 10
-0.9965042238364
 20
-0.94669690584329
 10
-0.99645577855184
 20
-0.94525732366163
 10
-0.996408943592
 20
-0.94380856934665
 10
-0.99636377422109
 20
-0.94235124300902
 10
-0.99634183076484
 20
-0.94161955901647
 10
-0.99632032336372
 20
-0.94088596756336
 10
-0.99627864144743
 20
-0.93941339036376
 10
-0.9962387761418
 20
-0.93793418136524
 10
-0.99620077211354
 20
-0.93644903126009
 10
-0.9961646707987
 20
-0.93495864959774
 10
-0.99613051019294
 20
-0.93346376289214
 10
-0.99611416854154
 20
-0.93271486135461
 10
-0.99609832466079
 20
-0.93196511271992
 10
-0.99606814476449
 20
-0.93046345381061
 10
-0.99603999711306
 20
-0.92895955212955
 10
-0.99601390423209
 20
-0.92745418295258
 10
-0.99598988445474
 20
-0.92594812893077
 10
-0.9959679518342
 20
-0.92444217814241
 10
-0.99595777141242
 20
-0.92368948873622
 10
-0.99594811607796
 20
-0.92293712212853
 10
-0.99593038250424
 20
-0.92143375390727
 10
-0.99591475202053
 20
-0.91993286596181
 10
-0.99590122112474
 20
-0.91843524819561
 10
-0.99588978192881
 20
-0.91694168584773
 10
-0.99588042220516
 20
-0.91545295736082
 10
-0.99587651715429
 20
-0.91471064668291
 10
-0.9958731254559
 20
-0.91396983219277
 10
-0.99586787100511
 20
-0.91249306856309
 10
-0.99586463411414
 20
-0.91102341112352
 10
-0.99586338612018
 20
-0.90956158854202
 10
-0.99586410208971
 20
-0.90810184794872
 10
-0.99586679858709
 20
-0.90663423639854
 10
-0.99586889895296
 20
-0.90589764541451
 10
-0.99587150528005
 20
-0.90515932009041
 10
-0.99587824798221
 20
-0.90367783959931
 10
-0.99588704847961
 20
-0.90219054971176
 10
-0.99589222607796
 20
-0.90144496542069
 10
-0.99589792440909
 20
-0.90069821707418
 10
-0.99591088915989
 20
-0.89920161791979
 10
-0.99592595179813
 20
-0.89770153586368
 10
-0.99593427146272
 20
-0.89695043511637
 10
-0.99594311701431
 20
-0.8961987597563
 10
-0.99596238509345
 20
-0.89469408158694
 10
-0.99598375190796
 20
-0.89318829442883
 10
-0.99600720893297
 20
-0.89168219041889
 10
-0.99603274328396
 20
-0.89017655876552
 10
-0.9960603377765
 20
-0.88867218377895
 10
-0.99607490104963
 20
-0.88792071081262
 10
-0.99608997100796
 20
-0.88716984291911
 10
-0.99612161746071
 20
-0.88567030485728
 10
-0.99615524762667
 20
-0.88417432754829
 10
-0.99619082815266
 20
-0.88268265631133
 10
-0.99622832200616
 20
-0.8811960219182
 10
-0.99626768866082
 20
-0.87971513868924
 10
-0.99628806071875
 20
-0.87897707202133
 10
-0.99630888430116
 20
-0.87824070259799
 10
-0.99635186204552
 20
-0.87677338938727
 10
-0.9963965721865
 20
-0.87531385270062
 10
-0.99644296244766
 20
-0.87386272223438
 10
-0.99649097821324
 20
-0.8724206031614
 10
-0.99654056220753
 20
-0.87098809130305
 10
-0.99656592351989
 20
-0.87027562653297
 10
-0.99659165396477
 20
-0.86956579078997
 10
-0.99664418985154
 20
-0.86815431356264
 10
-0.9966981031839
 20
-0.86675427666844
 10
-0.99675332436605
 20
-0.8653662996539
 10
-0.996809781049
 20
-0.86399100205126
 10
-0.99686739830812
 20
-0.86262900095754
 10
-0.99689661808312
 20
-0.8619531782031
 10
-0.99692609883795
 20
-0.86128090870387
 10
-0.99698580316321
 20
-0.85994733061197
 10
-0.99704642986439
 20
-0.85862886283476
 10
-0.9971078958168
 20
-0.85732609027729
 10
-0.99717011644155
 20
-0.85603958459458
 10
-0.99723300596741
 20
-0.85476990226249
 10
-0.99726467450525
 20
-0.85414153914205
 10
-0.9972964777019
 20
-0.85351758271802
 10
-0.99736044431069
 20
-0.8522831465656
 10
-0.99742481810373
 20
-0.85106709384609
 10
-0.99745713026564
 20
-0.85046611150111
 10
-0.99748951132701
 20
-0.84986990236548
 10
-0.99755443645858
 20
-0.84869202608087
 10
-0.99761950650771
 20
-0.84753389354145
 10
-0.99765206891101
 20
-0.84696235777877
 10
-0.99768463531567
 20
-0.84639590638303
 10
-0.99774973785719
 20
-0.84527843787497
 10
-0.99781473054101
 20
-0.84418183151909
 10
-0.99787953155355
 20
-0.84310639895931
 10
-0.99794443017643
 20
-0.8420464384958
 10
-0.99800969990848
 20
-0.84099686524217
 10
-0.99804244840083
 20
-0.84047622911688
 10
-0.99807525870972
 20
-0.83995849563687
 10
-0.99814102212055
 20
-0.83893214115944
 10
-0.9982069035522
 20
-0.83791860560174
 10
-0.99827281458468
 20
-0.83691868252209
 10
-0.99833866527144
 20
-0.83593315286985
 10
-0.99840436444904
 20
-0.83496278276917
 10
-0.99843712847774
 20
-0.83448351739927
 10
-0.99846982005088
 20
-0.83400832145282
 10
-0.99853493942335
 20
-0.83307049933862
 10
-0.99859962964298
 20
-0.83215002624264
 10
-0.99863178478606
 20
-0.83169651135096
  0
LINE
  5
101
330
D3
100
AcDbEntity
  8
AM_9
100
AcDbLine
 10
-0.99863178478606
 20
-0.83169651135096
 30
0.0
 11
-0.99996501310189
 21
-0.81476885002069
 31
0.0
  0
LINE
  5
102
330
D3
100
AcDbEntity
  8
AM_9
100
AcDbLine
 10
-0.983
 20
-0.8313647333418
 30
0.0
 11
-0.983
 21
-0.9873647333418
 31
0.0
  0
LINE
  5
103
330
D3
100
AcDbEntity
  8
AM_9
100
AcDbLine
 10
-0.767
 20
-0.8313647333418
 30
0.0
 11
-0.767
 21
-0.9873647333418
 31
0.0
  0
LINE
  5
104
330
D3
100
AcDbEntity
  8
AM_9
100
AcDbLine
 10
-0.75
 20
-0.8143647333418
 30
0.0
 11
-0.75
 21
-1.0043647333418
 31
0.0
  0
LINE
  5
105
330
D3
100
AcDbEntity
  8
AM_9
100
AcDbLine
 10
-0.971652
 20
-1.03125
 30
0.0
 11
-0.38439416864031
 21
-1.03125
 31
0.0
  0
LINE
  5
106
330
D3
100
AcDbEntity
  8
AM_9
100
AcDbLine
 10
0.96699669549797
 20
-1.03125
 30
0.0
 11
0.93333316399966
 21
-1.03125
 31
0.0
  0
LINE
  5
107
330
D3
100
AcDbEntity
  8
AM_9
100
AcDbLine
 10
0.74603174603175
 20
-1.03125
 30
0.0
 11
-0.05
 21
-1.03125
 31
0.0
  0
LINE
  5
108
330
D3
100
AcDbEntity
  8
AM_9
100
AcDbLine
 10
-0.74603174603175
 20
-1.078125
 30
0.0
 11
0.74603174603175
 21
-1.078125
 31
0.0
  0
LINE
  5
109
330
D3
100
AcDbEntity
  8
AM_9
100
AcDbLine
 10
-0.77808792115112
 20
0.53125
 30
0.0
 11
0.77808792115112
 21
0.53125
 31
0.0
  0
LINE
  5
10A
330
D3
100
AcDbEntity
  8
AM_9
100
AcDbLine
 10
0.74603174603175
 20
-0.38671875
 30
0.0
 11
-0.74603174603175
 21
-0.38671875
 31
0.0
  0
LINE
  5
10B
330
D3
100
AcDbEntity
  8
AM_9
100
AcDbLine
 10
-0.88888888888889
 20
-0.7734375
 30
0.0
 11
0.88888888888889
 21
-0.7734375
 31
0.0
  0
LINE
  5
10C
330
D3
100
AcDbEntity
  8
AM_9
100
AcDbLine
 10
0.05
 20
-1.078125
 30
0.0
 11
0.05
 21
0.53125
 31
0.0
  0
LINE
  5
10D
330
D3
100
AcDbEntity
  8
AM_9
100
AcDbLine
 10
-0.05
 20
0.53125
 30
0.0
 11
-0.05
 21
-1.078125
 31
0.0
  0
LINE
  5
10F
330
D3
100
AcDbEntity
  8
AM_5
100
AcDbLine
 10
-0.9985372666582
 20
-1.0043647333418
 30
0.0
 11
-0.75
 21
-1.0043647333418
 31
0.0
  0
LINE
  5
110
330
D3
100
AcDbEntity
  8
AM_5
100
AcDbLine
 10
-1.0
 20
-0.8143647333418
 30
0.0
 11
-0.75
 21
-0.8143647333418
 31
0.0
  0
LINE
  5
113
330
D3
100
AcDbEntity
  8
AM_7
100
AcDbLine
 10
-0.7375
 20
-0.9093647333418
 30
0.0
 11
-1.0125
 21
-0.9093647333418
 31
0.0
  0
LINE
  5
114
330
D3
100
AcDbEntity
  8
AM_4
100
AcDbLine
 10
-0.971652
 20
-0.515625
 30
0.0
 11
-1.0
 21
-0.543973
 31
0.0
  0
LINE
  5
115
330
D3
100
AcDbEntity
  8
AM_4
100
AcDbLine
 10
-0.9992686333291
 20
-1.0036333666709
 30
0.0
 11
-0.971652
 21
-1.03125
 31
0.0
  0
LINE
  5
116
330
D3
100
AcDbEntity
  8
AM_4
100
AcDbLine
 10
-1.0
 20
-0.543973
 30
0.0
 11
-1.0
 21
-0.8143647333418
 31
0.0
  0
LINE
  5
117
330
D3
100
AcDbEntity
  8
AM_4
100
AcDbLine
 10
-0.74603174603175
 20
-1.03125
 30
0.0
 11
-0.74603174603175
 21
-1.078125
 31
0.0
  0
LINE
  5
118
330
D3
100
AcDbEntity
  8
AM_4
100
AcDbLine
 10
0.74603174603175
 20
-1.078125
 30
0.0
 11
0.74603174603175
 21
-1.03125
 31
0.0
  0
LINE
  5
119
330
D3
100
AcDbEntity
  8
AM_4
100
AcDbLine
 10
-0.77808792115112
 20
0.53125
 30
0.0
 11
-0.77623389422494
 21
0.47815761534859
 31
0.0
  0
LINE
  5
11A
330
D3
100
AcDbEntity
  8
AM_4
100
AcDbLine
 10
0.77623389422494
 20
0.47815761534859
 30
0.0
 11
0.77808792115112
 21
0.53125
 31
0.0
  0
LINE
  5
11B
330
D3
100
AcDbEntity
  8
AM_4
100
AcDbLine
 10
0.96699669549797
 20
-0.515625
 30
0.0
 11
-0.9712245080109
 21
-0.515625
 31
0.0
  0
LINE
  5
11C
330
D3
100
AcDbEntity
  8
AM_4
100
AcDbLine
 10
0.99547727246783
 20
-0.543973
 30
0.0
 11
-0.4154662228744
 21
-0.543973
 31
0.0
  0
LINE
  5
11D
330
D3
100
AcDbEntity
  8
AM_4
100
AcDbLine
 10
0.99547727246783
 20
-1.002902
 30
0.0
 11
-0.4154662228744
 21
-1.002902
 31
0.0
  0
LINE
  5
11E
330
D3
100
AcDbEntity
  8
AM_4
100
AcDbLine
 10
-0.40122593438947
 20
-0.515625
 30
0.0
 11
-0.4154662228744
 21
-0.543973
 31
0.0
  0
LINE
  5
11F
330
D3
100
AcDbEntity
  8
AM_4
100
AcDbLine
 10
-0.4154662228744
 20
-0.543973
 30
0.0
 11
-0.4154662228744
 21
-1.002902
 31
0.0
  0
LINE
  5
120
330
D3
100
AcDbEntity
  8
AM_4
100
AcDbLine
 10
-0.4154662228744
 20
-1.002902
 30
0.0
 11
-0.40122593438947
 21
-1.03125
 31
0.0
  0
LINE
  5
121
330
D3
100
AcDbEntity
  8
AM_4
100
AcDbLine
 10
-0.56577076110851
 20
-1.03125
 30
0.0
 11
-0.58001104959344
 21
-1.002902
 31
0.0
  0
LINE
  5
122
330
D3
100
AcDbEntity
  8
AM_4
100
AcDbLine
 10
-0.58001104959344
 20
-0.543973
 30
0.0
 11
-0.56577076110851
 21
-0.515625
 31
0.0
  0
LINE
  5
123
330
D3
100
AcDbEntity
  8
AM_4
100
AcDbLine
 10
-0.54893899535935
 20
-0.515625
 30
0.0
 11
-0.54893899535935
 21
-1.03125
 31
0.0
  0
LINE
  5
124
330
D3
100
AcDbEntity
  8
AM_4
100
AcDbLine
 10
0.96699669549797
 20
-1.03125
 30
0.0
 11
0.99547727246783
 21
-1.002902
 31
0.0
  0
LINE
  5
125
330
D3
100
AcDbEntity
  8
AM_4
100
AcDbLine
 10
0.99547727246783
 20
-1.002902
 30
0.0
 11
0.99547727246783
 21
-0.543973
 31
0.0
  0
LINE
  5
126
330
D3
100
AcDbEntity
  8
AM_4
100
AcDbLine
 10
0.99547727246783
 20
-0.543973
 30
0.0
 11
0.96699669549797
 21
-0.515625
 31
0.0
  0
LINE
  5
127
330
D3
100
AcDbEntity
  8
AM_4
100
AcDbLine
 10
-0.58001104959344
 20
-0.543973
 30
0.0
 11
-1.0
 21
-0.543973
 31
0.0
  0
LINE
  5
128
330
D3
100
AcDbEntity
  8
AM_4
100
AcDbLine
 10
-0.58001104959344
 20
-1.002902
 30
0.0
 11
-0.58001104959344
 21
-0.543973
 31
0.0
  0
LINE
  5
129
330
D3
100
AcDbEntity
  8
AM_4
100
AcDbLine
 10
-0.58001104959344
 20
-1.002902
 30
0.0
 11
-0.99987405869016
 21
-1.002902
 31
0.0
  0
LWPOLYLINE
  5
12A
330
D3
100
AcDbEntity
  8
AM_4
100
AcDbPolyline
 90
      131
 70
     0
 43
0.0
 10
-1.0
 20
-0.8143647333418
 10
-0.99999924645779
 20
-0.81437341929834
 10
-0.99999316724769
 20
-0.814443521983
 10
-0.99998089626064
 20
-0.81458518100742
 10
-0.99997241120669
 20
-0.8146832564578
 10
-0.99996234960188
 20
-0.81479968449591
 10
-0.99993748038906
 20
-0.81508806671937
 10
-0.99990628006296
 20
-0.81545109799132
 10
-0.99986877899116
 20
-0.81588927972668
 10
-0.99982504637852
 20
-0.81640284444906
 10
-0.99977518950376
 20
-0.81699176060222
 10
-0.99974800806861
 20
-0.81731439564488
 10
-0.99971935230642
 20
-0.81765574208512
 10
-0.99965771335497
 20
-0.81839426248629
 10
-0.99959048323318
 20
-0.81920657404032
 10
-0.99951790139007
 20
-0.82009173136257
 10
-0.99944023250675
 20
-0.82104862003809
 10
-0.99935776244397
 20
-0.82207599013598
 10
-0.99931482113684
 20
-0.82261568591288
 10
-0.99927079500655
 20
-0.82317247995328
 10
-0.99917965589042
 20
-0.82433654784462
 10
-0.99908469574714
 20
-0.82556640847801
 10
-0.99903589874693
 20
-0.8262053848702
 10
-0.99898628829571
 20
-0.82686002686731
 10
-0.99888482762028
 20
-0.82821512023563
 10
-0.9987807250033
 20
-0.82962916398741
 10
-0.99872781532962
 20
-0.8303574395042
 10
-0.99867440538264
 20
-0.83109940136035
 10
-0.99856630351684
 20
-0.83262285642259
 10
-0.99845685993814
 20
-0.83419635018083
 10
-0.99834651676747
 20
-0.83581651966969
 10
-0.99823571345984
 20
-0.83747983999803
 10
-0.99812488254358
 20
-0.83918264943586
 10
-0.9980695889655
 20
-0.84004768776152
 10
-0.99801444541113
 20
-0.84092117773269
 10
-0.99790480821471
 20
-0.84269157796832
 10
-0.99779576619721
 20
-0.84449991032344
 10
-0.99768630775265
 20
-0.84636695304811
 10
-0.99757676946544
 20
-0.84829207807162
 10
-0.99746755766708
 20
-0.85027346648076
 10
-0.99741320333964
 20
-0.85128463048602
 10
-0.99735908618231
 20
-0.85230907988975
 10
-0.99725177228168
 20
-0.85439668072879
 10
-0.99714603268418
 20
-0.85653385376148
 10
-0.99704227965805
 20
-0.85871802890441
 10
-0.99694091726839
 20
-0.86094650545092
 10
-0.99684233782039
 20
-0.86321647782187
 10
-0.99679421025849
 20
-0.86436612623195
 10
-0.99674691854777
 20
-0.86552506297937
 10
-0.9966550185968
 20
-0.86786932964252
 10
-0.9965669763568
 20
-0.87024632943689
 10
-0.99648310718872
 20
-0.8726531300891
 10
-0.9964037016419
 20
-0.87508684951687
 10
-0.9963290262615
 20
-0.87754462006337
 10
-0.99629354020371
 20
-0.87878158872649
 10
-0.99625932749154
 20
-0.88002342341702
 10
-0.99619483012133
 20
-0.8825200578675
 10
-0.99613573404127
 20
-0.88503116284396
 10
-0.99608221137703
 20
-0.8875532443719
 10
-0.99603440405411
 20
-0.8900827007487
 10
-0.99599242181784
 20
-0.89261584839866
 10
-0.99597364022286
 20
-0.89388263935615
 10
-0.99595634072781
 20
-0.89514894794225
 10
-0.99592620214101
 20
-0.89767823058002
 10
-0.99590201219394
 20
-0.90019992495044
 10
-0.99589214023418
 20
-0.90145675404492
 10
-0.99588374179168
 20
-0.90271028467548
 10
-0.9958713271097
 20
-0.90520561685867
 10
-0.99586467061361
 20
-0.90768231185048
 10
-0.99586346235698
 20
-0.90891257283388
 10
-0.99586364433511
 20
-0.9101393108119
 10
-0.99586820865996
 20
-0.91260824450552
 10
-0.99587848699023
 20
-0.91509711919625
 10
-0.99589458892909
 20
-0.91760236375488
 10
-0.99591659087744
 20
-0.92012031243863
 10
-0.99594453482208
 20
-0.92264723521334
 10
-0.99596073857284
 20
-0.92391288581112
 10
-0.99597842764346
 20
-0.92517936667962
 10
-0.99601824093817
 20
-0.92771293393606
 10
-0.99606391135069
 20
-0.93024418366311
 10
-0.9961153414073
 20
-0.93276940866019
 10
-0.99617240084292
 20
-0.93528497401602
 10
-0.99623492840803
 20
-0.93778734303501
 10
-0.99626818442588
 20
-0.93903250689536
 10
-0.99630273413879
 20
-0.94027310297935
 10
-0.99637560206752
 20
-0.94273899061615
 10
-0.99645329334395
 20
-0.94518191747826
 10
-0.99653554907079
 20
-0.94759897591966
 10
-0.99662208796513
 20
-0.94998730370691
 10
-0.9967126036427
 20
-0.95234398330192
 10
-0.99675925047977
 20
-0.9535095344581
 10
-0.99680676596397
 20
-0.95466606829246
 10
-0.99690422314585
 20
-0.95695061736285
 10
-0.99700460429038
 20
-0.95919472618597
 10
-0.99710752227897
 20
-0.96139555733758
 10
-0.99721257698081
 20
-0.96355036835842
 10
-0.99731935872506
 20
-0.965656538102
 10
-0.99737326751084
 20
-0.96669060268434
 10
-0.9974274519868
 20
-0.9677115915062
 10
-0.99753643923781
 20
-0.96971322291753
 10
-0.99764590491332
 20
-0.97165931807849
 10
-0.99775543944657
 20
-0.97354797486274
 10
-0.9978646433229
 20
-0.97537752281041
 10
-0.99797390407236
 20
-0.97715898123848
 10
-0.99802890472269
 20
-0.97803839478401
 10
-0.99808409257386
 20
-0.97890971259474
 10
-0.99819482660966
 20
-0.98062613647911
 10
-0.99830568993638
 20
-0.98230445046385
 10
-0.99836103643134
 20
-0.98312815373283
 10
-0.99841625364646
 20
-0.98394094932775
 10
-0.99852608034468
 20
-0.98553205463611
 10
-0.99863472839631
 20
-0.98707434099122
 10
-0.99868847230956
 20
-0.98782615422937
 10
-0.99874175619111
 20
-0.98856455918439
 10
-0.99884672636167
 20
-0.98999965637284
 10
-0.99894920988964
 20
-0.99137679329655
 10
-0.9990487900277
 20
-0.99269335844441
 10
-0.99914506595966
 20
-0.99394697897334
 10
-0.999237656116
 20
-0.99513552808237
 10
-0.99928245577066
 20
-0.99570480443968
 10
-0.999326201058
 20
-0.99625712844657
 10
-0.9994103682456
 20
-0.99731018114371
 10
-0.99948985539666
 20
-0.99829337784808
 10
-0.99956436048713
 20
-0.99920530897651
 10
-0.99963360307664
 20
-1.0000447158697
 10
-0.99969733081647
 20
-1.0008105517554
 10
-0.99972705616609
 20
-1.0011656156927
 10
-0.99975532235685
 20
-1.0015019988525
 10
-0.99980738972932
 20
-1.002118481
 10
-0.9998533801526
 20
-1.0026596717305
 10
-0.99987405869016
 20
-1.002902
  0
LINE
  5
12B
330
D3
100
AcDbEntity
  8
AM_4
100
AcDbLine
 10
0.96699669549797
 20
-1.03125
 30
0.0
 11
-0.9712245080109
 21
-1.03125
 31
0.0
  0
LINE
  5
12C
330
D3
100
AcDbEntity
  8
AM_4
100
AcDbLine
 10
0.74520820707671
 20
-1.078125
 30
0.0
 11
-0.74520820707671
 21
-1.078125
 31
0.0
  0
LINE
  5
12D
330
D3
100
AcDbEntity
  8
AM_4
100
AcDbLine
 10
0.77722583210558
 20
0.53125
 30
0.0
 11
-0.77722583210558
 21
0.53125
 31
0.0
  0
LINE
  5
12E
330
D3
100
AcDbEntity
  8
AM_4
100
AcDbLine
 10
0.05
 20
-1.03125
 30
0.0
 11
0.05
 21
-1.078125
 31
0.0
  0
LINE
  5
12F
330
D3
100
AcDbEntity
  8
AM_4
100
AcDbLine
 10
0.05
 20
0.53125
 30
0.0
 11
0.05
 21
0.47812499996357
 31
0.0
  0
LINE
  5
130
330
D3
100
AcDbEntity
  8
AM_4
100
AcDbLine
 10
-0.05
 20
0.47812499996357
 30
0.0
 11
-0.05
 21
0.53125
 31
0.0
  0
LINE
  5
131
330
D3
100
AcDbEntity
  8
AM_4
100
AcDbLine
 10
-0.05
 20
-1.078125
 30
0.0
 11
-0.05
 21
-1.03125
 31
0.0
  0
ENDBLK
  5
D6
330
D3
100
AcDbEntity
  8
0
100
AcDbBlockEnd
  0
BLOCK
  5
134
330
132
100
AcDbEntity
  8
0
100
AcDbBlockBegin
  2
4_TB_GTEZ_06_PCRI_0_in_129295_4
 70
     2
 10
0.0
 20
0.0
 30
0.0
  3
4_TB_GTEZ_06_PCRI_0_in_129295_4
  1

  0
ATTDEF
  5
136
330
132
100
AcDbEntity
  8
AM_6
100
AcDbText
 10
7.1875
 20
0.86796875
 30
0.0
 40
0.5
  1
TB-GTEZ-PCR-I-Body
100
AcDbAttributeDefinition
  3

  2
NN
 70
     8
280
     0
  0
ATTDEF
  5
137
330
132
100
AcDbEntity
  8
AM_6
100
AcDbText
 10
7.1875
 20
0.36796875
 30
0.0
 40
0.5
  1
GTEZ Normal Duty Polymer Housed Tapped Base Pillow Blocks
100
AcDbAttributeDefinition
  3

  2
NT
 70
     8
280
     0
  0
ATTDEF
  5
138
330
132
100
AcDbEntity
  8
AM_6
100
AcDbText
 10
7.1875
 20
-0.13203125
 30
0.0
 40
0.5
  1
TB-GTEZ-06-PCRI
100
AcDbAttributeDefinition
  3

  2
NB
 70
     8
280
     0
  0
ATTDEF
  5
139
330
132
100
AcDbEntity
  8
AM_6
100
AcDbText
 10
7.1875
 20
-0.63203125
 30
0.0
 40
0.5
  1
$PN.$LUBE.I
100
AcDbAttributeDefinition
  3

  2
NBSYN
 70
     8
280
     0
  0
ATTDEF
  5
13A
330
132
100
AcDbEntity
  8
AM_6
100
AcDbText
 10
7.1875
 20
-1.13203125
 30
0.0
 40
0.5
  1
TB-GTEZ-06-PCR
100
AcDbAttributeDefinition
  3

  2
LINA
 70
     8
280
     0
  0
ATTDEF
  5
13B
330
132
100
AcDbEntity
  8
AM_6
100
AcDbText
 10
7.1875
 20
-1.63203125
 30
0.0
 40
0.5
  1
206
100
AcDbAttributeDefinition
  3

  2
SERIES
 70
     8
280
     0
  0
ATTDEF
  5
13C
330
132
100
AcDbEntity
  8
AM_6
100
AcDbText
 10
7.1875
 20
-2.13203125
 30
0.0
 40
0.5
  1
TB-GTEZ-06-PCR
100
AcDbAttributeDefinition
  3

  2
PN
 70
     8
280
     0
  0
ATTDEF
  5
13D
330
132
100
AcDbEntity
  8
AM_6
100
AcDbText
 10
7.1875
 20
-2.63203125
 30
0.0
 40
0.5
  1
TB-GTEZ-06-PCR
100
AcDbAttributeDefinition
  3

  2
DESCRIPTION
 70
     8
280
     0
  0
ATTDEF
  5
13E
330
132
100
AcDbEntity
  8
AM_6
100
AcDbText
 10
7.1875
 20
-3.13203125
 30
0.0
 40
0.5
  1
1-39/64
100
AcDbAttributeDefinition
  3

  2
A
 70
     8
280
     0
  0
ATTDEF
  5
13F
330
132
100
AcDbEntity
  8
AM_6
100
AcDbText
 10
7.1875
 20
-3.63203125
 30
0.0
 40
0.5
  1
4-3/8
100
AcDbAttributeDefinition
  3

  2
B
 70
     8
280
     0
  0
ATTDEF
  5
140
330
132
100
AcDbEntity
  8
AM_6
100
AcDbText
 10
7.1875
 20
-4.13203125
 30
0.0
 40
0.5
  1
1-37/64
100
AcDbAttributeDefinition
  3

  2
C
 70
     8
280
     0
  0
ATTDEF
  5
141
330
132
100
AcDbEntity
  8
AM_6
100
AcDbText
 10
7.1875
 20
-4.63203125
 30
0.0
 40
0.5
  1
3
100
AcDbAttributeDefinition
  3

  2
D
 70
     8
280
     0
  0
ATTDEF
  5
142
330
132
100
AcDbEntity
  8
AM_6
100
AcDbText
 10
7.1875
 20
-5.13203125
 30
0.0
 40
0.5
  1
3-3/8
100
AcDbAttributeDefinition
  3

  2
J
 70
     8
280
     0
  0
ATTDEF
  5
143
330
132
100
AcDbEntity
  8
AM_6
100
AcDbText
 10
7.1875
 20
-5.63203125
 30
0.0
 40
0.5
  1
2
100
AcDbAttributeDefinition
  3

  2
L
 70
     8
280
     0
  0
ATTDEF
  5
144
330
132
100
AcDbEntity
  8
AM_6
100
AcDbText
 10
7.1875
 20
-6.13203125
 30
0.0
 40
0.5
  1
1-11/16
100
AcDbAttributeDefinition
  3

  2
M
 70
     8
280
     0
  0
ATTDEF
  5
145
330
132
100
AcDbEntity
  8
AM_6
100
AcDbText
 10
7.1875
 20
-6.63203125
 30
0.0
 40
0.5
  1
29/64
100
AcDbAttributeDefinition
  3

  2
N
 70
     8
280
     0
  0
ATTDEF
  5
146
330
132
100
AcDbEntity
  8
AM_6
100
AcDbText
 10
7.1875
 20
-7.13203125
 30
0.0
 40
0.5
  1
7/16-14
100
AcDbAttributeDefinition
  3

  2
R
 70
     8
280
     0
  0
ATTDEF
  5
147
330
132
100
AcDbEntity
  8
AM_6
100
AcDbText
 10
7.1875
 20
-7.63203125
 30
0.0
 40
0.5
  1
1-5/64
100
AcDbAttributeDefinition
  3

  2
S
 70
     8
280
     0
  0
ATTDEF
  5
148
330
132
100
AcDbEntity
  8
AM_6
100
AcDbText
 10
7.1875
 20
-8.13203125
 30
0.0
 40
0.5
  1
1-1/32
100
AcDbAttributeDefinition
  3

  2
Z
 70
     8
280
     0
  0
ATTDEF
  5
149
330
132
100
AcDbEntity
  8
AM_6
100
AcDbText
 10
7.1875
 20
-8.63203125
 30
0.0
 40
0.5
  1
baldor
100
AcDbAttributeDefinition
  3

  2
COMPANY
 70
     8
280
     0
  0
LINE
  5
14A
330
132
100
AcDbEntity
  8
AM_9
100
AcDbLine
 10
1.22045
 20
-0.55189984143971
 30
0.0
 11
1.22045
 21
0.55189984143971
 31
0.0
  0
LINE
  5
14B
330
132
100
AcDbEntity
  8
AM_9
100
AcDbLine
 10
-1.22045
 20
0.55189984143971
 30
0.0
 11
-1.22045
 21
-0.55189984143971
 31
0.0
  0
LWPOLYLINE
  5
14C
330
132
100
AcDbEntity
  8
AM_9
100
AcDbPolyline
 90
      281
 70
     0
 43
0.0
 10
1.3517084143864
 20
-0.092649600272685
 10
1.3518896051842
 20
-0.094300482448072
 10
1.352310140932
 20
-0.097561312730313
 10
1.3528057656807
 20
-0.10076394380193
 10
1.353080787161
 20
-0.10234207313012
 10
1.3533734235368
 20
-0.10390401869503
 10
1.3540095405877
 20
-0.10697552495007
 10
1.3547087925291
 20
-0.10996681483987
 10
1.3554672574778
 20
-0.11287501603255
 10
1.3562812847762
 20
-0.11569848277147
 10
1.3571472165073
 20
-0.11843552199028
 10
1.3575984936115
 20
-0.11977108896503
 10
1.3580613558934
 20
-0.12108439303539
 10
1.3590199389567
 20
-0.1236433181948
 10
1.3600191103687
 20
-0.12611050281904
 10
1.3610549042956
 20
-0.12848416375267
 10
1.3621229524595
 20
-0.13076199137808
 10
1.363214275736
 20
-0.13293330299246
 10
1.3637667890396
 20
-0.13397816154534
 10
1.364323243427
 20
-0.13499614785585
 10
1.3654461198809
 20
-0.13695242800452
 10
1.3665792152271
 20
-0.13880390752213
 10
1.3671484457265
 20
-0.13969086460288
 10
1.3677188507538
 20
-0.14055222986287
 10
1.3688613329467
 20
-0.1421989474366
 10
1.3700029374388
 20
-0.14374556155806
 10
1.3705722367333
 20
-0.14448179671112
 10
1.3711399038116
 20
-0.14519357048876
 10
1.3722684418544
 20
-0.14654452301281
 10
1.3734398755941
 20
-0.14786005375887
 10
1.3747556615934
 20
-0.14923662475746
 10
1.376203399203
 20
-0.15063214653274
 10
1.3777624163124
 20
-0.15199946472076
 10
1.3785754506978
 20
-0.15265772221812
 10
1.3794055578001
 20
-0.1532912931566
 10
1.3810984119103
 20
-0.15446248464981
 10
1.3827728233576
 20
-0.15545876019372
 10
1.3843119524016
 20
-0.15622658389847
 10
1.3857188809328
 20
-0.15679658476936
 10
1.3870098815249
 20
-0.15719959154939
 10
1.3876191163267
 20
-0.15734673901123
 10
1.388209699001
 20
-0.15746136447316
 10
1.3893590652683
 20
-0.157600912696
 10
1.3907258248124
 20
-0.15761593154352
 10
1.3927362931263
 20
-0.15734156467349
 10
1.3942848382991
 20
-0.15691028668829
 10
1.3947869693931
 20
-0.15673321606417
 10
1.3953163628349
 20
-0.15652792197955
 10
1.3955911948926
 20
-0.15641400976608
 10
1.3958726718273
 20
-0.1562922521044
 10
1.3964550237738
 20
-0.1560243060131
 10
1.397062015362
 20
-0.15572252273032
 10
1.3976911421379
 20
-0.15538608573081
 10
1.3983332918912
 20
-0.15501838295959
 10
1.3989850193511
 20
-0.15462053446269
 10
1.3993140767651
 20
-0.15441033545331
 10
1.3996450551261
 20
-0.15419264658829
 10
1.4003121719255
 20
-0.1537349024984
 10
1.4009852125333
 20
-0.15324753297082
 10
1.4013236166776
 20
-0.15299281696606
 10
1.4016631089838
 20
-0.15273078880999
 10
1.4023448940743
 20
-0.15218491588006
 10
1.4030297063661
 20
-0.15161013344891
 10
1.4033730074332
 20
-0.15131195792319
 10
1.4037167898107
 20
-0.15100661623967
 10
1.4044054890981
 20
-0.15037448032889
 10
1.4050952417676
 20
-0.14971377280795
 10
1.4057855680481
 20
-0.1490244649375
 10
1.4064760593016
 20
-0.14830644837463
 10
1.4071663658463
 20
-0.14755953393896
 10
1.4075113537017
 20
-0.14717515893803
 10
1.4078561848206
 20
-0.14678345230837
 10
1.4085452486271
 20
-0.14597785599467
 10
1.4092327485965
 20
-0.14514302199442
 10
1.409917008511
 20
-0.14428039495185
 10
1.4105972172129
 20
-0.14339049121571
 10
1.4112726312939
 20
-0.14247380204771
 10
1.4116083186146
 20
-0.14200556784611
 10
1.4119425458415
 20
-0.14153082358863
 10
1.4126062924973
 20
-0.14056205458225
 10
1.4132632373698
 20
-0.13956799461966
 10
1.4139127788739
 20
-0.13854914284226
 10
1.4145543455606
 20
-0.13750599703975
 10
1.415187393985
 20
-0.1364390530797
 10
1.4155005611727
 20
-0.13589681114501
 10
1.4158114066549
 20
-0.1353488046066
 10
1.4164258900879
 20
-0.13423574295111
 10
1.417030373001
 20
-0.13310035719421
 10
1.4176244046442
 20
-0.13194313433494
 10
1.4182075532875
 20
-0.13076455951572
 10
1.4187794048624
 20
-0.12956511626411
 10
1.4190609693819
 20
-0.12895771969258
 10
1.4193395617544
 20
-0.12834528671512
 10
1.4198876210845
 20
-0.12710559941161
 10
1.4204221496793
 20
-0.12584909347628
 10
1.4209422896526
 20
-0.12457781725241
 10
1.4214478373803
 20
-0.12329239501914
 10
1.4219386059289
 20
-0.12199343958028
 10
1.4221783937762
 20
-0.12133907566182
 10
1.4224144235209
 20
-0.12068155384577
 10
1.4228751322078
 20
-0.11935733238394
 10
1.4233205867407
 20
-0.1180213629181
 10
1.4235375515455
 20
-0.11734915482655
 10
1.423750653625
 20
-0.11667422774516
 10
1.4241652103457
 20
-0.11531650505791
 10
1.4245641447505
 20
-0.11394877015595
 10
1.4247577212507
 20
-0.11326132738491
 10
1.4249473545741
 20
-0.11257159653376
 10
1.4253147470895
 20
-0.11118555683704
 10
1.4256662388726
 20
-0.10979122368136
 10
1.4260017556633
 20
-0.1083891703292
 10
1.4263212323113
 20
-0.10697997122366
 10
1.426624612791
 20
-0.10556420237867
 10
1.4267702519717
 20
-0.10485403480171
 10
1.4269118502738
 20
-0.10414244162717
 10
1.4271829072441
 20
-0.10271526872966
 10
1.427437755649
 20
-0.10128326534673
 10
1.4276762383355
 20
-0.099847880454091
 10
1.4278982015682
 20
-0.098410878313089
 10
1.4281037376607
 20
-0.096972694226059
 10
1.4282003756283
 20
-0.096253289588877
 10
1.428292943204
 20
-0.095533745542806
 10
1.4284659169671
 20
-0.094094444467921
 10
1.4286227598692
 20
-0.092655199149667
 10
1.4287635750174
 20
-0.091216414659086
 10
1.4288884678012
 20
-0.089778493859215
 10
1.4289975460359
 20
-0.088341838165162
 10
1.4290461890978
 20
-0.087624109941874
 10
1.4290909201477
 20
-0.086906848196634
 10
1.4291687033918
 20
-0.085473924325184
 10
1.4292310120986
 20
-0.084043467119029
 10
1.429277965939
 20
-0.082615877688783
 10
1.4293096882058
 20
-0.081191557937861
 10
1.4293263061029
 20
-0.079770910721596
 10
1.4293289918056
 20
-0.079062090486001
 10
1.4293279510384
 20
-0.078354339919356
 10
1.4293147589164
 20
-0.076942250424136
 10
1.4292868704237
 20
-0.07553504805415
 10
1.429244431306
 20
-0.074133139391044
 10
1.4291875926312
 20
-0.072736931549328
 10
1.4291165110353
 20
-0.071346831881593
 10
1.4290756906617
 20
-0.070654378466098
 10
1.4290314013454
 20
-0.069964032468563
 10
1.4289325216021
 20
-0.068589783778494
 10
1.428820081781
 20
-0.067224314962841
 10
1.4287588421185
 20
-0.066544943485544
 10
1.4286942906635
 20
-0.065867851424833
 10
1.4285553562785
 20
-0.064520617711264
 10
1.4284034862211
 20
-0.063182837965956
 10
1.4283227651509
 20
-0.062517563361943
 10
1.4282388879815
 20
-0.061854736313281
 10
1.4280617692782
 20
-0.060536537173651
 10
1.4278723383941
 20
-0.059228465513094
 10
1.4276708045113
 20
-0.057930747029244
 10
1.4274573780437
 20
-0.056643608276229
 10
1.4272322709628
 20
-0.055367276731053
 10
1.427115403938
 20
-0.054733235004026
 10
1.4269956971163
 20
-0.054101980804199
 10
1.4267478725353
 20
-0.05284794979723
 10
1.4264890157305
 20
-0.051605413810211
 10
1.4262193479733
 20
-0.05037460360181
 10
1.425939093561
 20
-0.049155750404939
 10
1.4256484800653
 20
-0.047949085700771
 10
1.4254993607295
 20
-0.047350396374792
 10
1.4253477385612
 20
-0.046754840953964
 10
1.4250371038356
 20
-0.045573247311864
 10
1.4247168145745
 20
-0.044404535270431
 10
1.4245531251896
 20
-0.04382508161268
 10
1.4243871135276
 20
-0.043248934309566
 10
1.4240483761723
 20
-0.04210709753296
 10
1.4237013043333
 20
-0.040980639807667
 10
1.4235247388949
 20
-0.040423237051743
 10
1.4233461971382
 20
-0.039869724008775
 10
1.4229833141797
 20
-0.038774384566347
 10
1.4226129137325
 20
-0.037694657542296
 10
1.4222352531694
 20
-0.036630580771002
 10
1.4218505893671
 20
-0.035582193942663
 10
1.4214591790981
 20
-0.034549538630872
 10
1.4212610243445
 20
-0.03403912379497
 10
1.4210612794071
 20
-0.033532658266081
 10
1.42065714797
 20
-0.032531598056811
 10
1.4202470434325
 20
-0.031546404860599
 10
1.419831225728
 20
-0.03057712700683
 10
1.4194099563711
 20
-0.029623814073706
 10
1.4189834987267
 20
-0.028686516621747
 10
1.4187684071642
 20
-0.028223889695091
 10
1.4185521182516
 20
-0.027765285886271
 10
1.418116082708
 20
-0.026860173431418
 10
1.4176756623471
 20
-0.02597123076834
 10
1.4174538930324
 20
-0.025532839089983
 10
1.4172311300613
 20
-0.025098508940258
 10
1.4167827615036
 20
-0.024242058077139
 10
1.4163308351735
 20
-0.023401926922804
 10
1.4161036256664
 20
-0.022987995967859
 10
1.4158756324675
 20
-0.022578162337349
 10
1.4154174376942
 20
-0.021770808777787
 10
1.4149565380509
 20
-0.020979907759908
 10
1.4144935569495
 20
-0.020206047289875
 10
1.4140298441338
 20
-0.019450917873517
 10
1.4135657148217
 20
-0.018714410191741
 10
1.4133335648048
 20
-0.01835306211733
 10
1.4131013951601
 20
-0.017996277356281
 10
1.4126371075126
 20
-0.017296278406649
 10
1.4121730710128
 20
-0.016614178292553
 10
1.4117095020786
 20
-0.015949747785184
 10
1.4112466148833
 20
-0.015302763319455
 10
1.4107846217819
 20
-0.014673006769964
 10
1.4105540264736
 20
-0.014364522217635
 10
1.4103237336864
 20
-0.014060265163995
 10
1.409864160389
 20
-0.013464330335469
 10
1.4094061108305
 20
-0.012884998524259
 10
1.4089497933107
 20
-0.012322069925752
 10
1.4084954156396
 20
-0.011775348195951
 10
1.4080431852282
 20
-0.011244639917796
 10
1.4078179399601
 20
-0.010985231041751
 10
1.4075933091176
 20
-0.010729754034668
 10
1.4071459939463
 20
-0.010230501257296
 10
1.4067014458551
 20
-0.0097466934504939
 10
1.4062598703302
 20
-0.0092781430062811
 10
1.4058214719859
 20
-0.0088246622100153
 10
1.4053864542871
 20
-0.0083860626062136
 10
1.405170276367
 20
-0.0081722840018264
 10
1.4049550192143
 20
-0.0079621543706923
 10
1.4045273668723
 20
-0.0075527456955876
 10
1.4041036950454
 20
-0.0071576421936917
 10
1.4036863398813
 20
-0.0067785653056266
 10
1.4032777635364
 20
-0.0064171438619361
 10
1.4028780422914
 20
-0.0060727756936718
 10
1.4026815215098
 20
-0.0059068004528064
 10
1.4024872355836
 20
-0.0057448662772166
 10
1.4021053874963
 20
-0.0054328300411121
 10
1.4017325271508
 20
-0.005136090656157
 10
1.4015494724943
 20
-0.004993279782476
 10
1.4004983792904
 20
-0.0042098725735389
 10
1.3986360103836
 20
-0.0029758455809065
 10
1.3970794216999
 20
-0.0020989643459773
 10
1.3958032162471
 20
-0.0014897290345836
 10
1.3947724816927
 20
-0.0010739314979497
 10
1.3938617340667
 20
-0.0007667826710388
 10
1.3934340135766
 20
-0.0006430887472773
 10
1.3930237611261
 20
-0.0005373213068632
 10
1.3922513550697
 20
-0.000373810316683
 10
1.3915340720913
 20
-0.0002656169527472
 10
1.3892762804845
 20
-0.0002178269774577
 10
1.3870742928264
 20
-0.0005960028155367
 10
1.3863436459977
 20
-0.0008058895826306
 10
1.3855233640762
 20
-0.0010872235677419
 10
1.3850767206782
 20
-0.001259835796727
 10
1.3846043806971
 20
-0.0014567575281148
 10
1.383579329561
 20
-0.001933221403498
 10
1.3824433557764
 20
-0.0025367743610756
 10
1.3811946981962
 20
-0.0032883108399253
 10
1.3798349570138
 20
-0.0042087396479545
 10
1.3783690039732
 20
-0.0053183845862849
 10
1.3775985141988
 20
-0.0059502667725057
 10
1.3768045482856
 20
-0.0066366606597473
 10
1.3751577047702
 20
-0.0081759904364926
 10
1.3734854554554
 20
-0.0099029957246186
 10
1.372647264662
 20
-0.010833067513246
 10
1.3718097691338
 20
-0.011806941336372
 10
1.3701425979826
 20
-0.013884213925548
 10
1.3684946464336
 20
-0.016130977108055
 10
1.3676809138861
 20
-0.017316727239543
 10
1.3668755060438
 20
-0.01854344347621
 10
1.3652938428887
 20
-0.021118031447184
 10
1.3637589284446
 20
-0.023848961156065
 10
1.3622905637238
 20
-0.026707251515145
 10
1.3608976280109
 20
-0.029677755187227
 10
1.3595849091631
 20
-0.032751123606811
 10
1.3589599326082
 20
-0.03432351986016
 10
1.3583564958968
 20
-0.035918214594262
 10
1.3572158948759
 20
-0.039169993976185
 10
1.3561661080233
 20
-0.042497451503902
 10
1.355209677324
 20
-0.045891541640318
 10
1.3543497958059
 20
-0.049338489734305
 10
1.3535896820697
 20
-0.05281938458431
 10
1.353246960249
 20
-0.054570116923555
 10
1.3529290415874
 20
-0.056326516768041
 10
1.3523672916836
 20
-0.059852806104283
 10
1.3519036883458
 20
-0.063391272623299
 10
1.3517084143869
 20
-0.0651628997223
  0
LINE
  5
14D
330
132
100
AcDbEntity
  8
AM_9
100
AcDbLine
 10
1.2291274355244
 20
-0.15764644999999
 30
0.0
 11
1.243046832512
 21
-0.15764644999999
 31
0.0
  0
LINE
  5
14E
330
132
100
AcDbEntity
  8
AM_9
100
AcDbLine
 10
1.243046832512
 20
-0.0001660500000141
 30
0.0
 11
1.2291274355244
 21
-0.0001660500000141
 31
0.0
  0
LINE
  5
14F
330
132
100
AcDbEntity
  8
AM_9
100
AcDbLine
 10
-1.0
 20
-0.7890625
 30
0.0
 11
0.99547727246784
 21
-0.7890625
 31
0.0
  0
LWPOLYLINE
  5
150
330
132
100
AcDbEntity
  8
AM_9
100
AcDbPolyline
 90
        5
 70
     0
 43
0.0
 10
-1.000001088918
 20
-0.65022782049122
 10
-0.98300176287272
 20
-0.65355718975853
 10
-0.94732989502424
 20
-0.66003998853712
 10
-0.90949546067792
 20
-0.6662759247809
 10
-0.88979408370609
 20
-0.66929684797658
  0
LWPOLYLINE
  5
151
330
132
100
AcDbEntity
  8
AM_9
100
AcDbPolyline
 90
        5
 70
     0
 43
0.0
 10
-0.88979408370609
 20
-0.66929684797658
 10
-0.86741186346622
 20
-0.6725600913317
 10
-0.82084637304814
 20
-0.67883159247736
 10
-0.77198854406408
 20
-0.68474861736814
 10
-0.74674240126077
 20
-0.68756899745707
  0
LWPOLYLINE
  5
152
330
132
100
AcDbEntity
  8
AM_9
100
AcDbPolyline
 90
        5
 70
     0
 43
0.0
 10
-0.74674240126077
 20
-0.68756899745707
 10
-0.7223898914336
 20
-0.69014881453084
 10
-0.67234723917303
 20
-0.69504793560324
 10
-0.6206256708827
 20
-0.69958960205112
 10
-0.59417549875889
 20
-0.70172281007756
  0
LINE
  5
153
330
132
100
AcDbEntity
  8
AM_9
100
AcDbLine
 10
-0.59417549875889
 20
-0.70172281007756
 30
0.0
 11
-0.41594883565441
 21
-0.71315382347122
 31
0.0
  0
LINE
  5
154
330
132
100
AcDbEntity
  8
AM_9
100
AcDbLine
 10
-0.41594883565441
 20
-0.71315382347122
 30
0.0
 11
-0.38476517736559
 21
-0.71467585739
 31
0.0
  0
LWPOLYLINE
  5
155
330
132
100
AcDbEntity
  8
AM_9
100
AcDbPolyline
 90
       23
 70
     0
 43
0.0
 10
-0.38476517736559
 20
-0.71467585739
 10
-0.37575491133177
 20
-0.71509107846525
 10
-0.35766687711346
 20
-0.71589194298955
 10
-0.33949248184052
 20
-0.71665321052642
 10
-0.33037426937577
 20
-0.71701893760825
 10
-0.32123611384198
 20
-0.71737469726272
 10
-0.30290218123976
 20
-0.71805622899066
 10
-0.28449511088424
 20
-0.71869764114986
 10
-0.26601934728542
 20
-0.71929877886708
 10
-0.24747935153972
 20
-0.7198594969936
 10
-0.22887960025286
 20
-0.72037966014029
 10
-0.21955871919567
 20
-0.72062449396382
 10
-0.21022458445892
 20
-0.72085914271028
 10
-0.19151880853598
 20
-0.7212978289293
 10
-0.17276678911849
 20
-0.72169561287365
 10
-0.15397305400667
 20
-0.72205239849572
 10
-0.13514214107331
 20
-0.72236809964726
 10
-0.11627859716803
 20
-0.72264264010012
 10
-0.10683601167588
 20
-0.72276445396035
 10
-0.097386977019382
 20
-0.72287595356466
 10
-0.078471842135156
 20
-0.72306798370579
 10
-0.059537759700907
 20
-0.72321868415656
 10
-0.05006504167917
 20
-0.72327852398685
  0
LINE
  5
156
330
132
100
AcDbEntity
  8
AM_9
100
AcDbLine
 10
-0.05006504167917
 20
-0.72327852398685
 30
0.0
 11
0.05006504167917
 21
-0.72327852398685
 31
0.0
  0
LWPOLYLINE
  5
157
330
132
100
AcDbEntity
  8
AM_9
100
AcDbPolyline
 90
       23
 70
     0
 43
0.0
 10
0.05006504167917
 20
-0.72327852398685
 10
0.065894106472034
 20
-0.72317271742101
 10
0.097516240386961
 20
-0.72287449832022
 10
0.12907261299002
 20
-0.72246098029397
 10
0.14481948653729
 20
-0.72221106829544
 10
0.16054194384165
 20
-0.72193244220337
 10
0.1919030112
 20
-0.72128924047478
 10
0.22313466633206
 20
-0.72053180885942
 10
0.25421584777562
 20
-0.71966065814092
 10
0.28512559554228
 20
-0.71867637579078
 10
0.31584306525212
 20
-0.71757962557227
 10
0.33112321703972
 20
-0.71698930319033
 10
0.34634754219039
 20
-0.71637114709281
 10
0.37661845527667
 20
-0.71505175530515
 10
0.40663539093731
 20
-0.71362233995786
 10
0.43637810687155
 20
-0.71208386499528
 10
0.46582654570217
 20
-0.7104373679075
 10
0.49496084850145
 20
-0.70868395903068
 10
0.50940405053656
 20
-0.70776752938701
 10
0.52376136818326
 20
-0.7068248207983
 10
0.55220868275238
 20
-0.70486120694378
 10
0.5802836084019
 20
-0.70279444165499
 10
0.59417549875889
 20
-0.70172281007756
  0
LWPOLYLINE
  5
158
330
132
100
AcDbEntity
  8
AM_9
100
AcDbPolyline
 90
        5
 70
     0
 43
0.0
 10
0.59417549875889
 20
-0.70172281007756
 10
0.62062566066438
 20
-0.69958960289925
 10
0.67234720946078
 20
-0.69504793835968
 10
0.72238984360797
 20
-0.69014881946684
 10
0.74674234494096
 20
-0.68756900357995
  0
LWPOLYLINE
  5
159
330
132
100
AcDbEntity
  8
AM_9
100
AcDbPolyline
 90
        5
 70
     0
 43
0.0
 10
0.74674234494096
 20
-0.68756900357995
 10
0.77198849810658
 20
-0.68474862264304
 10
0.8208463467018
 20
-0.67883159584261
 10
0.86741185511801
 20
-0.67256009251709
 10
0.88979408370609
 20
-0.66929684797658
  0
LINE
  5
15A
330
132
100
AcDbEntity
  8
AM_9
100
AcDbLine
 10
0.88979408370609
 20
-0.66929684797658
 30
0.0
 11
0.93379620391538
 21
-0.66234051468846
 31
0.0
  0
LWPOLYLINE
  5
15B
330
132
100
AcDbEntity
  8
AM_9
100
AcDbPolyline
 90
        5
 70
     0
 43
0.0
 10
0.93379620391538
 20
-0.66234051468846
 10
0.94453106594847
 20
-0.66052247589037
 10
0.96546121674425
 20
-0.65682492558861
 10
0.98565875840761
 20
-0.65304775626795
 10
0.99547798932395
 20
-0.65113020785694
  0
CIRCLE
  5
15C
330
132
100
AcDbEntity
  8
AM_9
100
AcDbCircle
 10
1.5
 20
0.0
 30
0.0
 40
0.1849
  0
ELLIPSE
  5
15D
330
132
100
AcDbEntity
  8
AM_9
100
AcDbEllipse
 10
1.47160094877911
 20
-0.0789062499997872
 30
0.0
 11
-1.362666886449784E-17
 21
-0.07418013027094972
 31
0.0
210
0.0
220
0.0
230
1.0
 40
0.7071067811865476
 41
0.4808136547582444
 42
2.660778998828876
  0
ELLIPSE
  5
15E
330
132
100
AcDbEntity
  8
AM_9
100
AcDbEllipse
 10
1.433822077517889
 20
-0.078906249999907
 30
0.0
 11
-1.816586040986152E-17
 21
-0.09889033813672807
 31
0.0
210
0.0
220
0.0
230
1.0
 40
0.7071067811865486
 41
0.4808136547742539
 42
2.660778999832538
  0
ELLIPSE
  5
15F
330
132
100
AcDbEntity
  8
AM_9
100
AcDbEllipse
 10
1.35440243267731
 20
-0.0789062500000318
 30
0.0
 11
-2.025002468264952E-17
 21
-0.1102360000001545
 31
0.0
210
0.0
220
0.0
230
1.0
 40
0.7071067811865507
 41
0.5776064211025869
 42
2.563974231712866
  0
ELLIPSE
  5
160
330
132
100
AcDbEntity
  8
AM_9
100
AcDbEllipse
 10
1.340483035689676
 20
-0.0789062500000338
 30
0.0
 11
-2.025002468263248E-17
 21
-0.1102360000000617
 31
0.0
210
0.0
220
0.0
230
1.0
 40
0.7071067811865474
 41
0.0
 42
3.141592653589793
  0
LWPOLYLINE
  5
161
330
132
100
AcDbEntity
  8
AM_9
100
AcDbPolyline
 90
      131
 70
     0
 43
0.0
 10
1.1724778477712
 20
-0.07890625
 10
1.1724793457204
 20
-0.078333640153907
 10
1.172491328839
 20
-0.077188541589402
 10
1.1725152925413
 20
-0.076043806382313
 10
1.1725317656262
 20
-0.075471650714977
 10
1.1725512317582
 20
-0.074899676685515
 10
1.1725991388871
 20
-0.073756394523794
 10
1.172659003794
 20
-0.072614201742651
 10
1.1727308138153
 20
-0.071473339957146
 10
1.1728145537606
 20
-0.070334050500783
 10
1.1729102059159
 20
-0.069196574374463
 10
1.1729624928475
 20
-0.068628591519357
 10
1.1730177500473
 20
-0.068061152195502
 10
1.1731371634053
 20
-0.066928024146731
 10
1.1732684207296
 20
-0.06579742992569
 10
1.1734114942546
 20
-0.064669608693924
 10
1.1735663537151
 20
-0.063544799026388
 10
1.1737329663528
 20
-0.062423238860986
 10
1.173820669196
 20
-0.061863751510594
 10
1.1739112969229
 20
-0.06130516544823
 10
1.1741013077021
 20
-0.060190815301062
 10
1.1743029584964
 20
-0.059080424144817
 10
1.1744081356649
 20
-0.058526786624822
 10
1.1745162066492
 20
-0.05797422686736
 10
1.1747410070509
 20
-0.056872457469401
 10
1.1749773121481
 20
-0.05577534901499
 10
1.1750997634313
 20
-0.055228615205878
 10
1.1752250719536
 20
-0.054683133582222
 10
1.1754842340574
 20
-0.053596042214141
 10
1.1757547436373
 20
-0.052514304869863
 10
1.1760365434707
 20
-0.051438150375938
 10
1.1763295739468
 20
-0.050367806377939
 10
1.176633773079
 20
-0.049303499292311
 10
1.176790040874
 20
-0.048773679998892
 10
1.1769490765183
 20
-0.048245454258472
 10
1.1772754175665
 20
-0.047193895091191
 10
1.1776127271908
 20
-0.046149044233241
 10
1.1779609340379
 20
-0.045111122708346
 10
1.1783199644495
 20
-0.044080350074424
 10
1.1786897424777
 20
-0.043056944377146
 10
1.1788786374922
 20
-0.042548071844157
 10
1.1790701899011
 20
-0.042041122103809
 10
1.1794612262414
 20
-0.04103309813754
 10
1.1798627687801
 20
-0.040033085711846
 10
1.1802747325765
 20
-0.039041296365499
 10
1.1806970304855
 20
-0.038057939897796
 10
1.1811295731756
 20
-0.037083224324174
 10
1.1813496578045
 20
-0.036599171378857
 10
1.1815722691486
 20
-0.036117355832209
 10
1.1820250247581
 20
-0.035160538737998
 10
1.1824877442301
 20
-0.034212975442942
 10
1.1829603296827
 20
-0.033274866390928
 10
1.1834426811469
 20
-0.03234641002593
 10
1.1839346965879
 20
-0.031427802750029
 10
1.1841842958543
 20
-0.030972253327576
 10
1.1844362719267
 20
-0.030519238881866
 10
1.1849473010621
 20
-0.029620910615542
 10
1.1854676758928
 20
-0.028733007979954
 10
1.1859972863408
 20
-0.027855718798605
 10
1.1865360203743
 20
-0.026989228649867
 10
1.1870837640316
 20
-0.026133720827726
 10
1.1873609783343
 20
-0.025710141934311
 10
1.1876404014451
 20
-0.025289376303009
 10
1.1882058148659
 20
-0.024456373685103
 10
1.1887798846887
 20
-0.023634889184171
 10
1.1890701278727
 20
-0.023228520628025
 10
1.1893624894768
 20
-0.022825096573878
 10
1.1899535059884
 20
-0.022027167154633
 10
1.190552809202
 20
-0.021241269717348
 10
1.1908555287729
 20
-0.020852885044114
 10
1.1911602723434
 20
-0.020467570507739
 10
1.1917757669122
 20
-0.019706233191154
 10
1.192399162709
 20
-0.018957418817956
 10
1.193030327863
 20
-0.01822128578945
 10
1.1936691288601
 20
-0.017497989824381
 10
1.1943154305707
 20
-0.016787683925988
 10
1.194641351531
 20
-0.016437449314811
 10
1.1949690962787
 20
-0.016090518349645
 10
1.1956299877101
 20
-0.015406640571069
 10
1.1962979650625
 20
-0.014736195255131
 10
1.1969728870346
 20
-0.014079324225248
 10
1.1976546108559
 20
-0.013436166433387
 10
1.1983429923172
 20
-0.012806857930668
 10
1.1986896342116
 20
-0.012497438878416
 10
1.199037885801
 20
-0.012191531838585
 10
1.1997391443122
 20
-0.01159031832085
 10
1.2004466195093
 20
-0.011003344555852
 10
1.2011601617356
 20
-0.01043073470976
 10
1.2018796200512
 20
-0.0098726099102521
 10
1.2026048422647
 20
-0.0093290882208987
 10
1.202969566939
 20
-0.0090628395933927
 10
1.2033356749653
 20
-0.0088002846161827
 10
1.2040719635556
 20
-0.0082863109571805
 10
1.2048135522838
 20
-0.007787275967899
 10
1.2055602842772
 20
-0.0073032852122765
 10
1.2063120015749
 20
-0.0068344410718519
 10
1.2070685451616
 20
-0.0063808427241077
 10
1.2074485768409
 20
-0.0061597908341678
 10
1.207829755001
 20
-0.0059425861214901
 10
1.2085954700696
 20
-0.0055197639711118
 10
1.209365528391
 20
-0.0051124657151407
 10
1.2101397670701
 20
-0.0047207775118801
 10
1.2109180223274
 20
-0.0043447822175429
 10
1.2117001295338
 20
-0.0039845593687244
 10
1.2120925759475
 20
-0.0038103865547079
 10
1.2124859232453
 20
-0.0036401851655778
 10
1.2132752372382
 20
-0.0033117324556947
 10
1.214067904544
 20
-0.0029992707186953
 10
1.2144654433167
 20
-0.0028490572528472
 10
1.2148637574849
 20
-0.0027028660515313
 10
1.2156626277094
 20
-0.0024225811545036
 10
1.2164643462274
 20
-0.0021584753179989
 10
1.2168662206214
 20
-0.0020325071401888
 10
1.2172687434465
 20
-0.001910604409948
 10
1.2180756492076
 20
-0.0016790208640074
 10
1.2188848928209
 20
-0.0014637736684679
 10
1.2196963031023
 20
-0.0012649083558917
 10
1.2205097084091
 20
-0.0010824669934804
 10
1.2213249366767
 20
-0.0009164881741767
 10
1.2217331805442
 20
-0.0008396833264679
 10
1.2221418154548
 20
-0.0007670070085003
 10
1.2229601719441
 20
-0.000634055117121
 10
1.2237798330325
 20
-0.0005176606241692
 10
1.2246006253321
 20
-0.0004178481512876
 10
1.2254223752158
 20
-0.0003346388124218
 10
1.2262449088536
 20
-0.0002680502093548
 10
1.2266564152121
 20
-0.0002409932230143
 10
1.2270680522499
 20
-0.000218096427983
 10
1.2278916312803
 20
-0.0001847880353367
 10
1.228715471728
 20
-0.000168132077345
 10
1.2291274355244
 20
-0.0001660500000141
  0
LWPOLYLINE
  5
162
330
132
100
AcDbEntity
  8
AM_9
100
AcDbPolyline
 90
      131
 70
     0
 43
0.0
 10
1.2291274355244
 20
-0.0001660500000141
 10
1.2299513413307
 20
-0.0001743781992273
 10
1.2315984558367
 20
-0.0002409932230143
 10
1.2332434796128
 20
-0.0003741669076277
 10
1.2340647724214
 20
-0.0004656802333304
 10
1.2348850208047
 20
-0.0005737865748348
 10
1.2365216905047
 20
-0.0008396833264679
 10
1.2381521039267
 20
-0.0011716321873293
 10
1.2397748815783
 20
-0.0015693522955423
 10
1.2413886504275
 20
-0.0020325071401888
 10
1.2429920450648
 20
-0.0025607048460309
 10
1.2437894277322
 20
-0.0028490572528472
 10
1.2445837088582
 20
-0.0031534985050764
 10
1.2461622951013
 20
-0.0038103865547079
 10
1.2477264681526
 20
-0.0045308132020547
 10
1.2492749045653
 20
-0.0053141688942488
 10
1.2508062942079
 20
-0.0061597908341678
 10
1.2523193413717
 20
-0.0070669635412275
 10
1.253068585829
 20
-0.0075433935871896
 10
1.2538127658677
 20
-0.0080349194567494
 10
1.2552853041098
 20
-0.0090628395933927
 10
1.2567357101836
 20
-0.010149854228099
 10
1.257452229401
 20
-0.010715236500945
 10
1.2581627569007
 20
-0.011295043637964
 10
1.2595652368372
 20
-0.012497438878416
 10
1.260941963355
 20
-0.013756022603041
 10
1.2616203041887
 20
-0.014406054202288
 10
1.2622917716061
 20
-0.015069729924355
 10
1.2636135195178
 20
-0.016437449314811
 10
1.2649060887596
 20
-0.017858023547257
 10
1.2661683856887
 20
-0.019330250674068
 10
1.267399342276
 20
-0.020852885044114
 10
1.2685979170092
 20
-0.022424638356705
 10
1.2691847431761
 20
-0.023228520628025
 10
1.2697630957746
 20
-0.024044180751622
 10
1.2708938927145
 20
-0.025710141934311
 10
1.2719893510618
 20
-0.027421112335289
 10
1.2730485439495
 20
-0.02917564430278
 10
1.2740705751946
 20
-0.030972253327576
 10
1.2750545800565
 20
-0.032809419299076
 10
1.2755320611406
 20
-0.033742726686439
 10
1.275999725969
 20
-0.034685587791454
 10
1.2769052132443
 20
-0.036599171378857
 10
1.2777702757497
 20
-0.038548550978526
 10
1.278594181556
 20
-0.040532077220702
 10
1.2793762335566
 20
-0.042548071844157
 10
1.2801157700574
 20
-0.044594829116173
 10
1.2804693980376
 20
-0.045629203546891
 10
1.2808121653368
 20
-0.046670617275758
 10
1.2814648301748
 20
-0.048773679998892
 10
1.2820732123518
 20
-0.050902237884549
 10
1.2826367971157
 20
-0.053054489960254
 10
1.2831551076176
 20
-0.055228615205878
 10
1.2836277053149
 20
-0.057422774094409
 10
1.2838467353839
 20
-0.058526786624822
 10
1.284054190343
 20
-0.059635110148371
 10
1.2844342018529
 20
-0.061863751510594
 10
1.2847674183168
 20
-0.064106812527987
 10
1.2850535578005
 20
-0.066362395346992
 10
1.2852923782013
 20
-0.068628591519357
 10
1.2854836774533
 20
-0.070903483616872
 10
1.2855614544933
 20
-0.072043589384902
 10
1.2856272936983
 20
-0.073185146853709
 10
1.2857231054226
 20
-0.075471650714977
 10
1.2857710315599
 20
-0.077761060590135
 10
1.2857770232776
 20
-0.07890625
 10
1.2857710315599
 20
-0.080051439409865
 10
1.2857231054226
 20
-0.082340849285023
 10
1.2856272936983
 20
-0.084627353146291
 10
1.2855614544933
 20
-0.085768910615098
 10
1.2854836774533
 20
-0.086909016383128
 10
1.2852923782013
 20
-0.089183908480643
 10
1.2850535578005
 20
-0.091450104653008
 10
1.2847674183168
 20
-0.093705687472013
 10
1.2844342018529
 20
-0.095948748489406
 10
1.284054190343
 20
-0.098177389851629
 10
1.2838467353839
 20
-0.099285713375178
 10
1.2836277053149
 20
-0.10038972590559
 10
1.2831551076176
 20
-0.10258388479412
 10
1.2826367971157
 20
-0.10475801003975
 10
1.2820732123518
 20
-0.10691026211545
 10
1.2814648301748
 20
-0.10903882000111
 10
1.2808121653368
 20
-0.11114188272424
 10
1.2804693980376
 20
-0.11218329645311
 10
1.2801157700574
 20
-0.11321767088383
 10
1.2793762335566
 20
-0.11526442815584
 10
1.278594181556
 20
-0.1172804227793
 10
1.2777702757497
 20
-0.11926394902147
 10
1.2769052132443
 20
-0.12121332862114
 10
1.275999725969
 20
-0.12312691220855
 10
1.2755320611406
 20
-0.12406977331356
 10
1.2750545800565
 20
-0.12500308070092
 10
1.2740705751946
 20
-0.12684024667242
 10
1.2730485439495
 20
-0.12863685569722
 10
1.2719893510618
 20
-0.13039138766471
 10
1.2708938927145
 20
-0.13210235806569
 10
1.2697630957746
 20
-0.13376831924838
 10
1.2691847431761
 20
-0.13458397937197
 10
1.2685979170092
 20
-0.13538786164329
 10
1.267399342276
 20
-0.13695961495589
 10
1.2661683856887
 20
-0.13848224932593
 10
1.2649060887596
 20
-0.13995447645274
 10
1.2636135195178
 20
-0.14137505068519
 10
1.2622917716061
 20
-0.14274277007564
 10
1.2616203041887
 20
-0.14340644579771
 10
1.260941963355
 20
-0.14405647739696
 10
1.2595652368372
 20
-0.14531506112158
 10
1.2581627569007
 20
-0.14651745636204
 10
1.257452229401
 20
-0.14709726349906
 10
1.2567357101836
 20
-0.1476626457719
 10
1.2552853041098
 20
-0.14874966040661
 10
1.2538127658677
 20
-0.14977758054325
 10
1.253068585829
 20
-0.15026910641281
 10
1.2523193413717
 20
-0.15074553645877
 10
1.2508062942079
 20
-0.15165270916583
 10
1.2492749045653
 20
-0.15249833110575
 10
1.2477264681526
 20
-0.15328168679795
 10
1.2461622951013
 20
-0.15400211344529
 10
1.2445837088582
 20
-0.15465900149492
 10
1.2437894277322
 20
-0.15496344274715
 10
1.2429920450648
 20
-0.15525179515397
 10
1.2413886504275
 20
-0.15577999285981
 10
1.2397748815783
 20
-0.15624314770446
 10
1.2381521039267
 20
-0.15664086781267
 10
1.2365216905047
 20
-0.15697281667353
 10
1.2348850208047
 20
-0.15723871342517
 10
1.2340647724214
 20
-0.15734681976667
 10
1.2332434796128
 20
-0.15743833309237
 10
1.2315984558367
 20
-0.15757150677699
 10
1.2299513413307
 20
-0.15763812180077
 10
1.2291274355244
 20
-0.15764644999999
  0
LWPOLYLINE
  5
163
330
132
100
AcDbEntity
  8
AM_9
100
AcDbPolyline
 90
      131
 70
     0
 43
0.0
 10
1.2291274355244
 20
-0.15764644999999
 10
1.228715471728
 20
-0.15764436792266
 10
1.2278916312803
 20
-0.15762771196466
 10
1.2270680522499
 20
-0.15759440357202
 10
1.2266564152121
 20
-0.15757150677699
 10
1.2262449088536
 20
-0.15754444979065
 10
1.2254223752158
 20
-0.15747786118758
 10
1.2246006253321
 20
-0.15739465184871
 10
1.2237798330325
 20
-0.15729483937583
 10
1.2229601719441
 20
-0.15717844488288
 10
1.2221418154548
 20
-0.1570454929915
 10
1.2217331805442
 20
-0.15697281667353
 10
1.2213249366767
 20
-0.15689601182582
 10
1.2205097084091
 20
-0.15673003300652
 10
1.2196963031023
 20
-0.15654759164411
 10
1.2188848928209
 20
-0.15634872633153
 10
1.2180756492076
 20
-0.15613347913599
 10
1.2172687434465
 20
-0.15590189559005
 10
1.2168662206214
 20
-0.15577999285981
 10
1.2164643462274
 20
-0.155654024682
 10
1.2156626277094
 20
-0.1553899188455
 10
1.2148637574849
 20
-0.15510963394847
 10
1.2144654433167
 20
-0.15496344274715
 10
1.214067904544
 20
-0.1548132292813
 10
1.2132752372382
 20
-0.15450076754431
 10
1.2124859232453
 20
-0.15417231483442
 10
1.2120925759475
 20
-0.15400211344529
 10
1.2117001295338
 20
-0.15382794063128
 10
1.2109180223274
 20
-0.15346771778246
 10
1.2101397670701
 20
-0.15309172248812
 10
1.209365528391
 20
-0.15270003428486
 10
1.2085954700696
 20
-0.15229273602889
 10
1.207829755001
 20
-0.15186991387851
 10
1.2074485768409
 20
-0.15165270916583
 10
1.2070685451616
 20
-0.15143165727589
 10
1.2063120015749
 20
-0.15097805892815
 10
1.2055602842772
 20
-0.15050921478772
 10
1.2048135522838
 20
-0.1500252240321
 10
1.2040719635556
 20
-0.14952618904282
 10
1.2033356749653
 20
-0.14901221538382
 10
1.202969566939
 20
-0.14874966040661
 10
1.2026048422647
 20
-0.1484834117791
 10
1.2018796200512
 20
-0.14793989008975
 10
1.2011601617356
 20
-0.14738176529024
 10
1.2004466195093
 20
-0.14680915544415
 10
1.1997391443122
 20
-0.14622218167915
 10
1.199037885801
 20
-0.14562096816141
 10
1.1986896342116
 20
-0.14531506112158
 10
1.1983429923172
 20
-0.14500564206933
 10
1.1976546108559
 20
-0.14437633356661
 10
1.1969728870346
 20
-0.14373317577475
 10
1.1962979650625
 20
-0.14307630474487
 10
1.1956299877101
 20
-0.14240585942893
 10
1.1949690962787
 20
-0.14172198165036
 10
1.194641351531
 20
-0.14137505068519
 10
1.1943154305707
 20
-0.14102481607401
 10
1.1936691288601
 20
-0.14031451017562
 10
1.193030327863
 20
-0.13959121421055
 10
1.192399162709
 20
-0.13885508118204
 10
1.1917757669122
 20
-0.13810626680885
 10
1.1911602723434
 20
-0.13734492949226
 10
1.1908555287729
 20
-0.13695961495589
 10
1.190552809202
 20
-0.13657123028265
 10
1.1899535059884
 20
-0.13578533284537
 10
1.1893624894768
 20
-0.13498740342612
 10
1.1890701278727
 20
-0.13458397937197
 10
1.1887798846887
 20
-0.13417761081583
 10
1.1882058148659
 20
-0.1333561263149
 10
1.1876404014451
 20
-0.13252312369699
 10
1.1873609783343
 20
-0.13210235806569
 10
1.1870837640316
 20
-0.13167877917227
 10
1.1865360203743
 20
-0.13082327135013
 10
1.1859972863408
 20
-0.12995678120139
 10
1.1854676758928
 20
-0.12907949202005
 10
1.1849473010621
 20
-0.12819158938446
 10
1.1844362719267
 20
-0.12729326111813
 10
1.1841842958543
 20
-0.12684024667242
 10
1.1839346965879
 20
-0.12638469724997
 10
1.1834426811469
 20
-0.12546608997407
 10
1.1829603296827
 20
-0.12453763360907
 10
1.1824877442301
 20
-0.12359952455706
 10
1.1820250247581
 20
-0.122651961262
 10
1.1815722691486
 20
-0.12169514416779
 10
1.1813496578045
 20
-0.12121332862114
 10
1.1811295731756
 20
-0.12072927567583
 10
1.1806970304855
 20
-0.1197545601022
 10
1.1802747325765
 20
-0.1187712036345
 10
1.1798627687801
 20
-0.11777941428815
 10
1.1794612262414
 20
-0.11677940186246
 10
1.1790701899011
 20
-0.11577137789619
 10
1.1788786374922
 20
-0.11526442815584
 10
1.1786897424777
 20
-0.11475555562285
 10
1.1783199644495
 20
-0.11373214992558
 10
1.1779609340379
 20
-0.11270137729165
 10
1.1776127271908
 20
-0.11166345576676
 10
1.1772754175665
 20
-0.11061860490881
 10
1.1769490765183
 20
-0.10956704574153
 10
1.176790040874
 20
-0.10903882000111
 10
1.176633773079
 20
-0.10850900070769
 10
1.1763295739468
 20
-0.10744469362206
 10
1.1760365434707
 20
-0.10637434962406
 10
1.1757547436373
 20
-0.10529819513014
 10
1.1754842340574
 20
-0.10421645778586
 10
1.1752250719536
 20
-0.10312936641778
 10
1.1750997634313
 20
-0.10258388479412
 10
1.1749773121481
 20
-0.10203715098501
 10
1.1747410070509
 20
-0.1009400425306
 10
1.1745162066492
 20
-0.09983827313264
 10
1.1744081356649
 20
-0.099285713375178
 10
1.1743029584964
 20
-0.098732075855183
 10
1.1741013077021
 20
-0.097621684698938
 10
1.1739112969229
 20
-0.09650733455177
 10
1.173820669196
 20
-0.095948748489406
 10
1.1737329663528
 20
-0.095389261139015
 10
1.1735663537151
 20
-0.094267700973612
 10
1.1734114942546
 20
-0.093142891306076
 10
1.1732684207296
 20
-0.09201507007431
 10
1.1731371634053
 20
-0.090884475853269
 10
1.1730177500473
 20
-0.089751347804498
 10
1.1729624928475
 20
-0.089183908480644
 10
1.1729102059159
 20
-0.088615925625537
 10
1.1728145537606
 20
-0.087478449499217
 10
1.1727308138153
 20
-0.086339160042854
 10
1.172659003794
 20
-0.085198298257349
 10
1.1725991388871
 20
-0.084056105476206
 10
1.1725512317582
 20
-0.082912823314485
 10
1.1725317656262
 20
-0.082340849285023
 10
1.1725152925413
 20
-0.081768693617687
 10
1.172491328839
 20
-0.080623958410598
 10
1.1724793457204
 20
-0.079478859846093
 10
1.1724778477712
 20
-0.07890625
  0
ELLIPSE
  5
164
330
132
100
AcDbEntity
  8
AM_9
100
AcDbEllipse
 10
1.340483035689719
 20
-0.0789062499999648
 30
0.0
 11
-2.892860668946488E-17
 21
-0.1574800000000332
 31
0.0
210
0.0
220
0.0
230
1.0
 40
0.7071067811865475
 41
0.8768995765166352
 42
2.264692735004283
  0
LWPOLYLINE
  5
165
330
132
100
AcDbEntity
  8
AM_9
100
AcDbPolyline
 90
       23
 70
     0
 43
0.0
 10
1.4418924862902
 20
-0.16982765906712
 10
1.4424287410518
 20
-0.16717126996124
 10
1.4434553377269
 20
-0.1619069495301
 10
1.4444214737505
 20
-0.15670194219395
 10
1.4448821180787
 20
-0.15411971618961
 10
1.4453279277931
 20
-0.15154997007983
 10
1.4461753322054
 20
-0.14644482206894
 10
1.4469641735296
 20
-0.14138032780331
 10
1.4476947920656
 20
-0.13635033144602
 10
1.4483673804643
 20
-0.13134866494718
 10
1.4489819813083
 20
-0.12636912055409
 10
1.449267507835
 20
-0.1238856863743
 10
1.4495384836254
 20
-0.12140542228561
 10
1.4500366182658
 20
-0.11645119606773
 10
1.4504759520554
 20
-0.11149993819735
 10
1.450855880621
 20
-0.10654498176544
 10
1.4511756197561
 20
-0.10157946062605
 10
1.4514341951764
 20
-0.096596270444236
 10
1.4515401871321
 20
-0.094095753872615
 10
1.4516304304782
 20
-0.091588026290637
 10
1.4517629330835
 20
-0.086547016172617
 10
1.451830077909
 20
-0.081465149797047
 10
1.4518385651443
 20
-0.07890625
  0
LWPOLYLINE
  5
166
330
132
100
AcDbEntity
  8
AM_9
100
AcDbPolyline
 90
       23
 70
     0
 43
0.0
 10
1.4518385651443
 20
-0.07890625
 10
1.451830077909
 20
-0.076347350202953
 10
1.4517629330835
 20
-0.071265483827383
 10
1.4516304304782
 20
-0.066224473709363
 10
1.4515401871321
 20
-0.063716746127385
 10
1.4514341951764
 20
-0.061216229555764
 10
1.4511756197561
 20
-0.056233039373947
 10
1.450855880621
 20
-0.051267518234565
 10
1.4504759520554
 20
-0.046312561802652
 10
1.4500366182658
 20
-0.041361303932274
 10
1.4495384836254
 20
-0.036407077714392
 10
1.449267507835
 20
-0.0339268136257
 10
1.4489819813083
 20
-0.031443379445915
 10
1.4483673804643
 20
-0.02646383505282
 10
1.4476947920656
 20
-0.021462168553985
 10
1.4469641735296
 20
-0.016432172196687
 10
1.4461753322054
 20
-0.011367677931056
 10
1.4453279277931
 20
-0.0062625299201742
 10
1.4448821180787
 20
-0.0036927838103879
 10
1.4444214737505
 20
-0.0011105578060493
 10
1.4434553377269
 20
0.0040944495301046
 10
1.4424287410518
 20
0.0093587699612408
 10
1.4418924862902
 20
0.012015159067117
  0
LWPOLYLINE
  5
167
330
132
100
AcDbEntity
  8
AM_9
100
AcDbPolyline
 90
       23
 70
     0
 43
0.0
 10
1.3643484408209
 20
0.012015159067117
 10
1.3638122099691
 20
0.0093588315820019
 10
1.3627856557697
 20
0.0040946277970451
 10
1.3618195550087
 20
-0.0011102723372513
 10
1.361358925574
 20
-0.0036924485311491
 10
1.3609131289104
 20
-0.0062621474934774
 10
1.3600657450193
 20
-0.011367209618406
 10
1.3592769166878
 20
-0.016431629934046
 10
1.35854630351
 20
-0.021461565185474
 10
1.3578737127281
 20
-0.026463184383542
 10
1.3572591016515
 20
-0.031442696304126
 10
1.356973567031
 20
-0.033926120147482
 10
1.3567025811435
 20
-0.036406378023888
 10
1.3562044202444
 20
-0.041360604795981
 10
1.3557650520181
 20
-0.046311881598638
 10
1.3553850807284
 20
-0.051266876725885
 10
1.3550652904732
 20
-0.056232457834029
 10
1.3548066554308
 20
-0.061215730911298
 10
1.3547006304435
 20
-0.063716298088704
 10
1.3546103519024
 20
-0.066224082703062
 10
1.3544777723697
 20
-0.071265227203377
 10
1.3544105418275
 20
-0.076347256918084
 10
1.3544020084133
 20
-0.07890625
  0
LWPOLYLINE
  5
168
330
132
100
AcDbEntity
  8
AM_9
100
AcDbPolyline
 90
       23
 70
     0
 43
0.0
 10
1.3544020084133
 20
-0.07890625
 10
1.3544105171023
 20
-0.081465243081916
 10
1.3544777031222
 20
-0.086547272796623
 10
1.3546102444933
 20
-0.091588417296938
 10
1.3547005062665
 20
-0.094096201911296
 10
1.3548065159922
 20
-0.096596769088702
 10
1.3550651249334
 20
-0.10158004216597
 10
1.3553848948348
 20
-0.10654562327411
 10
1.3557648513587
 20
-0.11150061840136
 10
1.3562042102673
 20
-0.11645189520402
 10
1.3567023671752
 20
-0.12140612197611
 10
1.3569733530313
 20
-0.12388637985252
 10
1.3572588889143
 20
-0.12636980369587
 10
1.3578735063563
 20
-0.13134931561646
 10
1.3585461085651
 20
-0.13635093481453
 10
1.3592767381734
 20
-0.14138087006595
 10
1.3600655878951
 20
-0.14644529038159
 10
1.3609129981058
 20
-0.15155035250652
 10
1.3613588097718
 20
-0.15412005146885
 10
1.3618194554357
 20
-0.15670222766275
 10
1.3627855923363
 20
-0.16190712779705
 10
1.3638121875916
 20
-0.167171331582
 10
1.3643484408209
 20
-0.16982765906712
  0
LINE
  5
169
330
132
100
AcDbEntity
  8
AM_9
100
AcDbLine
 10
1.4418924862902
 20
0.012015159067117
 30
0.0
 11
1.3643484408209
 21
0.012015159067117
 31
0.0
  0
LWPOLYLINE
  5
16A
330
132
100
AcDbEntity
  8
AM_9
100
AcDbPolyline
 90
        5
 70
     0
 43
0.0
 10
1.4418924862902
 20
0.012015159067117
 10
1.4405458295899
 20
0.01365330230542
 10
1.4378513772594
 20
0.016864880977312
 10
1.4351514141914
 20
0.019996870489688
 10
1.4337979029859
 20
0.021535396110208
  0
LWPOLYLINE
  5
16B
330
132
100
AcDbEntity
  8
AM_9
100
AcDbPolyline
 90
       23
 70
     0
 43
0.0
 10
1.2529929113662
 20
0.10293656813423
 10
1.2541833880763
 20
0.10148727010399
 10
1.2565650118701
 20
0.098639616167093
 10
1.2589502991368
 20
0.095855221079528
 10
1.2601453336106
 20
0.094485078487666
 10
1.261342494518
 20
0.093128790411453
 10
1.2637447688901
 20
0.090455341957046
 10
1.2661602364616
 20
0.087830172111615
 10
1.2685919708023
 20
0.085248825492277
 10
1.2710430200067
 20
0.082707067367978
 10
1.2735164211694
 20
0.080200858521419
 10
1.2747624532612
 20
0.078959870575339
 10
1.276015214337
 20
0.077726332213102
 10
1.2785424560847
 20
0.075279772957766
 10
1.2811012328584
 20
0.072857596857047
 10
1.2836946742126
 20
0.070456333260353
 10
1.2863259660707
 20
0.068072607549379
 10
1.2889983641324
 20
0.065703124861135
 10
1.2903510178328
 20
0.064522712984388
 10
1.2917152075478
 20
0.063344654580303
 10
1.2944799329837
 20
0.060994015444564
 10
1.2972960892072
 20
0.05864806111668
 10
1.2987245972394
 20
0.057475863600676
  0
LWPOLYLINE
  5
16C
330
132
100
AcDbEntity
  8
AM_9
100
AcDbPolyline
 90
       23
 70
     0
 43
0.0
 10
1.2987245972394
 20
0.057475863600676
 10
1.3001673682078
 20
0.056303666084662
 10
1.3030975906204
 20
0.05395771175676
 10
1.3060907207387
 20
0.051607072621006
 10
1.3076121681222
 20
0.050429014216914
 10
1.3091509167061
 20
0.04924860234016
 10
1.3122825343185
 20
0.046879119651906
 10
1.3154901477824
 20
0.044495393940922
 10
1.3187785721333
 20
0.042094130344222
 10
1.3221528875458
 20
0.039671954243498
 10
1.3256184657987
 20
0.037225394988159
 10
1.3273872439652
 20
0.035991856625921
 10
1.3291809991823
 20
0.034750868679842
 10
1.3328465321831
 20
0.032244659833284
 10
1.3366214963164
 20
0.029702901708989
 10
1.3405127485368
 20
0.027121555089657
 10
1.3445276137132
 20
0.024496385244234
 10
1.3486739317286
 20
0.021822936789838
 10
1.3507989891068
 20
0.020466648713631
 10
1.3529601098503
 20
0.019096506121775
 10
1.3573951811139
 20
0.016312111034226
 10
1.3619888695863
 20
0.013464457097343
 10
1.3643484408209
 20
0.012015159067117
  0
LWPOLYLINE
  5
16D
330
132
100
AcDbEntity
  8
AM_9
100
AcDbPolyline
 90
       23
 70
     0
 43
0.0
 10
1.2987245972394
 20
-0.21528836360068
 10
1.2972960824158
 20
-0.21646056111669
 10
1.2944799137652
 20
-0.21880651544459
 10
1.2917151774315
 20
-0.22115715458034
 10
1.2903509828377
 20
-0.22233521298444
 10
1.2889983246372
 20
-0.22351562486119
 10
1.286325918709
 20
-0.22588510754944
 10
1.2836946204944
 20
-0.22826883326043
 10
1.2811011742953
 20
-0.23067009685713
 10
1.278542394194
 20
-0.23309227295785
 10
1.2760151506458
 20
-0.23553883221319
 10
1.2747623892466
 20
-0.23677237057543
 10
1.2735163572189
 20
-0.23801335852151
 10
1.2710429573568
 20
-0.24051956736806
 10
1.268591911036
 20
-0.24306132549236
 10
1.2661601811897
 20
-0.24564267211169
 10
1.2637447197567
 20
-0.24826784195711
 10
1.2613424532053
 20
-0.25094129041151
 10
1.2601452968525
 20
-0.25229757848772
 10
1.2589502673711
 20
-0.25366772107957
 10
1.2565649914279
 20
-0.25645211616712
 10
1.2541833807909
 20
-0.259299770104
 10
1.2529929113662
 20
-0.26074906813423
  0
LWPOLYLINE
  5
16E
330
132
100
AcDbEntity
  8
AM_9
100
AcDbPolyline
 90
        5
 70
     0
 43
0.0
 10
1.4337980566358
 20
-0.17934776822278
 10
1.435151543476
 20
-0.17780926269413
 10
1.4378514564252
 20
-0.17467731471728
 10
1.4405458565581
 20
-0.17146577963677
 10
1.4418924862902
 20
-0.16982765906712
  0
LINE
  5
16F
330
132
100
AcDbEntity
  8
AM_9
100
AcDbLine
 10
1.4418924862902
 20
-0.16982765906712
 30
0.0
 11
1.3643484408209
 21
-0.16982765906712
 31
0.0
  0
LWPOLYLINE
  5
170
330
132
100
AcDbEntity
  8
AM_9
100
AcDbPolyline
 90
       23
 70
     0
 43
0.0
 10
1.3643484408209
 20
-0.16982765906712
 10
1.3619888768717
 20
-0.17127695709735
 10
1.357395201556
 20
-0.17412461103425
 10
1.3529601416159
 20
-0.17690900612182
 10
1.3507990258647
 20
-0.17827914871368
 10
1.3486739730412
 20
-0.1796354367899
 10
1.3445276628464
 20
-0.1823088852443
 10
1.3405128038084
 20
-0.18493405508973
 10
1.3366215560825
 20
-0.18751540170907
 10
1.3328465948327
 20
-0.19005715983337
 10
1.3291810631326
 20
-0.19256336867993
 10
1.3273873079795
 20
-0.19380435662601
 10
1.3256185294897
 20
-0.19503789498825
 10
1.3221529494363
 20
-0.19748445424358
 10
1.3187786306961
 20
-0.1999066303443
 10
1.3154902015004
 20
-0.202307893941
 10
1.31228258168
 20
-0.20469161965197
 10
1.3091509562011
 20
-0.20706110234022
 10
1.3076122031172
 20
-0.20824151421696
 10
1.3060907508549
 20
-0.20941957262105
 10
1.3030976098388
 20
-0.21177021175679
 10
1.3001673749991
 20
-0.21411616608467
 10
1.2987245972394
 20
-0.21528836360068
  0
CIRCLE
  5
171
330
132
100
AcDbEntity
  8
AM_9
100
AcDbCircle
 10
-1.5
 20
0.0
 30
0.0
 40
0.1849
  0
ELLIPSE
  5
172
330
132
100
AcDbEntity
  8
AM_9
100
AcDbEllipse
 10
1.243046832512092
 20
-0.0789062500000611
 30
0.0
 11
-1.446434008413550E-17
 21
-0.07874020000001165
 31
0.0
210
0.0
220
0.0
230
1.0
 40
0.7071067811854646
 41
0.0
 42
6.283185307179586
  0
ELLIPSE
  5
173
330
132
100
AcDbEntity
  8
AM_9
100
AcDbEllipse
 10
1.418188681895277
 20
-0.0789062500000277
 30
0.0
 11
-1.745424435126753E-17
 21
-0.0950164807432361
 31
0.0
210
0.0
220
0.0
230
1.0
 40
0.7071067811865467
 41
0.0
 42
6.283185307179586
  0
ELLIPSE
  5
174
330
132
100
AcDbEntity
  8
AM_9
100
AcDbEllipse
 10
1.243046832511905
 20
-0.0789062500000955
 30
0.0
 11
-2.892860668949426E-17
 21
-0.1574800000001932
 31
0.0
210
0.0
220
0.0
230
1.0
 40
0.7071067811865523
 41
0.0
 42
6.283185307179586
  0
LINE
  5
175
330
132
100
AcDbEntity
  8
AM_7
100
AcDbLine
 10
1.2703125
 20
0.0
 30
0.0
 11
1.7296875
 21
0.0
 31
0.0
  0
LINE
  5
176
330
132
100
AcDbEntity
  8
AM_7
100
AcDbLine
 10
1.5
 20
-0.2296875
 30
0.0
 11
1.5
 21
0.2296875
 31
0.0
  0
LINE
  5
177
330
132
100
AcDbEntity
  8
AM_7
100
AcDbLine
 10
-1.7296875
 20
0.0
 30
0.0
 11
-1.2703125
 21
0.0
 31
0.0
  0
LINE
  5
178
330
132
100
AcDbEntity
  8
AM_7
100
AcDbLine
 10
-1.5
 20
-0.2296875
 30
0.0
 11
-1.5
 21
0.2296875
 31
0.0
  0
LINE
  5
179
330
132
100
AcDbEntity
  8
AM_7
100
AcDbLine
 10
0.0
 20
0.86796875
 30
0.0
 11
0.0
 21
-1.15859375
 31
0.0
  0
LWPOLYLINE
  5
17A
330
132
100
AcDbEntity
  8
AM_4
100
AcDbPolyline
 90
      131
 70
     0
 43
0.0
 10
1.4958606224308
 20
-0.14467575809969
 10
1.4963745048264
 20
-0.14429221200373
 10
1.4973912763873
 20
-0.14350662833461
 10
1.4983931876613
 20
-0.14269670403999
 10
1.4988884961637
 20
-0.14228273188914
 10
1.4993800009136
 20
-0.14186281572494
 10
1.50035148432
 20
-0.14100533896354
 10
1.5013074116278
 20
-0.14012464844572
 10
1.5022475618246
 20
-0.13922111813495
 10
1.5031715723676
 20
-0.13829527124427
 10
1.5040785076099
 20
-0.13734827143896
 10
1.5045254955302
 20
-0.13686700429419
 10
1.5049681456874
 20
-0.13638062405017
 10
1.5058403790312
 20
-0.1353927175283
 10
1.5066951004096
 20
-0.13438493555242
 10
1.5075322025462
 20
-0.13335765773006
 10
1.5083515778032
 20
-0.13231126027309
 10
1.509153117929
 20
-0.13124611664316
 10
1.5095471657722
 20
-0.1307066311188
 10
1.5099367138636
 20
-0.13016259816072
 10
1.5107022555997
 20
-0.12906107457241
 10
1.5114496320931
 20
-0.12794191457224
 10
1.5118164733775
 20
-0.12737583596378
 10
1.5121787312193
 20
-0.12680548627273
 10
1.5128894397688
 20
-0.12565215762294
 10
1.5135816434777
 20
-0.12448229677076
 10
1.5139207700353
 20
-0.12389128194557
 10
1.5142552270873
 20
-0.12329627236774
 10
1.5149100744271
 20
-0.12209445381535
 10
1.5155460685162
 20
-0.12087721145186
 10
1.5161630916767
 20
-0.11964491668019
 10
1.5167610256552
 20
-0.11839794203696
 10
1.5173397517458
 20
-0.11713666120414
 10
1.5176218746434
 20
-0.11650077304565
 10
1.5178991509098
 20
-0.11586144896475
 10
1.5184389794043
 20
-0.1145729852562
 10
1.5189586291369
 20
-0.11327294361736
 10
1.5194580186617
 20
-0.11196183919724
 10
1.5199371258758
 20
-0.1106400381001
 10
1.5203959246668
 20
-0.10930790596841
 10
1.5206176992017
 20
-0.10863807996625
 10
1.5208343851341
 20
-0.10796580824118
 10
1.5212524738053
 20
-0.10661411036097
 10
1.5216501538464
 20
-0.10525317793296
 10
1.5220273852584
 20
-0.10388337683974
 10
1.522384125062
 20
-0.10250507331543
 10
1.5227203274629
 20
-0.10111863398288
 10
1.5228807120936
 20
-0.10042247806608
 10
1.5230359439993
 20
-0.099724425857785
 10
1.5233309236666
 20
-0.098322816323608
 10
1.5236052130179
 20
-0.096914173081232
 10
1.52385875624
 20
-0.095498864077283
 10
1.5240914952016
 20
-0.094077257415157
 10
1.5243033694733
 20
-0.092649721252761
 10
1.5244014628362
 20
-0.091933844645902
 10
1.5244943163185
 20
-0.09121662369103
 10
1.5246642706543
 20
-0.089778332657273
 10
1.5248131649807
 20
-0.088335215787454
 10
1.5249409292799
 20
-0.086887640311487
 10
1.5250474828801
 20
-0.085436094203709
 10
1.5251326521238
 20
-0.083982965177505
 10
1.5251672109757
 20
-0.08325619153317
 10
1.5251964269351
 20
-0.08252933979332
 10
1.5252388517243
 20
-0.081075586051421
 10
1.5252599674875
 20
-0.079622072091627
 10
1.5252625464036
 20
-0.078895520114641
 10
1.525259811973
 20
-0.078169166203103
 10
1.5252384198208
 20
-0.076717236817337
 10
1.5251958226771
 20
-0.075266652487528
 10
1.5251665813262
 20
-0.074541979917318
 10
1.5251320492813
 20
-0.073817781857692
 10
1.5250471255271
 20
-0.072370993624747
 10
1.5249410744963
 20
-0.070926656496876
 10
1.5248139164655
 20
-0.069485139151486
 10
1.5246656688873
 20
-0.068046810196057
 10
1.5244963463442
 20
-0.066612038135234
 10
1.524403785716
 20
-0.065896101063888
 10
1.5243059604771
 20
-0.065181191347491
 10
1.5240945198885
 20
-0.063754638074744
 10
1.523862030021
 20
-0.062332746428285
 10
1.5236084930126
 20
-0.06091588441443
 10
1.5233339075291
 20
-0.059504419983317
 10
1.5230382685754
 20
-0.058098721104267
 10
1.5228825514341
 20
-0.057398148767692
 10
1.5227215672864
 20
-0.056699155871187
 10
1.5223838695391
 20
-0.055306407186684
 10
1.5220256708379
 20
-0.053922704871695
 10
1.5216471423583
 20
-0.05254871195341
 10
1.5212483808823
 20
-0.051184783151423
 10
1.5208294810139
 20
-0.049831272936271
 10
1.5206125081441
 20
-0.049158535478602
 10
1.5203905351501
 20
-0.048488535433571
 10
1.5199316334268
 20
-0.047156924353781
 10
1.5194528636443
 20
-0.045836792951806
 10
1.5189543111741
 20
-0.044528494020463
 10
1.5184360588506
 20
-0.043232379921629
 10
1.5178981868517
 20
-0.041948802658672
 10
1.5176219177721
 20
-0.041311825271518
 10
1.5173407725718
 20
-0.040678113993538
 10
1.516763890491
 20
-0.039420665611565
 10
1.5161676120458
 20
-0.038176809336817
 10
1.5155520055066
 20
-0.036946897400405
 10
1.5149171358645
 20
-0.035731282763855
 10
1.5142630647371
 20
-0.034530319499216
 10
1.5139288469307
 20
-0.033935443189132
 10
1.5135898502946
 20
-0.033344363227088
 10
1.5128975472162
 20
-0.032173771613292
 10
1.5121862066798
 20
-0.031018904924298
 10
1.5118234124078
 20
-0.030447481870834
 10
1.5114558763948
 20
-0.029880126640912
 10
1.5107069667914
 20
-0.028758341655571
 10
1.5099399770894
 20
-0.027654505119721
 10
1.509549750199
 20
-0.027109442765518
 10
1.5091550611397
 20
-0.026569017610416
 10
1.5083523748899
 20
-0.025502278137317
 10
1.5075320764329
 20
-0.024454684388291
 10
1.506694326029
 20
-0.023426632940093
 10
1.5058392861583
 20
-0.022418519513204
 10
1.5049671216062
 20
-0.021430739266452
 10
1.5045246697292
 20
-0.020944597499664
 10
1.5040779995836
 20
-0.020463687126625
 10
1.5031720898847
 20
-0.019517758147934
 10
1.5022495650811
 20
-0.018593347895855
 10
1.5013106007542
 20
-0.017690852849725
 10
1.5003553757647
 20
-0.016810670818286
 10
1.4993840725574
 20
-0.015953201362407
 10
1.4988924496987
 20
-0.015533109296622
 10
1.4983968774994
 20
-0.015118846219277
 10
1.4973939812496
 20
-0.014308009722588
 10
1.4963755791544
 20
-0.013521099213573
 10
1.495860625845
 20
-0.013136744419057
  0
LINE
  5
17B
330
132
100
AcDbEntity
  8
AM_4
100
AcDbLine
 10
1.4661629168506
 20
-0.16658429285751
 30
0.0
 11
1.495860625912
 21
-0.14467575553151
 31
0.0
  0
LINE
  5
17C
330
132
100
AcDbEntity
  8
AM_4
100
AcDbLine
 10
1.495860625912
 20
-0.013136744468493
 30
0.0
 11
1.4661629168506
 21
0.0087717928575125
 31
0.0
  0
LWPOLYLINE
  5
17D
330
132
100
AcDbEntity
  8
AM_4
100
AcDbPolyline
 90
      131
 70
     0
 43
0.0
 10
1.3517084143924
 20
-0.092649600330809
 10
1.3518009379413
 20
-0.09351678698513
 10
1.3520030143386
 20
-0.095248200716575
 10
1.3522277872425
 20
-0.096975355689534
 10
1.3523486819324
 20
-0.09783721891622
 10
1.352475247486
 20
-0.0986978767929
 10
1.3527453881684
 20
-0.10041538898998
 10
1.3530382047692
 20
-0.10212751729241
 10
1.3533536952774
 20
-0.10383388671799
 10
1.3536918603358
 20
-0.10553412223037
 10
1.3540527033992
 20
-0.10722784865839
 10
1.3542416173453
 20
-0.10807209328483
 10
1.3544360651809
 20
-0.10891398413017
 10
1.3548414282303
 20
-0.11059016147585
 10
1.3552686599423
 20
-0.11225590693007
 10
1.3557176565129
 20
-0.11391086919952
 10
1.3561883159494
 20
-0.11555469707833
 10
1.356680538062
 20
-0.1171870395082
 10
1.3569347043074
 20
-0.11799879402714
 10
1.357194224473
 20
-0.11880754562917
 10
1.357729278644
 20
-0.12041586481842
 10
1.3582856059189
 20
-0.12201164671399
 10
1.3585717179187
 20
-0.12280472676182
 10
1.358863113581
 20
-0.12359454122107
 10
1.3594617109246
 20
-0.12516419849781
 10
1.3600813093365
 20
-0.12672026891847
 10
1.3603989568461
 20
-0.12749309984401
 10
1.3607218223879
 20
-0.12826240301101
 10
1.3613831659329
 20
-0.12979025136712
 10
1.3620652582128
 20
-0.13130346452211
 10
1.3627680199621
 20
-0.13280169280265
 10
1.3634913745145
 20
-0.13428458614035
 10
1.3642352479058
 20
-0.13575179384931
 10
1.364614856815
 20
-0.13647940577157
 10
1.3649995689702
 20
-0.13720296436591
 10
1.3657842694265
 20
-0.13863774494956
 10
1.3665892839519
 20
-0.14005578134295
 10
1.3674145502373
 20
-0.14145671739105
 10
1.3682599566581
 20
-0.14284011048288
 10
1.3691248410471
 20
-0.14420466955206
 10
1.3695644843147
 20
-0.14487967530807
 10
1.3700089039586
 20
-0.14554977063118
 10
1.3709119992829
 20
-0.14687504652833
 10
1.3718339807317
 20
-0.14818013075418
 10
1.3727747018757
 20
-0.14946465734987
 10
1.3737340161615
 20
-0.15072826067419
 10
1.3747117769056
 20
-0.15197057515113
 10
1.3752075288181
 20
-0.15258363477653
 10
1.3757078372622
 20
-0.15319123497985
 10
1.3767220501595
 20
-0.15438987380888
 10
1.3777542682046
 20
-0.15556612437745
 10
1.3788043435504
 20
-0.15671961812676
 10
1.379872127725
 20
-0.15784998478478
 10
1.3809574424781
 20
-0.15895682296348
 10
1.3815064984782
 20
-0.15950117671419
 10
1.3820597491919
 20
-0.16003938678792
 10
1.3831787297037
 20
-0.16109718924347
 10
1.3843141716595
 20
-0.16212985704922
 10
1.3854658589649
 20
-0.16313701684415
 10
1.3866335715441
 20
-0.16411829497696
 10
1.3878170850797
 20
-0.16507331729635
 10
1.3884146958787
 20
-0.1655408654163
 10
1.3890161707332
 20
-0.16600170894556
 10
1.39023059485
 20
-0.16690309416496
 10
1.3914601186518
 20
-0.1677770961062
 10
1.3920804668379
 20
-0.1682037102422
 10
1.3927044979214
 20
-0.16862333666091
 10
1.3939634826827
 20
-0.16944143630663
 10
1.3952368098288
 20
-0.17023100970134
 10
1.3958784365128
 20
-0.1706147826415
 10
1.3965230391555
 20
-0.17099099583349
 10
1.3978210218729
 20
-0.17172062966305
 10
1.3991304532758
 20
-0.17241968253123
 10
1.4004510223065
 20
-0.17308792270131
 10
1.4017824112373
 20
-0.17372511564113
 10
1.4031242954008
 20
-0.17433102432787
 10
1.4037990697842
 20
-0.17462217240488
 10
1.4044763429728
 20
-0.17490540957116
 10
1.4058382148105
 20
-0.17544803034973
 10
1.40720956435
 20
-0.17595864415616
 10
1.4085900375655
 20
-0.17643700734368
 10
1.4099792729921
 20
-0.17688287546849
 10
1.4113769018122
 20
-0.17729600362044
 10
1.4120787465147
 20
-0.17749021362188
 10
1.4127825480067
 20
-0.17767614673479
 10
1.4141958285691
 20
-0.17802305987745
 10
1.4156163537802
 20
-0.17833649849582
 10
1.41704372754
 20
-0.17861621862784
 10
1.4184775477523
 20
-0.1788619770616
 10
1.4199174067556
 20
-0.17907353143868
 10
1.4206394720032
 20
-0.17916640661368
 10
1.4213628917942
 20
-0.17925064029462
 10
1.4228135855206
 20
-0.17939306303094
 10
1.4242666351019
 20
-0.17950040972622
 10
1.4257191077797
 20
-0.17957252403303
 10
1.4271705795364
 20
-0.17960952598976
 10
1.4286206264868
 20
-0.17961153547491
 10
1.4293449833194
 20
-0.17959945553844
 10
1.4300688252538
 20
-0.17957867252499
 10
1.4315147535251
 20
-0.17951105758629
 10
1.4329579906244
 20
-0.17940881168518
 10
1.434398118087
 20
-0.17927205651716
 10
1.4358347202267
 20
-0.17910091445523
 10
1.4372673846873
 20
-0.17889550848002
 10
1.4379821124665
 20
-0.17877999508831
 10
1.4386957029654
 20
-0.1786559620348
 10
1.440119270898
 20
-0.17838239880992
 10
1.4415376891051
 20
-0.1780749424616
 10
1.4422448436603
 20
-0.17790854291674
 10
1.4429505633798
 20
-0.17773371627155
 10
1.4443575050204
 20
-0.17735884275381
 10
1.4457581310972
 20
-0.17695044321636
 10
1.4464559577622
 20
-0.17673370865273
 10
1.4471520646508
 20
-0.17650863728518
 10
1.4485389348178
 20
-0.17603354239864
 10
1.4499183768812
 20
-0.17552527328055
 10
1.4512898896881
 20
-0.17498399954453
 10
1.4526506978658
 20
-0.1744108930808
 10
1.4539996009514
 20
-0.1738066592551
 10
1.4546694887856
 20
-0.17349298532304
 10
1.4553362821657
 20
-0.17317166831105
 10
1.4566604325227
 20
-0.17250628943972
 10
1.457971750709
 20
-0.17181089072191
 10
1.459269942922
 20
-0.1710858390812
 10
1.4605547226684
 20
-0.17033150025193
 10
1.4618258105303
 20
-0.16954823876519
 10
1.4624561345572
 20
-0.1691458756133
 10
1.4630829339036
 20
-0.168736417955
 10
1.4643258267149
 20
-0.16789639998604
 10
1.4655542291221
 20
-0.16702854590339
 10
1.4661629168513
 20
-0.16658429285701
  0
LWPOLYLINE
  5
17E
330
132
100
AcDbEntity
  8
AM_4
100
AcDbPolyline
 90
      131
 70
     0
 43
0.0
 10
1.4661629167807
 20
0.0087717929090329
 10
1.4655526655007
 20
0.0092171748554675
 10
1.4643206466346
 20
0.010087479650871
 10
1.4630734541432
 20
0.010930180685152
 10
1.4624445371654
 20
0.01134086341545
 10
1.4618124277718
 20
0.011744180372993
 10
1.4605387755958
 20
0.012528591469478
 10
1.459252788972
 20
0.013283161150481
 10
1.4579547653479
 20
0.014007633799451
 10
1.4566450086191
 20
0.014701751206975
 10
1.4553238294504
 20
0.01536525279656
 10
1.4546590554544
 20
0.015685440643174
 10
1.4539915455547
 20
0.015997875874073
 10
1.4526484819254
 20
0.016599355897532
 10
1.451294971019
 20
0.017169426763198
 10
1.4499313528827
 20
0.017707821103191
 10
1.4485579752235
 20
0.018214270589164
 10
1.4471751934184
 20
0.018688506235903
 10
1.4464803891018
 20
0.018913459705374
 10
1.4457833704608
 20
0.019130258698179
 10
1.4443828768452
 20
0.019539258553686
 10
1.4429740903882
 20
0.019915236564541
 10
1.4422667073563
 20
0.02009075834971
 10
1.4415573959888
 20
0.020257923909601
 10
1.4401331853298
 20
0.020567052379776
 10
1.4387018565236
 20
0.020842354528608
 10
1.4379836488853
 20
0.02096723738943
 10
1.4372638137092
 20
0.021083563770646
 10
1.4358194666051
 20
0.021290414420599
 10
1.434370952698
 20
0.021462458084273
 10
1.4329217396964
 20
0.021599305888702
 10
1.4314723062144
 20
0.021701038620344
 10
1.43002307375
 20
0.021767744071221
 10
1.4292986648364
 20
0.021787988929898
 10
1.4285744645494
 20
0.02179950980752
 10
1.4271269010772
 20
0.021796423505848
 10
1.425680805457
 20
0.021758573210215
 10
1.4242365988935
 20
0.0216860475075
 10
1.4227947010862
 20
0.021578935620465
 10
1.4213555296464
 20
0.02143732741857
 10
1.4206370961061
 20
0.021353615445007
 10
1.4199194995273
 20
0.021261313348097
 10
1.4184870224779
 20
0.021050984284243
 10
1.41705850653
 20
0.020806431308953
 10
1.4156343555272
 20
0.020527745419253
 10
1.4142149687048
 20
0.020215017171789
 10
1.4128007403272
 20
0.019868336270039
 10
1.4120956823287
 20
0.019682291259829
 10
1.4113920593896
 20
0.01948779110135
 10
1.40998930939
 20
0.019073468231523
 10
1.4085928681749
 20
0.018625451865006
 10
1.407203180852
 20
0.018143849520471
 10
1.4058230606705
 20
0.017629688377706
 10
1.404454049588
 20
0.017083728860533
 10
1.4037738155025
 20
0.016798937387285
 10
1.4030964843551
 20
0.016506331468054
 10
1.4017506938081
 20
0.01589785616388
 10
1.400416998886
 20
0.015258662277479
 10
1.3990957126987
 20
0.014589108406507
 10
1.3977871406443
 20
0.013889552325865
 10
1.3964915805704
 20
0.013160350908338
 10
1.3958487710874
 20
0.012784744458246
 10
1.3952093229741
 20
0.012401860060802
 10
1.3939406512367
 20
0.011614434679027
 10
1.3926858418857
 20
0.010798428623232
 10
1.3920637202157
 20
0.010379818139671
 10
1.3914451648801
 20
0.0099541947156233
 10
1.3902188839124
 20
0.0090820847603373
 10
1.3890072567219
 20
0.0081824495854001
 10
1.3884070172876
 20
0.0077224194224917
 10
1.3878105354147
 20
0.0072556391056291
 10
1.3866289667845
 20
0.0063020024047601
 10
1.3854627926304
 20
0.0053218878345528
 10
1.3843122500681
 20
0.0043156431281752
 10
1.3831775718302
 20
0.0032836155248157
 10
1.3820589865526
 20
0.0022261519022053
 10
1.3815057991695
 20
0.0016879899178026
 10
1.3809567190457
 20
0.0011435989135562
 10
1.3798715377387
 20
0.0000368717260639
 10
1.3788041755347
 20
-0.0010930630644479
 10
1.3777547527532
 20
-0.0022458334811105
 10
1.3767233894328
 20
-0.0034210719545192
 10
1.3757102057646
 20
-0.004618414651646
 10
1.3752104689682
 20
-0.0052252622749136
 10
1.3747153223593
 20
-0.005837500937066
 10
1.3737388604667
 20
-0.0070779728567793
 10
1.3727809421492
 20
-0.0083394746485401
 10
1.3718416904128
 20
-0.0096216522820943
 10
1.3709212293006
 20
-0.010924153032222
 10
1.3700196839503
 20
-0.012246625086996
 10
1.369576044098
 20
-0.012915240574077
 10
1.3691371806214
 20
-0.013588717193194
 10
1.3682738466949
 20
-0.01495007834034
 10
1.3674298106497
 20
-0.016330357484424
 10
1.3666052020198
 20
-0.017729203311935
 10
1.3658001513352
 20
-0.019146264044444
 10
1.3650147900512
 20
-0.020581187283608
 10
1.3646295342478
 20
-0.02130523702008
 10
1.3642492504691
 20
-0.022033619896136
 10
1.3635036656524
 20
-0.02350320793789
 10
1.3627781693413
 20
-0.024989596616037
 10
1.3620728958685
 20
-0.026492430287834
 10
1.3613879800806
 20
-0.028011352494395
 10
1.3607235572673
 20
-0.029546006027502
 10
1.3603991827537
 20
-0.03031885625029
 10
1.3600801929991
 20
-0.031094975936366
 10
1.3594583839664
 20
-0.032656839153316
 10
1.3588581646413
 20
-0.034231227046117
 10
1.3585661627696
 20
-0.035023002708329
 10
1.3582795726891
 20
-0.03581777154509
 10
1.3577226487934
 20
-0.037416104928614
 10
1.357187436485
 20
-0.039025859644716
 10
1.3569279865169
 20
-0.039834905152639
 10
1.3566739819755
 20
-0.040646668166474
 10
1.3561823339981
 20
-0.042278162878913
 10
1.3557125436581
 20
-0.043919975994968
 10
1.355264664294
 20
-0.045571739498127
 10
1.3548387513519
 20
-0.047233085109235
 10
1.3544348622732
 20
-0.048903644274984
 10
1.3542411951547
 20
-0.049742263694504
 10
1.3540530563984
 20
-0.05058304817555
 10
1.3536933948865
 20
-0.052270927748822
 10
1.3533559406526
 20
-0.053966913728659
 10
1.3530407583235
 20
-0.055670636694595
 10
1.3527479142115
 20
-0.0573817271304
 10
1.3524774763091
 20
-0.059099815488889
 10
1.3523506813964
 20
-0.059961368414
 10
1.3522295143022
 20
-0.060824532260398
 10
1.3520040996047
 20
-0.062555508042284
 10
1.3518013054126
 20
-0.064292373606885
 10
1.3517084143853
 20
-0.06516289973773
  0
LINE
  5
17F
330
132
100
AcDbEntity
  8
AM_4
100
AcDbLine
 10
1.3404830356897
 20
-0.18914225000003
 30
0.0
 11
1.3539674515215
 21
-0.18914225000003
 31
0.0
  0
LINE
  5
180
330
132
100
AcDbEntity
  8
AM_4
100
AcDbLine
 10
1.3539674515215
 20
0.031329750000028
 30
0.0
 11
1.3409180168456
 21
0.031329750000028
 31
0.0
  0
LINE
  5
181
330
132
100
AcDbEntity
  8
AM_4
100
AcDbLine
 10
-2.1875
 20
-0.7890625
 30
0.0
 11
-2.1875
 21
0.7890625
 31
0.0
  0
LINE
  5
182
330
132
100
AcDbEntity
  8
AM_4
100
AcDbLine
 10
-1.7743531546602
 20
-0.45976517825479
 30
0.0
 11
-1.7743531546602
 21
0.45976517825479
 31
0.0
  0
LINE
  5
183
330
132
100
AcDbEntity
  8
AM_4
100
AcDbLine
 10
-1.7229488393002
 20
-0.44617804784518
 30
0.0
 11
-1.7229488393002
 21
0.44617804784518
 31
0.0
  0
LINE
  5
184
330
132
100
AcDbEntity
  8
AM_4
100
AcDbLine
 10
-0.80595859390228
 20
-0.3217253178904
 30
0.0
 11
-0.80595859390228
 21
0.3217253178904
 31
0.0
  0
LINE
  5
185
330
132
100
AcDbEntity
  8
AM_4
100
AcDbLine
 10
2.1875
 20
-0.7890625
 30
0.0
 11
2.1875
 21
0.7890625
 31
0.0
  0
LINE
  5
186
330
132
100
AcDbEntity
  8
AM_4
100
AcDbLine
 10
1.7743531546602
 20
-0.45976517825479
 30
0.0
 11
1.7743531546602
 21
0.45976517825479
 31
0.0
  0
LINE
  5
187
330
132
100
AcDbEntity
  8
AM_4
100
AcDbLine
 10
0.80595859390228
 20
-0.3217253178904
 30
0.0
 11
0.80595859390228
 21
0.3217253178904
 31
0.0
  0
LINE
  5
188
330
132
100
AcDbEntity
  8
AM_4
100
AcDbLine
 10
1.7229488393002
 20
-0.44617804784518
 30
0.0
 11
1.7229488393002
 21
0.44617804784518
 31
0.0
  0
LINE
  5
189
330
132
100
AcDbEntity
  8
AM_4
100
AcDbLine
 10
-0.68288944369991
 20
-0.31473718287943
 30
0.0
 11
-0.68288944369991
 21
0.31473718287943
 31
0.0
  0
LINE
  5
18A
330
132
100
AcDbEntity
  8
AM_4
100
AcDbLine
 10
0.68288944369991
 20
-0.31473718287943
 30
0.0
 11
0.68288944369991
 21
0.31473718287943
 31
0.0
  0
LINE
  5
18B
330
132
100
AcDbEntity
  8
AM_4
100
AcDbLine
 10
-0.68288944369979
 20
-0.31473718287943
 30
0.0
 11
0.68288944369979
 21
-0.31473718287943
 31
0.0
  0
LWPOLYLINE
  5
18C
330
132
100
AcDbEntity
  8
AM_4
100
AcDbPolyline
 90
       23
 70
     0
 43
0.0
 10
0.68288944369979
 20
-0.31473718287943
 10
0.68666840578026
 20
-0.3147428477381
 10
0.69421945258155
 20
-0.31478815114261
 10
0.70174987982004
 20
-0.31487867550363
 10
0.70550307624303
 20
-0.31494084726733
 10
0.70924598281827
 20
-0.31501425607526
 10
0.7166941193657
 20
-0.31519464611346
 10
0.72408073454628
 20
-0.31541951732512
 10
0.73139238540712
 20
-0.31568846046555
 10
0.73861576542343
 20
-0.31600098608323
 10
0.74573772871515
 20
-0.31635652541061
 10
0.74925662082237
 20
-0.31655022603938
 10
0.75274531397122
 20
-0.31675443139915
 10
0.75962576803798
 20
-0.31719397989695
 10
0.7663665691287
 20
-0.31767437096662
 10
0.77295544961212
 20
-0.31819473034106
 10
0.77938041833831
 20
-0.31875411101459
 10
0.78562978246155
 20
-0.31935149496641
 10
0.78868504559891
 20
-0.3196641010753
 10
0.79169216872013
 20
-0.31998579501324
 10
0.79755654413469
 20
-0.32065585678798
 10
0.80321223608719
 20
-0.3213604608405
 10
0.80595859390228
 20
-0.3217253178904
  0
LINE
  5
18D
330
132
100
AcDbEntity
  8
AM_4
100
AcDbLine
 10
0.80595859390228
 20
-0.3217253178904
 30
0.0
 11
1.7229488393002
 21
-0.44617804784518
 31
0.0
  0
LWPOLYLINE
  5
18E
330
132
100
AcDbEntity
  8
AM_4
100
AcDbPolyline
 90
       23
 70
     0
 43
0.0
 10
1.7229488393002
 20
-0.44617804784518
 10
1.7251542619867
 20
-0.44648263677347
 10
1.7294499676452
 20
-0.44710780926654
 10
1.733587811878
 20
-0.44775367051742
 10
1.735595952863
 20
-0.44808411448487
 10
1.7375627533593
 20
-0.44841943364366
 10
1.7413699492353
 20
-0.44910428751545
 10
1.7450047610242
 20
-0.44980739774385
 10
1.7484627602678
 20
-0.45052790769733
 10
1.7517397339267
 20
-0.45126493954551
 10
1.7548316895131
 20
-0.45201759532862
 10
1.7563070993866
 20
-0.45239949634796
 10
1.7577348599556
 20
-0.45278495805152
 10
1.7604457081881
 20
-0.45356609280093
 10
1.7629609314597
 20
-0.45436004788449
 10
1.7652774653581
 20
-0.45516585599022
 10
1.7673924875438
 20
-0.45598253536509
 10
1.769303421188
 20
-0.45680909101106
 10
1.7701816174587
 20
-0.45722575817517
 10
1.7710079381123
 20
-0.4576445158974
 10
1.7725039616255
 20
-0.45848779218758
 10
1.7737896690533
 20
-0.45933789247933
 10
1.7743531546602
 20
-0.45976517825479
  0
LINE
  5
18F
330
132
100
AcDbEntity
  8
AM_4
100
AcDbLine
 10
1.7743531546602
 20
-0.45976517825479
 30
0.0
 11
2.1875
 21
-0.7890625
 31
0.0
  0
LINE
  5
190
330
132
100
AcDbEntity
  8
AM_4
100
AcDbLine
 10
-2.1875
 20
-0.7890625
 30
0.0
 11
-1.0
 21
-0.7890625
 31
0.0
  0
LINE
  5
191
330
132
100
AcDbEntity
  8
AM_4
100
AcDbLine
 10
0.99547727246784
 20
-0.7890625
 30
0.0
 11
2.1875
 21
-0.7890625
 31
0.0
  0
LINE
  5
192
330
132
100
AcDbEntity
  8
AM_4
100
AcDbLine
 10
-2.1875
 20
-0.7890625
 30
0.0
 11
-1.7743531546602
 21
-0.45976517825479
 31
0.0
  0
LWPOLYLINE
  5
193
330
132
100
AcDbEntity
  8
AM_4
100
AcDbPolyline
 90
       23
 70
     0
 43
0.0
 10
-1.7743531546602
 20
-0.45976517825479
 10
-1.7737896690533
 20
-0.45933789247933
 10
-1.7725039616255
 20
-0.45848779218758
 10
-1.7710079381123
 20
-0.4576445158974
 10
-1.7701816174587
 20
-0.45722575817517
 10
-1.769303421188
 20
-0.45680909101106
 10
-1.7673924875438
 20
-0.45598253536509
 10
-1.7652774653581
 20
-0.45516585599022
 10
-1.7629609314597
 20
-0.45436004788449
 10
-1.7604457081881
 20
-0.45356609280093
 10
-1.7577348599556
 20
-0.45278495805152
 10
-1.7563070993866
 20
-0.45239949634796
 10
-1.7548316895131
 20
-0.45201759532862
 10
-1.7517397339267
 20
-0.45126493954551
 10
-1.7484627602678
 20
-0.45052790769733
 10
-1.7450047610242
 20
-0.44980739774385
 10
-1.7413699492353
 20
-0.44910428751545
 10
-1.7375627533593
 20
-0.44841943364366
 10
-1.735595952863
 20
-0.44808411448487
 10
-1.733587811878
 20
-0.44775367051742
 10
-1.7294499676452
 20
-0.44710780926654
 10
-1.7251542619867
 20
-0.44648263677347
 10
-1.7229488393002
 20
-0.44617804784518
  0
LINE
  5
194
330
132
100
AcDbEntity
  8
AM_4
100
AcDbLine
 10
-1.7229488393002
 20
-0.44617804784518
 30
0.0
 11
-0.80595859390228
 21
-0.3217253178904
 31
0.0
  0
LWPOLYLINE
  5
195
330
132
100
AcDbEntity
  8
AM_4
100
AcDbPolyline
 90
       23
 70
     0
 43
0.0
 10
-0.80595859390228
 20
-0.3217253178904
 10
-0.80321223608719
 20
-0.3213604608405
 10
-0.79755654413469
 20
-0.32065585678798
 10
-0.79169216872013
 20
-0.31998579501324
 10
-0.78868504559891
 20
-0.3196641010753
 10
-0.78562978246155
 20
-0.31935149496641
 10
-0.77938041833831
 20
-0.31875411101459
 10
-0.77295544961212
 20
-0.31819473034106
 10
-0.7663665691287
 20
-0.31767437096662
 10
-0.75962576803798
 20
-0.31719397989695
 10
-0.75274531397122
 20
-0.31675443139915
 10
-0.74925662082237
 20
-0.31655022603938
 10
-0.74573772871515
 20
-0.31635652541061
 10
-0.73861576542344
 20
-0.31600098608323
 10
-0.73139238540712
 20
-0.31568846046555
 10
-0.72408073454628
 20
-0.31541951732512
 10
-0.7166941193657
 20
-0.31519464611346
 10
-0.70924598281827
 20
-0.31501425607526
 10
-0.70550307624303
 20
-0.31494084726733
 10
-0.70174987982004
 20
-0.31487867550363
 10
-0.69421945258155
 20
-0.31478815114261
 10
-0.68666840578026
 20
-0.3147428477381
 10
-0.68288944369979
 20
-0.31473718287943
  0
LWPOLYLINE
  5
196
330
132
100
AcDbEntity
  8
AM_4
100
AcDbPolyline
 90
      131
 70
     0
 43
0.0
 10
0.0
 20
-0.38037677972718
 10
-0.008875284627978
 20
-0.38038131520307
 10
-0.02662397644043
 20
-0.38041759757104
 10
-0.044367036319521
 20
-0.38049015463195
 10
-0.053235281310024
 20
-0.38054003167553
 10
-0.062100710966749
 20
-0.38059897103736
 10
-0.079821249068928
 20
-0.38074402376866
 10
-0.097524902091728
 20
-0.38092528214196
 10
-0.11520792507262
 20
-0.38114270781456
 10
-0.13286657741308
 20
-0.38139625479307
 10
-0.15049712366985
 20
-0.38168586944315
 10
-0.15930069129496
 20
-0.38184418329772
 10
-0.16809583434513
 20
-0.38201149050082
 10
-0.18565898667548
 20
-0.38237304908546
 10
-0.20318286541937
 20
-0.38277046871436
 10
-0.22066376364301
 20
-0.38320366531891
 10
-0.23809798350458
 20
-0.38367254726237
 10
-0.2554818370364
 20
-0.38417701535925
 10
-0.26415372683076
 20
-0.38444256116078
 10
-0.2728116469251
 20
-0.38471696289632
 10
-0.29008374728948
 20
-0.38529227565516
 10
-0.307294484456
 20
-0.38590283193632
 10
-0.31587570359537
 20
-0.38622128632741
 10
-0.32444021773166
 20
-0.38654850258508
 10
-0.34151732017412
 20
-0.38722915101877
 10
-0.35852217935896
 20
-0.38794463325563
 10
-0.36699639300499
 20
-0.38831539004024
 10
-0.37545119814379
 20
-0.38869479794531
 10
-0.39230079542924
 20
-0.38947948640087
 10
-0.40906740691644
 20
-0.39029853263233
 10
-0.42574748586101
 20
-0.3911517633818
 10
-0.44233750382334
 20
-0.39203899816015
 10
-0.45883395141498
 20
-0.39296004928516
 10
-0.46704599502997
 20
-0.39343319536984
 10
-0.47523333904098
 20
-0.3939147219212
 10
-0.49153219763809
 20
-0.39490281412052
 10
-0.50772707940859
 20
-0.3959241168659
 10
-0.5238145585496
 20
-0.39697841411489
 10
-0.53979123197778
 20
-0.39806548284551
 10
-0.55565372004922
 20
-0.39918509310345
 10
-0.5635410950227
 20
-0.3997570275608
 10
-0.57139866727434
 20
-0.40033700805065
 10
-0.58702274302767
 20
-0.40152098401547
 10
-0.60252264225245
 20
-0.40273677054419
 10
-0.61789508615974
 20
-0.40398411045403
 10
-0.63313682292201
 20
-0.4052627398875
 10
-0.648244628361
 20
-0.40657238836826
 10
-0.65574730700688
 20
-0.40723875843173
 10
-0.66321530662978
 20
-0.40791277885833
 10
-0.67804569088877
 20
-0.40928362781665
 10
-0.69273264397565
 20
-0.41068464525913
 10
-0.70727305906896
 20
-0.41211553481993
 10
-0.72166386034533
 20
-0.4135759938142
 10
-0.73590200363014
 20
-0.41506571330207
 10
-0.74296288603369
 20
-0.4158214474931
 10
-0.74998447704142
 20
-0.41658437815401
 10
-0.76390830162703
 20
-0.41813166711753
 10
-0.77767053199479
 20
-0.41970725288507
 10
-0.79126825693551
 20
-0.42131080216329
 10
-0.80469860003888
 20
-0.42294197574356
 10
-0.81795872030188
 20
-0.42460042857371
 10
-0.82452406888453
 20
-0.42543977529878
 10
-0.83104581272977
 20
-0.42628580983102
 10
-0.84395710892947
 20
-0.42799776299643
 10
-0.85668987769514
 20
-0.42973592592997
 10
-0.86298847109912
 20
-0.4306147213729
 10
-0.86924142558595
 20
-0.43149993094735
 10
-0.88160909749583
 20
-0.43328940489775
 10
-0.89379027721514
 20
-0.43510396924275
 10
-0.89981012570992
 20
-0.43602054056647
 10
-0.90578238798407
 20
-0.43694324013639
 10
-0.91758289303772
 20
-0.43880682850641
 10
-0.92918929614274
 20
-0.44069434013649
 10
-0.94059914212535
 20
-0.44260537574972
 10
-0.95181001739071
 20
-0.44453953109297
 10
-0.96281955043347
 20
-0.44649639702248
 10
-0.96824808415844
 20
-0.44748321728364
 10
-0.97362541233944
 20
-0.44847555959037
 10
-0.98422531727825
 20
-0.45047660013223
 10
-0.99461702298686
 20
-0.45249909535565
 10
-1.0047983312439
 20
-0.45454261742978
 10
-1.0147670883346
 20
-0.45660673407585
 10
-1.0245211855067
 20
-0.45869100865856
 10
-1.0293170900423
 20
-0.45974056755912
 10
-1.0340585594158
 20
-0.46079500027852
 10
-1.0433771925628
 20
-0.46291826386544
 10
-1.0524751137199
 20
-0.46506035027232
 10
-1.0613503983478
 20
-0.46722080637047
 10
-1.0700011690032
 20
-0.46939917514532
 10
-1.0784255957353
 20
-0.47159499579315
 10
-1.0825523713524
 20
-0.47269930555613
 10
-1.0866218964734
 20
-0.47380780381851
 10
-1.0945883374036
 20
-0.47603713113253
 10
-1.1023232333356
 20
-0.47828250615189
 10
-1.1098249480595
 20
-0.48054345389862
 10
-1.1170918946913
 20
-0.48281949610056
 10
-1.1241225360093
 20
-0.48511015129249
 10
-1.1275487754534
 20
-0.48626080745379
 10
-1.1309153847786
 20
-0.48741493491806
 10
-1.1374690040662
 20
-0.48973335943221
 10
-1.1437820075447
 20
-0.49206493440436
 10
-1.1498530597858
 20
-0.49440916662214
 10
-1.1556808765423
 20
-0.49676556019568
 10
-1.1612642250205
 20
-0.49913361666257
 10
-1.1639638525407
 20
-0.50032186203403
 10
-1.1666019241402
 20
-0.50151283509329
 10
-1.1716928447853
 20
-0.50390271219712
 10
-1.1765359100419
 20
-0.50630274242868
 10
-1.1788641746945
 20
-0.50750640639422
 10
-1.1811300954268
 20
-0.50871241809483
 10
-1.1854744291036
 20
-0.51113122946205
 10
-1.1895679920887
 20
-0.51355866486433
 10
-1.1915204618895
 20
-0.51477545618117
 10
-1.1934099184457
 20
-0.51599421081132
 10
-1.1969993954681
 20
-0.51843735209702
 10
-1.2003356638519
 20
-0.52088757190875
 10
-1.2034180178558
 20
-0.52334435193645
 10
-1.2062458054504
 20
-0.52580717248234
 10
-1.2088184284564
 20
-0.52827551257086
 10
-1.2100088810637
 20
-0.52951158931645
 10
-1.2111353426711
 20
-0.53074885005885
 10
-1.2131960579834
 20
-0.53322666174603
 10
-1.2150001384775
 20
-0.53570842348568
 10
-1.2165472025252
 20
-0.53819361029547
 10
-1.2178369228666
 20
-0.54068169646858
 10
-1.218869026679
 20
-0.54317215568484
 10
-1.2192884020296
 20
-0.54441811056879
 10
-1.2196432956353
 20
-0.5456644611221
 10
-1.2201595659497
 20
-0.54815808556768
 10
-1.2204177284122
 20
-0.55065250152988
 10
-1.22045
 20
-0.55189984143971
  0
LWPOLYLINE
  5
197
330
132
100
AcDbEntity
  8
AM_4
100
AcDbPolyline
 90
       23
 70
     0
 43
0.0
 10
-1.22045
 20
-0.55189984143971
 10
-1.2202745219479
 20
-0.55480836987006
 10
-1.2188710002822
 20
-0.56062208143213
 10
-1.2160655712376
 20
-0.56642576094602
 10
-1.2141380869005
 20
-0.56932175202066
 10
-1.211861461531
 20
-0.5722127332007
 10
-1.2062635065982
 20
-0.57797634220132
 10
-1.1992781450322
 20
-0.58370995882471
 10
-1.1909134111779
 20
-0.589406988444
 10
-1.181178925891
 20
-0.59506087851354
 10
-1.1700858854726
 20
-0.60066512610547
 10
-1.1640338335869
 20
-0.60344661721668
 10
-1.1576470487916
 20
-0.60621328538913
 10
-1.1438767226097
 20
-0.61169897504488
 10
-1.1287907451263
 20
-0.61711588560372
 10
-1.1124064677616
 20
-0.62245778670421
 10
-1.0947427352002
 20
-0.62771853425844
 10
-1.0758198637159
 20
-0.63289207751878
 10
-1.0658929963848
 20
-0.63544428391783
 10
-1.0556596178048
 20
-0.63797246603725
 10
-1.0342851851525
 20
-0.64295385650958
 10
-1.0117211499642
 20
-0.64783051949591
 10
-1.000001088918
 20
-0.65022782049122
  0
LWPOLYLINE
  5
198
330
132
100
AcDbEntity
  8
AM_4
100
AcDbPolyline
 90
       23
 70
     0
 43
0.0
 10
0.99547798932395
 20
-0.65113020785694
 10
1.0074307423326
 20
-0.64871824823366
 10
1.030445307047
 20
-0.64380975133092
 10
1.0522495694883
 20
-0.63879330229128
 10
1.0626897778547
 20
-0.63624643221635
 10
1.0728179196137
 20
-0.63367479314959
 10
1.0921261990126
 20
-0.62846023581471
 10
1.1101517292815
 20
-0.62315575500819
 10
1.1268733386608
 20
-0.61776758107058
 10
1.1422713869021
 20
-0.6123020426436
 10
1.1563277883364
 20
-0.6067655592369
 10
1.1628476500751
 20
-0.60397274225612
 10
1.1690260331164
 20
-0.60116463368805
 10
1.1803512066082
 20
-0.59550584452466
 10
1.1902900069091
 20
-0.58979583823767
 10
1.1988307604712
 20
-0.58404132147473
 10
1.2059634358127
 20
-0.57824905316293
 10
1.2116796552999
 20
-0.57242583657021
 10
1.2140044307735
 20
-0.56950475884862
 10
1.2159727049877
 20
-0.56657851131457
 10
1.2188375425046
 20
-0.56071394533068
 10
1.2202708029761
 20
-0.55483902680319
 10
1.22045
 20
-0.55189984143971
  0
LWPOLYLINE
  5
199
330
132
100
AcDbEntity
  8
AM_4
100
AcDbPolyline
 90
      131
 70
     0
 43
0.0
 10
1.22045
 20
-0.55189984143971
 10
1.2204177284122
 20
-0.55065250152988
 10
1.2201595659497
 20
-0.54815808556768
 10
1.2196432956353
 20
-0.5456644611221
 10
1.2192884020296
 20
-0.54441811056879
 10
1.218869026679
 20
-0.54317215568484
 10
1.2178369228666
 20
-0.54068169646858
 10
1.2165472025252
 20
-0.53819361029547
 10
1.2150001384775
 20
-0.53570842348568
 10
1.2131960579834
 20
-0.53322666174603
 10
1.2111353426711
 20
-0.53074885005885
 10
1.2100088810637
 20
-0.52951158931645
 10
1.2088184284564
 20
-0.52827551257086
 10
1.2062458054504
 20
-0.52580717248234
 10
1.2034180178558
 20
-0.52334435193645
 10
1.2003356638519
 20
-0.52088757190875
 10
1.1969993954681
 20
-0.51843735209702
 10
1.1934099184457
 20
-0.51599421081132
 10
1.1915204618895
 20
-0.51477545618117
 10
1.1895679920887
 20
-0.51355866486433
 10
1.1854744291036
 20
-0.51113122946205
 10
1.1811300954268
 20
-0.50871241809483
 10
1.1788641746945
 20
-0.50750640639422
 10
1.1765359100419
 20
-0.50630274242868
 10
1.1716928447853
 20
-0.50390271219712
 10
1.1666019241402
 20
-0.50151283509329
 10
1.1639638525407
 20
-0.50032186203403
 10
1.1612642250205
 20
-0.49913361666257
 10
1.1556808765423
 20
-0.49676556019568
 10
1.1498530597858
 20
-0.49440916662214
 10
1.1437820075447
 20
-0.49206493440436
 10
1.1374690040662
 20
-0.48973335943221
 10
1.1309153847786
 20
-0.48741493491806
 10
1.1275487754534
 20
-0.48626080745379
 10
1.1241225360093
 20
-0.48511015129249
 10
1.1170918946913
 20
-0.48281949610056
 10
1.1098249480595
 20
-0.48054345389862
 10
1.1023232333356
 20
-0.47828250615189
 10
1.0945883374036
 20
-0.47603713113253
 10
1.0866218964734
 20
-0.47380780381851
 10
1.0825523713524
 20
-0.47269930555613
 10
1.0784255957353
 20
-0.47159499579315
 10
1.0700011690032
 20
-0.46939917514532
 10
1.0613503983478
 20
-0.46722080637047
 10
1.0524751137199
 20
-0.46506035027232
 10
1.0433771925628
 20
-0.46291826386544
 10
1.0340585594158
 20
-0.46079500027852
 10
1.0293170900423
 20
-0.45974056755912
 10
1.0245211855067
 20
-0.45869100865856
 10
1.0147670883346
 20
-0.45660673407585
 10
1.0047983312439
 20
-0.45454261742978
 10
0.99461702298686
 20
-0.45249909535565
 10
0.98422531727825
 20
-0.45047660013223
 10
0.97362541233944
 20
-0.44847555959037
 10
0.96824808415844
 20
-0.44748321728364
 10
0.96281955043347
 20
-0.44649639702248
 10
0.95181001739071
 20
-0.44453953109297
 10
0.94059914212535
 20
-0.44260537574972
 10
0.92918929614274
 20
-0.44069434013649
 10
0.91758289303772
 20
-0.43880682850641
 10
0.90578238798407
 20
-0.43694324013639
 10
0.89981012570992
 20
-0.43602054056647
 10
0.89379027721514
 20
-0.43510396924275
 10
0.88160909749583
 20
-0.43328940489775
 10
0.86924142558595
 20
-0.43149993094735
 10
0.86298847109912
 20
-0.4306147213729
 10
0.85668987769514
 20
-0.42973592592997
 10
0.84395710892947
 20
-0.42799776299643
 10
0.83104581272977
 20
-0.42628580983102
 10
0.82452406888453
 20
-0.42543977529878
 10
0.81795872030188
 20
-0.42460042857371
 10
0.80469860003888
 20
-0.42294197574356
 10
0.79126825693551
 20
-0.42131080216329
 10
0.77767053199479
 20
-0.41970725288507
 10
0.76390830162704
 20
-0.41813166711753
 10
0.74998447704142
 20
-0.41658437815401
 10
0.74296288603369
 20
-0.4158214474931
 10
0.73590200363014
 20
-0.41506571330207
 10
0.72166386034533
 20
-0.4135759938142
 10
0.70727305906896
 20
-0.41211553481993
 10
0.69273264397565
 20
-0.41068464525913
 10
0.67804569088877
 20
-0.40928362781665
 10
0.66321530662978
 20
-0.40791277885833
 10
0.65574730700688
 20
-0.40723875843173
 10
0.648244628361
 20
-0.40657238836826
 10
0.63313682292201
 20
-0.4052627398875
 10
0.61789508615974
 20
-0.40398411045403
 10
0.60252264225245
 20
-0.40273677054419
 10
0.58702274302767
 20
-0.40152098401547
 10
0.57139866727434
 20
-0.40033700805065
 10
0.5635410950227
 20
-0.3997570275608
 10
0.55565372004922
 20
-0.39918509310345
 10
0.53979123197778
 20
-0.39806548284551
 10
0.5238145585496
 20
-0.39697841411489
 10
0.50772707940859
 20
-0.3959241168659
 10
0.4915321976381
 20
-0.39490281412052
 10
0.47523333904098
 20
-0.3939147219212
 10
0.46704599502997
 20
-0.39343319536984
 10
0.45883395141498
 20
-0.39296004928516
 10
0.44233750382334
 20
-0.39203899816015
 10
0.42574748586101
 20
-0.3911517633818
 10
0.40906740691644
 20
-0.39029853263233
 10
0.39230079542924
 20
-0.38947948640087
 10
0.3754511981438
 20
-0.38869479794531
 10
0.36699639300499
 20
-0.38831539004024
 10
0.35852217935896
 20
-0.38794463325563
 10
0.34151732017413
 20
-0.38722915101877
 10
0.32444021773166
 20
-0.38654850258508
 10
0.31587570359537
 20
-0.38622128632741
 10
0.307294484456
 20
-0.38590283193632
 10
0.29008374728948
 20
-0.38529227565516
 10
0.2728116469251
 20
-0.38471696289632
 10
0.26415372683076
 20
-0.38444256116078
 10
0.2554818370364
 20
-0.38417701535925
 10
0.23809798350459
 20
-0.38367254726237
 10
0.22066376364302
 20
-0.38320366531891
 10
0.20318286541937
 20
-0.38277046871436
 10
0.18565898667549
 20
-0.38237304908546
 10
0.16809583434513
 20
-0.38201149050082
 10
0.15930069129496
 20
-0.38184418329772
 10
0.15049712366985
 20
-0.38168586944315
 10
0.13286657741308
 20
-0.38139625479307
 10
0.11520792507262
 20
-0.38114270781456
 10
0.097524902091729
 20
-0.38092528214196
 10
0.079821249068929
 20
-0.38074402376866
 10
0.062100710966749
 20
-0.38059897103736
 10
0.053235281310025
 20
-0.38054003167553
 10
0.044367036319522
 20
-0.38049015463195
 10
0.026623976440431
 20
-0.38041759757104
 10
0.008875284627978
 20
-0.38038131520307
 10
0.0
 20
-0.38037677972718
  0
LWPOLYLINE
  5
19A
330
132
100
AcDbEntity
  8
AM_4
100
AcDbPolyline
 90
      131
 70
     0
 43
0.0
 10
0.0
 20
0.38037677972718
 10
0.008875284627978
 20
0.38038131520307
 10
0.02662397644043
 20
0.38041759757104
 10
0.044367036319521
 20
0.38049015463195
 10
0.053235281310024
 20
0.38054003167553
 10
0.062100710966749
 20
0.38059897103736
 10
0.079821249068928
 20
0.38074402376866
 10
0.097524902091728
 20
0.38092528214196
 10
0.11520792507262
 20
0.38114270781456
 10
0.13286657741308
 20
0.38139625479307
 10
0.15049712366985
 20
0.38168586944315
 10
0.15930069129496
 20
0.38184418329772
 10
0.16809583434513
 20
0.38201149050082
 10
0.18565898667548
 20
0.38237304908546
 10
0.20318286541937
 20
0.38277046871436
 10
0.22066376364301
 20
0.38320366531891
 10
0.23809798350458
 20
0.38367254726237
 10
0.2554818370364
 20
0.38417701535925
 10
0.26415372683076
 20
0.38444256116078
 10
0.2728116469251
 20
0.38471696289632
 10
0.29008374728948
 20
0.38529227565516
 10
0.307294484456
 20
0.38590283193632
 10
0.31587570359537
 20
0.38622128632741
 10
0.32444021773166
 20
0.38654850258508
 10
0.34151732017412
 20
0.38722915101877
 10
0.35852217935896
 20
0.38794463325563
 10
0.36699639300499
 20
0.38831539004024
 10
0.37545119814379
 20
0.38869479794531
 10
0.39230079542924
 20
0.38947948640087
 10
0.40906740691644
 20
0.39029853263233
 10
0.42574748586101
 20
0.3911517633818
 10
0.44233750382334
 20
0.39203899816015
 10
0.45883395141498
 20
0.39296004928516
 10
0.46704599502997
 20
0.39343319536984
 10
0.47523333904098
 20
0.3939147219212
 10
0.49153219763809
 20
0.39490281412052
 10
0.50772707940859
 20
0.3959241168659
 10
0.5238145585496
 20
0.39697841411489
 10
0.53979123197778
 20
0.39806548284551
 10
0.55565372004922
 20
0.39918509310345
 10
0.5635410950227
 20
0.3997570275608
 10
0.57139866727434
 20
0.40033700805065
 10
0.58702274302767
 20
0.40152098401547
 10
0.60252264225245
 20
0.40273677054419
 10
0.61789508615974
 20
0.40398411045403
 10
0.63313682292201
 20
0.4052627398875
 10
0.648244628361
 20
0.40657238836826
 10
0.65574730700688
 20
0.40723875843173
 10
0.66321530662978
 20
0.40791277885833
 10
0.67804569088877
 20
0.40928362781665
 10
0.69273264397565
 20
0.41068464525913
 10
0.70727305906896
 20
0.41211553481993
 10
0.72166386034533
 20
0.4135759938142
 10
0.73590200363014
 20
0.41506571330207
 10
0.74296288603369
 20
0.4158214474931
 10
0.74998447704142
 20
0.41658437815401
 10
0.76390830162703
 20
0.41813166711753
 10
0.77767053199479
 20
0.41970725288507
 10
0.79126825693551
 20
0.42131080216329
 10
0.80469860003888
 20
0.42294197574356
 10
0.81795872030188
 20
0.42460042857371
 10
0.82452406888453
 20
0.42543977529878
 10
0.83104581272977
 20
0.42628580983102
 10
0.84395710892947
 20
0.42799776299643
 10
0.85668987769514
 20
0.42973592592997
 10
0.86298847109912
 20
0.4306147213729
 10
0.86924142558595
 20
0.43149993094735
 10
0.88160909749583
 20
0.43328940489775
 10
0.89379027721514
 20
0.43510396924275
 10
0.89981012570992
 20
0.43602054056647
 10
0.90578238798407
 20
0.43694324013639
 10
0.91758289303772
 20
0.43880682850641
 10
0.92918929614274
 20
0.44069434013649
 10
0.94059914212535
 20
0.44260537574972
 10
0.95181001739071
 20
0.44453953109297
 10
0.96281955043347
 20
0.44649639702248
 10
0.96824808415844
 20
0.44748321728364
 10
0.97362541233944
 20
0.44847555959037
 10
0.98422531727825
 20
0.45047660013223
 10
0.99461702298686
 20
0.45249909535565
 10
1.0047983312439
 20
0.45454261742978
 10
1.0147670883346
 20
0.45660673407585
 10
1.0245211855067
 20
0.45869100865856
 10
1.0293170900423
 20
0.45974056755912
 10
1.0340585594158
 20
0.46079500027852
 10
1.0433771925628
 20
0.46291826386544
 10
1.0524751137199
 20
0.46506035027232
 10
1.0613503983478
 20
0.46722080637047
 10
1.0700011690032
 20
0.46939917514532
 10
1.0784255957353
 20
0.47159499579315
 10
1.0825523713524
 20
0.47269930555613
 10
1.0866218964734
 20
0.47380780381851
 10
1.0945883374036
 20
0.47603713113253
 10
1.1023232333356
 20
0.47828250615189
 10
1.1098249480595
 20
0.48054345389862
 10
1.1170918946913
 20
0.48281949610056
 10
1.1241225360093
 20
0.48511015129249
 10
1.1275487754534
 20
0.48626080745379
 10
1.1309153847786
 20
0.48741493491806
 10
1.1374690040662
 20
0.48973335943221
 10
1.1437820075447
 20
0.49206493440436
 10
1.1498530597858
 20
0.49440916662214
 10
1.1556808765423
 20
0.49676556019568
 10
1.1612642250205
 20
0.49913361666257
 10
1.1639638525407
 20
0.50032186203403
 10
1.1666019241402
 20
0.50151283509329
 10
1.1716928447853
 20
0.50390271219712
 10
1.1765359100419
 20
0.50630274242868
 10
1.1788641746945
 20
0.50750640639422
 10
1.1811300954268
 20
0.50871241809483
 10
1.1854744291036
 20
0.51113122946205
 10
1.1895679920887
 20
0.51355866486433
 10
1.1915204618895
 20
0.51477545618117
 10
1.1934099184457
 20
0.51599421081132
 10
1.1969993954681
 20
0.51843735209702
 10
1.2003356638519
 20
0.52088757190875
 10
1.2034180178558
 20
0.52334435193645
 10
1.2062458054504
 20
0.52580717248234
 10
1.2088184284564
 20
0.52827551257086
 10
1.2100088810637
 20
0.52951158931645
 10
1.2111353426711
 20
0.53074885005885
 10
1.2131960579834
 20
0.53322666174603
 10
1.2150001384775
 20
0.53570842348568
 10
1.2165472025252
 20
0.53819361029547
 10
1.2178369228666
 20
0.54068169646858
 10
1.218869026679
 20
0.54317215568484
 10
1.2192884020296
 20
0.54441811056879
 10
1.2196432956353
 20
0.5456644611221
 10
1.2201595659497
 20
0.54815808556768
 10
1.2204177284122
 20
0.55065250152988
 10
1.22045
 20
0.55189984143971
  0
LWPOLYLINE
  5
19B
330
132
100
AcDbEntity
  8
AM_4
100
AcDbPolyline
 90
      131
 70
     0
 43
0.0
 10
1.22045
 20
0.55189984143971
 10
1.2203209153554
 20
0.55439445529415
 10
1.2192884020296
 20
0.55938157231064
 10
1.2172242489872
 20
0.56436235903588
 10
1.2158058192861
 20
0.56684906128162
 10
1.2141302027079
 20
0.56933260122702
 10
1.2100088810637
 20
0.57428809356298
 10
1.2048637711041
 20
0.57922464320249
 10
1.1986992261059
 20
0.58413807333173
 10
1.1915204618895
 20
0.58902422669826
 10
1.1833335524062
 20
0.59387896912852
 10
1.1788641746945
 20
0.59629327648521
 10
1.1741454245988
 20
0.59869819302576
 10
1.1639638525407
 20
0.6034778208454
 10
1.1527974508582
 20
0.60821380854516
 10
1.1406556674422
 20
0.6129021490066
 10
1.1275487754534
 20
0.61753887542564
 10
1.1134878646311
 20
0.62212006466881
 10
1.1061033386889
 20
0.62438861962911
 10
1.0984848319096
 20
0.62664184059266
 10
1.0825523713524
 20
0.6311003773233
 10
1.0657039634117
 20
0.63549190249356
 10
1.0569407040487
 20
0.63766137229598
 10
1.0479538635229
 20
0.63981270043471
 10
1.0293170900423
 20
0.64405911532031
 10
1.0098094115412
 20
0.64822755425943
 10
0.9997341124525
 20
0.65028142792881
 10
0.98944733346289
 20
0.65231449033657
 10
0.96824808415844
 20
0.65631646559579
 10
0.94622960030916
 20
0.66023009396647
 10
0.92341051175063
 20
0.66405206412831
 10
0.89981012570992
 20
0.66777914231296
 10
0.87544841046977
 20
0.67140817504019
 10
0.86298847109912
 20
0.67318496150653
 10
0.85034597847344
 20
0.67493609178602
 10
0.82452406888453
 20
0.67835990758065
 10
0.79800452961649
 20
0.68167672553411
 10
0.77080979884713
 20
0.68488373928727
 10
0.74296288603369
 20
0.68797823538633
 10
0.71448735244452
 20
0.69095759557864
 10
0.70002136174463
 20
0.69240330808424
 10
0.68540729122391
 20
0.69381929902804
 10
0.65574730700688
 20
0.6965609244477
 10
0.6255324951012
 20
0.69918015214881
 10
0.59478842025424
 20
0.70167476600325
 10
0.5635410950227
 20
0.70404265531863
 10
0.5318169577633
 20
0.7062818166242
 10
0.51578445754144
 20
0.70735252792615
 10
0.49964285026337
 20
0.70839035536595
 10
0.46704599502997
 20
0.71036648750959
 10
0.43405397225697
 20
0.71220854105005
 10
0.40069469648939
 20
0.71391495742612
 10
0.36699639300499
 20
0.71548429283919
 10
0.3329875739328
 20
0.71691521947483
 10
0.31587570359537
 20
0.71757839655202
 10
0.29869701412905
 20
0.71820652662623
 10
0.26415372683076
 20
0.71935712171865
 10
0.22938693910762
 20
0.72036603123375
 10
0.19442606713301
 20
0.72123240153336
 10
0.15930069129496
 20
0.72195549958171
 10
0.1240405311682
 20
0.72253471356567
 10
0.10636922623638
 20
0.7227702061182
 10
0.08867542036841
 20
0.72296955341237
 10
0.053235281310024
 20
0.7232596512039
 10
0.017750099888874
 20
0.72340476148855
 10
0.0
 20
0.72342290315225
 10
-0.017750099888874
 20
0.72340476148855
 10
-0.053235281310024
 20
0.7232596512039
 10
-0.08867542036841
 20
0.72296955341237
 10
-0.10636922623638
 20
0.7227702061182
 10
-0.1240405311682
 20
0.72253471356567
 10
-0.15930069129496
 20
0.72195549958171
 10
-0.19442606713301
 20
0.72123240153336
 10
-0.22938693910762
 20
0.72036603123375
 10
-0.26415372683076
 20
0.71935712171865
 10
-0.29869701412905
 20
0.71820652662623
 10
-0.31587570359537
 20
0.71757839655202
 10
-0.3329875739328
 20
0.71691521947483
 10
-0.36699639300499
 20
0.71548429283919
 10
-0.40069469648939
 20
0.71391495742612
 10
-0.43405397225697
 20
0.71220854105005
 10
-0.46704599502997
 20
0.71036648750959
 10
-0.49964285026337
 20
0.70839035536595
 10
-0.51578445754144
 20
0.70735252792615
 10
-0.5318169577633
 20
0.7062818166242
 10
-0.5635410950227
 20
0.70404265531863
 10
-0.59478842025424
 20
0.70167476600325
 10
-0.6255324951012
 20
0.69918015214881
 10
-0.65574730700688
 20
0.6965609244477
 10
-0.68540729122391
 20
0.69381929902804
 10
-0.70002136174463
 20
0.69240330808424
 10
-0.71448735244452
 20
0.69095759557864
 10
-0.74296288603369
 20
0.68797823538633
 10
-0.77080979884713
 20
0.68488373928727
 10
-0.79800452961649
 20
0.68167672553411
 10
-0.82452406888453
 20
0.67835990758065
 10
-0.85034597847344
 20
0.67493609178602
 10
-0.86298847109912
 20
0.67318496150653
 10
-0.87544841046977
 20
0.67140817504019
 10
-0.89981012570992
 20
0.66777914231296
 10
-0.92341051175063
 20
0.66405206412831
 10
-0.94622960030916
 20
0.66023009396647
 10
-0.96824808415844
 20
0.65631646559579
 10
-0.98944733346289
 20
0.65231449033657
 10
-0.9997341124525
 20
0.65028142792881
 10
-1.0098094115412
 20
0.64822755425943
 10
-1.0293170900423
 20
0.64405911532031
 10
-1.0479538635229
 20
0.63981270043471
 10
-1.0569407040487
 20
0.63766137229598
 10
-1.0657039634117
 20
0.63549190249356
 10
-1.0825523713524
 20
0.6311003773233
 10
-1.0984848319096
 20
0.62664184059266
 10
-1.1061033386889
 20
0.62438861962911
 10
-1.1134878646311
 20
0.62212006466881
 10
-1.1275487754534
 20
0.61753887542564
 10
-1.1406556674422
 20
0.6129021490066
 10
-1.1527974508582
 20
0.60821380854516
 10
-1.1639638525407
 20
0.6034778208454
 10
-1.1741454245988
 20
0.59869819302576
 10
-1.1788641746945
 20
0.59629327648521
 10
-1.1833335524062
 20
0.59387896912852
 10
-1.1915204618895
 20
0.58902422669826
 10
-1.1986992261059
 20
0.58413807333173
 10
-1.2048637711041
 20
0.57922464320249
 10
-1.2100088810637
 20
0.57428809356298
 10
-1.2141302027079
 20
0.56933260122702
 10
-1.2158058192861
 20
0.56684906128162
 10
-1.2172242489872
 20
0.56436235903588
 10
-1.2192884020296
 20
0.55938157231064
 10
-1.2203209153554
 20
0.55439445529415
 10
-1.22045
 20
0.55189984143971
  0
LWPOLYLINE
  5
19C
330
132
100
AcDbEntity
  8
AM_4
100
AcDbPolyline
 90
      131
 70
     0
 43
0.0
 10
-1.22045
 20
0.55189984143971
 10
-1.2204177284122
 20
0.55065250152988
 10
-1.2201595659497
 20
0.54815808556768
 10
-1.2196432956353
 20
0.5456644611221
 10
-1.2192884020296
 20
0.54441811056879
 10
-1.218869026679
 20
0.54317215568484
 10
-1.2178369228666
 20
0.54068169646858
 10
-1.2165472025252
 20
0.53819361029547
 10
-1.2150001384775
 20
0.53570842348568
 10
-1.2131960579834
 20
0.53322666174603
 10
-1.2111353426711
 20
0.53074885005885
 10
-1.2100088810637
 20
0.52951158931645
 10
-1.2088184284564
 20
0.52827551257086
 10
-1.2062458054504
 20
0.52580717248234
 10
-1.2034180178558
 20
0.52334435193645
 10
-1.2003356638519
 20
0.52088757190875
 10
-1.1969993954681
 20
0.51843735209702
 10
-1.1934099184457
 20
0.51599421081132
 10
-1.1915204618895
 20
0.51477545618117
 10
-1.1895679920887
 20
0.51355866486433
 10
-1.1854744291036
 20
0.51113122946205
 10
-1.1811300954268
 20
0.50871241809483
 10
-1.1788641746945
 20
0.50750640639422
 10
-1.1765359100419
 20
0.50630274242868
 10
-1.1716928447853
 20
0.50390271219712
 10
-1.1666019241402
 20
0.50151283509329
 10
-1.1639638525407
 20
0.50032186203403
 10
-1.1612642250205
 20
0.49913361666257
 10
-1.1556808765423
 20
0.49676556019568
 10
-1.1498530597858
 20
0.49440916662214
 10
-1.1437820075447
 20
0.49206493440436
 10
-1.1374690040662
 20
0.48973335943221
 10
-1.1309153847786
 20
0.48741493491806
 10
-1.1275487754534
 20
0.48626080745379
 10
-1.1241225360093
 20
0.48511015129249
 10
-1.1170918946913
 20
0.48281949610056
 10
-1.1098249480595
 20
0.48054345389862
 10
-1.1023232333356
 20
0.47828250615189
 10
-1.0945883374036
 20
0.47603713113253
 10
-1.0866218964734
 20
0.47380780381851
 10
-1.0825523713524
 20
0.47269930555613
 10
-1.0784255957353
 20
0.47159499579315
 10
-1.0700011690032
 20
0.46939917514532
 10
-1.0613503983478
 20
0.46722080637047
 10
-1.0524751137199
 20
0.46506035027232
 10
-1.0433771925628
 20
0.46291826386544
 10
-1.0340585594158
 20
0.46079500027852
 10
-1.0293170900423
 20
0.45974056755912
 10
-1.0245211855067
 20
0.45869100865856
 10
-1.0147670883346
 20
0.45660673407585
 10
-1.0047983312439
 20
0.45454261742978
 10
-0.99461702298686
 20
0.45249909535565
 10
-0.98422531727825
 20
0.45047660013223
 10
-0.97362541233944
 20
0.44847555959037
 10
-0.96824808415844
 20
0.44748321728364
 10
-0.96281955043347
 20
0.44649639702248
 10
-0.95181001739071
 20
0.44453953109297
 10
-0.94059914212535
 20
0.44260537574972
 10
-0.92918929614274
 20
0.44069434013649
 10
-0.91758289303772
 20
0.43880682850641
 10
-0.90578238798407
 20
0.43694324013639
 10
-0.89981012570992
 20
0.43602054056647
 10
-0.89379027721514
 20
0.43510396924275
 10
-0.88160909749583
 20
0.43328940489775
 10
-0.86924142558595
 20
0.43149993094735
 10
-0.86298847109912
 20
0.4306147213729
 10
-0.85668987769514
 20
0.42973592592997
 10
-0.84395710892947
 20
0.42799776299643
 10
-0.83104581272977
 20
0.42628580983102
 10
-0.82452406888453
 20
0.42543977529878
 10
-0.81795872030188
 20
0.42460042857371
 10
-0.80469860003888
 20
0.42294197574356
 10
-0.79126825693551
 20
0.42131080216329
 10
-0.77767053199479
 20
0.41970725288507
 10
-0.76390830162704
 20
0.41813166711753
 10
-0.74998447704142
 20
0.41658437815401
 10
-0.74296288603369
 20
0.4158214474931
 10
-0.73590200363014
 20
0.41506571330207
 10
-0.72166386034533
 20
0.4135759938142
 10
-0.70727305906896
 20
0.41211553481993
 10
-0.69273264397565
 20
0.41068464525913
 10
-0.67804569088877
 20
0.40928362781665
 10
-0.66321530662978
 20
0.40791277885833
 10
-0.65574730700688
 20
0.40723875843173
 10
-0.648244628361
 20
0.40657238836826
 10
-0.63313682292201
 20
0.4052627398875
 10
-0.61789508615974
 20
0.40398411045403
 10
-0.60252264225245
 20
0.40273677054419
 10
-0.58702274302767
 20
0.40152098401547
 10
-0.57139866727434
 20
0.40033700805065
 10
-0.5635410950227
 20
0.3997570275608
 10
-0.55565372004922
 20
0.39918509310345
 10
-0.53979123197778
 20
0.39806548284551
 10
-0.5238145585496
 20
0.39697841411489
 10
-0.50772707940859
 20
0.3959241168659
 10
-0.4915321976381
 20
0.39490281412052
 10
-0.47523333904098
 20
0.3939147219212
 10
-0.46704599502997
 20
0.39343319536984
 10
-0.45883395141498
 20
0.39296004928516
 10
-0.44233750382334
 20
0.39203899816015
 10
-0.42574748586101
 20
0.3911517633818
 10
-0.40906740691644
 20
0.39029853263233
 10
-0.39230079542924
 20
0.38947948640087
 10
-0.3754511981438
 20
0.38869479794531
 10
-0.36699639300499
 20
0.38831539004024
 10
-0.35852217935896
 20
0.38794463325563
 10
-0.34151732017413
 20
0.38722915101877
 10
-0.32444021773166
 20
0.38654850258508
 10
-0.31587570359537
 20
0.38622128632741
 10
-0.307294484456
 20
0.38590283193632
 10
-0.29008374728948
 20
0.38529227565516
 10
-0.2728116469251
 20
0.38471696289632
 10
-0.26415372683076
 20
0.38444256116078
 10
-0.2554818370364
 20
0.38417701535925
 10
-0.23809798350459
 20
0.38367254726237
 10
-0.22066376364302
 20
0.38320366531891
 10
-0.20318286541937
 20
0.38277046871436
 10
-0.18565898667549
 20
0.38237304908546
 10
-0.16809583434513
 20
0.38201149050082
 10
-0.15930069129496
 20
0.38184418329772
 10
-0.15049712366985
 20
0.38168586944315
 10
-0.13286657741308
 20
0.38139625479307
 10
-0.11520792507262
 20
0.38114270781456
 10
-0.097524902091729
 20
0.38092528214196
 10
-0.079821249068929
 20
0.38074402376866
 10
-0.062100710966749
 20
0.38059897103736
 10
-0.053235281310025
 20
0.38054003167553
 10
-0.044367036319522
 20
0.38049015463195
 10
-0.026623976440431
 20
0.38041759757104
 10
-0.008875284627978
 20
0.38038131520307
 10
0.0
 20
0.38037677972718
  0
LINE
  5
19D
330
132
100
AcDbEntity
  8
AM_4
100
AcDbLine
 10
-0.80595859390228
 20
0.3217253178904
 30
0.0
 11
-1.7229488393002
 21
0.44617804784518
 31
0.0
  0
LWPOLYLINE
  5
19E
330
132
100
AcDbEntity
  8
AM_4
100
AcDbPolyline
 90
       23
 70
     0
 43
0.0
 10
-1.7229488393002
 20
0.44617804784518
 10
-1.7251542619867
 20
0.44648263677347
 10
-1.7294499676452
 20
0.44710780926654
 10
-1.733587811878
 20
0.44775367051742
 10
-1.735595952863
 20
0.44808411448487
 10
-1.7375627533593
 20
0.44841943364366
 10
-1.7413699492353
 20
0.44910428751545
 10
-1.7450047610242
 20
0.44980739774385
 10
-1.7484627602678
 20
0.45052790769733
 10
-1.7517397339267
 20
0.45126493954551
 10
-1.7548316895131
 20
0.45201759532862
 10
-1.7563070993866
 20
0.45239949634796
 10
-1.7577348599556
 20
0.45278495805152
 10
-1.7604457081881
 20
0.45356609280093
 10
-1.7629609314597
 20
0.45436004788449
 10
-1.7652774653581
 20
0.45516585599022
 10
-1.7673924875438
 20
0.45598253536509
 10
-1.769303421188
 20
0.45680909101106
 10
-1.7701816174587
 20
0.45722575817517
 10
-1.7710079381123
 20
0.4576445158974
 10
-1.7725039616255
 20
0.45848779218758
 10
-1.7737896690533
 20
0.45933789247933
 10
-1.7743531546602
 20
0.45976517825479
  0
LINE
  5
19F
330
132
100
AcDbEntity
  8
AM_4
100
AcDbLine
 10
-1.7743531546602
 20
0.45976517825479
 30
0.0
 11
-2.1875
 21
0.7890625
 31
0.0
  0
LINE
  5
1A0
330
132
100
AcDbEntity
  8
AM_4
100
AcDbLine
 10
-2.1875
 20
0.7890625
 30
0.0
 11
2.1875
 21
0.7890625
 31
0.0
  0
LINE
  5
1A1
330
132
100
AcDbEntity
  8
AM_4
100
AcDbLine
 10
2.1875
 20
0.7890625
 30
0.0
 11
1.7743531546602
 21
0.45976517825479
 31
0.0
  0
LWPOLYLINE
  5
1A2
330
132
100
AcDbEntity
  8
AM_4
100
AcDbPolyline
 90
       23
 70
     0
 43
0.0
 10
1.7743531546602
 20
0.45976517825479
 10
1.7737896690533
 20
0.45933789247933
 10
1.7725039616255
 20
0.45848779218758
 10
1.7710079381123
 20
0.4576445158974
 10
1.7701816174587
 20
0.45722575817517
 10
1.769303421188
 20
0.45680909101106
 10
1.7673924875438
 20
0.45598253536509
 10
1.7652774653581
 20
0.45516585599022
 10
1.7629609314597
 20
0.45436004788449
 10
1.7604457081881
 20
0.45356609280093
 10
1.7577348599556
 20
0.45278495805152
 10
1.7563070993866
 20
0.45239949634796
 10
1.7548316895131
 20
0.45201759532862
 10
1.7517397339267
 20
0.45126493954551
 10
1.7484627602678
 20
0.45052790769733
 10
1.7450047610242
 20
0.44980739774385
 10
1.7413699492353
 20
0.44910428751545
 10
1.7375627533593
 20
0.44841943364366
 10
1.735595952863
 20
0.44808411448487
 10
1.733587811878
 20
0.44775367051742
 10
1.7294499676452
 20
0.44710780926654
 10
1.7251542619867
 20
0.44648263677347
 10
1.7229488393002
 20
0.44617804784518
  0
LINE
  5
1A3
330
132
100
AcDbEntity
  8
AM_4
100
AcDbLine
 10
1.7229488393002
 20
0.44617804784518
 30
0.0
 11
0.80595859390228
 21
0.3217253178904
 31
0.0
  0
LWPOLYLINE
  5
1A4
330
132
100
AcDbEntity
  8
AM_4
100
AcDbPolyline
 90
       23
 70
     0
 43
0.0
 10
0.80595859390228
 20
0.3217253178904
 10
0.80321223608719
 20
0.3213604608405
 10
0.79755654413469
 20
0.32065585678798
 10
0.79169216872013
 20
0.31998579501324
 10
0.78868504559891
 20
0.3196641010753
 10
0.78562978246155
 20
0.31935149496641
 10
0.77938041833831
 20
0.31875411101459
 10
0.77295544961212
 20
0.31819473034106
 10
0.7663665691287
 20
0.31767437096662
 10
0.75962576803797
 20
0.31719397989695
 10
0.75274531397122
 20
0.31675443139915
 10
0.74925662082237
 20
0.31655022603938
 10
0.74573772871515
 20
0.31635652541061
 10
0.73861576542343
 20
0.31600098608323
 10
0.73139238540712
 20
0.31568846046555
 10
0.72408073454628
 20
0.31541951732512
 10
0.7166941193657
 20
0.31519464611346
 10
0.70924598281827
 20
0.31501425607526
 10
0.70550307624303
 20
0.31494084726733
 10
0.70174987982004
 20
0.31487867550363
 10
0.69421945258155
 20
0.31478815114261
 10
0.68666840578026
 20
0.3147428477381
 10
0.68288944369979
 20
0.31473718287943
  0
LINE
  5
1A5
330
132
100
AcDbEntity
  8
AM_4
100
AcDbLine
 10
0.68288944369979
 20
0.31473718287943
 30
0.0
 11
-0.68288944369979
 21
0.31473718287943
 31
0.0
  0
LWPOLYLINE
  5
1A6
330
132
100
AcDbEntity
  8
AM_4
100
AcDbPolyline
 90
       23
 70
     0
 43
0.0
 10
-0.68288944369979
 20
0.31473718287943
 10
-0.68666840578026
 20
0.3147428477381
 10
-0.69421945258155
 20
0.31478815114261
 10
-0.70174987982004
 20
0.31487867550363
 10
-0.70550307624303
 20
0.31494084726733
 10
-0.70924598281827
 20
0.31501425607526
 10
-0.7166941193657
 20
0.31519464611346
 10
-0.72408073454628
 20
0.31541951732512
 10
-0.73139238540712
 20
0.31568846046555
 10
-0.73861576542344
 20
0.31600098608323
 10
-0.74573772871515
 20
0.31635652541061
 10
-0.74925662082237
 20
0.31655022603938
 10
-0.75274531397122
 20
0.31675443139915
 10
-0.75962576803798
 20
0.31719397989695
 10
-0.7663665691287
 20
0.31767437096662
 10
-0.77295544961212
 20
0.31819473034106
 10
-0.77938041833831
 20
0.31875411101459
 10
-0.78562978246155
 20
0.31935149496641
 10
-0.78868504559891
 20
0.3196641010753
 10
-0.79169216872013
 20
0.31998579501324
 10
-0.79755654413469
 20
0.32065585678798
 10
-0.80321223608719
 20
0.3213604608405
 10
-0.80595859390228
 20
0.3217253178904
  0
ELLIPSE
  5
1A7
330
132
100
AcDbEntity
  8
AM_4
100
AcDbEllipse
 10
1.479677288409
 20
-0.07890625
 30
0.0
 11
3.448207189095217E-18
 21
0.056313496944523
 31
0.0
210
0.0
220
0.0
230
1.0
 40
0.7071067811865491
 41
0.0
 42
6.283185307179586
  0
ELLIPSE
  5
1A8
330
132
100
AcDbEntity
  8
AM_4
100
AcDbEllipse
 10
1.471600948778846
 20
-0.0789062500000015
 30
0.0
 11
-1.362666886456441E-17
 21
-0.07418013027131211
 31
0.0
210
0.0
220
0.0
230
1.0
 40
0.7071067811865474
 41
2.660778998825752
 42
6.763998961943628
  0
ELLIPSE
  5
1A9
330
132
100
AcDbEntity
  8
AM_4
100
AcDbEllipse
 10
1.433822077517803
 20
-0.0789062499999906
 30
0.0
 11
-1.816586040988548E-17
 21
-0.09889033813685852
 31
0.0
210
0.0
220
0.0
230
1.0
 40
0.7071067811865476
 41
2.660778999831839
 42
6.763998961955323
  0
ELLIPSE
  5
1AA
330
132
100
AcDbEntity
  8
AM_4
100
AcDbEllipse
 10
1.354402432677391
 20
-0.0789062500002315
 30
0.0
 11
-2.025002468266882E-17
 21
-0.1102360000002595
 31
0.0
210
0.0
220
0.0
230
1.0
 40
0.7071067811865472
 41
2.563974231714724
 42
6.860791728282294
  0
ELLIPSE
  5
1AB
330
132
100
AcDbEntity
  8
AM_4
100
AcDbEllipse
 10
1.340483035689701
 20
-0.078906250000001
 30
0.0
 11
-2.025002468262648E-17
 21
-0.110236000000029
 31
0.0
210
0.0
220
0.0
230
1.0
 40
0.7071067811865456
 41
3.141592653589793
 42
6.283185307179586
  0
ELLIPSE
  5
1AC
330
132
100
AcDbEntity
  8
AM_4
100
AcDbEllipse
 10
1.34048303568793
 20
-0.0789062499969763
 30
0.0
 11
-2.892860669017885E-17
 21
-0.1574800000039199
 31
0.0
210
0.0
220
0.0
230
1.0
 40
0.7071067811865316
 41
2.26469273497941
 42
7.160084883691917
  0
LWPOLYLINE
  5
1AD
330
132
100
AcDbEntity
  8
AM_4
100
AcDbPolyline
 90
       23
 70
     0
 43
0.0
 10
1.4337979029859
 20
0.021535396110208
 10
1.4328250666531
 20
0.022628476068202
 10
1.4308737438106
 20
0.024789502348822
 10
1.4289135074421
 20
0.026919075438274
 10
1.4279295331486
 20
0.027972814032427
 10
1.4269427158654
 20
0.029019573314399
 10
1.4249597389271
 20
0.031093277452224
 10
1.4229629528755
 20
0.033142381798846
 10
1.4209507353953
 20
0.035169001125268
 10
1.4189214607688
 20
0.037175178825332
 10
1.4168734951279
 20
0.039162894225054
 10
1.4158419892105
 20
0.040150431283547
 10
1.4148051917675
 20
0.041134069459757
 10
1.4127148864892
 20
0.043090575971303
 10
1.4106008929456
 20
0.045034240673291
 10
1.4084614979567
 20
0.046966851828298
 10
1.4062949567706
 20
0.04889016467802
 10
1.4040994882394
 20
0.050805906864407
 10
1.4029903384465
 20
0.051761472594643
 10
1.4018732698823
 20
0.05271578367762
 10
1.3996144328068
 20
0.054621483164738
 10
1.3973210564573
 20
0.056524681131686
 10
1.396160800417
 20
0.057475863600676
  0
LWPOLYLINE
  5
1AE
330
132
100
AcDbEntity
  8
AM_4
100
AcDbPolyline
 90
       23
 70
     0
 43
0.0
 10
1.396160800417
 20
0.057475863600676
 10
1.3947180294486
 20
0.058648061116689
 10
1.391787807036
 20
0.060994015444591
 10
1.3887946769177
 20
0.063344654580345
 10
1.3872732295342
 20
0.064522712984436
 10
1.3857344809503
 20
0.06570312486119
 10
1.3826028633379
 20
0.068072607549445
 10
1.3793952498739
 20
0.070456333260428
 10
1.3761068255231
 20
0.072857596857129
 10
1.3727325101106
 20
0.075279772957852
 10
1.3692669318577
 20
0.077726332213191
 10
1.3674981536912
 20
0.078959870575428
 10
1.3657043984741
 20
0.080200858521508
 10
1.3620388654733
 20
0.082707067368065
 10
1.3582639013401
 20
0.08524882549236
 10
1.3543726491197
 20
0.087830172111692
 10
1.3503577839433
 20
0.090455341957114
 10
1.3462114659278
 20
0.093128790411511
 10
1.3440864085496
 20
0.094485078487717
 10
1.3419252878062
 20
0.095855221079572
 10
1.3374902165426
 20
0.098639616167122
 10
1.3328965280702
 20
0.101487270104
 10
1.3305369568356
 20
0.10293656813423
  0
LINE
  5
1AF
330
132
100
AcDbEntity
  8
AM_4
100
AcDbLine
 10
1.3305369568356
 20
0.10293656813423
 30
0.0
 11
1.2529929113662
 21
0.10293656813423
 31
0.0
  0
LWPOLYLINE
  5
1B0
330
132
100
AcDbEntity
  8
AM_4
100
AcDbPolyline
 90
       23
 70
     0
 43
0.0
 10
1.3305369568356
 20
0.10293656813423
 10
1.3293464801255
 20
0.10148727010399
 10
1.3269648563317
 20
0.098639616167093
 10
1.324579569065
 20
0.095855221079528
 10
1.3233845345912
 20
0.094485078487666
 10
1.3221873736838
 20
0.093128790411453
 10
1.3197850993117
 20
0.090455341957046
 10
1.3173696317402
 20
0.087830172111615
 10
1.3149378973995
 20
0.085248825492277
 10
1.3124868481951
 20
0.082707067367978
 10
1.3100134470324
 20
0.080200858521419
 10
1.3087674149406
 20
0.078959870575339
 10
1.3075146538648
 20
0.077726332213102
 10
1.3049874121171
 20
0.075279772957766
 10
1.3024286353434
 20
0.072857596857047
 10
1.2998351939892
 20
0.070456333260353
 10
1.2972039021311
 20
0.068072607549379
 10
1.2945315040694
 20
0.065703124861135
 10
1.293178850369
 20
0.064522712984388
 10
1.291814660654
 20
0.063344654580303
 10
1.2890499352181
 20
0.060994015444564
 10
1.2862337789946
 20
0.05864806111668
 10
1.2848052709624
 20
0.057475863600676
  0
LWPOLYLINE
  5
1B1
330
132
100
AcDbEntity
  8
AM_4
100
AcDbPolyline
 90
       23
 70
     0
 43
0.0
 10
1.2848052709624
 20
0.057475863600676
 10
1.283362499994
 20
0.056303666084662
 10
1.2804322775814
 20
0.05395771175676
 10
1.277439147463
 20
0.051607072621006
 10
1.2759177000796
 20
0.050429014216914
 10
1.2743789514957
 20
0.04924860234016
 10
1.2712473338833
 20
0.046879119651905
 10
1.2680397204193
 20
0.044495393940922
 10
1.2647512960685
 20
0.042094130344221
 10
1.2613769806559
 20
0.039671954243497
 10
1.2579114024031
 20
0.037225394988158
 10
1.2561426242366
 20
0.035991856625921
 10
1.2543488690194
 20
0.034750868679841
 10
1.2506833360187
 20
0.032244659833284
 10
1.2469083718854
 20
0.029702901708989
 10
1.243017119665
 20
0.027121555089657
 10
1.2390022544886
 20
0.024496385244234
 10
1.2348559364732
 20
0.021822936789837
 10
1.232730879095
 20
0.020466648713631
 10
1.2305697583515
 20
0.019096506121775
 10
1.2261346870879
 20
0.016312111034226
 10
1.2215409986155
 20
0.013464457097343
 10
1.2191814273809
 20
0.012015159067117
  0
LWPOLYLINE
  5
1B2
330
132
100
AcDbEntity
  8
AM_4
100
AcDbPolyline
 90
       23
 70
     0
 43
0.0
 10
1.1416373819116
 20
0.012015159067117
 10
1.1428278586217
 20
0.013464457097353
 10
1.1452094824154
 20
0.016312111034254
 10
1.1475947696822
 20
0.01909650612182
 10
1.1487898041559
 20
0.020466648713682
 10
1.1499869650634
 20
0.021822936789895
 10
1.1523892394355
 20
0.024496385244303
 10
1.1548047070069
 20
0.027121555089734
 10
1.1572364413476
 20
0.029702901709073
 10
1.159687490552
 20
0.032244659833371
 10
1.1621608917147
 20
0.034750868679931
 10
1.1634069238065
 20
0.035991856626011
 10
1.1646596848823
 20
0.037225394988247
 10
1.1671869266301
 20
0.039671954243584
 10
1.1697457034038
 20
0.042094130344303
 10
1.1723391447579
 20
0.044495393940997
 10
1.1749704366161
 20
0.046879119651972
 10
1.1776428346778
 20
0.049248602340215
 10
1.1789954883782
 20
0.050429014216963
 10
1.1803596780931
 20
0.051607072621048
 10
1.183124403529
 20
0.053957711756787
 10
1.1859405597525
 20
0.056303666084671
 10
1.1873690677847
 20
0.057475863600676
  0
LWPOLYLINE
  5
1B3
330
132
100
AcDbEntity
  8
AM_4
100
AcDbPolyline
 90
       23
 70
     0
 43
0.0
 10
1.1873690677847
 20
0.057475863600676
 10
1.1888118387531
 20
0.058648061116689
 10
1.1917420611657
 20
0.060994015444591
 10
1.1947351912841
 20
0.063344654580345
 10
1.1962566386675
 20
0.064522712984436
 10
1.1977953872514
 20
0.06570312486119
 10
1.2009270048638
 20
0.068072607549445
 10
1.2041346183278
 20
0.070456333260428
 10
1.2074230426786
 20
0.072857596857129
 10
1.2107973580912
 20
0.075279772957852
 10
1.214262936344
 20
0.077726332213191
 10
1.2160317145105
 20
0.078959870575428
 10
1.2178254697277
 20
0.080200858521508
 10
1.2214910027284
 20
0.082707067368065
 10
1.2252659668617
 20
0.08524882549236
 10
1.2291572190821
 20
0.087830172111692
 10
1.2331720842585
 20
0.090455341957114
 10
1.237318402274
 20
0.093128790411511
 10
1.2394434596522
 20
0.094485078487717
 10
1.2416045803956
 20
0.095855221079572
 10
1.2460396516592
 20
0.098639616167122
 10
1.2506333401316
 20
0.101487270104
 10
1.2529929113662
 20
0.10293656813423
  0
LWPOLYLINE
  5
1B4
330
132
100
AcDbEntity
  8
AM_4
100
AcDbPolyline
 90
       23
 70
     0
 43
0.0
 10
1.1873690677847
 20
-0.21528836360068
 10
1.1859405529611
 20
-0.21411616608466
 10
1.1831243843105
 20
-0.21177021175676
 10
1.1803596479769
 20
-0.20941957262101
 10
1.1789954533831
 20
-0.20824151421691
 10
1.1776427951826
 20
-0.20706110234016
 10
1.1749703892544
 20
-0.20469161965191
 10
1.1723390910397
 20
-0.20230789394092
 10
1.1697456448407
 20
-0.19990663034422
 10
1.1671868647393
 20
-0.1974844542435
 10
1.1646596211911
 20
-0.19503789498816
 10
1.163406859792
 20
-0.19380435662592
 10
1.1621608277643
 20
-0.19256336867984
 10
1.1596874279022
 20
-0.19005715983328
 10
1.1572363815813
 20
-0.18751540170899
 10
1.1548046517351
 20
-0.18493405508966
 10
1.1523891903021
 20
-0.18230888524423
 10
1.1499869237506
 20
-0.17963543678984
 10
1.1487897673979
 20
-0.17827914871363
 10
1.1475947379165
 20
-0.17690900612178
 10
1.1452094619732
 20
-0.17412461103423
 10
1.1428278513363
 20
-0.17127695709734
 10
1.1416373819116
 20
-0.16982765906712
  0
LWPOLYLINE
  5
1B5
330
132
100
AcDbEntity
  8
AM_4
100
AcDbPolyline
 90
       23
 70
     0
 43
0.0
 10
1.2191814273809
 20
-0.16982765906712
 10
1.2215409913301
 20
-0.17127695709735
 10
1.2261346666458
 20
-0.17412461103425
 10
1.2305697265859
 20
-0.17690900612182
 10
1.2327308423371
 20
-0.17827914871368
 10
1.2348558951606
 20
-0.1796354367899
 10
1.2390022053554
 20
-0.1823088852443
 10
1.2430170643934
 20
-0.18493405508973
 10
1.2469083121193
 20
-0.18751540170907
 10
1.2506832733691
 20
-0.19005715983337
 10
1.2543488050692
 20
-0.19256336867993
 10
1.2561425602223
 20
-0.19380435662601
 10
1.2579113387121
 20
-0.19503789498825
 10
1.2613769187654
 20
-0.19748445424358
 10
1.2647512375056
 20
-0.1999066303443
 10
1.2680396667013
 20
-0.202307893941
 10
1.2712472865218
 20
-0.20469161965197
 10
1.2743789120007
 20
-0.20706110234022
 10
1.2759176650846
 20
-0.20824151421696
 10
1.2774391173469
 20
-0.20941957262105
 10
1.2804322583629
 20
-0.21177021175679
 10
1.2833624932026
 20
-0.21411616608467
 10
1.2848052709624
 20
-0.21528836360068
  0
LWPOLYLINE
  5
1B6
330
132
100
AcDbEntity
  8
AM_4
100
AcDbPolyline
 90
       23
 70
     0
 43
0.0
 10
1.2848052709624
 20
-0.21528836360068
 10
1.286233785786
 20
-0.21646056111669
 10
1.2890499544366
 20
-0.21880651544459
 10
1.2918146907702
 20
-0.22115715458034
 10
1.293178885364
 20
-0.22233521298444
 10
1.2945315435645
 20
-0.22351562486119
 10
1.2972039494927
 20
-0.22588510754945
 10
1.2998352477074
 20
-0.22826883326043
 10
1.3024286939064
 20
-0.23067009685713
 10
1.3049874740078
 20
-0.23309227295785
 10
1.307514717556
 20
-0.23553883221319
 10
1.3087674789551
 20
-0.23677237057543
 10
1.3100135109828
 20
-0.23801335852151
 10
1.312486910845
 20
-0.24051956736807
 10
1.3149379571658
 20
-0.24306132549236
 10
1.317369687012
 20
-0.24564267211169
 10
1.3197851484451
 20
-0.24826784195711
 10
1.3221874149965
 20
-0.25094129041151
 10
1.3233845713492
 20
-0.25229757848772
 10
1.3245796008307
 20
-0.25366772107957
 10
1.3269648767739
 20
-0.25645211616712
 10
1.3293464874109
 20
-0.259299770104
 10
1.3305369568356
 20
-0.26074906813423
  0
LWPOLYLINE
  5
1B7
330
132
100
AcDbEntity
  8
AM_4
100
AcDbPolyline
 90
       23
 70
     0
 43
0.0
 10
1.2529929113662
 20
-0.26074906813423
 10
1.250633347417
 20
-0.25929977010399
 10
1.2460396721013
 20
-0.25645211616709
 10
1.2416046121612
 20
-0.25366772107953
 10
1.2394434964101
 20
-0.25229757848767
 10
1.2373184435866
 20
-0.25094129041145
 10
1.2331721333918
 20
-0.24826784195705
 10
1.2291572743538
 20
-0.24564267211161
 10
1.2252660266278
 20
-0.24306132549228
 10
1.2214910653781
 20
-0.24051956736798
 10
1.2178255336779
 20
-0.23801335852142
 10
1.2160317785249
 20
-0.23677237057534
 10
1.214263000035
 20
-0.2355388322131
 10
1.2107974199817
 20
-0.23309227295777
 10
1.2074231012415
 20
-0.23067009685705
 10
1.2041346720458
 20
-0.22826883326035
 10
1.2009270522253
 20
-0.22588510754938
 10
1.1977954267465
 20
-0.22351562486114
 10
1.1962566736625
 20
-0.22233521298439
 10
1.1947352214003
 20
-0.2211571545803
 10
1.1917420803842
 20
-0.21880651544456
 10
1.1888118455445
 20
-0.21646056111668
 10
1.1873690677847
 20
-0.21528836360068
  0
LWPOLYLINE
  5
1B8
330
132
100
AcDbEntity
  8
AM_4
100
AcDbPolyline
 90
       23
 70
     0
 43
0.0
 10
1.1316913030574
 20
-0.07890625
 10
1.1316998018928
 20
-0.076347256918084
 10
1.1317669683259
 20
-0.071265227203377
 10
1.1318994902442
 20
-0.066224082703061
 10
1.1319897423316
 20
-0.063716298088704
 10
1.1320957423937
 20
-0.061215730911297
 10
1.1323543320597
 20
-0.056232457834028
 10
1.1326740827322
 20
-0.051266876725884
 10
1.1330540200463
 20
-0.046311881598636
 10
1.1334933597381
 20
-0.04136060479598
 10
1.1339914973969
 20
-0.036406378023886
 10
1.1342624736086
 20
-0.033926120147481
 10
1.1345479998296
 20
-0.031442696304125
 10
1.1351625978834
 20
-0.026463184383541
 10
1.1358351805983
 20
-0.021461565185473
 10
1.1365657905828
 20
-0.016431629934045
 10
1.1373546205271
 20
-0.011367209618405
 10
1.138202010783
 20
-0.0062621474934768
 10
1.1386478123976
 20
-0.0036924485311485
 10
1.1391084479568
 20
-0.0011102723372508
 10
1.1400745644758
 20
0.0040946277970455
 10
1.1411011390995
 20
0.009358831582002
 10
1.1416373819116
 20
0.012015159067117
  0
LINE
  5
1B9
330
132
100
AcDbEntity
  8
AM_4
100
AcDbLine
 10
1.2191814273809
 20
0.012015159067117
 30
0.0
 11
1.1416373819116
 21
0.012015159067117
 31
0.0
  0
LWPOLYLINE
  5
1BA
330
132
100
AcDbEntity
  8
AM_4
100
AcDbPolyline
 90
       23
 70
     0
 43
0.0
 10
1.2191814273809
 20
0.012015159067117
 10
1.2197176821425
 20
0.0093587699612409
 10
1.2207442788176
 20
0.0040944495301046
 10
1.2217104148412
 20
-0.0011105578060493
 10
1.2221710591694
 20
-0.0036927838103878
 10
1.2226168688838
 20
-0.0062625299201741
 10
1.2234642732961
 20
-0.011367677931056
 10
1.2242531146203
 20
-0.016432172196687
 10
1.2249837331563
 20
-0.021462168553984
 10
1.225656321555
 20
-0.02646383505282
 10
1.226270922399
 20
-0.031443379445915
 10
1.2265564489257
 20
-0.0339268136257
 10
1.2268274247161
 20
-0.036407077714391
 10
1.2273255593565
 20
-0.041361303932274
 10
1.2277648931461
 20
-0.046312561802652
 10
1.2281448217117
 20
-0.051267518234565
 10
1.2284645608468
 20
-0.056233039373947
 10
1.2287231362671
 20
-0.061216229555764
 10
1.2288291282228
 20
-0.063716746127385
 10
1.228919371569
 20
-0.066224473709363
 10
1.2290518741742
 20
-0.071265483827383
 10
1.2291190189997
 20
-0.076347350202953
 10
1.2291275062351
 20
-0.07890625
  0
LWPOLYLINE
  5
1BB
330
132
100
AcDbEntity
  8
AM_4
100
AcDbPolyline
 90
       23
 70
     0
 43
0.0
 10
1.2291275062351
 20
-0.07890625
 10
1.2291190189997
 20
-0.081465149797047
 10
1.2290518741742
 20
-0.086547016172617
 10
1.228919371569
 20
-0.091588026290637
 10
1.2288291282228
 20
-0.094095753872615
 10
1.2287231362671
 20
-0.096596270444236
 10
1.2284645608468
 20
-0.10157946062605
 10
1.2281448217117
 20
-0.10654498176544
 10
1.2277648931461
 20
-0.11149993819735
 10
1.2273255593565
 20
-0.11645119606773
 10
1.2268274247161
 20
-0.12140542228561
 10
1.2265564489257
 20
-0.1238856863743
 10
1.226270922399
 20
-0.12636912055409
 10
1.225656321555
 20
-0.13134866494718
 10
1.2249837331563
 20
-0.13635033144602
 10
1.2242531146203
 20
-0.14138032780331
 10
1.2234642732961
 20
-0.14644482206894
 10
1.2226168688838
 20
-0.15154997007983
 10
1.2221710591694
 20
-0.15411971618961
 10
1.2217104148412
 20
-0.15670194219395
 10
1.2207442788176
 20
-0.1619069495301
 10
1.2197176821425
 20
-0.16717126996124
 10
1.2191814273809
 20
-0.16982765906712
  0
LINE
  5
1BC
330
132
100
AcDbEntity
  8
AM_4
100
AcDbLine
 10
1.2191814273809
 20
-0.16982765906712
 30
0.0
 11
1.1416373819116
 21
-0.16982765906712
 31
0.0
  0
LWPOLYLINE
  5
1BD
330
132
100
AcDbEntity
  8
AM_4
100
AcDbPolyline
 90
       23
 70
     0
 43
0.0
 10
1.1416373819116
 20
-0.16982765906712
 10
1.1411011513054
 20
-0.167171331582
 10
1.1400745990758
 20
-0.16190712779705
 10
1.1391085022693
 20
-0.15670222766275
 10
1.1386478755624
 20
-0.15412005146885
 10
1.138202082131
 20
-0.15155035250652
 10
1.1373547062312
 20
-0.14644529038159
 10
1.1365658879542
 20
-0.14138087006596
 10
1.1358352869318
 20
-0.13635093481453
 10
1.1351627104499
 20
-0.13134931561646
 10
1.1345481158681
 20
-0.12636980369588
 10
1.1342625903356
 20
-0.12388637985252
 10
1.1339916141069
 20
-0.12140612197611
 10
1.1334934742711
 20
-0.11645189520402
 10
1.1330541294968
 20
-0.11150061840136
 10
1.1326741841287
 20
-0.10654562327412
 10
1.1323544223541
 20
-0.10158004216597
 10
1.1320958184511
 20
-0.096596769088703
 10
1.1319898100645
 20
-0.094096201911296
 10
1.1318995488309
 20
-0.091588417296939
 10
1.1317670060972
 20
-0.086547272796623
 10
1.1316998153793
 20
-0.081465243081916
 10
1.1316913030574
 20
-0.07890625
  0
LINE
  5
1BE
330
132
100
AcDbEntity
  8
AM_4
100
AcDbLine
 10
1.3305369568356
 20
-0.26074906813423
 30
0.0
 11
1.2529929113662
 21
-0.26074906813423
 31
0.0
  0
LWPOLYLINE
  5
1BF
330
132
100
AcDbEntity
  8
AM_4
100
AcDbPolyline
 90
       23
 70
     0
 43
0.0
 10
1.3305369568356
 20
-0.26074906813423
 10
1.3328965207848
 20
-0.25929977010399
 10
1.3374901961005
 20
-0.25645211616709
 10
1.3419252560406
 20
-0.25366772107953
 10
1.3440863717917
 20
-0.25229757848767
 10
1.3462114246152
 20
-0.25094129041145
 10
1.35035773481
 20
-0.24826784195705
 10
1.354372593848
 20
-0.24564267211161
 10
1.358263841574
 20
-0.24306132549228
 10
1.3620388028237
 20
-0.24051956736798
 10
1.3657043345239
 20
-0.23801335852142
 10
1.3674980896769
 20
-0.23677237057534
 10
1.3692668681668
 20
-0.2355388322131
 10
1.3727324482201
 20
-0.23309227295777
 10
1.3761067669603
 20
-0.23067009685705
 10
1.379395196156
 20
-0.22826883326035
 10
1.3826028159765
 20
-0.22588510754938
 10
1.3857344414553
 20
-0.22351562486114
 10
1.3872731945393
 20
-0.22233521298439
 10
1.3887946468015
 20
-0.2211571545803
 10
1.3917877878176
 20
-0.21880651544456
 10
1.3947180226573
 20
-0.21646056111668
 10
1.396160800417
 20
-0.21528836360068
  0
LWPOLYLINE
  5
1C0
330
132
100
AcDbEntity
  8
AM_4
100
AcDbPolyline
 90
       23
 70
     0
 43
0.0
 10
1.396160800417
 20
-0.21528836360068
 10
1.3973210657388
 20
-0.21433717805243
 10
1.3996144597168
 20
-0.21243397391888
 10
1.4018733131973
 20
-0.21052826824085
 10
1.4029903895129
 20
-0.2095739540482
 10
1.4040995467605
 20
-0.20861838519607
 10
1.4062950293213
 20
-0.20670263672092
 10
1.4084615833805
 20
-0.20477931750842
 10
1.4106009901039
 20
-0.20284669989944
 10
1.412714994259
 20
-0.20090302863463
 10
1.4148053090396
 20
-0.19894651543325
 10
1.4158421108215
 20
-0.19796287385864
 10
1.4168736208046
 20
-0.19697533336287
 10
1.4189215937622
 20
-0.19498761096206
 10
1.4209508746249
 20
-0.19298142607509
 10
1.4229630972668
 20
-0.19095479935456
 10
1.4249598874095
 20
-0.18890568738414
 10
1.42694286737
 20
-0.18683197536913
 10
1.4279296857637
 20
-0.18578521204576
 10
1.4289136609003
 20
-0.18473146933734
 10
1.4308738981519
 20
-0.18260188778712
 10
1.4328252208031
 20
-0.18044085271229
 10
1.4337980566358
 20
-0.17934776822278
  0
ARC
  5
1C1
330
132
100
AcDbEntity
  8
AM_5
100
AcDbCircle
 10
1.499999999999957
 20
0.000000000000007
 30
0.0
 40
0.2187500000000069
100
AcDbArc
 50
75.00000000000001
 51
14.99999999999997
  0
ARC
  5
1C2
330
132
100
AcDbEntity
  8
AM_5
100
AcDbCircle
 10
-1.500000000000043
 20
0.000000000000007
 30
0.0
 40
0.2187500000000069
100
AcDbArc
 50
75.00000000000001
 51
14.99999999999997
  0
ENDBLK
  5
135
330
132
100
AcDbEntity
  8
0
100
AcDbBlockEnd
  0
ENDSEC
  0
SECTION
  2
ENTITIES
  0
INSERT
  5
6F
330
1F
100
AcDbEntity
  8
0
100
AcDbBlockReference
  2
1_129295_4
 10
0.0
 20
0.0
 30
0.0
  0
POINT
  5
1C4
330
1F
100
AcDbEntity
  8
ConnectionPoints
100
AcDbPoint
 10
0.0
 20
0.0
 30
0.0
  0
POINT
  5
1C5
330
1F
100
AcDbEntity
  8
ConnectionPoints
100
AcDbPoint
 10
0.0
 20
0.53125
 30
0.0
  0
POINT
  5
1C6
330
1F
100
AcDbEntity
  8
ConnectionPoints
100
AcDbPoint
 10
0.0
 20
0.0
 30
0.0
  0
POINT
  5
1C7
330
1F
100
AcDbEntity
  8
ConnectionPoints
100
AcDbPoint
 10
0.0
 20
0.0
 30
0.0
  0
ENDSEC
  0
SECTION
  2
OBJECTS
  0
DICTIONARY
  5
C
330
0
100
AcDbDictionary
281
     1
  3
ACAD_DETAILVIEWSTYLE
350
1CF
  3
ACAD_GROUP
350
D
  3
ACAD_LAYOUT
350
1A
  3
ACAD_MATERIAL
350
43
  3
ACAD_MLEADERSTYLE
350
6B
  3
ACAD_MLINESTYLE
350
17
  3
ACAD_PLOTSETTINGS
350
19
  3
ACAD_PLOTSTYLENAME
350
E
  3
ACAD_SCALELIST
350
47
  3
ACAD_SECTIONVIEWSTYLE
350
1D0
  3
ACAD_TABLESTYLE
350
69
  3
ACAD_VISUALSTYLE
350
2A
  3
ACDB_RECOMPOSE_DATA
350
1CC
  3
AcDbVariableDictionary
350
1C8
  0
SUN
  5
6D
330
29
100
AcDbSun
 90
        1
290
     0
 63
     7
421
 16777215
 40
1.0
291
     1
 91
  2455826
 92
 54000000
292
     0
 70
     2
 71
   256
280
     1
  0
DICTIONARY
  5
1CF
102
{ACAD_REACTORS
330
C
102
}
330
C
100
AcDbDictionary
281
     1
  0
DICTIONARY
  5
D
102
{ACAD_REACTORS
330
C
102
}
330
C
100
AcDbDictionary
281
     1
  0
DICTIONARY
  5
1A
102
{ACAD_REACTORS
330
C
102
}
330
C
100
AcDbDictionary
281
     1
  3
Layout1
350
1E
  3
Layout2
350
26
  3
Model
350
22
  0
DICTIONARY
  5
43
102
{ACAD_REACTORS
330
C
102
}
330
C
100
AcDbDictionary
281
     1
  3
ByBlock
350
45
  3
ByLayer
350
44
  3
Global
350
46
  0
DICTIONARY
  5
6B
102
{ACAD_REACTORS
330
C
102
}
330
C
100
AcDbDictionary
281
     1
  3
Standard
350
6C
  0
DICTIONARY
  5
17
102
{ACAD_REACTORS
330
C
102
}
330
C
100
AcDbDictionary
281
     1
  3
Standard
350
18
  0
DICTIONARY
  5
19
102
{ACAD_REACTORS
330
C
102
}
330
C
100
AcDbDictionary
281
     1
  0
ACDBDICTIONARYWDFLT
  5
E
102
{ACAD_REACTORS
330
C
102
}
330
C
100
AcDbDictionary
281
     1
  3
Normal
350
F
100
AcDbDictionaryWithDefault
340
F
  0
DICTIONARY
  5
47
102
{ACAD_REACTORS
330
C
102
}
330
C
100
AcDbDictionary
281
     1
  3
A0
350
48
  3
A1
350
49
  3
A2
350
4A
  3
A3
350
4B
  3
A4
350
4C
  3
A5
350
4D
  3
A6
350
4E
  3
A7
350
4F
  3
A8
350
50
  3
A9
350
51
  3
B0
350
52
  3
B1
350
53
  3
B2
350
54
  3
B3
350
55
  3
B4
350
56
  3
B5
350
57
  3
B6
350
58
  3
B7
350
59
  3
B8
350
5A
  3
B9
350
5B
  3
C0
350
5C
  3
C1
350
5D
  3
C2
350
5E
  3
C3
350
5F
  3
C4
350
60
  3
C5
350
61
  3
C6
350
62
  3
C7
350
63
  3
C8
350
64
  3
C9
350
65
  3
D0
350
66
  3
D1
350
67
  3
D2
350
68
  0
DICTIONARY
  5
1D0
102
{ACAD_REACTORS
330
C
102
}
330
C
100
AcDbDictionary
281
     1
  0
DICTIONARY
  5
69
102
{ACAD_REACTORS
330
C
102
}
330
C
100
AcDbDictionary
281
     1
  3
Standard
350
6A
  0
DICTIONARY
  5
2A
102
{ACAD_REACTORS
330
C
102
}
330
C
100
AcDbDictionary
281
     1
  3
2dWireframe
350
2F
  3
Basic
350
32
  3
Brighten
350
36
  3
ColorChange
350
3A
  3
Conceptual
350
34
  3
Dim
350
35
  3
EdgeColorOff
350
3D
  3
Facepattern
350
39
  3
Flat
350
2B
  3
FlatWithEdges
350
2C
  3
Gouraud
350
2D
  3
GouraudWithEdges
350
2E
  3
Hidden
350
31
  3
JitterOff
350
3B
  3
Linepattern
350
38
  3
OverhangOff
350
3C
  3
Realistic
350
33
  3
Shaded
350
42
  3
Shaded with edges
350
41
  3
Shades of Gray
350
3E
  3
Sketchy
350
3F
  3
Thicken
350
37
  3
Wireframe
350
30
  3
X-Ray
350
40
  0
XRECORD
  5
1CC
102
{ACAD_REACTORS
330
C
102
}
330
C
100
AcDbXrecord
280
     1
 90
        1
330
6A
  0
DICTIONARY
  5
1C8
102
{ACAD_REACTORS
330
C
102
}
330
C
100
AcDbDictionary
281
     1
  3
CANNOSCALE
350
1C9
  3
CMLEADERSTYLE
350
1CE
  3
CTABLESTYLE
350
1CD
  0
LAYOUT
  5
1E
102
{ACAD_REACTORS
330
1A
102
}
330
1A
100
AcDbPlotSettings
  1

  2
none_device
  4

  6

 40
0.0
 41
0.0
 42
0.0
 43
0.0
 44
0.0
 45
0.0
 46
0.0
 47
0.0
 48
0.0
 49
0.0
140
0.0
141
0.0
142
1.0
143
1.0
 70
   688
 72
     0
 73
     0
 74
     5
  7

 75
    16
 76
     0
 77
     2
 78
   300
147
1.0
148
0.0
149
0.0
100
AcDbLayout
  1
Layout1
 70
     1
 71
     1
 10
0.0
 20
0.0
 11
12.0
 21
9.0
 12
0.0
 22
0.0
 32
0.0
 14
1.000000000000000E+20
 24
1.000000000000000E+20
 34
1.000000000000000E+20
 15
-1.000000000000000E+20
 25
-1.000000000000000E+20
 35
-1.000000000000000E+20
146
0.0
 13
0.0
 23
0.0
 33
0.0
 16
1.0
 26
0.0
 36
0.0
 17
0.0
 27
1.0
 37
0.0
 76
     0
330
1B
  0
LAYOUT
  5
26
102
{ACAD_REACTORS
330
1A
102
}
330
1A
100
AcDbPlotSettings
  1

  2
none_device
  4

  6

 40
0.0
 41
0.0
 42
0.0
 43
0.0
 44
0.0
 45
0.0
 46
0.0
 47
0.0
 48
0.0
 49
0.0
140
0.0
141
0.0
142
1.0
143
1.0
 70
   688
 72
     0
 73
     0
 74
     5
  7

 75
    16
 76
     0
 77
     2
 78
   300
147
1.0
148
0.0
149
0.0
100
AcDbLayout
  1
Layout2
 70
     1
 71
     2
 10
0.0
 20
0.0
 11
0.0
 21
0.0
 12
0.0
 22
0.0
 32
0.0
 14
0.0
 24
0.0
 34
0.0
 15
0.0
 25
0.0
 35
0.0
146
0.0
 13
0.0
 23
0.0
 33
0.0
 16
1.0
 26
0.0
 36
0.0
 17
0.0
 27
1.0
 37
0.0
 76
     0
330
23
  0
LAYOUT
  5
22
102
{ACAD_REACTORS
330
1A
102
}
330
1A
100
AcDbPlotSettings
  1

  2
none_device
  4
Letter_(8.50_x_11.00_Inches)
  6

 40
6.35
 41
6.35
 42
6.35000508
 43
6.35000508
 44
215.9
 45
279.4
 46
0.0
 47
0.0
 48
0.0
 49
0.0
140
0.0
141
0.0
142
1.0
143
1.0
 70
  1712
 72
     0
 73
     0
 74
     0
  7

 75
     0
 76
     0
 77
     2
 78
   300
147
1.0
148
0.0
149
0.0
100
AcDbLayout
  1
Model
 70
     1
 71
     0
 10
0.0
 20
0.0
 11
12.0
 21
9.0
 12
0.0
 22
0.0
 32
0.0
 14
1.000000000000000E+20
 24
1.000000000000000E+20
 34
1.000000000000000E+20
 15
-1.000000000000000E+20
 25
-1.000000000000000E+20
 35
-1.000000000000000E+20
146
0.0
 13
0.0
 23
0.0
 33
0.0
 16
1.0
 26
0.0
 36
0.0
 17
0.0
 27
1.0
 37
0.0
 76
     0
330
1F
331
29
  0
MATERIAL
  5
45
102
{ACAD_REACTORS
330
43
102
}
330
43
100
AcDbMaterial
  1
ByBlock
 72
     1
 94
      127
  0
MATERIAL
  5
44
102
{ACAD_REACTORS
330
43
102
}
330
43
100
AcDbMaterial
  1
ByLayer
 72
     1
 94
      127
  0
MATERIAL
  5
46
102
{ACAD_REACTORS
330
43
102
}
330
43
100
AcDbMaterial
  1
Global
 72
     1
 94
      127
  0
MLEADERSTYLE
  5
6C
102
{ACAD_REACTORS
330
6B
102
}
330
6B
100
AcDbMLeaderStyle
179
     2
170
     2
171
     1
172
     0
 90
        2
 40
0.0
 41
0.0
173
     1
 91
-1056964608
340
14
 92
       -2
290
     1
 42
0.09
291
     1
 43
0.36
  3
Standard
341
0
 44
0.18
300

342
11
174
     1
178
     6
175
     1
176
     0
 93
-1056964608
 45
0.18
292
     0
297
     0
 46
0.18
343
0
 94
-1056964608
 47
1.0
 49
1.0
140
1.0
293
     1
141
0.0
294
     1
177
     0
142
1.0
295
     0
296
     0
143
0.125
271
     0
272
     9
273
     9
298
     0
  0
MLINESTYLE
  5
18
102
{ACAD_REACTORS
330
17
102
}
330
17
100
AcDbMlineStyle
  2
Standard
 70
     0
  3

 62
   256
 51
90.0
 52
90.0
 71
     2
 49
0.5
 62
   256
  6
BYLAYER
 49
-0.5
 62
   256
  6
BYLAYER
  0
ACDBPLACEHOLDER
  5
F
102
{ACAD_REACTORS
330
E
102
}
330
E
  0
SCALE
  5
48
102
{ACAD_REACTORS
330
47
102
}
330
47
100
AcDbScale
 70
     0
300
1:1
140
1.0
141
1.0
290
     1
  0
SCALE
  5
49
102
{ACAD_REACTORS
330
47
102
}
330
47
100
AcDbScale
 70
     0
300
1:2
140
1.0
141
2.0
290
     0
  0
SCALE
  5
4A
102
{ACAD_REACTORS
330
47
102
}
330
47
100
AcDbScale
 70
     0
300
1:4
140
1.0
141
4.0
290
     0
  0
SCALE
  5
4B
102
{ACAD_REACTORS
330
47
102
}
330
47
100
AcDbScale
 70
     0
300
1:5
140
1.0
141
5.0
290
     0
  0
SCALE
  5
4C
102
{ACAD_REACTORS
330
47
102
}
330
47
100
AcDbScale
 70
     0
300
1:8
140
1.0
141
8.0
290
     0
  0
SCALE
  5
4D
102
{ACAD_REACTORS
330
47
102
}
330
47
100
AcDbScale
 70
     0
300
1:10
140
1.0
141
10.0
290
     0
  0
SCALE
  5
4E
102
{ACAD_REACTORS
330
47
102
}
330
47
100
AcDbScale
 70
     0
300
1:16
140
1.0
141
16.0
290
     0
  0
SCALE
  5
4F
102
{ACAD_REACTORS
330
47
102
}
330
47
100
AcDbScale
 70
     0
300
1:20
140
1.0
141
20.0
290
     0
  0
SCALE
  5
50
102
{ACAD_REACTORS
330
47
102
}
330
47
100
AcDbScale
 70
     0
300
1:30
140
1.0
141
30.0
290
     0
  0
SCALE
  5
51
102
{ACAD_REACTORS
330
47
102
}
330
47
100
AcDbScale
 70
     0
300
1:40
140
1.0
141
40.0
290
     0
  0
SCALE
  5
52
102
{ACAD_REACTORS
330
47
102
}
330
47
100
AcDbScale
 70
     0
300
1:50
140
1.0
141
50.0
290
     0
  0
SCALE
  5
53
102
{ACAD_REACTORS
330
47
102
}
330
47
100
AcDbScale
 70
     0
300
1:100
140
1.0
141
100.0
290
     0
  0
SCALE
  5
54
102
{ACAD_REACTORS
330
47
102
}
330
47
100
AcDbScale
 70
     0
300
2:1
140
2.0
141
1.0
290
     0
  0
SCALE
  5
55
102
{ACAD_REACTORS
330
47
102
}
330
47
100
AcDbScale
 70
     0
300
4:1
140
4.0
141
1.0
290
     0
  0
SCALE
  5
56
102
{ACAD_REACTORS
330
47
102
}
330
47
100
AcDbScale
 70
     0
300
8:1
140
8.0
141
1.0
290
     0
  0
SCALE
  5
57
102
{ACAD_REACTORS
330
47
102
}
330
47
100
AcDbScale
 70
     0
300
10:1
140
10.0
141
1.0
290
     0
  0
SCALE
  5
58
102
{ACAD_REACTORS
330
47
102
}
330
47
100
AcDbScale
 70
     0
300
100:1
140
100.0
141
1.0
290
     0
  0
SCALE
  5
59
102
{ACAD_REACTORS
330
47
102
}
330
47
100
AcDbScale
 70
     0
300
1/128" = 1'-0"
140
0.0078125
141
12.0
290
     0
  0
SCALE
  5
5A
102
{ACAD_REACTORS
330
47
102
}
330
47
100
AcDbScale
 70
     0
300
1/64" = 1'-0"
140
0.015625
141
12.0
290
     0
  0
SCALE
  5
5B
102
{ACAD_REACTORS
330
47
102
}
330
47
100
AcDbScale
 70
     0
300
1/32" = 1'-0"
140
0.03125
141
12.0
290
     0
  0
SCALE
  5
5C
102
{ACAD_REACTORS
330
47
102
}
330
47
100
AcDbScale
 70
     0
300
1/16" = 1'-0"
140
0.0625
141
12.0
290
     0
  0
SCALE
  5
5D
102
{ACAD_REACTORS
330
47
102
}
330
47
100
AcDbScale
 70
     0
300
3/32" = 1'-0"
140
0.09375
141
12.0
290
     0
  0
SCALE
  5
5E
102
{ACAD_REACTORS
330
47
102
}
330
47
100
AcDbScale
 70
     0
300
1/8" = 1'-0"
140
0.125
141
12.0
290
     0
  0
SCALE
  5
5F
102
{ACAD_REACTORS
330
47
102
}
330
47
100
AcDbScale
 70
     0
300
3/16" = 1'-0"
140
0.1875
141
12.0
290
     0
  0
SCALE
  5
60
102
{ACAD_REACTORS
330
47
102
}
330
47
100
AcDbScale
 70
     0
300
1/4" = 1'-0"
140
0.25
141
12.0
290
     0
  0
SCALE
  5
61
102
{ACAD_REACTORS
330
47
102
}
330
47
100
AcDbScale
 70
     0
300
3/8" = 1'-0"
140
0.375
141
12.0
290
     0
  0
SCALE
  5
62
102
{ACAD_REACTORS
330
47
102
}
330
47
100
AcDbScale
 70
     0
300
1/2" = 1'-0"
140
0.5
141
12.0
290
     0
  0
SCALE
  5
63
102
{ACAD_REACTORS
330
47
102
}
330
47
100
AcDbScale
 70
     0
300
3/4" = 1'-0"
140
0.75
141
12.0
290
     0
  0
SCALE
  5
64
102
{ACAD_REACTORS
330
47
102
}
330
47
100
AcDbScale
 70
     0
300
1" = 1'-0"
140
1.0
141
12.0
290
     0
  0
SCALE
  5
65
102
{ACAD_REACTORS
330
47
102
}
330
47
100
AcDbScale
 70
     0
300
1-1/2" = 1'-0"
140
1.5
141
12.0
290
     0
  0
SCALE
  5
66
102
{ACAD_REACTORS
330
47
102
}
330
47
100
AcDbScale
 70
     0
300
3" = 1'-0"
140
3.0
141
12.0
290
     0
  0
SCALE
  5
67
102
{ACAD_REACTORS
330
47
102
}
330
47
100
AcDbScale
 70
     0
300
6" = 1'-0"
140
6.0
141
12.0
290
     0
  0
SCALE
  5
68
102
{ACAD_REACTORS
330
47
102
}
330
47
100
AcDbScale
 70
     0
300
1'-0" = 1'-0"
140
12.0
141
12.0
290
     0
  0
TABLESTYLE
  5
6A
102
{ACAD_REACTORS
330
69
102
}
102
{ACAD_XDICTIONARY
360
1CA
102
}
330
69
100
AcDbTableStyle
  3
Standard
 70
     0
 71
     0
 40
0.06
 41
0.06
280
     0
281
     0
  7
Standard
140
0.18
170
     2
 62
     0
 63
   257
283
     0
 90
        4
 91
        0
  1

274
    -2
284
     1
 64
     0
275
    -2
285
     1
 65
     0
276
    -2
286
     1
 66
     0
277
    -2
287
     1
 67
     0
278
    -2
288
     1
 68
     0
279
    -2
289
     1
 69
     0
  7
Standard
140
0.25
170
     5
 62
     0
 63
   257
283
     0
 90
        4
 91
        0
  1

274
    -2
284
     1
 64
     0
275
    -2
285
     1
 65
     0
276
    -2
286
     1
 66
     0
277
    -2
287
     1
 67
     0
278
    -2
288
     1
 68
     0
279
    -2
289
     1
 69
     0
  7
Standard
140
0.18
170
     5
 62
     0
 63
   257
283
     0
 90
        4
 91
        0
  1

274
    -2
284
     1
 64
     0
275
    -2
285
     1
 65
     0
276
    -2
286
     1
 66
     0
277
    -2
287
     1
 67
     0
278
    -2
288
     1
 68
     0
279
    -2
289
     1
 69
     0
  0
VISUALSTYLE
  5
2F
102
{ACAD_REACTORS
330
2A
102
}
330
2A
100
AcDbVisualStyle
  2
2dWireframe
 70
     4
177
     3
291
     0
 70
    58
 90
        0
176
     1
 90
        2
176
     1
 90
        0
176
     1
 90
        0
176
     1
 40
0.6
176
     1
 40
30.0
176
     1
 62
     7
420
 16777215
176
     1
 90
        1
176
     1
 90
        4
176
     1
 62
     7
176
     1
 62
   257
176
     1
 90
        1
176
     1
 90
        1
176
     1
 40
1.0
176
     1
 90
        0
176
     1
 62
   257
176
     1
 40
1.0
176
     1
 90
        1
176
     1
 90
        6
176
     1
 90
        2
176
     1
 62
     7
176
     1
 90
        5
176
     1
 90
        0
176
     1
 90
        0
176
     1
290
     0
176
     1
 90
        1
176
     1
 40
0.0
176
     1
 90
        0
176
     1
290
     1
176
     1
290
     1
176
     1
290
     0
176
     1
290
     0
176
     1
290
     0
176
     1
290
     0
176
     1
290
     0
176
     1
290
     0
176
     1
290
     0
176
     1
 90
       50
176
     1
 40
0.0
176
     1
 40
1.0
176
     1
 90
        0
176
     1
 62
    18
420
        0
176
     1
 90
       50
176
     1
 90
        3
176
     1
 62
     5
420
      255
176
     1
290
     0
176
     1
 90
       50
176
     1
 90
       50
176
     1
 90
       50
176
     1
290
     0
176
     1
 90
       50
176
     1
 62
   256
176
     0
 40
1.0
176
     0
 90
        2
176
     1
  1
strokes_ogs.tif
176
     1
290
     0
176
     1
 40
1.0
176
     1
 40
1.0
176
     1
  0
VISUALSTYLE
  5
32
102
{ACAD_REACTORS
330
2A
102
}
330
2A
100
AcDbVisualStyle
  2
Basic
 70
     7
177
     3
291
     1
 70
    58
 90
        1
176
     1
 90
        0
176
     1
 90
        1
176
     1
 90
        0
176
     1
 40
0.6
176
     1
 40
30.0
176
     1
 62
     7
420
 16777215
176
     1
 90
        0
176
     1
 90
        4
176
     1
 62
     7
176
     1
 62
   257
176
     1
 90
        1
176
     1
 90
        1
176
     1
 40
1.0
176
     1
 90
        8
176
     1
 62
     7
176
     1
 40
1.0
176
     1
 90
        1
176
     1
 90
        6
176
     1
 90
        2
176
     1
 62
     7
176
     1
 90
        5
176
     1
 90
        0
176
     1
 90
        0
176
     1
290
     0
176
     1
 90
        1
176
     1
 40
0.0
176
     1
 90
        0
176
     1
290
     0
176
     1
290
     1
176
     1
290
     1
176
     1
290
     0
176
     1
290
     0
176
     1
290
     0
176
     1
290
     0
176
     1
290
     0
176
     1
290
     0
176
     1
 90
       50
176
     1
 40
0.0
176
     1
 40
1.0
176
     1
 90
        0
176
     1
 62
    18
420
        0
176
     1
 90
       50
176
     1
 90
        3
176
     1
 62
     5
420
      255
176
     1
290
     0
176
     1
 90
       50
176
     1
 90
       50
176
     1
 90
       50
176
     1
290
     0
176
     1
 90
       50
176
     1
 62
   256
176
     0
 40
1.0
176
     0
 90
        2
176
     1
  1
strokes_ogs.tif
176
     1
290
     0
176
     1
 40
1.0
176
     1
 40
1.0
176
     1
  0
VISUALSTYLE
  5
36
102
{ACAD_REACTORS
330
2A
102
}
330
2A
100
AcDbVisualStyle
  2
Brighten
 70
    12
177
     3
291
     1
 70
    58
 90
        2
176
     1
 90
        2
176
     1
 90
        0
176
     1
 90
        0
176
     1
 40
0.6
176
     1
 40
30.0
176
     1
 62
     7
420
 16777215
176
     1
 90
        1
176
     1
 90
        4
176
     1
 62
     7
176
     1
 62
   257
176
     1
 90
        1
176
     1
 90
        1
176
     1
 40
1.0
176
     1
 90
        8
176
     1
 62
     7
176
     1
 40
1.0
176
     1
 90
        1
176
     1
 90
        6
176
     1
 90
        2
176
     1
 62
     7
176
     1
 90
        5
176
     1
 90
        0
176
     1
 90
        0
176
     1
290
     0
176
     1
 90
        1
176
     1
 40
50.0
176
     1
 90
        0
176
     1
290
     0
176
     1
290
     1
176
     1
290
     1
176
     1
290
     0
176
     1
290
     0
176
     1
290
     0
176
     1
290
     0
176
     1
290
     0
176
     1
290
     0
176
     1
 90
       50
176
     1
 40
0.0
176
     1
 40
1.0
176
     1
 90
        0
176
     1
 62
    18
420
        0
176
     1
 90
       50
176
     1
 90
        3
176
     1
 62
     5
420
      255
176
     1
290
     0
176
     1
 90
       50
176
     1
 90
       50
176
     1
 90
       50
176
     1
290
     0
176
     1
 90
       50
176
     1
 62
   256
176
     0
 40
1.0
176
     0
 90
        2
176
     1
  1
strokes_ogs.tif
176
     1
290
     0
176
     1
 40
1.0
176
     1
 40
1.0
176
     1
  0
VISUALSTYLE
  5
3A
102
{ACAD_REACTORS
330
2A
102
}
330
2A
100
AcDbVisualStyle
  2
ColorChange
 70
    16
177
     3
291
     1
 70
    58
 90
        2
176
     1
 90
        2
176
     1
 90
        3
176
     1
 90
        0
176
     1
 40
0.6
176
     1
 40
30.0
176
     1
 62
     8
420
  8421504
176
     1
 90
        1
176
     1
 90
        4
176
     1
 62
     7
176
     1
 62
   257
176
     1
 90
        1
176
     1
 90
        1
176
     1
 40
1.0
176
     1
 90
        8
176
     1
 62
     8
420
  8421504
176
     1
 40
1.0
176
     1
 90
        1
176
     1
 90
        6
176
     1
 90
        2
176
     1
 62
     7
176
     1
 90
        5
176
     1
 90
        0
176
     1
 90
        0
176
     1
290
     0
176
     1
 90
        1
176
     1
 40
0.0
176
     1
 90
        0
176
     1
290
     0
176
     1
290
     1
176
     1
290
     1
176
     1
290
     0
176
     1
290
     0
176
     1
290
     0
176
     1
290
     0
176
     1
290
     0
176
     1
290
     0
176
     1
 90
       50
176
     1
 40
0.0
176
     1
 40
1.0
176
     1
 90
        0
176
     1
 62
    18
420
        0
176
     1
 90
       50
176
     1
 90
        3
176
     1
 62
     5
420
      255
176
     1
290
     0
176
     1
 90
       50
176
     1
 90
       50
176
     1
 90
       50
176
     1
290
     0
176
     1
 90
       50
176
     1
 62
   256
176
     0
 40
1.0
176
     0
 90
        2
176
     1
  1
strokes_ogs.tif
176
     1
290
     0
176
     1
 40
1.0
176
     1
 40
1.0
176
     1
  0
VISUALSTYLE
  5
34
102
{ACAD_REACTORS
330
2A
102
}
330
2A
100
AcDbVisualStyle
  2
Conceptual
 70
     9
177
     3
291
     0
 70
    58
 90
        3
176
     1
 90
        2
176
     1
 90
        0
176
     1
 90
        0
176
     1
 40
0.6
176
     1
 40
30.0
176
     1
 62
     7
420
 16777215
176
     1
 90
        2
176
     1
 90
        2
176
     1
 62
     7
176
     1
 62
   257
176
     1
 90
        1
176
     1
 90
        1
176
     1
 40
179.0
176
     1
 90
        8
176
     1
 62
     7
176
     1
 40
1.0
176
     1
 90
        1
176
     1
 90
        6
176
     1
 90
        2
176
     1
 62
     7
176
     1
 90
        3
176
     1
 90
        0
176
     1
 90
        0
176
     1
290
     0
176
     1
 90
        1
176
     1
 40
0.0
176
     1
 90
        0
176
     1
290
     0
176
     1
290
     1
176
     1
290
     1
176
     1
290
     0
176
     1
290
     0
176
     1
290
     0
176
     1
290
     0
176
     1
290
     0
176
     1
290
     0
176
     1
 90
       50
176
     1
 40
0.0
176
     1
 40
1.0
176
     1
 90
        0
176
     1
 62
    18
420
        0
176
     1
 90
       50
176
     1
 90
        3
176
     1
 62
     5
420
      255
176
     1
290
     0
176
     1
 90
       50
176
     1
 90
       50
176
     1
 90
       50
176
     1
290
     0
176
     1
 90
       50
176
     1
 62
   256
176
     0
 40
1.0
176
     0
 90
        2
176
     1
  1
strokes_ogs.tif
176
     1
290
     0
176
     1
 40
1.0
176
     1
 40
1.0
176
     1
  0
VISUALSTYLE
  5
35
102
{ACAD_REACTORS
330
2A
102
}
330
2A
100
AcDbVisualStyle
  2
Dim
 70
    11
177
     3
291
     1
 70
    58
 90
        2
176
     1
 90
        2
176
     1
 90
        0
176
     1
 90
        0
176
     1
 40
0.6
176
     1
 40
30.0
176
     1
 62
     7
420
 16777215
176
     1
 90
        1
176
     1
 90
        4
176
     1
 62
     7
176
     1
 62
   257
176
     1
 90
        1
176
     1
 90
        1
176
     1
 40
1.0
176
     1
 90
        8
176
     1
 62
     7
176
     1
 40
1.0
176
     1
 90
        1
176
     1
 90
        6
176
     1
 90
        2
176
     1
 62
     7
176
     1
 90
        5
176
     1
 90
        0
176
     1
 90
        0
176
     1
290
     0
176
     1
 90
        1
176
     1
 40
-50.0
176
     1
 90
        0
176
     1
290
     0
176
     1
290
     1
176
     1
290
     1
176
     1
290
     0
176
     1
290
     0
176
     1
290
     0
176
     1
290
     0
176
     1
290
     0
176
     1
290
     0
176
     1
 90
       50
176
     1
 40
0.0
176
     1
 40
1.0
176
     1
 90
        0
176
     1
 62
    18
420
        0
176
     1
 90
       50
176
     1
 90
        3
176
     1
 62
     5
420
      255
176
     1
290
     0
176
     1
 90
       50
176
     1
 90
       50
176
     1
 90
       50
176
     1
290
     0
176
     1
 90
       50
176
     1
 62
   256
176
     0
 40
1.0
176
     0
 90
        2
176
     1
  1
strokes_ogs.tif
176
     1
290
     0
176
     1
 40
1.0
176
     1
 40
1.0
176
     1
  0
VISUALSTYLE
  5
3D
102
{ACAD_REACTORS
330
2A
102
}
330
2A
100
AcDbVisualStyle
  2
EdgeColorOff
 70
    22
177
     3
291
     1
 70
    58
 90
        2
176
     0
 90
        2
176
     0
 90
        0
176
     0
 90
        0
176
     0
 40
0.6
176
     0
 40
30.0
176
     0
 62
     7
420
 16777215
176
     0
 90
        1
176
     0
 90
        4
176
     0
 62
     7
176
     0
 62
   257
176
     0
 90
        1
176
     0
 90
        1
176
     0
 40
1.0
176
     0
 90
        8
176
     2
 62
     7
176
     0
 40
1.0
176
     0
 90
        1
176
     0
 90
        6
176
     0
 90
        2
176
     0
 62
     7
176
     0
 90
        5
176
     0
 90
        0
176
     0
 90
        0
176
     0
290
     0
176
     0
 90
        1
176
     0
 40
0.0
176
     0
 90
        0
176
     0
290
     0
176
     0
290
     1
176
     0
290
     1
176
     0
290
     0
176
     0
290
     0
176
     0
290
     0
176
     0
290
     0
176
     0
290
     0
176
     0
290
     0
176
     0
 90
       50
176
     0
 40
0.0
176
     0
 40
1.0
176
     0
 90
        0
176
     0
 62
    18
420
        0
176
     0
 90
       50
176
     0
 90
        3
176
     0
 62
     5
420
      255
176
     0
290
     0
176
     0
 90
       50
176
     0
 90
       50
176
     0
 90
       50
176
     0
290
     0
176
     0
 90
       50
176
     0
 62
   256
176
     0
 40
1.0
176
     0
 90
        2
176
     0
  1
strokes_ogs.tif
176
     0
290
     0
176
     0
 40
1.0
176
     0
 40
1.0
176
     0
  0
VISUALSTYLE
  5
39
102
{ACAD_REACTORS
330
2A
102
}
330
2A
100
AcDbVisualStyle
  2
Facepattern
 70
    15
177
     3
291
     1
 70
    58
 90
        2
176
     1
 90
        2
176
     1
 90
        0
176
     1
 90
        0
176
     1
 40
0.6
176
     1
 40
30.0
176
     1
 62
     7
420
 16777215
176
     1
 90
        1
176
     1
 90
        4
176
     1
 62
     7
176
     1
 62
   257
176
     1
 90
        1
176
     1
 90
        1
176
     1
 40
1.0
176
     1
 90
        8
176
     1
 62
     7
176
     1
 40
1.0
176
     1
 90
        1
176
     1
 90
        6
176
     1
 90
        2
176
     1
 62
     7
176
     1
 90
        5
176
     1
 90
        0
176
     1
 90
        0
176
     1
290
     0
176
     1
 90
        1
176
     1
 40
0.0
176
     1
 90
        0
176
     1
290
     0
176
     1
290
     1
176
     1
290
     1
176
     1
290
     0
176
     1
290
     0
176
     1
290
     0
176
     1
290
     0
176
     1
290
     0
176
     1
290
     0
176
     1
 90
       50
176
     1
 40
0.0
176
     1
 40
1.0
176
     1
 90
        0
176
     1
 62
    18
420
        0
176
     1
 90
       50
176
     1
 90
        3
176
     1
 62
     5
420
      255
176
     1
290
     0
176
     1
 90
       50
176
     1
 90
       50
176
     1
 90
       50
176
     1
290
     0
176
     1
 90
       50
176
     1
 62
   256
176
     0
 40
1.0
176
     0
 90
        2
176
     1
  1
strokes_ogs.tif
176
     1
290
     0
176
     1
 40
1.0
176
     1
 40
1.0
176
     1
  0
VISUALSTYLE
  5
2B
102
{ACAD_REACTORS
330
2A
102
}
330
2A
100
AcDbVisualStyle
  2
Flat
 70
     0
177
     3
291
     1
 70
    58
 90
        2
176
     1
 90
        1
176
     1
 90
        1
176
     1
 90
        2
176
     1
 40
0.6
176
     1
 40
30.0
176
     1
 62
     7
420
 16777215
176
     1
 90
        0
176
     1
 90
        0
176
     1
 62
     7
176
     1
 62
   257
176
     1
 90
        1
176
     1
 90
        1
176
     1
 40
1.0
176
     1
 90
        8
176
     1
 62
     7
176
     1
 40
1.0
176
     1
 90
        1
176
     1
 90
        6
176
     1
 90
        2
176
     1
 62
     7
176
     1
 90
        5
176
     1
 90
        0
176
     1
 90
        0
176
     1
290
     0
176
     1
 90
       13
176
     1
 40
0.0
176
     1
 90
        0
176
     1
290
     0
176
     1
290
     1
176
     1
290
     1
176
     1
290
     0
176
     1
290
     0
176
     1
290
     0
176
     1
290
     0
176
     1
290
     0
176
     1
290
     0
176
     1
 90
       50
176
     1
 40
0.0
176
     1
 40
1.0
176
     1
 90
        0
176
     1
 62
    18
420
        0
176
     1
 90
       50
176
     1
 90
        3
176
     1
 62
     5
420
      255
176
     1
290
     0
176
     1
 90
       50
176
     1
 90
       50
176
     1
 90
       50
176
     1
290
     0
176
     1
 90
       50
176
     1
 62
   256
176
     0
 40
1.0
176
     0
 90
        2
176
     1
  1
strokes_ogs.tif
176
     1
290
     0
176
     1
 40
1.0
176
     1
 40
1.0
176
     1
  0
VISUALSTYLE
  5
2C
102
{ACAD_REACTORS
330
2A
102
}
330
2A
100
AcDbVisualStyle
  2
FlatWithEdges
 70
     1
177
     3
291
     1
 70
    58
 90
        2
176
     1
 90
        1
176
     1
 90
        1
176
     1
 90
        2
176
     1
 40
0.6
176
     1
 40
30.0
176
     1
 62
     7
420
 16777215
176
     1
 90
        1
176
     1
 90
        0
176
     1
 62
     7
176
     1
 62
   257
176
     1
 90
        1
176
     1
 90
        1
176
     1
 40
1.0
176
     1
 90
        0
176
     1
 62
   257
176
     1
 40
1.0
176
     1
 90
        1
176
     1
 90
        6
176
     1
 90
        2
176
     1
 62
     7
176
     1
 90
        5
176
     1
 90
        0
176
     1
 90
        0
176
     1
290
     0
176
     1
 90
       13
176
     1
 40
0.0
176
     1
 90
        0
176
     1
290
     0
176
     1
290
     1
176
     1
290
     1
176
     1
290
     0
176
     1
290
     0
176
     1
290
     0
176
     1
290
     0
176
     1
290
     0
176
     1
290
     0
176
     1
 90
       50
176
     1
 40
0.0
176
     1
 40
1.0
176
     1
 90
        0
176
     1
 62
    18
420
        0
176
     1
 90
       50
176
     1
 90
        3
176
     1
 62
     5
420
      255
176
     1
290
     0
176
     1
 90
       50
176
     1
 90
       50
176
     1
 90
       50
176
     1
290
     0
176
     1
 90
       50
176
     1
 62
   256
176
     0
 40
1.0
176
     0
 90
        2
176
     1
  1
strokes_ogs.tif
176
     1
290
     0
176
     1
 40
1.0
176
     1
 40
1.0
176
     1
  0
VISUALSTYLE
  5
2D
102
{ACAD_REACTORS
330
2A
102
}
330
2A
100
AcDbVisualStyle
  2
Gouraud
 70
     2
177
     3
291
     1
 70
    58
 90
        2
176
     1
 90
        2
176
     1
 90
        1
176
     1
 90
        2
176
     1
 40
0.6
176
     1
 40
30.0
176
     1
 62
     7
420
 16777215
176
     1
 90
        0
176
     1
 90
        0
176
     1
 62
     7
176
     1
 62
   257
176
     1
 90
        1
176
     1
 90
        1
176
     1
 40
1.0
176
     1
 90
        0
176
     1
 62
     7
176
     1
 40
1.0
176
     1
 90
        1
176
     1
 90
        6
176
     1
 90
        2
176
     1
 62
     7
176
     1
 90
        5
176
     1
 90
        0
176
     1
 90
        0
176
     1
290
     0
176
     1
 90
       13
176
     1
 40
0.0
176
     1
 90
        0
176
     1
290
     0
176
     1
290
     1
176
     1
290
     1
176
     1
290
     0
176
     1
290
     0
176
     1
290
     0
176
     1
290
     0
176
     1
290
     0
176
     1
290
     0
176
     1
 90
       50
176
     1
 40
0.0
176
     1
 40
1.0
176
     1
 90
        0
176
     1
 62
    18
420
        0
176
     1
 90
       50
176
     1
 90
        3
176
     1
 62
     5
420
      255
176
     1
290
     0
176
     1
 90
       50
176
     1
 90
       50
176
     1
 90
       50
176
     1
290
     0
176
     1
 90
       50
176
     1
 62
   256
176
     0
 40
1.0
176
     0
 90
        2
176
     1
  1
strokes_ogs.tif
176
     1
290
     0
176
     1
 40
1.0
176
     1
 40
1.0
176
     1
  0
VISUALSTYLE
  5
2E
102
{ACAD_REACTORS
330
2A
102
}
330
2A
100
AcDbVisualStyle
  2
GouraudWithEdges
 70
     3
177
     3
291
     1
 70
    58
 90
        2
176
     1
 90
        2
176
     1
 90
        1
176
     1
 90
        2
176
     1
 40
0.6
176
     1
 40
30.0
176
     1
 62
     7
420
 16777215
176
     1
 90
        1
176
     1
 90
        0
176
     1
 62
     7
176
     1
 62
   257
176
     1
 90
        1
176
     1
 90
        1
176
     1
 40
1.0
176
     1
 90
        0
176
     1
 62
   257
176
     1
 40
1.0
176
     1
 90
        1
176
     1
 90
        6
176
     1
 90
        2
176
     1
 62
     7
176
     1
 90
        5
176
     1
 90
        0
176
     1
 90
        0
176
     1
290
     0
176
     1
 90
       13
176
     1
 40
0.0
176
     1
 90
        0
176
     1
290
     0
176
     1
290
     1
176
     1
290
     1
176
     1
290
     0
176
     1
290
     0
176
     1
290
     0
176
     1
290
     0
176
     1
290
     0
176
     1
290
     0
176
     1
 90
       50
176
     1
 40
0.0
176
     1
 40
1.0
176
     1
 90
        0
176
     1
 62
    18
420
        0
176
     1
 90
       50
176
     1
 90
        3
176
     1
 62
     5
420
      255
176
     1
290
     0
176
     1
 90
       50
176
     1
 90
       50
176
     1
 90
       50
176
     1
290
     0
176
     1
 90
       50
176
     1
 62
   256
176
     0
 40
1.0
176
     0
 90
        2
176
     1
  1
strokes_ogs.tif
176
     1
290
     0
176
     1
 40
1.0
176
     1
 40
1.0
176
     1
  0
VISUALSTYLE
  5
31
102
{ACAD_REACTORS
330
2A
102
}
330
2A
100
AcDbVisualStyle
  2
Hidden
 70
     6
177
     3
291
     0
 70
    58
 90
        1
176
     1
 90
        2
176
     1
 90
        2
176
     1
 90
        0
176
     1
 40
0.6
176
     1
 40
30.0
176
     1
 62
     7
420
 16777215
176
     1
 90
        2
176
     1
 90
        2
176
     1
 62
     7
176
     1
 62
   257
176
     1
 90
        2
176
     1
 90
        1
176
     1
 40
40.0
176
     1
 90
        0
176
     1
 62
   257
176
     1
 40
1.0
176
     1
 90
        1
176
     1
 90
        6
176
     1
 90
        2
176
     1
 62
     7
176
     1
 90
        3
176
     1
 90
        0
176
     1
 90
        0
176
     1
290
     0
176
     1
 90
        1
176
     1
 40
0.0
176
     1
 90
        0
176
     1
290
     0
176
     1
290
     1
176
     1
290
     1
176
     1
290
     0
176
     1
290
     0
176
     1
290
     0
176
     1
290
     0
176
     1
290
     0
176
     1
290
     0
176
     1
 90
       50
176
     1
 40
0.0
176
     1
 40
1.0
176
     1
 90
        0
176
     1
 62
    18
420
        0
176
     1
 90
       50
176
     1
 90
        3
176
     1
 62
     5
420
      255
176
     1
290
     0
176
     1
 90
       50
176
     1
 90
       50
176
     1
 90
       50
176
     1
290
     0
176
     1
 90
       50
176
     1
 62
   256
176
     0
 40
1.0
176
     0
 90
        2
176
     1
  1
strokes_ogs.tif
176
     1
290
     0
176
     1
 40
1.0
176
     1
 40
1.0
176
     1
  0
VISUALSTYLE
  5
3B
102
{ACAD_REACTORS
330
2A
102
}
330
2A
100
AcDbVisualStyle
  2
JitterOff
 70
    20
177
     3
291
     1
 70
    58
 90
        2
176
     0
 90
        2
176
     0
 90
        0
176
     0
 90
        0
176
     0
 40
0.6
176
     0
 40
30.0
176
     0
 62
     7
420
 16777215
176
     0
 90
        1
176
     0
 90
        4
176
     0
 62
     7
176
     0
 62
   257
176
     0
 90
        1
176
     0
 90
        1
176
     0
 40
1.0
176
     0
 90
       10
176
     2
 62
     7
176
     0
 40
1.0
176
     0
 90
        1
176
     0
 90
        6
176
     0
 90
        2
176
     0
 62
     7
176
     0
 90
        5
176
     0
 90
        0
176
     0
 90
        0
176
     0
290
     0
176
     0
 90
        1
176
     0
 40
0.0
176
     0
 90
        0
176
     0
290
     0
176
     0
290
     1
176
     0
290
     1
176
     0
290
     0
176
     0
290
     0
176
     0
290
     0
176
     0
290
     0
176
     0
290
     0
176
     0
290
     0
176
     0
 90
       50
176
     0
 40
0.0
176
     0
 40
1.0
176
     0
 90
        0
176
     0
 62
    18
420
        0
176
     0
 90
       50
176
     0
 90
        3
176
     0
 62
     5
420
      255
176
     0
290
     0
176
     0
 90
       50
176
     0
 90
       50
176
     0
 90
       50
176
     0
290
     0
176
     0
 90
       50
176
     0
 62
   256
176
     0
 40
1.0
176
     0
 90
        2
176
     0
  1
strokes_ogs.tif
176
     0
290
     0
176
     0
 40
1.0
176
     0
 40
1.0
176
     0
  0
VISUALSTYLE
  5
38
102
{ACAD_REACTORS
330
2A
102
}
330
2A
100
AcDbVisualStyle
  2
Linepattern
 70
    14
177
     3
291
     1
 70
    58
 90
        2
176
     1
 90
        2
176
     1
 90
        0
176
     1
 90
        0
176
     1
 40
0.6
176
     1
 40
30.0
176
     1
 62
     7
420
 16777215
176
     1
 90
        1
176
     1
 90
        4
176
     1
 62
     7
176
     1
 62
   257
176
     1
 90
        7
176
     1
 90
        7
176
     1
 40
1.0
176
     1
 90
        8
176
     1
 62
     7
176
     1
 40
1.0
176
     1
 90
        1
176
     1
 90
        6
176
     1
 90
        2
176
     1
 62
     7
176
     1
 90
        5
176
     1
 90
        0
176
     1
 90
        0
176
     1
290
     0
176
     1
 90
        1
176
     1
 40
0.0
176
     1
 90
        0
176
     1
290
     0
176
     1
290
     1
176
     1
290
     1
176
     1
290
     0
176
     1
290
     0
176
     1
290
     0
176
     1
290
     0
176
     1
290
     0
176
     1
290
     0
176
     1
 90
       50
176
     1
 40
0.0
176
     1
 40
1.0
176
     1
 90
        0
176
     1
 62
    18
420
        0
176
     1
 90
       50
176
     1
 90
        3
176
     1
 62
     5
420
      255
176
     1
290
     0
176
     1
 90
       50
176
     1
 90
       50
176
     1
 90
       50
176
     1
290
     0
176
     1
 90
       50
176
     1
 62
   256
176
     0
 40
1.0
176
     0
 90
        2
176
     1
  1
strokes_ogs.tif
176
     1
290
     0
176
     1
 40
1.0
176
     1
 40
1.0
176
     1
  0
VISUALSTYLE
  5
3C
102
{ACAD_REACTORS
330
2A
102
}
330
2A
100
AcDbVisualStyle
  2
OverhangOff
 70
    21
177
     3
291
     1
 70
    58
 90
        2
176
     0
 90
        2
176
     0
 90
        0
176
     0
 90
        0
176
     0
 40
0.6
176
     0
 40
30.0
176
     0
 62
     7
420
 16777215
176
     0
 90
        1
176
     0
 90
        4
176
     0
 62
     7
176
     0
 62
   257
176
     0
 90
        1
176
     0
 90
        1
176
     0
 40
1.0
176
     0
 90
        9
176
     2
 62
     7
176
     0
 40
1.0
176
     0
 90
        1
176
     0
 90
        6
176
     0
 90
        2
176
     0
 62
     7
176
     0
 90
        5
176
     0
 90
        0
176
     0
 90
        0
176
     0
290
     0
176
     0
 90
        1
176
     0
 40
0.0
176
     0
 90
        0
176
     0
290
     0
176
     0
290
     1
176
     0
290
     1
176
     0
290
     0
176
     0
290
     0
176
     0
290
     0
176
     0
290
     0
176
     0
290
     0
176
     0
290
     0
176
     0
 90
       50
176
     0
 40
0.0
176
     0
 40
1.0
176
     0
 90
        0
176
     0
 62
    18
420
        0
176
     0
 90
       50
176
     0
 90
        3
176
     0
 62
     5
420
      255
176
     0
290
     0
176
     0
 90
       50
176
     0
 90
       50
176
     0
 90
       50
176
     0
290
     0
176
     0
 90
       50
176
     0
 62
   256
176
     0
 40
1.0
176
     0
 90
        2
176
     0
  1
strokes_ogs.tif
176
     0
290
     0
176
     0
 40
1.0
176
     0
 40
1.0
176
     0
  0
VISUALSTYLE
  5
33
102
{ACAD_REACTORS
330
2A
102
}
330
2A
100
AcDbVisualStyle
  2
Realistic
 70
     8
177
     3
291
     0
 70
    58
 90
        2
176
     1
 90
        3
176
     1
 90
        0
176
     1
 90
        2
176
     1
 40
0.6
176
     1
 40
30.0
176
     1
 62
     7
420
 16777215
176
     1
 90
        0
176
     1
 90
        0
176
     1
 62
     7
176
     1
 62
   257
176
     1
 90
        1
176
     1
 90
        1
176
     1
 40
1.0
176
     1
 90
        8
176
     1
 62
   257
176
     1
 40
1.0
176
     1
 90
        1
176
     1
 90
        6
176
     1
 90
        2
176
     1
 62
     7
176
     1
 90
        3
176
     1
 90
        0
176
     1
 90
        0
176
     1
290
     0
176
     1
 90
       13
176
     1
 40
0.0
176
     1
 90
        0
176
     1
290
     0
176
     1
290
     1
176
     1
290
     1
176
     1
290
     0
176
     1
290
     0
176
     1
290
     0
176
     1
290
     0
176
     1
290
     0
176
     1
290
     0
176
     1
 90
       50
176
     1
 40
0.0
176
     1
 40
1.0
176
     1
 90
        0
176
     1
 62
    18
420
        0
176
     1
 90
       50
176
     1
 90
        3
176
     1
 62
     5
420
      255
176
     1
290
     0
176
     1
 90
       50
176
     1
 90
       50
176
     1
 90
       50
176
     1
290
     0
176
     1
 90
       50
176
     1
 62
   256
176
     0
 40
1.0
176
     0
 90
        2
176
     1
  1
strokes_ogs.tif
176
     1
290
     0
176
     1
 40
1.0
176
     1
 40
1.0
176
     1
  0
VISUALSTYLE
  5
42
102
{ACAD_REACTORS
330
2A
102
}
330
2A
100
AcDbVisualStyle
  2
Shaded
 70
    27
177
     3
291
     0
 70
    58
 90
        2
176
     1
 90
        2
176
     1
 90
        1
176
     1
 90
        2
176
     1
 40
0.6
176
     1
 40
30.0
176
     1
 62
     7
420
 16777215
176
     1
 90
        0
176
     1
 90
        4
176
     1
 62
     7
176
     1
 62
   257
176
     1
 90
        1
176
     1
 90
        1
176
     1
 40
1.0
176
     1
 90
        8
176
     1
 62
   257
176
     1
 40
1.0
176
     1
 90
        1
176
     1
 90
        6
176
     1
 90
        2
176
     1
 62
     8
420
  7895160
176
     1
 90
        3
176
     1
 90
        0
176
     1
 90
        0
176
     1
290
     0
176
     1
 90
        5
176
     1
 40
0.0
176
     1
 90
        0
176
     1
290
     0
176
     1
290
     1
176
     1
290
     1
176
     1
290
     0
176
     1
290
     0
176
     1
290
     0
176
     1
290
     0
176
     1
290
     0
176
     1
290
     0
176
     1
 90
       50
176
     1
 40
0.0
176
     1
 40
1.0
176
     1
 90
        0
176
     1
 62
    18
420
        0
176
     1
 90
       50
176
     1
 90
        3
176
     1
 62
     5
420
      255
176
     1
290
     0
176
     1
 90
       50
176
     1
 90
       50
176
     1
 90
       50
176
     1
290
     0
176
     1
 90
       50
176
     1
 62
   256
176
     0
 40
1.0
176
     0
 90
        2
176
     1
  1
strokes_ogs.tif
176
     1
290
     0
176
     1
 40
1.0
176
     1
 40
1.0
176
     1
  0
VISUALSTYLE
  5
41
102
{ACAD_REACTORS
330
2A
102
}
330
2A
100
AcDbVisualStyle
  2
Shaded with edges
 70
    26
177
     3
291
     0
 70
    58
 90
        2
176
     1
 90
        2
176
     1
 90
        1
176
     1
 90
        2
176
     1
 40
0.6
176
     1
 40
30.0
176
     1
 62
     7
420
 16777215
176
     1
 90
        1
176
     1
 90
       10
176
     1
 62
     7
176
     1
 62
   257
176
     1
 90
        2
176
     1
 90
        1
176
     1
 40
1.0
176
     1
 90
        8
176
     1
 62
   257
176
     1
 40
1.0
176
     1
 90
        1
176
     1
 90
        6
176
     1
 90
        2
176
     1
 62
     7
176
     1
 90
        3
176
     1
 90
        0
176
     1
 90
        0
176
     1
290
     0
176
     1
 90
        5
176
     1
 40
0.0
176
     1
 90
        0
176
     1
290
     0
176
     1
290
     1
176
     1
290
     1
176
     1
290
     0
176
     1
290
     0
176
     1
290
     0
176
     1
290
     0
176
     1
290
     0
176
     1
290
     0
176
     1
 90
       50
176
     1
 40
0.0
176
     1
 40
1.0
176
     1
 90
        0
176
     1
 62
    18
420
        0
176
     1
 90
       50
176
     1
 90
        3
176
     1
 62
     5
420
      255
176
     1
290
     0
176
     1
 90
       50
176
     1
 90
       50
176
     1
 90
       50
176
     1
290
     0
176
     1
 90
       50
176
     1
 62
   256
176
     0
 40
1.0
176
     0
 90
        2
176
     1
  1
strokes_ogs.tif
176
     1
290
     0
176
     1
 40
1.0
176
     1
 40
1.0
176
     1
  0
VISUALSTYLE
  5
3E
102
{ACAD_REACTORS
330
2A
102
}
330
2A
100
AcDbVisualStyle
  2
Shades of Gray
 70
    23
177
     3
291
     0
 70
    58
 90
        2
176
     1
 90
        2
176
     1
 90
        3
176
     1
 90
        0
176
     1
 40
0.6
176
     1
 40
30.0
176
     1
 62
     7
420
 16777215
176
     1
 90
        2
176
     1
 90
        2
176
     1
 62
     7
176
     1
 62
     7
176
     1
 90
        1
176
     1
 90
        1
176
     1
 40
40.0
176
     1
 90
        8
176
     1
 62
     7
176
     1
 40
1.0
176
     1
 90
        1
176
     1
 90
        6
176
     1
 90
        2
176
     1
 62
     7
176
     1
 90
        3
176
     1
 90
        0
176
     1
 90
        0
176
     1
290
     0
176
     1
 90
        1
176
     1
 40
0.0
176
     1
 90
        0
176
     1
290
     0
176
     1
290
     1
176
     1
290
     1
176
     1
290
     0
176
     1
290
     0
176
     1
290
     0
176
     1
290
     0
176
     1
290
     0
176
     1
290
     0
176
     1
 90
       50
176
     1
 40
0.0
176
     1
 40
1.0
176
     1
 90
        0
176
     1
 62
    18
420
        0
176
     1
 90
       50
176
     1
 90
        3
176
     1
 62
     5
420
      255
176
     1
290
     0
176
     1
 90
       50
176
     1
 90
       50
176
     1
 90
       50
176
     1
290
     0
176
     1
 90
       50
176
     1
 62
   256
176
     0
 40
1.0
176
     0
 90
        2
176
     1
  1
strokes_ogs.tif
176
     1
290
     0
176
     1
 40
1.0
176
     1
 40
1.0
176
     1
  0
VISUALSTYLE
  5
3F
102
{ACAD_REACTORS
330
2A
102
}
330
2A
100
AcDbVisualStyle
  2
Sketchy
 70
    24
177
     3
291
     0
 70
    58
 90
        1
176
     1
 90
        2
176
     1
 90
        2
176
     1
 90
        0
176
     1
 40
0.6
176
     1
 40
30.0
176
     1
 62
     7
420
 16777215
176
     1
 90
        2
176
     1
 90
        2
176
     1
 62
     7
176
     1
 62
     7
176
     1
 90
        1
176
     1
 90
        1
176
     1
 40
40.0
176
     1
 90
       11
176
     1
 62
     7
176
     1
 40
1.0
176
     1
 90
        1
176
     1
 90
        6
176
     1
 90
        2
176
     1
 62
     7
176
     1
 90
        6
176
     1
 90
        0
176
     1
 90
        0
176
     1
290
     0
176
     1
 90
        1
176
     1
 40
0.0
176
     1
 90
        0
176
     1
290
     0
176
     1
290
     1
176
     1
290
     1
176
     1
290
     0
176
     1
290
     0
176
     1
290
     0
176
     1
290
     0
176
     1
290
     0
176
     1
290
     0
176
     1
 90
       50
176
     1
 40
0.0
176
     1
 40
1.0
176
     1
 90
        0
176
     1
 62
    18
420
        0
176
     1
 90
       50
176
     1
 90
        3
176
     1
 62
     5
420
      255
176
     1
290
     0
176
     1
 90
       50
176
     1
 90
       50
176
     1
 90
       50
176
     1
290
     0
176
     1
 90
       50
176
     1
 62
   256
176
     0
 40
1.0
176
     0
 90
        2
176
     1
  1
strokes_ogs.tif
176
     1
290
     0
176
     1
 40
1.0
176
     1
 40
1.0
176
     1
  0
VISUALSTYLE
  5
37
102
{ACAD_REACTORS
330
2A
102
}
330
2A
100
AcDbVisualStyle
  2
Thicken
 70
    13
177
     3
291
     1
 70
    58
 90
        2
176
     1
 90
        2
176
     1
 90
        0
176
     1
 90
        0
176
     1
 40
0.6
176
     1
 40
30.0
176
     1
 62
     7
420
 16777215
176
     1
 90
        1
176
     1
 90
        4
176
     1
 62
     7
176
     1
 62
   257
176
     1
 90
        1
176
     1
 90
        1
176
     1
 40
1.0
176
     1
 90
       12
176
     1
 62
     7
176
     1
 40
1.0
176
     1
 90
        1
176
     1
 90
        6
176
     1
 90
        2
176
     1
 62
     7
176
     1
 90
        5
176
     1
 90
        0
176
     1
 90
        0
176
     1
290
     0
176
     1
 90
        1
176
     1
 40
0.0
176
     1
 90
        0
176
     1
290
     0
176
     1
290
     1
176
     1
290
     1
176
     1
290
     0
176
     1
290
     0
176
     1
290
     0
176
     1
290
     0
176
     1
290
     0
176
     1
290
     0
176
     1
 90
       50
176
     1
 40
0.0
176
     1
 40
1.0
176
     1
 90
        0
176
     1
 62
    18
420
        0
176
     1
 90
       50
176
     1
 90
        3
176
     1
 62
     5
420
      255
176
     1
290
     0
176
     1
 90
       50
176
     1
 90
       50
176
     1
 90
       50
176
     1
290
     0
176
     1
 90
       50
176
     1
 62
   256
176
     0
 40
1.0
176
     0
 90
        2
176
     1
  1
strokes_ogs.tif
176
     1
290
     0
176
     1
 40
1.0
176
     1
 40
1.0
176
     1
  0
VISUALSTYLE
  5
30
102
{ACAD_REACTORS
330
2A
102
}
330
2A
100
AcDbVisualStyle
  2
Wireframe
 70
     5
177
     3
291
     0
 70
    58
 90
        0
176
     1
 90
        2
176
     1
 90
        0
176
     1
 90
        0
176
     1
 40
0.6
176
     1
 40
30.0
176
     1
 62
     7
420
 16777215
176
     1
 90
        1
176
     1
 90
        4
176
     1
 62
     7
176
     1
 62
   257
176
     1
 90
        1
176
     1
 90
        1
176
     1
 40
1.0
176
     1
 90
        0
176
     1
 62
   257
176
     1
 40
1.0
176
     1
 90
        1
176
     1
 90
        6
176
     1
 90
        2
176
     1
 62
     7
176
     1
 90
        3
176
     1
 90
        0
176
     1
 90
        0
176
     1
290
     0
176
     1
 90
        1
176
     1
 40
0.0
176
     1
 90
        0
176
     1
290
     0
176
     1
290
     1
176
     1
290
     1
176
     1
290
     0
176
     1
290
     0
176
     1
290
     0
176
     1
290
     0
176
     1
290
     0
176
     1
290
     0
176
     1
 90
       50
176
     1
 40
0.0
176
     1
 40
1.0
176
     1
 90
        0
176
     1
 62
    18
420
        0
176
     1
 90
       50
176
     1
 90
        3
176
     1
 62
     5
420
      255
176
     1
290
     0
176
     1
 90
       50
176
     1
 90
       50
176
     1
 90
       50
176
     1
290
     0
176
     1
 90
       50
176
     1
 62
   256
176
     0
 40
1.0
176
     0
 90
        2
176
     1
  1
strokes_ogs.tif
176
     1
290
     0
176
     1
 40
1.0
176
     1
 40
1.0
176
     1
  0
VISUALSTYLE
  5
40
102
{ACAD_REACTORS
330
2A
102
}
330
2A
100
AcDbVisualStyle
  2
X-Ray
 70
    25
177
     3
291
     0
 70
    58
 90
        2
176
     1
 90
        2
176
     1
 90
        1
176
     1
 90
        1
176
     1
 40
0.5
176
     1
 40
30.0
176
     1
 62
     7
420
 16777215
176
     1
 90
        1
176
     1
 90
        0
176
     1
 62
     7
176
     1
 62
   257
176
     1
 90
        1
176
     1
 90
        1
176
     1
 40
1.0
176
     1
 90
        8
176
     1
 62
     7
176
     1
 40
1.0
176
     1
 90
        1
176
     1
 90
        6
176
     1
 90
        2
176
     1
 62
     7
176
     1
 90
        3
176
     1
 90
        0
176
     1
 90
        0
176
     1
290
     0
176
     1
 90
       13
176
     1
 40
0.0
176
     1
 90
        0
176
     1
290
     0
176
     1
290
     1
176
     1
290
     1
176
     1
290
     0
176
     1
290
     0
176
     1
290
     0
176
     1
290
     0
176
     1
290
     0
176
     1
290
     0
176
     1
 90
       50
176
     1
 40
0.0
176
     1
 40
1.0
176
     1
 90
        0
176
     1
 62
    18
420
        0
176
     1
 90
       50
176
     1
 90
        3
176
     1
 62
     5
420
      255
176
     1
290
     0
176
     1
 90
       50
176
     1
 90
       50
176
     1
 90
       50
176
     1
290
     0
176
     1
 90
       50
176
     1
 62
   256
176
     0
 40
1.0
176
     0
 90
        2
176
     1
  1
strokes_ogs.tif
176
     1
290
     0
176
     1
 40
1.0
176
     1
 40
1.0
176
     1
  0
DICTIONARYVAR
  5
1C9
102
{ACAD_REACTORS
330
1C8
102
}
330
1C8
100
DictionaryVariables
280
     0
  1
1:1
  0
DICTIONARYVAR
  5
1CE
102
{ACAD_REACTORS
330
1C8
102
}
330
1C8
100
DictionaryVariables
280
     0
  1
Standard
  0
DICTIONARYVAR
  5
1CD
102
{ACAD_REACTORS
330
1C8
102
}
330
1C8
100
DictionaryVariables
280
     0
  1
Standard
  0
DICTIONARY
  5
1CA
330
6A
100
AcDbDictionary
280
     1
281
     1
  3
ACAD_ROUNDTRIP_2008_TABLESTYLE_CELLSTYLEMAP
360
1CB
  0
CELLSTYLEMAP
  5
1CB
102
{ACAD_REACTORS
330
1CA
102
}
330
1CA
100
AcDbCellStyleMap
 90
        3
300
CELLSTYLE
  1
TABLEFORMAT_BEGIN
 90
        5
170
     1
 91
        0
 92
    32768
 62
   257
 93
        1
300
CONTENTFORMAT
  1
CONTENTFORMAT_BEGIN
 90
        0
 91
        0
 92
        4
 93
        0
300

 40
0.0
140
1.0
 94
        5
 62
     0
340
11
144
0.25
309
CONTENTFORMAT_END
171
     1
301
MARGIN
  1
CELLMARGIN_BEGIN
 40
0.06
 40
0.06
 40
0.06
 40
0.06
 40
0.06
 40
0.06
309
CELLMARGIN_END
 94
        6
 95
        1
302
GRIDFORMAT
  1
GRIDFORMAT_BEGIN
 90
        0
 91
        1
 62
     0
 92
       -2
340
14
 93
        0
 40
0.045
309
GRIDFORMAT_END
 95
        2
302
GRIDFORMAT
  1
GRIDFORMAT_BEGIN
 90
        0
 91
        1
 62
     0
 92
       -2
340
14
 93
        0
 40
0.045
309
GRIDFORMAT_END
 95
        4
302
GRIDFORMAT
  1
GRIDFORMAT_BEGIN
 90
        0
 91
        1
 62
     0
 92
       -2
340
14
 93
        0
 40
0.045
309
GRIDFORMAT_END
 95
        8
302
GRIDFORMAT
  1
GRIDFORMAT_BEGIN
 90
        0
 91
        1
 62
     0
 92
       -2
340
14
 93
        0
 40
0.045
309
GRIDFORMAT_END
 95
       16
302
GRIDFORMAT
  1
GRIDFORMAT_BEGIN
 90
        0
 91
        1
 62
     0
 92
       -2
340
14
 93
        0
 40
0.045
309
GRIDFORMAT_END
 95
       32
302
GRIDFORMAT
  1
GRIDFORMAT_BEGIN
 90
        0
 91
        1
 62
     0
 92
       -2
340
14
 93
        0
 40
0.045
309
GRIDFORMAT_END
309
TABLEFORMAT_END
  1
CELLSTYLE_BEGIN
 90
        1
 91
        1
300
_TITLE
309
CELLSTYLE_END
300
CELLSTYLE
  1
TABLEFORMAT_BEGIN
 90
        5
170
     1
 91
        0
 92
        0
 62
   257
 93
        1
300
CONTENTFORMAT
  1
CONTENTFORMAT_BEGIN
 90
        0
 91
        0
 92
        4
 93
        0
300

 40
0.0
140
1.0
 94
        5
 62
     0
340
11
144
0.18
309
CONTENTFORMAT_END
171
     1
301
MARGIN
  1
CELLMARGIN_BEGIN
 40
0.06
 40
0.06
 40
0.06
 40
0.06
 40
0.06
 40
0.06
309
CELLMARGIN_END
 94
        6
 95
        1
302
GRIDFORMAT
  1
GRIDFORMAT_BEGIN
 90
        0
 91
        1
 62
     0
 92
       -2
340
14
 93
        0
 40
0.045
309
GRIDFORMAT_END
 95
        2
302
GRIDFORMAT
  1
GRIDFORMAT_BEGIN
 90
        0
 91
        1
 62
     0
 92
       -2
340
14
 93
        0
 40
0.045
309
GRIDFORMAT_END
 95
        4
302
GRIDFORMAT
  1
GRIDFORMAT_BEGIN
 90
        0
 91
        1
 62
     0
 92
       -2
340
14
 93
        0
 40
0.045
309
GRIDFORMAT_END
 95
        8
302
GRIDFORMAT
  1
GRIDFORMAT_BEGIN
 90
        0
 91
        1
 62
     0
 92
       -2
340
14
 93
        0
 40
0.045
309
GRIDFORMAT_END
 95
       16
302
GRIDFORMAT
  1
GRIDFORMAT_BEGIN
 90
        0
 91
        1
 62
     0
 92
       -2
340
14
 93
        0
 40
0.045
309
GRIDFORMAT_END
 95
       32
302
GRIDFORMAT
  1
GRIDFORMAT_BEGIN
 90
        0
 91
        1
 62
     0
 92
       -2
340
14
 93
        0
 40
0.045
309
GRIDFORMAT_END
309
TABLEFORMAT_END
  1
CELLSTYLE_BEGIN
 90
        2
 91
        1
300
_HEADER
309
CELLSTYLE_END
300
CELLSTYLE
  1
TABLEFORMAT_BEGIN
 90
        5
170
     1
 91
        0
 92
        0
 62
   257
 93
        1
300
CONTENTFORMAT
  1
CONTENTFORMAT_BEGIN
 90
        0
 91
        0
 92
        4
 93
        0
300

 40
0.0
140
1.0
 94
        2
 62
     0
340
11
144
0.18
309
CONTENTFORMAT_END
171
     1
301
MARGIN
  1
CELLMARGIN_BEGIN
 40
0.06
 40
0.06
 40
0.06
 40
0.06
 40
0.06
 40
0.06
309
CELLMARGIN_END
 94
        6
 95
        1
302
GRIDFORMAT
  1
GRIDFORMAT_BEGIN
 90
        0
 91
        1
 62
     0
 92
       -2
340
14
 93
        0
 40
0.045
309
GRIDFORMAT_END
 95
        2
302
GRIDFORMAT
  1
GRIDFORMAT_BEGIN
 90
        0
 91
        1
 62
     0
 92
       -2
340
14
 93
        0
 40
0.045
309
GRIDFORMAT_END
 95
        4
302
GRIDFORMAT
  1
GRIDFORMAT_BEGIN
 90
        0
 91
        1
 62
     0
 92
       -2
340
14
 93
        0
 40
0.045
309
GRIDFORMAT_END
 95
        8
302
GRIDFORMAT
  1
GRIDFORMAT_BEGIN
 90
        0
 91
        1
 62
     0
 92
       -2
340
14
 93
        0
 40
0.045
309
GRIDFORMAT_END
 95
       16
302
GRIDFORMAT
  1
GRIDFORMAT_BEGIN
 90
        0
 91
        1
 62
     0
 92
       -2
340
14
 93
        0
 40
0.045
309
GRIDFORMAT_END
 95
       32
302
GRIDFORMAT
  1
GRIDFORMAT_BEGIN
 90
        0
 91
        1
 62
     0
 92
       -2
340
14
 93
        0
 40
0.045
309
GRIDFORMAT_END
309
TABLEFORMAT_END
  1
CELLSTYLE_BEGIN
 90
        3
 91
        2
300
_DATA
309
CELLSTYLE_END
  0
ENDSEC
  0
EOF