0
SECTION
  2
HEADER
  9
$ACADVER
  1
AC1027
  9
$ACADMAINTVER
 70
     8
  9
$DWGCODEPAGE
  3
ANSI_1252
  9
$REQUIREDVERSIONS
160
                 0
  9
$COMMENTS
  1
File was created by Cadenas
  9
$CUSTOMPROPERTYTAG
  1
NN
  9
$CUSTOMPROPERTY
  1
Grip Tight Tapped Base - Polymer Housing, Corrosion Resisitant Insert Metric Bore
  9
$CUSTOMPROPERTYTAG
  1
NT
  9
$CUSTOMPROPERTY
  1
GTEZ Normal Duty Polymer Housed Tapped Base Pillow Blocks
  9
$CUSTOMPROPERTYTAG
  1
NB
  9
$CUSTOMPROPERTY
  1
129292
  9
$CUSTOMPROPERTYTAG
  1
NBSYN
  9
$CUSTOMPROPERTY
  1
$PN.$LUBE.
  9
$CUSTOMPROPERTYTAG
  1
LINA
  9
$CUSTOMPROPERTY
  1
129292
  9
$CUSTOMPROPERTYTAG
  1
SERIES
  9
$CUSTOMPROPERTY
  1
204
  9
$CUSTOMPROPERTYTAG
  1
SS
  9
$CUSTOMPROPERTY
  1
20
  9
$CUSTOMPROPERTYTAG
  1
PN
  9
$CUSTOMPROPERTY
  1
129292
  9
$CUSTOMPROPERTYTAG
  1
DESCRIPTION
  9
$CUSTOMPROPERTY
  1
TB-GTEZ-20M-PCR
  9
$CUSTOMPROPERTYTAG
  1
A
  9
$CUSTOMPROPERTY
  1
37.3
  9
$CUSTOMPROPERTYTAG
  1
B
  9
$CUSTOMPROPERTY
  1
82.6
  9
$CUSTOMPROPERTYTAG
  1
C
  9
$CUSTOMPROPERTY
  1
37.7
  9
$CUSTOMPROPERTYTAG
  1
D
  9
$CUSTOMPROPERTY
  1
50.8
  9
$CUSTOMPROPERTYTAG
  1
J
  9
$CUSTOMPROPERTY
  1
67.5
  9
$CUSTOMPROPERTYTAG
  1
L
  9
$CUSTOMPROPERTY
  1
38.1
  9
$CUSTOMPROPERTYTAG
  1
M
  9
$CUSTOMPROPERTY
  1
33.3
  9
$CUSTOMPROPERTYTAG
  1
N
  9
$CUSTOMPROPERTY
  1
10.3
  9
$CUSTOMPROPERTYTAG
  1
R
  9
$CUSTOMPROPERTY
  1
M10x1.5
  9
$CUSTOMPROPERTYTAG
  1
S
  9
$CUSTOMPROPERTY
  1
25.0
  9
$CUSTOMPROPERTYTAG
  1
Z
  9
$CUSTOMPROPERTY
  1
25.0
  9
$CUSTOMPROPERTYTAG
  1
COMPANY
  9
$CUSTOMPROPERTY
  1
baldor
  9
$INSBASE
 10
0.0
 20
0.0
 30
0.0
  9
$EXTMIN
 10
1.000000000000000E+20
 20
1.000000000000000E+20
 30
1.000000000000000E+20
  9
$EXTMAX
 10
-1.000000000000000E+20
 20
-1.000000000000000E+20
 30
-1.000000000000000E+20
  9
$LIMMIN
 10
0.0
 20
0.0
  9
$LIMMAX
 10
420.0
 20
297.0
  9
$ORTHOMODE
 70
     0
  9
$REGENMODE
 70
     1
  9
$FILLMODE
 70
     1
  9
$QTEXTMODE
 70
     0
  9
$MIRRTEXT
 70
     1
  9
$LTSCALE
 40
1.0
  9
$ATTMODE
 70
     1
  9
$TEXTSIZE
 40
2.5
  9
$TRACEWID
 40
1.0
  9
$TEXTSTYLE
  7
Standard
  9
$CLAYER
  8
0
  9
$CELTYPE
  6
ByLayer
  9
$CECOLOR
 62
   256
  9
$CELTSCALE
 40
1.0
  9
$DISPSILH
 70
     0
  9
$DIMSCALE
 40
1.0
  9
$DIMASZ
 40
2.5
  9
$DIMEXO
 40
0.625
  9
$DIMDLI
 40
3.75
  9
$DIMRND
 40
0.0
  9
$DIMDLE
 40
0.0
  9
$DIMEXE
 40
1.25
  9
$DIMTP
 40
0.0
  9
$DIMTM
 40
0.0
  9
$DIMTXT
 40
2.5
  9
$DIMCEN
 40
2.5
  9
$DIMTSZ
 40
0.0
  9
$DIMTOL
 70
     0
  9
$DIMLIM
 70
     0
  9
$DIMTIH
 70
     0
  9
$DIMTOH
 70
     0
  9
$DIMSE1
 70
     0
  9
$DIMSE2
 70
     0
  9
$DIMTAD
 70
     1
  9
$DIMZIN
 70
     8
  9
$DIMBLK
  1

  9
$DIMASO
 70
     1
  9
$DIMSHO
 70
     1
  9
$DIMPOST
  1

  9
$DIMAPOST
  1

  9
$DIMALT
 70
     0
  9
$DIMALTD
 70
     3
  9
$DIMALTF
 40
0.03937007874016
  9
$DIMLFAC
 40
1.0
  9
$DIMTOFL
 70
     1
  9
$DIMTVP
 40
0.0
  9
$DIMTIX
 70
     0
  9
$DIMSOXD
 70
     0
  9
$DIMSAH
 70
     0
  9
$DIMBLK1
  1

  9
$DIMBLK2
  1

  9
$DIMSTYLE
  2
ISO-25
  9
$DIMCLRD
 70
     0
  9
$DIMCLRE
 70
     0
  9
$DIMCLRT
 70
     0
  9
$DIMTFAC
 40
1.0
  9
$DIMGAP
 40
0.625
  9
$DIMJUST
 70
     0
  9
$DIMSD1
 70
     0
  9
$DIMSD2
 70
     0
  9
$DIMTOLJ
 70
     0
  9
$DIMTZIN
 70
     8
  9
$DIMALTZ
 70
     0
  9
$DIMALTTZ
 70
     0
  9
$DIMUPT
 70
     0
  9
$DIMDEC
 70
     2
  9
$DIMTDEC
 70
     2
  9
$DIMALTU
 70
     2
  9
$DIMALTTD
 70
     3
  9
$DIMTXSTY
  7
Standard
  9
$DIMAUNIT
 70
     0
  9
$DIMADEC
 70
     0
  9
$DIMALTRND
 40
0.0
  9
$DIMAZIN
 70
     0
  9
$DIMDSEP
 70
    44
  9
$DIMATFIT
 70
     3
  9
$DIMFRAC
 70
     0
  9
$DIMLDRBLK
  1

  9
$DIMLUNIT
 70
     2
  9
$DIMLWD
 70
    -2
  9
$DIMLWE
 70
    -2
  9
$DIMTMOVE
 70
     0
  9
$DIMFXL
 40
1.0
  9
$DIMFXLON
 70
     0
  9
$DIMJOGANG
 40
0.7853981633974483
  9
$DIMTFILL
 70
     0
  9
$DIMTFILLCLR
 70
     0
  9
$DIMARCSYM
 70
     0
  9
$DIMLTYPE
  6

  9
$DIMLTEX1
  6

  9
$DIMLTEX2
  6

  9
$DIMTXTDIRECTION
 70
     0
  9
$LUNITS
 70
     2
  9
$LUPREC
 70
     4
  9
$SKETCHINC
 40
1.0
  9
$FILLETRAD
 40
10.0
  9
$AUNITS
 70
     0
  9
$AUPREC
 70
     0
  9
$MENU
  1
.
  9
$ELEVATION
 40
0.0
  9
$PELEVATION
 40
0.0
  9
$THICKNESS
 40
0.0
  9
$LIMCHECK
 70
     0
  9
$CHAMFERA
 40
0.0
  9
$CHAMFERB
 40
0.0
  9
$CHAMFERC
 40
0.0
  9
$CHAMFERD
 40
0.0
  9
$SKPOLY
 70
     0
  9
$TDCREATE
 40
2458168.976955139
  9
$TDUCREATE
 40
2458168.935288472
  9
$TDUPDATE
 40
2458168.976955324
  9
$TDUUPDATE
 40
2458168.935288657
  9
$TDINDWG
 40
0.0000000116
  9
$TDUSRTIMER
 40
0.0000000116
  9
$USRTIMER
 70
     1
  9
$ANGBASE
 50
0.0
  9
$ANGDIR
 70
     0
  9
$PDMODE
 70
     0
  9
$PDSIZE
 40
0.0
  9
$PLINEWID
 40
0.0
  9
$SPLFRAME
 70
     0
  9
$SPLINETYPE
 70
     6
  9
$SPLINESEGS
 70
     8
  9
$HANDSEED
  5
1C9
  9
$SURFTAB1
 70
     6
  9
$SURFTAB2
 70
     6
  9
$SURFTYPE
 70
     6
  9
$SURFU
 70
     6
  9
$SURFV
 70
     6
  9
$UCSBASE
  2

  9
$UCSNAME
  2

  9
$UCSORG
 10
0.0
 20
0.0
 30
0.0
  9
$UCSXDIR
 10
1.0
 20
0.0
 30
0.0
  9
$UCSYDIR
 10
0.0
 20
1.0
 30
0.0
  9
$UCSORTHOREF
  2

  9
$UCSORTHOVIEW
 70
     0
  9
$UCSORGTOP
 10
0.0
 20
0.0
 30
0.0
  9
$UCSORGBOTTOM
 10
0.0
 20
0.0
 30
0.0
  9
$UCSORGLEFT
 10
0.0
 20
0.0
 30
0.0
  9
$UCSORGRIGHT
 10
0.0
 20
0.0
 30
0.0
  9
$UCSORGFRONT
 10
0.0
 20
0.0
 30
0.0
  9
$UCSORGBACK
 10
0.0
 20
0.0
 30
0.0
  9
$PUCSBASE
  2

  9
$PUCSNAME
  2

  9
$PUCSORG
 10
0.0
 20
0.0
 30
0.0
  9
$PUCSXDIR
 10
1.0
 20
0.0
 30
0.0
  9
$PUCSYDIR
 10
0.0
 20
1.0
 30
0.0
  9
$PUCSORTHOREF
  2

  9
$PUCSORTHOVIEW
 70
     0
  9
$PUCSORGTOP
 10
0.0
 20
0.0
 30
0.0
  9
$PUCSORGBOTTOM
 10
0.0
 20
0.0
 30
0.0
  9
$PUCSORGLEFT
 10
0.0
 20
0.0
 30
0.0
  9
$PUCSORGRIGHT
 10
0.0
 20
0.0
 30
0.0
  9
$PUCSORGFRONT
 10
0.0
 20
0.0
 30
0.0
  9
$PUCSORGBACK
 10
0.0
 20
0.0
 30
0.0
  9
$USERI1
 70
     0
  9
$USERI2
 70
     0
  9
$USERI3
 70
     0
  9
$USERI4
 70
     0
  9
$USERI5
 70
     0
  9
$USERR1
 40
0.0
  9
$USERR2
 40
0.0
  9
$USERR3
 40
0.0
  9
$USERR4
 40
0.0
  9
$USERR5
 40
0.0
  9
$WORLDVIEW
 70
     1
  9
$SHADEDGE
 70
     3
  9
$SHADEDIF
 70
    70
  9
$TILEMODE
 70
     1
  9
$MAXACTVP
 70
    64
  9
$PINSBASE
 10
0.0
 20
0.0
 30
0.0
  9
$PLIMCHECK
 70
     0
  9
$PEXTMIN
 10
1.000000000000000E+20
 20
1.000000000000000E+20
 30
1.000000000000000E+20
  9
$PEXTMAX
 10
-1.000000000000000E+20
 20
-1.000000000000000E+20
 30
-1.000000000000000E+20
  9
$PLIMMIN
 10
0.0
 20
0.0
  9
$PLIMMAX
 10
420.0
 20
297.0
  9
$UNITMODE
 70
     0
  9
$VISRETAIN
 70
     1
  9
$PLINEGEN
 70
     0
  9
$PSLTSCALE
 70
     1
  9
$TREEDEPTH
 70
  3020
  9
$CMLSTYLE
  2
Standard
  9
$CMLJUST
 70
     0
  9
$CMLSCALE
 40
20.0
  9
$PROXYGRAPHICS
 70
     1
  9
$MEASUREMENT
 70
     1
  9
$CELWEIGHT
370
    -1
  9
$ENDCAPS
280
     0
  9
$JOINSTYLE
280
     0
  9
$LWDISPLAY
290
     0
  9
$INSUNITS
 70
     4
  9
$HYPERLINKBASE
  1

  9
$STYLESHEET
  1

  9
$XEDIT
290
     1
  9
$CEPSNTYPE
380
     0
  9
$PSTYLEMODE
290
     1
  9
$FINGERPRINTGUID
  2
{C6829B73-2AC0-4465-88E9-D175F6413279}
  9
$VERSIONGUID
  2
{FAEB1C32-E019-11D5-929B-00C0DF256EC4}
  9
$EXTNAMES
290
     1
  9
$PSVPSCALE
 40
0.0
  9
$OLESTARTUP
290
     0
  9
$SORTENTS
280
   127
  9
$INDEXCTL
280
     0
  9
$HIDETEXT
280
     1
  9
$XCLIPFRAME
280
     2
  9
$HALOGAP
280
     0
  9
$OBSCOLOR
 70
   257
  9
$OBSLTYPE
280
     0
  9
$INTERSECTIONDISPLAY
280
     0
  9
$INTERSECTIONCOLOR
 70
   257
  9
$DIMASSOC
280
     2
  9
$PROJECTNAME
  1

  9
$CAMERADISPLAY
290
     0
  9
$LENSLENGTH
 40
50.0
  9
$CAMERAHEIGHT
 40
0.0
  9
$STEPSPERSEC
 40
2.0
  9
$STEPSIZE
 40
6.0
  9
$3DDWFPREC
 40
2.0
  9
$PSOLWIDTH
 40
5.0
  9
$PSOLHEIGHT
 40
80.0
  9
$LOFTANG1
 40
1.570796326794897
  9
$LOFTANG2
 40
1.570796326794897
  9
$LOFTMAG1
 40
0.0
  9
$LOFTMAG2
 40
0.0
  9
$LOFTPARAM
 70
     7
  9
$LOFTNORMALS
280
     1
  9
$LATITUDE
 40
37.795
  9
$LONGITUDE
 40
-122.394
  9
$NORTHDIRECTION
 40
0.0
  9
$TIMEZONE
 70
 -8000
  9
$LIGHTGLYPHDISPLAY
280
     1
  9
$TILEMODELIGHTSYNCH
280
     1
  9
$CMATERIAL
347
44
  9
$SOLIDHIST
280
     0
  9
$SHOWHIST
280
     1
  9
$DWFFRAME
280
     2
  9
$DGNFRAME
280
     2
  9
$REALWORLDSCALE
290
     1
  9
$INTERFERECOLOR
 62
   256
  9
$CSHADOW
280
     0
  9
$SHADOWPLANELOCATION
 40
0.0
  0
ENDSEC
  0
SECTION
  2
CLASSES
  0
CLASS
  1
ACDBDICTIONARYWDFLT
  2
AcDbDictionaryWithDefault
  3
ObjectDBX Classes
 90
        0
 91
        4
280
     0
281
     0
  0
CLASS
  1
VISUALSTYLE
  2
AcDbVisualStyle
  3
ObjectDBX Classes
 90
     4095
 91
        4
280
     0
281
     0
  0
CLASS
  1
MATERIAL
  2
AcDbMaterial
  3
ObjectDBX Classes
 90
     1153
 91
        4
280
     0
281
     0
  0
CLASS
  1
SCALE
  2
AcDbScale
  3
ObjectDBX Classes
 90
     1153
 91
        4
280
     0
281
     0
  0
CLASS
  1
TABLESTYLE
  2
AcDbTableStyle
  3
ObjectDBX Classes
 90
     4095
 91
        4
280
     0
281
     0
  0
CLASS
  1
MLEADERSTYLE
  2
AcDbMLeaderStyle
  3
ACDB_MLEADERSTYLE_CLASS
 90
     4095
 91
        4
280
     0
281
     0
  0
CLASS
  1
SUN
  2
AcDbSun
  3
SCENEOE
 90
     1153
 91
        4
280
     0
281
     0
  0
CLASS
  1
DICTIONARYVAR
  2
AcDbDictionaryVar
  3
ObjectDBX Classes
 90
        0
 91
        4
280
     0
281
     0
  0
CLASS
  1
CELLSTYLEMAP
  2
AcDbCellStyleMap
  3
ObjectDBX Classes
 90
     1152
 91
        4
280
     0
281
     0
  0
ENDSEC
  0
SECTION
  2
TABLES
  0
TABLE
  2
VPORT
  5
8
330
0
100
AcDbSymbolTable
 70
     1
  0
VPORT
  5
29
330
8
100
AcDbSymbolTableRecord
100
AcDbViewportTableRecord
  2
*Active
 70
     0
 10
0.0
 20
0.0
 11
1.0
 21
1.0
 12
0.0
 22
-3.064999999999969
 13
0.0
 23
0.0
 14
10.0
 24
10.0
 15
10.0
 25
10.0
 16
0.0
 26
0.0
 36
1.0
 17
0.0
 27
0.0
 37
0.0
 40
48.55199999999996
 41
1.735294117647061
 42
50.0
 43
0.0
 44
0.0
 50
0.0
 51
0.0
 71
     0
 72
   100
 73
     1
 74
     3
 75
     0
 76
     0
 77
     0
 78
     0
281
     0
 65
     1
110
0.0
120
0.0
130
0.0
111
1.0
121
0.0
131
0.0
112
0.0
122
1.0
132
0.0
 79
     0
146
0.0
348
2F
 60
     3
 61
     5
292
     1
282
     1
141
0.0
142
0.0
 63
   250
361
6D
  0
ENDTAB
  0
TABLE
  2
LTYPE
  5
5
330
0
100
AcDbSymbolTable
 70
     3
  0
LTYPE
  5
14
330
5
100
AcDbSymbolTableRecord
100
AcDbLinetypeTableRecord
  2
ByBlock
 70
     0
  3

 72
    65
 73
     0
 40
0.0
  0
LTYPE
  5
15
330
5
100
AcDbSymbolTableRecord
100
AcDbLinetypeTableRecord
  2
ByLayer
 70
     0
  3

 72
    65
 73
     0
 40
0.0
  0
LTYPE
  5
16
330
5
100
AcDbSymbolTableRecord
100
AcDbLinetypeTableRecord
  2
Continuous
 70
     0
  3
Solid line
 72
    65
 73
     0
 40
0.0
  0
LTYPE
  5
9E
330
5
100
AcDbSymbolTableRecord
100
AcDbLinetypeTableRecord
  2
Dashed
 70
     0
  3

 72
    65
 73
     2
 40
2.0
 49
1.0
 74
     0
 49
-1.0
 74
     0
  0
LTYPE
  5
106
330
5
100
AcDbSymbolTableRecord
100
AcDbLinetypeTableRecord
  2
Center
 70
     0
  3

 72
    65
 73
     4
 40
1.5
 49
0.45
 74
     0
 49
-0.5
 74
     0
 49
0.05
 74
     0
 49
-0.5
 74
     0
  0
ENDTAB
  0
TABLE
  2
LAYER
  5
2
330
0
100
AcDbSymbolTable
 70
     7
  0
LAYER
  5
10
330
2
100
AcDbSymbolTableRecord
100
AcDbLayerTableRecord
  2
0
 70
     0
 62
     7
  6
Continuous
370
    -3
390
F
347
46
348
0
  0
LAYER
  5
72
330
2
100
AcDbSymbolTableRecord
100
AcDbLayerTableRecord
  2
AM_6
 70
     0
 62
    -2
  6
Continuous
370
    35
390
F
347
46
348
0
  0
LAYER
  5
9F
330
2
100
AcDbSymbolTableRecord
100
AcDbLayerTableRecord
  2
AM_9
 70
     0
 62
     6
  6
Dashed
370
    25
390
F
347
46
348
0
  0
LAYER
  5
CB
330
2
100
AcDbSymbolTableRecord
100
AcDbLayerTableRecord
  2
AM_4
 70
     0
 62
     7
  6
Continuous
370
    50
390
F
347
46
348
0
  0
LAYER
  5
103
330
2
100
AcDbSymbolTableRecord
100
AcDbLayerTableRecord
  2
AM_5
 70
     0
 62
     3
  6
Continuous
370
    25
390
F
347
46
348
0
  0
LAYER
  5
107
330
2
100
AcDbSymbolTableRecord
100
AcDbLayerTableRecord
  2
AM_7
 70
     0
 62
     7
  6
Center
370
    25
390
F
347
46
348
0
  0
LAYER
  5
1BC
330
2
100
AcDbSymbolTableRecord
100
AcDbLayerTableRecord
  2
ConnectionPoints
 70
     0
 62
     7
  6
Continuous
370
    50
390
F
347
46
348
0
  0
ENDTAB
  0
TABLE
  2
STYLE
  5
3
330
0
100
AcDbSymbolTable
 70
     1
  0
STYLE
  5
11
330
3
100
AcDbSymbolTableRecord
100
AcDbTextStyleTableRecord
  2
Standard
 70
     0
 40
0.0
 41
1.0
 50
0.0
 71
     0
 42
2.5
  3
txt
  4

  0
ENDTAB
  0
TABLE
  2
VIEW
  5
6
330
0
100
AcDbSymbolTable
 70
     0
  0
ENDTAB
  0
TABLE
  2
UCS
  5
7
330
0
100
AcDbSymbolTable
 70
     0
  0
ENDTAB
  0
TABLE
  2
APPID
  5
9
330
0
100
AcDbSymbolTable
 70
     1
  0
APPID
  5
12
330
9
100
AcDbSymbolTableRecord
100
AcDbRegAppTableRecord
  2
ACAD
 70
     0
  0
ENDTAB
  0
TABLE
  2
DIMSTYLE
  5
A
330
0
100
AcDbSymbolTable
 70
     1
100
AcDbDimStyleTable
  0
DIMSTYLE
105
27
330
A
100
AcDbSymbolTableRecord
100
AcDbDimStyleTableRecord
  2
ISO-25
 70
     0
 41
2.5
 42
0.625
 43
3.75
 44
1.25
 73
     0
 74
     0
 77
     1
 78
     8
140
2.5
141
2.5
143
0.03937007874016
147
0.625
171
     3
172
     1
178
     0
271
     2
272
     2
274
     3
278
    44
283
     0
284
     8
340
11
  0
ENDTAB
  0
TABLE
  2
BLOCK_RECORD
  5
1
330
0
100
AcDbSymbolTable
 70
     5
  0
BLOCK_RECORD
  5
1F
330
1
100
AcDbSymbolTableRecord
100
AcDbBlockTableRecord
  2
*Model_Space
340
22
 70
     0
280
     1
281
     0
  0
BLOCK_RECORD
  5
1B
330
1
100
AcDbSymbolTableRecord
100
AcDbBlockTableRecord
  2
*Paper_Space
340
1E
 70
     0
280
     1
281
     0
  0
BLOCK_RECORD
  5
23
330
1
100
AcDbSymbolTableRecord
100
AcDbBlockTableRecord
  2
*Paper_Space0
340
26
 70
     0
280
     1
281
     0
  0
BLOCK_RECORD
  5
6E
330
1
100
AcDbSymbolTableRecord
100
AcDbBlockTableRecord
  2
1_129292_4
340
0
102
{BLKREFS
331
6F
102
}
 70
     0
280
     1
281
     0
  0
BLOCK_RECORD
  5
88
330
1
100
AcDbSymbolTableRecord
100
AcDbBlockTableRecord
  2
2_INS_GT_04_CR_0_in_129292_4
340
0
102
{BLKREFS
331
89
102
}
 70
     0
280
     1
281
     0
  0
BLOCK_RECORD
  5
CF
330
1
100
AcDbSymbolTableRecord
100
AcDbBlockTableRecord
  2
3_129980_0_in_129292_4
340
0
102
{BLKREFS
331
D0
102
}
 70
     0
280
     1
281
     0
  0
BLOCK_RECORD
  5
124
330
1
100
AcDbSymbolTableRecord
100
AcDbBlockTableRecord
  2
4_TB_GTEZ_04_PCR_0_in_129292_4
340
0
102
{BLKREFS
331
125
102
}
 70
     0
280
     1
281
     0
  0
ENDTAB
  0
ENDSEC
  0
SECTION
  2
BLOCKS
  0
BLOCK
  5
20
330
1F
100
AcDbEntity
  8
0
100
AcDbBlockBegin
  2
*Model_Space
 70
     0
 10
0.0
 20
0.0
 30
0.0
  3
*Model_Space
  1

  0
ENDBLK
  5
21
330
1F
100
AcDbEntity
  8
0
100
AcDbBlockEnd
  0
BLOCK
  5
1C
330
1B
100
AcDbEntity
 67
     1
  8
0
100
AcDbBlockBegin
  2
*Paper_Space
 70
     0
 10
0.0
 20
0.0
 30
0.0
  3
*Paper_Space
  1

  0
ENDBLK
  5
1D
330
1B
100
AcDbEntity
 67
     1
  8
0
100
AcDbBlockEnd
  0
BLOCK
  5
24
330
23
100
AcDbEntity
  8
0
100
AcDbBlockBegin
  2
*Paper_Space0
 70
     0
 10
0.0
 20
0.0
 30
0.0
  3
*Paper_Space0
  1

  0
ENDBLK
  5
25
330
23
100
AcDbEntity
  8
0
100
AcDbBlockEnd
  0
BLOCK
  5
70
330
6E
100
AcDbEntity
  8
0
100
AcDbBlockBegin
  2
1_129292_4
 70
     2
 10
0.0
 20
0.0
 30
0.0
  3
1_129292_4
  1

  0
ATTDEF
  5
73
330
6E
100
AcDbEntity
  8
AM_6
100
AcDbText
 10
46.29999999999998
 20
20.735
 30
0.0
 40
0.5
  1
Grip Tight Tapped Base - Polymer Housing, Corrosion Resisitant Insert Metric Bore
100
AcDbAttributeDefinition
  3

  2
NN
 70
     8
280
     0
  0
ATTDEF
  5
74
330
6E
100
AcDbEntity
  8
AM_6
100
AcDbText
 10
46.29999999999998
 20
20.235
 30
0.0
 40
0.5
  1
GTEZ Normal Duty Polymer Housed Tapped Base Pillow Blocks
100
AcDbAttributeDefinition
  3

  2
NT
 70
     8
280
     0
  0
ATTDEF
  5
75
330
6E
100
AcDbEntity
  8
AM_6
100
AcDbText
 10
46.29999999999998
 20
19.735
 30
0.0
 40
0.5
  1
129292
100
AcDbAttributeDefinition
  3

  2
NB
 70
     8
280
     0
  0
ATTDEF
  5
76
330
6E
100
AcDbEntity
  8
AM_6
100
AcDbText
 10
46.29999999999998
 20
19.235
 30
0.0
 40
0.5
  1
$PN.$LUBE.
100
AcDbAttributeDefinition
  3

  2
NBSYN
 70
     8
280
     0
  0
ATTDEF
  5
77
330
6E
100
AcDbEntity
  8
AM_6
100
AcDbText
 10
46.29999999999998
 20
18.735
 30
0.0
 40
0.5
  1
129292
100
AcDbAttributeDefinition
  3

  2
LINA
 70
     8
280
     0
  0
ATTDEF
  5
78
330
6E
100
AcDbEntity
  8
AM_6
100
AcDbText
 10
46.29999999999998
 20
18.235
 30
0.0
 40
0.5
  1
204
100
AcDbAttributeDefinition
  3

  2
SERIES
 70
     8
280
     0
  0
ATTDEF
  5
79
330
6E
100
AcDbEntity
  8
AM_6
100
AcDbText
 10
46.29999999999998
 20
17.735
 30
0.0
 40
0.5
  1
20
100
AcDbAttributeDefinition
  3

  2
SS
 70
     8
280
     0
  0
ATTDEF
  5
7A
330
6E
100
AcDbEntity
  8
AM_6
100
AcDbText
 10
46.29999999999998
 20
17.235
 30
0.0
 40
0.5
  1
129292
100
AcDbAttributeDefinition
  3

  2
PN
 70
     8
280
     0
  0
ATTDEF
  5
7B
330
6E
100
AcDbEntity
  8
AM_6
100
AcDbText
 10
46.29999999999998
 20
16.735
 30
0.0
 40
0.5
  1
TB-GTEZ-20M-PCR
100
AcDbAttributeDefinition
  3

  2
DESCRIPTION
 70
     8
280
     0
  0
ATTDEF
  5
7C
330
6E
100
AcDbEntity
  8
AM_6
100
AcDbText
 10
46.29999999999998
 20
16.235
 30
0.0
 40
0.5
  1
37.3
100
AcDbAttributeDefinition
  3

  2
A
 70
     8
280
     0
  0
ATTDEF
  5
7D
330
6E
100
AcDbEntity
  8
AM_6
100
AcDbText
 10
46.29999999999998
 20
15.735
 30
0.0
 40
0.5
  1
82.6
100
AcDbAttributeDefinition
  3

  2
B
 70
     8
280
     0
  0
ATTDEF
  5
7E
330
6E
100
AcDbEntity
  8
AM_6
100
AcDbText
 10
46.29999999999998
 20
15.235
 30
0.0
 40
0.5
  1
37.7
100
AcDbAttributeDefinition
  3

  2
C
 70
     8
280
     0
  0
ATTDEF
  5
7F
330
6E
100
AcDbEntity
  8
AM_6
100
AcDbText
 10
46.29999999999998
 20
14.735
 30
0.0
 40
0.5
  1
50.8
100
AcDbAttributeDefinition
  3

  2
D
 70
     8
280
     0
  0
ATTDEF
  5
80
330
6E
100
AcDbEntity
  8
AM_6
100
AcDbText
 10
46.29999999999998
 20
14.235
 30
0.0
 40
0.5
  1
67.5
100
AcDbAttributeDefinition
  3

  2
J
 70
     8
280
     0
  0
ATTDEF
  5
81
330
6E
100
AcDbEntity
  8
AM_6
100
AcDbText
 10
46.29999999999998
 20
13.735
 30
0.0
 40
0.5
  1
38.1
100
AcDbAttributeDefinition
  3

  2
L
 70
     8
280
     0
  0
ATTDEF
  5
82
330
6E
100
AcDbEntity
  8
AM_6
100
AcDbText
 10
46.29999999999998
 20
13.235
 30
0.0
 40
0.5
  1
33.3
100
AcDbAttributeDefinition
  3

  2
M
 70
     8
280
     0
  0
ATTDEF
  5
83
330
6E
100
AcDbEntity
  8
AM_6
100
AcDbText
 10
46.29999999999998
 20
12.735
 30
0.0
 40
0.5
  1
10.3
100
AcDbAttributeDefinition
  3

  2
N
 70
     8
280
     0
  0
ATTDEF
  5
84
330
6E
100
AcDbEntity
  8
AM_6
100
AcDbText
 10
46.29999999999998
 20
12.235
 30
0.0
 40
0.5
  1
M10x1.5
100
AcDbAttributeDefinition
  3

  2
R
 70
     8
280
     0
  0
ATTDEF
  5
85
330
6E
100
AcDbEntity
  8
AM_6
100
AcDbText
 10
46.29999999999998
 20
11.735
 30
0.0
 40
0.5
  1
25.0
100
AcDbAttributeDefinition
  3

  2
S
 70
     8
280
     0
  0
ATTDEF
  5
86
330
6E
100
AcDbEntity
  8
AM_6
100
AcDbText
 10
46.29999999999998
 20
11.235
 30
0.0
 40
0.5
  1
25.0
100
AcDbAttributeDefinition
  3

  2
Z
 70
     8
280
     0
  0
ATTDEF
  5
87
330
6E
100
AcDbEntity
  8
AM_6
100
AcDbText
 10
46.29999999999998
 20
10.735
 30
0.0
 40
0.5
  1
baldor
100
AcDbAttributeDefinition
  3

  2
COMPANY
 70
     8
280
     0
  0
INSERT
  5
89
330
6E
100
AcDbEntity
  8
0
100
AcDbBlockReference
  2
2_INS_GT_04_CR_0_in_129292_4
 10
0.0
 20
0.0
 30
0.0
  0
INSERT
  5
D0
330
6E
100
AcDbEntity
  8
0
100
AcDbBlockReference
  2
3_129980_0_in_129292_4
 10
0.0
 20
0.0
 30
0.0
  0
INSERT
  5
125
330
6E
100
AcDbEntity
  8
0
100
AcDbBlockReference
  2
4_TB_GTEZ_04_PCR_0_in_129292_4
 10
0.0
 20
0.0
 30
0.0
  0
ENDBLK
  5
71
330
6E
100
AcDbEntity
  8
0
100
AcDbBlockEnd
  0
BLOCK
  5
8A
330
88
100
AcDbEntity
  8
0
100
AcDbBlockBegin
  2
2_INS_GT_04_CR_0_in_129292_4
 70
     2
 10
0.0
 20
0.0
 30
0.0
  3
2_INS_GT_04_CR_0_in_129292_4
  1

  0
ATTDEF
  5
8C
330
88
100
AcDbEntity
  8
AM_6
100
AcDbText
 10
28.49989426817492
 20
11.07
 30
0.0
 40
0.5
  1
INS-GT-CR-M
100
AcDbAttributeDefinition
  3

  2
NN
 70
     8
280
     0
  0
ATTDEF
  5
8D
330
88
100
AcDbEntity
  8
AM_6
100
AcDbText
 10
28.49989426817492
 20
10.57
 30
0.0
 40
0.5
  1
GT Normal Duty Corrosion Resistant Bearing Inserts
100
AcDbAttributeDefinition
  3

  2
NT
 70
     8
280
     0
  0
ATTDEF
  5
8E
330
88
100
AcDbEntity
  8
AM_6
100
AcDbText
 10
28.49989426817492
 20
10.07
 30
0.0
 40
0.5
  1
INS-GT-04-CR
100
AcDbAttributeDefinition
  3

  2
NB
 70
     8
280
     0
  0
ATTDEF
  5
8F
330
88
100
AcDbEntity
  8
AM_6
100
AcDbText
 10
28.49989426817492
 20
9.570000000000002
 30
0.0
 40
0.5
  1
$PN.
100
AcDbAttributeDefinition
  3

  2
NBSYN
 70
     8
280
     0
  0
ATTDEF
  5
90
330
88
100
AcDbEntity
  8
AM_6
100
AcDbText
 10
28.49989426817492
 20
9.070000000000002
 30
0.0
 40
0.5
  1
INS-GT-04-CR
100
AcDbAttributeDefinition
  3

  2
LINA
 70
     8
280
     0
  0
ATTDEF
  5
91
330
88
100
AcDbEntity
  8
AM_6
100
AcDbText
 10
28.49989426817492
 20
8.570000000000002
 30
0.0
 40
0.5
  1
204
100
AcDbAttributeDefinition
  3

  2
SERIES
 70
     8
280
     0
  0
ATTDEF
  5
92
330
88
100
AcDbEntity
  8
AM_6
100
AcDbText
 10
28.49989426817492
 20
8.070000000000002
 30
0.0
 40
0.5
  1
INS-GT-04-CR
100
AcDbAttributeDefinition
  3

  2
PN
 70
     8
280
     0
  0
ATTDEF
  5
93
330
88
100
AcDbEntity
  8
AM_6
100
AcDbText
 10
28.49989426817492
 20
7.570000000000002
 30
0.0
 40
0.5
  1
INS-GT-04-CR
100
AcDbAttributeDefinition
  3

  2
DESCRIPTION
 70
     8
280
     0
  0
ATTDEF
  5
94
330
88
100
AcDbEntity
  8
AM_6
100
AcDbText
 10
28.49989426817492
 20
7.070000000000002
 30
0.0
 40
0.5
  1
37.3
100
AcDbAttributeDefinition
  3

  2
A
 70
     8
280
     0
  0
ATTDEF
  5
95
330
88
100
AcDbEntity
  8
AM_6
100
AcDbText
 10
28.49989426817492
 20
6.570000000000002
 30
0.0
 40
0.5
  1
15.0
100
AcDbAttributeDefinition
  3

  2
C
 70
     8
280
     0
  0
ATTDEF
  5
96
330
88
100
AcDbEntity
  8
AM_6
100
AcDbText
 10
28.49989426817492
 20
6.070000000000002
 30
0.0
 40
0.5
  1
47.0
100
AcDbAttributeDefinition
  3

  2
D
 70
     8
280
     0
  0
ATTDEF
  5
97
330
88
100
AcDbEntity
  8
AM_6
100
AcDbText
 10
28.49989426817492
 20
5.570000000000002
 30
0.0
 40
0.5
  1
3.9
100
AcDbAttributeDefinition
  3

  2
J
 70
     8
280
     0
  0
ATTDEF
  5
98
330
88
100
AcDbEntity
  8
AM_6
100
AcDbText
 10
28.49989426817492
 20
5.070000000000002
 30
0.0
 40
0.5
  1
38.1
100
AcDbAttributeDefinition
  3

  2
L
 70
     8
280
     0
  0
ATTDEF
  5
99
330
88
100
AcDbEntity
  8
AM_6
100
AcDbText
 10
28.49989426817492
 20
4.570000000000002
 30
0.0
 40
0.5
  1
10 - 32 x 1/4
100
AcDbAttributeDefinition
  3

  2
N
 70
     8
280
     0
  0
ATTDEF
  5
9A
330
88
100
AcDbEntity
  8
AM_6
100
AcDbText
 10
28.49989426817492
 20
4.070000000000002
 30
0.0
 40
0.5
  1
12.3
100
AcDbAttributeDefinition
  3

  2
W
 70
     8
280
     0
  0
ATTDEF
  5
9B
330
88
100
AcDbEntity
  8
AM_6
100
AcDbText
 10
28.49989426817492
 20
3.570000000000002
 30
0.0
 40
0.5
  1
25.0
100
AcDbAttributeDefinition
  3

  2
X
 70
     8
280
     0
  0
ATTDEF
  5
9C
330
88
100
AcDbEntity
  8
AM_6
100
AcDbText
 10
28.49989426817492
 20
3.070000000000002
 30
0.0
 40
0.5
  1
25.0
100
AcDbAttributeDefinition
  3

  2
Y
 70
     8
280
     0
  0
ATTDEF
  5
9D
330
88
100
AcDbEntity
  8
AM_6
100
AcDbText
 10
28.49989426817492
 20
2.570000000000002
 30
0.0
 40
0.5
  1
baldor
100
AcDbAttributeDefinition
  3

  2
COMPANY
 70
     8
280
     0
  0
LINE
  5
A0
330
88
100
AcDbEntity
  8
AM_9
100
AcDbLine
 10
14.21190476190476
 20
-18.75
 30
0.0
 11
14.21190476190476
 21
-9.374999999999998
 31
0.0
  0
LINE
  5
A1
330
88
100
AcDbEntity
  8
AM_9
100
AcDbLine
 10
-14.21190476190476
 20
-9.374999999999998
 30
0.0
 11
-14.21190476190476
 21
-18.75
 31
0.0
  0
LINE
  5
A2
330
88
100
AcDbEntity
  8
AM_9
100
AcDbLine
 10
-14.21190476190476
 20
-9.374999999999998
 30
0.0
 11
14.21190476190476
 21
-9.374999999999998
 31
0.0
  0
LINE
  5
A3
330
88
100
AcDbEntity
  8
AM_9
100
AcDbLine
 10
14.21190476190476
 20
-9.374999999999998
 30
0.0
 11
14.92585989416354
 21
11.07
 31
0.0
  0
LINE
  5
A4
330
88
100
AcDbEntity
  8
AM_9
100
AcDbLine
 10
-14.92585989416354
 20
11.07
 30
0.0
 11
-14.21190476190476
 21
-9.374999999999998
 31
0.0
  0
LINE
  5
A5
330
88
100
AcDbEntity
  8
AM_9
100
AcDbLine
 10
15.57261904761905
 20
-15.625
 30
0.0
 11
15.57261904761905
 21
-12.5
 31
0.0
  0
LINE
  5
A6
330
88
100
AcDbEntity
  8
AM_9
100
AcDbLine
 10
-15.57261904761905
 20
-12.5
 30
0.0
 11
-15.57261904761905
 21
-15.625
 31
0.0
  0
LINE
  5
A7
330
88
100
AcDbEntity
  8
AM_9
100
AcDbLine
 10
8.10637536676989
 20
11.07
 30
0.0
 11
16.33333333333333
 21
11.07
 31
0.0
  0
LINE
  5
A8
330
88
100
AcDbEntity
  8
AM_9
100
AcDbLine
 10
-16.33333333333333
 20
11.07
 30
0.0
 11
-16.93333333333333
 21
10.47
 31
0.0
  0
LINE
  5
A9
330
88
100
AcDbEntity
  8
AM_9
100
AcDbLine
 10
16.93333333333333
 20
10.47
 30
0.0
 11
16.33333333333333
 21
11.07
 31
0.0
  0
LINE
  5
AA
330
88
100
AcDbEntity
  8
AM_9
100
AcDbLine
 10
-16.33333333333333
 20
11.07
 30
0.0
 11
-8.10637536676989
 21
11.07
 31
0.0
  0
LINE
  5
AB
330
88
100
AcDbEntity
  8
AM_9
100
AcDbLine
 10
16.93333333333333
 20
-18.15
 30
0.0
 11
16.93333333333333
 21
-15.625
 31
0.0
  0
LINE
  5
AC
330
88
100
AcDbEntity
  8
AM_9
100
AcDbLine
 10
-16.93333333333333
 20
-15.625
 30
0.0
 11
-16.93333333333333
 21
-18.15
 31
0.0
  0
LINE
  5
AD
330
88
100
AcDbEntity
  8
AM_9
100
AcDbLine
 10
-16.93333333333333
 20
10.47
 30
0.0
 11
16.93333333333333
 21
10.47
 31
0.0
  0
LINE
  5
AE
330
88
100
AcDbEntity
  8
AM_9
100
AcDbLine
 10
16.93333333333333
 20
7.5
 30
0.0
 11
16.93333333333333
 21
10.47
 31
0.0
  0
LINE
  5
AF
330
88
100
AcDbEntity
  8
AM_9
100
AcDbLine
 10
-16.93333333333333
 20
10.47
 30
0.0
 11
-16.93333333333333
 21
7.5
 31
0.0
  0
LINE
  5
B0
330
88
100
AcDbEntity
  8
AM_9
100
AcDbLine
 10
16.33333333333333
 20
-18.75
 30
0.0
 11
16.93333333333333
 21
-18.15
 31
0.0
  0
LINE
  5
B1
330
88
100
AcDbEntity
  8
AM_9
100
AcDbLine
 10
-16.93333333333333
 20
-18.15
 30
0.0
 11
-16.33333333333333
 21
-18.75
 31
0.0
  0
LINE
  5
B2
330
88
100
AcDbEntity
  8
AM_9
100
AcDbLine
 10
-16.93333333333333
 20
-18.15
 30
0.0
 11
16.93333333333333
 21
-18.15
 31
0.0
  0
LINE
  5
B3
330
88
100
AcDbEntity
  8
AM_9
100
AcDbLine
 10
16.93333333333333
 20
-11.87994113919571
 30
0.0
 11
16.93333333333333
 21
-7.5
 31
0.0
  0
LINE
  5
B4
330
88
100
AcDbEntity
  8
AM_9
100
AcDbLine
 10
-16.93333333333333
 20
-7.5
 30
0.0
 11
-16.93333333333333
 21
-11.87994113919571
 31
0.0
  0
LINE
  5
B5
330
88
100
AcDbEntity
  8
AM_9
100
AcDbLine
 10
22.0
 20
-4.68
 30
0.0
 11
22.0
 21
-3.120000000000001
 31
0.0
  0
LINE
  5
B6
330
88
100
AcDbEntity
  8
AM_9
100
AcDbLine
 10
-22.0
 20
-3.120000000000001
 30
0.0
 11
-22.0
 21
-4.68
 31
0.0
  0
LINE
  5
B7
330
88
100
AcDbEntity
  8
AM_9
100
AcDbLine
 10
-21.59545395833822
 20
-7.500000000000004
 30
0.0
 11
21.59545395833822
 21
-7.500000000000004
 31
0.0
  0
ARC
  5
B8
330
88
100
AcDbEntity
  8
AM_9
100
AcDbCircle
 10
21.59545395833821
 20
-6.899999999999993
 30
0.0
 40
0.6000000000000094
100
AcDbArc
 50
270.0
 51
338.5875329531153
  0
ARC
  5
B9
330
88
100
AcDbEntity
  8
AM_9
100
AcDbCircle
 10
-21.59545395833821
 20
-6.899999999999993
 30
0.0
 40
0.6000000000000102
100
AcDbArc
 50
201.4124670468847
 51
270.0
  0
LINE
  5
BA
330
88
100
AcDbEntity
  8
AM_9
100
AcDbLine
 10
-21.59545395833822
 20
7.5
 30
0.0
 11
21.59545395833822
 21
7.5
 31
0.0
  0
ARC
  5
BB
330
88
100
AcDbEntity
  8
AM_9
100
AcDbCircle
 10
21.59545395833822
 20
6.900000000000003
 30
0.0
 40
0.5999999999999994
100
AcDbArc
 50
21.41246704688391
 51
90.0
  0
ARC
  5
BC
330
88
100
AcDbEntity
  8
AM_9
100
AcDbCircle
 10
-21.59545395833822
 20
6.900000000000003
 30
0.0
 40
0.599999999999997
100
AcDbArc
 50
90.0
 51
158.5875329531161
  0
LINE
  5
BD
330
88
100
AcDbEntity
  8
AM_9
100
AcDbLine
 10
-22.15403979828546
 20
-7.119047619047622
 30
0.0
 11
22.15403979828546
 21
-7.119047619047622
 31
0.0
  0
ARC
  5
BE
330
88
100
AcDbEntity
  8
AM_9
100
AcDbCircle
 10
3.999999999998263
 20
0.0000000000005942
 30
0.0
 40
19.50000000000183
100
AcDbArc
 50
338.5875329531162
 51
345.5454225506187
  0
ARC
  5
BF
330
88
100
AcDbEntity
  8
AM_9
100
AcDbCircle
 10
-3.999999999998781
 20
0.0000000000004361
 30
0.0
 40
19.50000000000129
100
AcDbArc
 50
194.4545774493812
 51
201.412467046884
  0
LINE
  5
C0
330
88
100
AcDbEntity
  8
AM_9
100
AcDbLine
 10
-22.88274369757586
 20
-4.867441879638546
 30
0.0
 11
22.88274369757586
 21
-4.867441879638546
 31
0.0
  0
LINE
  5
C1
330
88
100
AcDbEntity
  8
AM_9
100
AcDbLine
 10
-22.73749182788348
 20
-4.68
 30
0.0
 11
22.73749182788348
 21
-4.68
 31
0.0
  0
ARC
  5
C2
330
88
100
AcDbEntity
  8
AM_9
100
AcDbCircle
 10
22.73749182788347
 20
-4.830000000000005
 30
0.0
 40
0.1500000000000045
100
AcDbArc
 50
345.5454150456841
 51
90.0
  0
ARC
  5
C3
330
88
100
AcDbEntity
  8
AM_9
100
AcDbCircle
 10
-22.73749182788347
 20
-4.830000000000005
 30
0.0
 40
0.1500000000000048
100
AcDbArc
 50
90.0
 51
194.4545849543158
  0
LINE
  5
C4
330
88
100
AcDbEntity
  8
AM_9
100
AcDbLine
 10
-23.12071128384088
 20
-3.120000000000001
 30
0.0
 11
23.12071128384088
 21
-3.120000000000001
 31
0.0
  0
ARC
  5
C5
330
88
100
AcDbEntity
  8
AM_9
100
AcDbCircle
 10
23.12071128384088
 20
-2.97
 30
0.0
 40
0.1500000000000017
100
AcDbArc
 50
270.0
 51
351.170862691128
  0
ARC
  5
C6
330
88
100
AcDbEntity
  8
AM_9
100
AcDbCircle
 10
-23.12071128384088
 20
-2.97
 30
0.0
 40
0.1500000000000026
100
AcDbArc
 50
188.829137308872
 51
270.0
  0
LINE
  5
C7
330
88
100
AcDbEntity
  8
AM_9
100
AcDbLine
 10
-22.15403979828546
 20
7.11904761904762
 30
0.0
 11
22.15403979828546
 21
7.11904761904762
 31
0.0
  0
ARC
  5
C8
330
88
100
AcDbEntity
  8
AM_9
100
AcDbCircle
 10
3.999999999999371
 20
-0.0000000000000718
 30
0.0
 40
19.50000000000061
100
AcDbArc
 50
351.1708626911275
 51
21.41246704688357
  0
ARC
  5
C9
330
88
100
AcDbEntity
  8
AM_9
100
AcDbCircle
 10
-4.000000000000107
 20
0.000000000000008
 30
0.0
 40
19.4999999999999
100
AcDbArc
 50
158.5875329531158
 51
188.8291373088731
  0
LINE
  5
CA
330
88
100
AcDbEntity
  8
AM_9
100
AcDbLine
 10
-23.26893385193267
 20
-2.993023255813951
 30
0.0
 11
23.26893385193267
 21
-2.993023255813951
 31
0.0
  0
LINE
  5
CC
330
88
100
AcDbEntity
  8
AM_4
100
AcDbLine
 10
-8.10637536676989
 20
11.07
 30
0.0
 11
8.10637536676989
 21
11.07
 31
0.0
  0
LINE
  5
CD
330
88
100
AcDbEntity
  8
AM_4
100
AcDbLine
 10
16.93333333333333
 20
-12.5
 30
0.0
 11
16.93333333333333
 21
-11.87994113919571
 31
0.0
  0
LINE
  5
CE
330
88
100
AcDbEntity
  8
AM_4
100
AcDbLine
 10
-16.93333333333333
 20
-11.87994113919571
 30
0.0
 11
-16.93333333333333
 21
-12.5
 31
0.0
  0
ENDBLK
  5
8B
330
88
100
AcDbEntity
  8
0
100
AcDbBlockEnd
  0
BLOCK
  5
D1
330
CF
100
AcDbEntity
  8
0
100
AcDbBlockBegin
  2
3_129980_0_in_129292_4
 70
     2
 10
0.0
 20
0.0
 30
0.0
  3
3_129980_0_in_129292_4
  1

  0
ATTDEF
  5
D3
330
CF
100
AcDbEntity
  8
AM_6
100
AcDbText
 10
23.94993403682451
 20
12.3
 30
0.0
 40
0.5
  1
Grip Tight Adapter and Nut - Corrosion Resistant Metric Bore
100
AcDbAttributeDefinition
  3

  2
NN
 70
     8
280
     0
  0
ATTDEF
  5
D4
330
CF
100
AcDbEntity
  8
AM_6
100
AcDbText
 10
23.94993403682451
 20
11.8
 30
0.0
 40
0.5
  1
GT and GTM Adapter & Lock Nut Assemblies
100
AcDbAttributeDefinition
  3

  2
NT
 70
     8
280
     0
  0
ATTDEF
  5
D5
330
CF
100
AcDbEntity
  8
AM_6
100
AcDbText
 10
23.94993403682451
 20
11.3
 30
0.0
 40
0.5
  1
129980
100
AcDbAttributeDefinition
  3

  2
NB
 70
     8
280
     0
  0
ATTDEF
  5
D6
330
CF
100
AcDbEntity
  8
AM_6
100
AcDbText
 10
23.94993403682451
 20
10.8
 30
0.0
 40
0.5
  1
$PN.
100
AcDbAttributeDefinition
  3

  2
NBSYN
 70
     8
280
     0
  0
ATTDEF
  5
D7
330
CF
100
AcDbEntity
  8
AM_6
100
AcDbText
 10
23.94993403682451
 20
10.3
 30
0.0
 40
0.5
  1
129980
100
AcDbAttributeDefinition
  3

  2
LINA
 70
     8
280
     0
  0
ATTDEF
  5
D8
330
CF
100
AcDbEntity
  8
AM_6
100
AcDbText
 10
23.94993403682451
 20
9.800000000000002
 30
0.0
 40
0.5
  1
204
100
AcDbAttributeDefinition
  3

  2
SERIES
 70
     8
280
     0
  0
ATTDEF
  5
D9
330
CF
100
AcDbEntity
  8
AM_6
100
AcDbText
 10
23.94993403682451
 20
9.300000000000002
 30
0.0
 40
0.5
  1
20
100
AcDbAttributeDefinition
  3

  2
SS
 70
     8
280
     0
  0
ATTDEF
  5
DA
330
CF
100
AcDbEntity
  8
AM_6
100
AcDbText
 10
23.94993403682451
 20
8.800000000000002
 30
0.0
 40
0.5
  1
129980
100
AcDbAttributeDefinition
  3

  2
PN
 70
     8
280
     0
  0
ATTDEF
  5
DB
330
CF
100
AcDbEntity
  8
AM_6
100
AcDbText
 10
23.94993403682451
 20
8.300000000000002
 30
0.0
 40
0.5
  1
AN-GT-04-20M-CR
100
AcDbAttributeDefinition
  3

  2
DESCRIPTION
 70
     8
280
     0
  0
ATTDEF
  5
DC
330
CF
100
AcDbEntity
  8
AM_6
100
AcDbText
 10
23.94993403682451
 20
7.800000000000002
 30
0.0
 40
0.5
  1
37.3
100
AcDbAttributeDefinition
  3

  2
A
 70
     8
280
     0
  0
ATTDEF
  5
DD
330
CF
100
AcDbEntity
  8
AM_6
100
AcDbText
 10
23.94993403682451
 20
7.300000000000002
 30
0.0
 40
0.5
  1
15.0
100
AcDbAttributeDefinition
  3

  2
C
 70
     8
280
     0
  0
ATTDEF
  5
DE
330
CF
100
AcDbEntity
  8
AM_6
100
AcDbText
 10
23.94993403682451
 20
6.800000000000002
 30
0.0
 40
0.5
  1
47.0
100
AcDbAttributeDefinition
  3

  2
D
 70
     8
280
     0
  0
ATTDEF
  5
DF
330
CF
100
AcDbEntity
  8
AM_6
100
AcDbText
 10
23.94993403682451
 20
6.300000000000002
 30
0.0
 40
0.5
  1
3.9
100
AcDbAttributeDefinition
  3

  2
J
 70
     8
280
     0
  0
ATTDEF
  5
E0
330
CF
100
AcDbEntity
  8
AM_6
100
AcDbText
 10
23.94993403682451
 20
5.800000000000002
 30
0.0
 40
0.5
  1
38.1
100
AcDbAttributeDefinition
  3

  2
L
 70
     8
280
     0
  0
ATTDEF
  5
E1
330
CF
100
AcDbEntity
  8
AM_6
100
AcDbText
 10
23.94993403682451
 20
5.300000000000002
 30
0.0
 40
0.5
  1
10 - 32 x 1/4
100
AcDbAttributeDefinition
  3

  2
N
 70
     8
280
     0
  0
ATTDEF
  5
E2
330
CF
100
AcDbEntity
  8
AM_6
100
AcDbText
 10
23.94993403682451
 20
4.800000000000002
 30
0.0
 40
0.5
  1
12.3
100
AcDbAttributeDefinition
  3

  2
W
 70
     8
280
     0
  0
ATTDEF
  5
E3
330
CF
100
AcDbEntity
  8
AM_6
100
AcDbText
 10
23.94993403682451
 20
4.300000000000002
 30
0.0
 40
0.5
  1
25.0
100
AcDbAttributeDefinition
  3

  2
X
 70
     8
280
     0
  0
ATTDEF
  5
E4
330
CF
100
AcDbEntity
  8
AM_6
100
AcDbText
 10
23.94993403682451
 20
3.800000000000002
 30
0.0
 40
0.5
  1
25.0
100
AcDbAttributeDefinition
  3

  2
Y
 70
     8
280
     0
  0
ATTDEF
  5
E5
330
CF
100
AcDbEntity
  8
AM_6
100
AcDbText
 10
23.94993403682451
 20
3.300000000000002
 30
0.0
 40
0.5
  1
baldor
100
AcDbAttributeDefinition
  3

  2
COMPANY
 70
     8
280
     0
  0
LINE
  5
E6
330
CF
100
AcDbEntity
  8
AM_9
100
AcDbLine
 10
17.77999576665255
 20
-12.5
 30
0.0
 11
17.77999576665255
 21
-25.0
 31
0.0
  0
LINE
  5
E7
330
CF
100
AcDbEntity
  8
AM_9
100
AcDbLine
 10
-18.6182
 20
-23.8562
 30
0.0
 11
-14.7193
 21
-23.8562
 31
0.0
  0
LINE
  5
E8
330
CF
100
AcDbEntity
  8
AM_9
100
AcDbLine
 10
-14.7193
 20
-19.8938
 30
0.0
 11
-18.6182
 21
-19.8938
 31
0.0
  0
LINE
  5
E9
330
CF
100
AcDbEntity
  8
AM_9
100
AcDbLine
 10
-18.6182
 20
-19.8938
 30
0.0
 11
-19.05
 21
-19.46200000000001
 31
0.0
  0
LINE
  5
EA
330
CF
100
AcDbEntity
  8
AM_9
100
AcDbLine
 10
-19.05
 20
-24.288
 30
0.0
 11
-18.6182
 21
-23.8562
 31
0.0
  0
LINE
  5
EB
330
CF
100
AcDbEntity
  8
AM_9
100
AcDbLine
 10
-18.6182
 20
-19.8938
 30
0.0
 11
-18.6182
 21
-23.8562
 31
0.0
  0
LINE
  5
EC
330
CF
100
AcDbEntity
  8
AM_9
100
AcDbLine
 10
-14.7193
 20
-23.8562
 30
0.0
 11
-14.2875
 21
-24.288
 31
0.0
  0
LINE
  5
ED
330
CF
100
AcDbEntity
  8
AM_9
100
AcDbLine
 10
-14.2875
 20
-19.462
 30
0.0
 11
-14.7193
 21
-19.8938
 31
0.0
  0
LINE
  5
EE
330
CF
100
AcDbEntity
  8
AM_9
100
AcDbLine
 10
-14.2875
 20
-19.462
 30
0.0
 11
-14.2875
 21
-24.288
 31
0.0
  0
LINE
  5
EF
330
CF
100
AcDbEntity
  8
AM_9
100
AcDbLine
 10
-14.7193
 20
-19.8938
 30
0.0
 11
-14.7193
 21
-23.8562
 31
0.0
  0
LINE
  5
F0
330
CF
100
AcDbEntity
  8
AM_9
100
AcDbLine
 10
10.0
 20
-25.0
 30
0.0
 11
10.0
 21
12.3
 31
0.0
  0
LINE
  5
F1
330
CF
100
AcDbEntity
  8
AM_9
100
AcDbLine
 10
-10.0
 20
12.3
 30
0.0
 11
-10.0
 21
-25.0
 31
0.0
  0
LINE
  5
F2
330
CF
100
AcDbEntity
  8
AM_9
100
AcDbLine
 10
14.21190476190476
 20
-18.75
 30
0.0
 11
14.21190476190476
 21
-9.375
 31
0.0
  0
LINE
  5
F3
330
CF
100
AcDbEntity
  8
AM_9
100
AcDbLine
 10
-14.21190476190476
 20
-9.375
 30
0.0
 11
-14.21190476190476
 21
-18.75
 31
0.0
  0
LINE
  5
F4
330
CF
100
AcDbEntity
  8
AM_9
100
AcDbLine
 10
1.25
 20
11.06999976850414
 30
0.0
 11
1.25
 21
-25.0
 31
0.0
  0
LINE
  5
F5
330
CF
100
AcDbEntity
  8
AM_9
100
AcDbLine
 10
-1.25
 20
-25.0
 30
0.0
 11
-1.25
 21
11.06999976850414
 31
0.0
  0
LINE
  5
F6
330
CF
100
AcDbEntity
  8
AM_9
100
AcDbLine
 10
1.25
 20
-9.375
 30
0.0
 11
14.21190476190476
 21
-9.375
 31
0.0
  0
LINE
  5
F7
330
CF
100
AcDbEntity
  8
AM_9
100
AcDbLine
 10
14.21190476190476
 20
-9.375
 30
0.0
 11
14.94510899538874
 21
11.62122213815317
 31
0.0
  0
LINE
  5
F8
330
CF
100
AcDbEntity
  8
AM_9
100
AcDbLine
 10
-14.94510899538874
 20
11.62122213815317
 30
0.0
 11
-14.21190476190476
 21
-9.375
 31
0.0
  0
LINE
  5
F9
330
CF
100
AcDbEntity
  8
AM_9
100
AcDbLine
 10
-14.21190476190476
 20
-9.375
 30
0.0
 11
-1.25
 21
-9.375
 31
0.0
  0
LINE
  5
FA
330
CF
100
AcDbEntity
  8
AM_9
100
AcDbLine
 10
-19.04350376336539
 20
-19.52047330692466
 30
0.0
 11
-19.04999999999969
 21
-19.46200000000271
 31
0.0
  0
LINE
  5
FB
330
CF
100
AcDbEntity
  8
AM_9
100
AcDbLine
 10
-18.98080935966633
 20
-23.56676424553095
 30
0.0
 11
-18.96776703494876
 21
-23.39360503860918
 31
0.0
  0
LINE
  5
FC
330
CF
100
AcDbEntity
  8
AM_9
100
AcDbLine
 10
15.57261904761905
 20
-15.625
 30
0.0
 11
15.57261904761905
 21
-12.5
 31
0.0
  0
LINE
  5
FD
330
CF
100
AcDbEntity
  8
AM_9
100
AcDbLine
 10
-15.57261904761905
 20
-12.5
 30
0.0
 11
-15.57261904761905
 21
-15.625
 31
0.0
  0
LINE
  5
FE
330
CF
100
AcDbEntity
  8
AM_9
100
AcDbLine
 10
-7.201248345946629
 20
-12.5
 30
0.0
 11
-7.201248345946629
 21
-25.0
 31
0.0
  0
LINE
  5
FF
330
CF
100
AcDbEntity
  8
AM_9
100
AcDbLine
 10
-17.12383333333334
 20
-15.625
 30
0.0
 11
17.12383333333334
 21
-15.625
 31
0.0
  0
LINE
  5
100
330
CF
100
AcDbEntity
  8
AM_9
100
AcDbLine
 10
-17.12383333333334
 20
-18.75
 30
0.0
 11
17.12383333333334
 21
-18.75
 31
0.0
  0
LINE
  5
101
330
CF
100
AcDbEntity
  8
AM_9
100
AcDbLine
 10
17.12383333333334
 20
-18.75
 30
0.0
 11
17.12383333333334
 21
-15.625
 31
0.0
  0
LINE
  5
102
330
CF
100
AcDbEntity
  8
AM_9
100
AcDbLine
 10
-17.12383333333334
 20
-15.625
 30
0.0
 11
-17.12383333333334
 21
-18.75
 31
0.0
  0
LINE
  5
104
330
CF
100
AcDbEntity
  8
AM_5
100
AcDbLine
 10
-19.05
 20
-24.288
 30
0.0
 11
-14.2875
 21
-24.288
 31
0.0
  0
LINE
  5
105
330
CF
100
AcDbEntity
  8
AM_5
100
AcDbLine
 10
-19.05
 20
-19.462
 30
0.0
 11
-14.2875
 21
-19.462
 31
0.0
  0
LINE
  5
108
330
CF
100
AcDbEntity
  8
AM_7
100
AcDbLine
 10
-14.049375
 20
-21.875
 30
0.0
 11
-19.288125
 21
-21.875
 31
0.0
  0
LINE
  5
109
330
CF
100
AcDbEntity
  8
AM_4
100
AcDbLine
 10
-1.25
 20
11.06999976850414
 30
0.0
 11
-1.25
 21
12.3
 31
0.0
  0
LINE
  5
10A
330
CF
100
AcDbEntity
  8
AM_4
100
AcDbLine
 10
1.25
 20
11.06999976850414
 30
0.0
 11
1.25
 21
12.3
 31
0.0
  0
LINE
  5
10B
330
CF
100
AcDbEntity
  8
AM_4
100
AcDbLine
 10
14.94510899538874
 20
11.62122213815317
 30
0.0
 11
14.96881244063839
 21
12.3
 31
0.0
  0
LINE
  5
10C
330
CF
100
AcDbEntity
  8
AM_4
100
AcDbLine
 10
-14.96881244063839
 20
12.3
 30
0.0
 11
-14.94510899538874
 21
11.62122213815317
 31
0.0
  0
LINE
  5
10D
330
CF
100
AcDbEntity
  8
AM_4
100
AcDbLine
 10
-14.96881244063839
 20
12.3
 30
0.0
 11
14.96881244063839
 21
12.3
 31
0.0
  0
LINE
  5
10E
330
CF
100
AcDbEntity
  8
AM_4
100
AcDbLine
 10
-18.45
 20
-12.5
 30
0.0
 11
-19.05
 21
-13.1
 31
0.0
  0
LINE
  5
10F
330
CF
100
AcDbEntity
  8
AM_4
100
AcDbLine
 10
-10.86208044823205
 20
-12.5
 30
0.0
 11
-11.16371655579191
 21
-13.1
 31
0.0
  0
LINE
  5
110
330
CF
100
AcDbEntity
  8
AM_4
100
AcDbLine
 10
-11.16371655579191
 20
-13.1
 30
0.0
 11
-11.16371655579191
 21
-24.4
 31
0.0
  0
LWPOLYLINE
  5
111
330
CF
100
AcDbEntity
  8
AM_4
100
AcDbPolyline
 90
        7
 70
     0
 43
0.0
 10
-18.97822038601039
 20
-23.53381340597764
 10
-18.998091545055
 20
-23.77229692942894
 10
-19.01710071255718
 20
-23.97559489513285
 10
-19.03426148359227
 20
-24.14380427681177
 10
-19.04594922743756
 20
-24.25170325335359
 10
-19.04997506382357
 20
-24.28777818933575
 10
-19.04999999999986
 20
-24.28799999999879
  0
LINE
  5
112
330
CF
100
AcDbEntity
  8
AM_4
100
AcDbLine
 10
-19.05
 20
-13.1
 30
0.0
 11
-19.05
 21
-19.46888999965636
 31
0.0
  0
LINE
  5
113
330
CF
100
AcDbEntity
  8
AM_4
100
AcDbLine
 10
-19.05
 20
-24.28551792389284
 30
0.0
 11
-19.05
 21
-24.4
 31
0.0
  0
LINE
  5
114
330
CF
100
AcDbEntity
  8
AM_4
100
AcDbLine
 10
-19.05
 20
-13.1
 30
0.0
 11
-11.16371655579191
 21
-13.1
 31
0.0
  0
LWPOLYLINE
  5
115
330
CF
100
AcDbEntity
  8
AM_4
100
AcDbPolyline
 90
       16
 70
     0
 43
0.0
 10
-19.04999999999969
 20
-19.46200000000271
 10
-19.04969831203477
 20
-19.46468489104934
 10
-19.04445767205933
 20
-19.51179868279974
 10
-19.03282766997314
 20
-19.61977953647448
 10
-19.01657338103338
 20
-19.77978339259398
 10
-18.99661588192411
 20
-19.99438784551408
 10
-18.97497464330803
 20
-20.25843322224725
 10
-18.95366609858509
 20
-20.5688987830236
 10
-18.93490375929839
 20
-20.92187773035664
 10
-18.92104620415933
 20
-21.30899953828038
 10
-18.9140760338841
 20
-21.7173691666005
 10
-18.91516481837764
 20
-22.14144895587148
 10
-18.92436027629127
 20
-22.553917447431
 10
-18.94116287489319
 20
-22.95865935942439
 10
-18.95845993602502
 20
-23.25698385679245
 10
-18.97822038601039
 20
-23.53381340597764
  0
LINE
  5
116
330
CF
100
AcDbEntity
  8
AM_4
100
AcDbLine
 10
-11.16371655579191
 20
-24.4
 30
0.0
 11
-10.86208044823206
 21
-25.0
 31
0.0
  0
LINE
  5
117
330
CF
100
AcDbEntity
  8
AM_4
100
AcDbLine
 10
-19.05
 20
-24.4
 30
0.0
 11
-18.45
 21
-25.0
 31
0.0
  0
LINE
  5
118
330
CF
100
AcDbEntity
  8
AM_4
100
AcDbLine
 10
-19.05
 20
-24.4
 30
0.0
 11
-11.16371655579191
 21
-24.4
 31
0.0
  0
LINE
  5
119
330
CF
100
AcDbEntity
  8
AM_4
100
AcDbLine
 10
-10.57874742070594
 20
-12.5
 30
0.0
 11
-10.57874742070594
 21
-25.0
 31
0.0
  0
LINE
  5
11A
330
CF
100
AcDbEntity
  8
AM_4
100
AcDbLine
 10
18.34666182170479
 20
-12.5
 30
0.0
 11
18.94993403682451
 21
-13.1
 31
0.0
  0
LINE
  5
11B
330
CF
100
AcDbEntity
  8
AM_4
100
AcDbLine
 10
-18.45
 20
-12.5
 30
0.0
 11
18.34666182170479
 21
-12.5
 31
0.0
  0
LINE
  5
11C
330
CF
100
AcDbEntity
  8
AM_4
100
AcDbLine
 10
-7.786217481032606
 20
-13.1
 30
0.0
 11
-7.484581373472746
 21
-12.5
 31
0.0
  0
LINE
  5
11D
330
CF
100
AcDbEntity
  8
AM_4
100
AcDbLine
 10
18.94993403682451
 20
-13.1
 30
0.0
 11
18.94993403682451
 21
-24.4
 31
0.0
  0
LINE
  5
11E
330
CF
100
AcDbEntity
  8
AM_4
100
AcDbLine
 10
-7.786217481032606
 20
-13.1
 30
0.0
 11
18.94993403682451
 21
-13.1
 31
0.0
  0
LINE
  5
11F
330
CF
100
AcDbEntity
  8
AM_4
100
AcDbLine
 10
-7.786217481032606
 20
-24.4
 30
0.0
 11
-7.786217481032606
 21
-13.1
 31
0.0
  0
LINE
  5
120
330
CF
100
AcDbEntity
  8
AM_4
100
AcDbLine
 10
18.94993403682451
 20
-24.4
 30
0.0
 11
18.34666182170479
 21
-25.0
 31
0.0
  0
LINE
  5
121
330
CF
100
AcDbEntity
  8
AM_4
100
AcDbLine
 10
-7.786217481032606
 20
-24.4
 30
0.0
 11
18.94993403682451
 21
-24.4
 31
0.0
  0
LINE
  5
122
330
CF
100
AcDbEntity
  8
AM_4
100
AcDbLine
 10
-7.484581373472746
 20
-25.0
 30
0.0
 11
-7.786217481032606
 21
-24.4
 31
0.0
  0
LINE
  5
123
330
CF
100
AcDbEntity
  8
AM_4
100
AcDbLine
 10
-18.45
 20
-25.0
 30
0.0
 11
18.34666182170479
 21
-25.0
 31
0.0
  0
ENDBLK
  5
D2
330
CF
100
AcDbEntity
  8
0
100
AcDbBlockEnd
  0
BLOCK
  5
126
330
124
100
AcDbEntity
  8
0
100
AcDbBlockBegin
  2
4_TB_GTEZ_04_PCR_0_in_129292_4
 70
     2
 10
0.0
 20
0.0
 30
0.0
  3
4_TB_GTEZ_04_PCR_0_in_129292_4
  1

  0
ATTDEF
  5
128
330
124
100
AcDbEntity
  8
AM_6
100
AcDbText
 10
46.29999999999998
 20
20.735
 30
0.0
 40
0.5
  1
TB-GTEZ-PCR-Body
100
AcDbAttributeDefinition
  3

  2
NN
 70
     8
280
     0
  0
ATTDEF
  5
129
330
124
100
AcDbEntity
  8
AM_6
100
AcDbText
 10
46.29999999999998
 20
20.235
 30
0.0
 40
0.5
  1
GTEZ Normal Duty Polymer Housed Tapped Base Pillow Blocks
100
AcDbAttributeDefinition
  3

  2
NT
 70
     8
280
     0
  0
ATTDEF
  5
12A
330
124
100
AcDbEntity
  8
AM_6
100
AcDbText
 10
46.29999999999998
 20
19.735
 30
0.0
 40
0.5
  1
TB-GTEZ-04-PCR
100
AcDbAttributeDefinition
  3

  2
NB
 70
     8
280
     0
  0
ATTDEF
  5
12B
330
124
100
AcDbEntity
  8
AM_6
100
AcDbText
 10
46.29999999999998
 20
19.235
 30
0.0
 40
0.5
  1
$PN.$LUBE.
100
AcDbAttributeDefinition
  3

  2
NBSYN
 70
     8
280
     0
  0
ATTDEF
  5
12C
330
124
100
AcDbEntity
  8
AM_6
100
AcDbText
 10
46.29999999999998
 20
18.735
 30
0.0
 40
0.5
  1
TB-GTEZ-04-PCR
100
AcDbAttributeDefinition
  3

  2
LINA
 70
     8
280
     0
  0
ATTDEF
  5
12D
330
124
100
AcDbEntity
  8
AM_6
100
AcDbText
 10
46.29999999999998
 20
18.235
 30
0.0
 40
0.5
  1
204
100
AcDbAttributeDefinition
  3

  2
SERIES
 70
     8
280
     0
  0
ATTDEF
  5
12E
330
124
100
AcDbEntity
  8
AM_6
100
AcDbText
 10
46.29999999999998
 20
17.735
 30
0.0
 40
0.5
  1
20
100
AcDbAttributeDefinition
  3

  2
SS
 70
     8
280
     0
  0
ATTDEF
  5
12F
330
124
100
AcDbEntity
  8
AM_6
100
AcDbText
 10
46.29999999999998
 20
17.235
 30
0.0
 40
0.5
  1
TB-GTEZ-04-PCR
100
AcDbAttributeDefinition
  3

  2
PN
 70
     8
280
     0
  0
ATTDEF
  5
130
330
124
100
AcDbEntity
  8
AM_6
100
AcDbText
 10
46.29999999999998
 20
16.735
 30
0.0
 40
0.5
  1
TB-GTEZ-04-PCR
100
AcDbAttributeDefinition
  3

  2
DESCRIPTION
 70
     8
280
     0
  0
ATTDEF
  5
131
330
124
100
AcDbEntity
  8
AM_6
100
AcDbText
 10
46.29999999999998
 20
16.235
 30
0.0
 40
0.5
  1
0.41
100
AcDbAttributeDefinition
  3

  2
WEIGHT
 70
     8
280
     0
  0
ATTDEF
  5
132
330
124
100
AcDbEntity
  8
AM_6
100
AcDbText
 10
46.29999999999998
 20
15.735
 30
0.0
 40
0.5
  1
37.3
100
AcDbAttributeDefinition
  3

  2
A
 70
     8
280
     0
  0
ATTDEF
  5
133
330
124
100
AcDbEntity
  8
AM_6
100
AcDbText
 10
46.29999999999998
 20
15.235
 30
0.0
 40
0.5
  1
82.6
100
AcDbAttributeDefinition
  3

  2
B
 70
     8
280
     0
  0
ATTDEF
  5
134
330
124
100
AcDbEntity
  8
AM_6
100
AcDbText
 10
46.29999999999998
 20
14.735
 30
0.0
 40
0.5
  1
37.7
100
AcDbAttributeDefinition
  3

  2
C
 70
     8
280
     0
  0
ATTDEF
  5
135
330
124
100
AcDbEntity
  8
AM_6
100
AcDbText
 10
46.29999999999998
 20
14.235
 30
0.0
 40
0.5
  1
67.5
100
AcDbAttributeDefinition
  3

  2
J
 70
     8
280
     0
  0
ATTDEF
  5
136
330
124
100
AcDbEntity
  8
AM_6
100
AcDbText
 10
46.29999999999998
 20
13.735
 30
0.0
 40
0.5
  1
38.1
100
AcDbAttributeDefinition
  3

  2
L
 70
     8
280
     0
  0
ATTDEF
  5
137
330
124
100
AcDbEntity
  8
AM_6
100
AcDbText
 10
46.29999999999998
 20
13.235
 30
0.0
 40
0.5
  1
33.3
100
AcDbAttributeDefinition
  3

  2
M
 70
     8
280
     0
  0
ATTDEF
  5
138
330
124
100
AcDbEntity
  8
AM_6
100
AcDbText
 10
46.29999999999998
 20
12.735
 30
0.0
 40
0.5
  1
10.3
100
AcDbAttributeDefinition
  3

  2
N
 70
     8
280
     0
  0
ATTDEF
  5
139
330
124
100
AcDbEntity
  8
AM_6
100
AcDbText
 10
46.29999999999998
 20
12.235
 30
0.0
 40
0.5
  1
M10x1.5
100
AcDbAttributeDefinition
  3

  2
R
 70
     8
280
     0
  0
ATTDEF
  5
13A
330
124
100
AcDbEntity
  8
AM_6
100
AcDbText
 10
46.29999999999998
 20
11.735
 30
0.0
 40
0.5
  1
25.0
100
AcDbAttributeDefinition
  3

  2
S
 70
     8
280
     0
  0
ATTDEF
  5
13B
330
124
100
AcDbEntity
  8
AM_6
100
AcDbText
 10
46.29999999999998
 20
11.235
 30
0.0
 40
0.5
  1
25.0
100
AcDbAttributeDefinition
  3

  2
Z
 70
     8
280
     0
  0
ATTDEF
  5
13C
330
124
100
AcDbEntity
  8
AM_6
100
AcDbText
 10
46.29999999999998
 20
10.735
 30
0.0
 40
0.5
  1
10
100
AcDbAttributeDefinition
  3

  2
RO
 70
     8
280
     0
  0
ATTDEF
  5
13D
330
124
100
AcDbEntity
  8
AM_6
100
AcDbText
 10
46.29999999999998
 20
10.235
 30
0.0
 40
0.5
  1
8.376
100
AcDbAttributeDefinition
  3

  2
RK
 70
     8
280
     0
  0
ATTDEF
  5
13E
330
124
100
AcDbEntity
  8
AM_6
100
AcDbText
 10
46.29999999999998
 20
9.735000000000003
 30
0.0
 40
0.5
  1
baldor
100
AcDbAttributeDefinition
  3

  2
COMPANY
 70
     8
280
     0
  0
CIRCLE
  5
13F
330
124
100
AcDbEntity
  8
AM_9
100
AcDbCircle
 10
25.4
 20
-0.0000000000000012
 30
0.0
 40
4.188000000000001
  0
CIRCLE
  5
140
330
124
100
AcDbEntity
  8
AM_9
100
AcDbCircle
 10
-25.4
 20
-0.0000000000000012
 30
0.0
 40
4.187999999999997
  0
LWPOLYLINE
  5
141
330
124
100
AcDbEntity
  8
AM_9
100
AcDbPolyline
 90
        6
 70
     0
 43
0.0
 10
26.16411536163312
 20
-5.349101615137753
 10
26.26591308919904
 20
-5.267104242969927
 10
26.618725640308
 20
-4.998272023683166
 10
26.99894090102621
 20
-4.729907658848454
 10
27.40579404083849
 20
-4.460857425177316
 10
27.83095384531489
 20
-4.1944010767585
  0
LWPOLYLINE
  5
142
330
124
100
AcDbEntity
  8
AM_9
100
AcDbPolyline
 90
        5
 70
     0
 43
0.0
 10
27.83095384531489
 20
-4.1944010767585
 10
27.7275264690679
 20
-3.633491434045658
 10
27.64766702111307
 20
-3.062960224897773
 10
27.59616814673261
 20
-2.477862017593537
 10
27.57832892400621
 20
-1.884999999999996
  0
LWPOLYLINE
  5
143
330
124
100
AcDbEntity
  8
AM_9
100
AcDbPolyline
 90
        5
 70
     0
 43
0.0
 10
27.83095384531489
 20
0.4244010767585067
 10
27.38404086495459
 20
0.7048558981149277
 10
26.95480383081339
 20
0.9901215026888709
 10
26.54500694210479
 20
1.282670606340988
 10
26.16411536163312
 20
1.579101615137758
  0
LWPOLYLINE
  5
144
330
124
100
AcDbEntity
  8
AM_9
100
AcDbPolyline
 90
        6
 70
     0
 43
0.0
 10
27.57832892400621
 20
-1.884999999999996
 10
27.57970339632607
 20
-1.720849514655501
 10
27.60327077226052
 20
-1.183222979511386
 10
27.65480940334452
 20
-0.6465328911846783
 10
27.73214160428656
 20
-0.1084722898463282
 10
27.83095384531489
 20
0.4244010767585067
  0
LINE
  5
145
330
124
100
AcDbEntity
  8
AM_9
100
AcDbLine
 10
23.5
 20
-14.16999020441036
 30
0.0
 11
23.5
 21
14.16999020441038
 31
0.0
  0
LINE
  5
146
330
124
100
AcDbEntity
  8
AM_9
100
AcDbLine
 10
-23.5
 20
14.16999020441038
 30
0.0
 11
-23.5
 21
-14.16999020441036
 31
0.0
  0
LWPOLYLINE
  5
147
330
124
100
AcDbEntity
  8
AM_9
100
AcDbPolyline
 90
        3
 70
     0
 43
0.0
 10
-16.93333333333332
 20
-16.460039269625
 10
-18.28906012800074
 20
-16.24390954341014
 10
-19.04999999999999
 20
-16.10388264718549
  0
LWPOLYLINE
  5
148
330
124
100
AcDbEntity
  8
AM_9
100
AcDbPolyline
 90
        3
 70
     0
 43
0.0
 10
-14.21190476190474
 20
-16.80028904023293
 10
-15.78899172123176
 20
-16.61619917847442
 10
-16.93333333333332
 20
-16.460039269625
  0
LWPOLYLINE
  5
149
330
124
100
AcDbEntity
  8
AM_9
100
AcDbPolyline
 90
        5
 70
     0
 43
0.0
 10
-7.786217481032575
 20
-17.28614790171181
 10
-9.689059225912345
 20
-17.17891706362731
 10
-11.51816137966901
 20
-17.04878647530445
 10
-13.25960337047039
 20
-16.89674650909537
 10
-14.21190476190474
 20
-16.80028904023293
  0
LWPOLYLINE
  5
14A
330
124
100
AcDbEntity
  8
AM_9
100
AcDbPolyline
 90
        5
 70
     0
 43
0.0
 10
-1.25000000000003
 20
-17.46802427520772
 10
-3.290503809953885
 20
-17.44016308382104
 10
-5.305964899053468
 20
-17.38741390223769
 10
-7.281044391442053
 20
-17.31017818358032
 10
-7.786217481032575
 20
-17.28614790171181
  0
LINE
  5
14B
330
124
100
AcDbEntity
  8
AM_9
100
AcDbLine
 10
1.250000000000036
 20
-17.46802427520772
 30
0.0
 11
-1.25000000000003
 21
-17.46802427520772
 31
0.0
  0
LWPOLYLINE
  5
14C
330
124
100
AcDbEntity
  8
AM_9
100
AcDbPolyline
 90
        8
 70
     0
 43
0.0
 10
14.21190476190475
 20
-16.80028904023293
 10
12.52665662595692
 20
-16.96436073963297
 10
10.74607306928349
 20
-17.1071655919729
 10
8.883705407896485
 20
-17.2276167660985
 10
6.953727384227403
 20
-17.32479755584426
 10
4.970827296388957
 20
-17.39796835672083
 10
2.950096211357405
 20
-17.44657229475184
 10
1.250000000000036
 20
-17.46802427520772
  0
LWPOLYLINE
  5
14D
330
124
100
AcDbEntity
  8
AM_9
100
AcDbPolyline
 90
        5
 70
     0
 43
0.0
 10
18.94993403682451
 20
-16.12320445767852
 10
17.66654711300604
 20
-16.34788850859495
 10
16.2487070983048
 20
-16.55599743836558
 10
14.70720461134786
 20
-16.74594741237525
 10
14.21190476190475
 20
-16.80028904023293
  0
LINE
  5
14E
330
124
100
AcDbEntity
  8
AM_9
100
AcDbLine
 10
27.83095384531489
 20
0.4244010767585067
 30
0.0
 11
29.80057773685045
 21
0.4244010767585069
 31
0.0
  0
LINE
  5
14F
330
124
100
AcDbEntity
  8
AM_9
100
AcDbLine
 10
27.83095384531489
 20
-4.1944010767585
 30
0.0
 11
29.80057773685045
 21
-4.1944010767585
 31
0.0
  0
LINE
  5
150
330
124
100
AcDbEntity
  8
AM_9
100
AcDbLine
 10
29.80057773685045
 20
-4.1944010767585
 30
0.0
 11
29.59756088963463
 21
-4.433294178252607
 31
0.0
  0
LWPOLYLINE
  5
151
330
124
100
AcDbEntity
  8
AM_9
100
AcDbPolyline
 90
        6
 70
     0
 43
0.0
 10
30.05320265815914
 20
-1.884999999999996
 10
30.05182818583927
 20
-2.049150485344496
 10
30.02826080990482
 20
-2.58677702048861
 10
29.97672217882083
 20
-3.123467108815317
 10
29.89938997787878
 20
-3.661527710153666
 10
29.80057773685045
 20
-4.1944010767585
  0
LINE
  5
152
330
124
100
AcDbEntity
  8
AM_9
100
AcDbLine
 10
29.59923988213859
 20
0.6613959824574892
 30
0.0
 11
29.80057773685045
 21
0.4244010767585069
 31
0.0
  0
LWPOLYLINE
  5
153
330
124
100
AcDbEntity
  8
AM_9
100
AcDbPolyline
 90
        5
 70
     0
 43
0.0
 10
29.80057773685045
 20
0.4244010767585069
 10
29.90400511309743
 20
-0.1365085659543337
 10
29.98386456105227
 20
-0.7070397751022205
 10
30.03536343543274
 20
-1.292137982406456
 10
30.05320265815914
 20
-1.884999999999996
  0
LWPOLYLINE
  5
154
330
124
100
AcDbEntity
  8
AM_9
100
AcDbPolyline
 90
        6
 70
     0
 43
0.0
 10
26.16411536163312
 20
1.579101615137758
 10
26.06506136713877
 20
1.661098987305582
 10
25.75937215457518
 20
1.929931206592342
 10
25.48223165630224
 20
2.198295571427055
 10
25.23004900844365
 20
2.467345805098194
 10
25.0025267205687
 20
2.733802153517011
  0
LWPOLYLINE
  5
155
330
124
100
AcDbEntity
  8
AM_9
100
AcDbPolyline
 90
        5
 70
     0
 43
0.0
 10
25.0025267205687
 20
-6.503802153517002
 10
25.24258494843504
 20
-6.223347332160583
 10
25.51210308666656
 20
-5.938081727586639
 10
25.81890222661423
 20
-5.645532623934521
 10
26.16411536163312
 20
-5.349101615137753
  0
LINE
  5
156
330
124
100
AcDbEntity
  8
AM_9
100
AcDbLine
 10
24.74990179926002
 20
0.1150000000000122
 30
0.0
 11
24.39634840866675
 21
0.1150000000000122
 31
0.0
  0
LINE
  5
157
330
124
100
AcDbEntity
  8
AM_9
100
AcDbLine
 10
24.39634840866675
 20
-3.885000000000005
 30
0.0
 11
24.74990179926002
 21
-3.885000000000005
 31
0.0
  0
LWPOLYLINE
  5
158
330
124
100
AcDbEntity
  8
AM_9
100
AcDbPolyline
 90
       37
 70
     0
 43
0.0
 10
24.39634840866675
 20
-3.885000000000005
 10
24.5217566981296
 20
-3.877389396183496
 10
24.64621055478604
 20
-3.854615506024421
 10
24.76876280963962
 20
-3.816851652578142
 10
24.88848076603184
 20
-3.764385241571822
 10
25.00445329802687
 20
-3.697615574073305
 10
25.11579778463009
 20
-3.617050807568882
 10
25.22166682706683
 20
-3.523304088577988
 10
25.32125469799865
 20
-3.41708888623796
 10
25.41380347359497
 20
-3.299213562373099
 10
25.49860880179102
 20
-3.170575219373082
 10
25.57502526283238
 20
-3.032152872702096
 10
25.64247128130898
 20
-2.885000000000003
 10
25.70043355229522
 20
-2.730236523481401
 10
25.74847094791031
 20
-2.56904028665134
 10
25.78621787456785
 20
-2.402638090205043
 10
25.81338705536374
 20
-2.232296355333862
 10
25.82977171642695
 20
-2.059311485495317
 10
25.83524716059344
 20
-1.885
 10
25.82977171642695
 20
-1.710688514504683
 10
25.81338705536374
 20
-1.537703644666139
 10
25.78621787456785
 20
-1.367361909794957
 10
25.74847094791031
 20
-1.20095971334866
 10
25.70043355229523
 20
-1.039763476518598
 10
25.64247128130899
 20
-0.8849999999999965
 10
25.57502526283238
 20
-0.7378471272979036
 10
25.49860880179103
 20
-0.5994247806269163
 10
25.41380347359497
 20
-0.4707864376268991
 10
25.32125469799865
 20
-0.3529111137620376
 10
25.22166682706683
 20
-0.2466959114220094
 10
25.1157977846301
 20
-0.1529491924311148
 10
25.00445329802687
 20
-0.0723844259266915
 10
24.88848076603184
 20
-0.0056147584281739
 10
24.76876280963963
 20
0.0468516525781468
 10
24.64621055478604
 20
0.0846155060244269
 10
24.5217566981296
 20
0.1073893961835025
 10
24.39634840866675
 20
0.1150000000000122
  0
LWPOLYLINE
  5
159
330
124
100
AcDbEntity
  8
AM_9
100
AcDbPolyline
 90
       19
 70
     0
 43
0.0
 10
24.39634840866675
 20
0.1150000000000122
 10
24.2709401192039
 20
0.1073893961835034
 10
24.14648626254746
 20
0.0846155060244282
 10
24.02393400769387
 20
0.0468516525781487
 10
23.90421605130166
 20
-0.0056147584281713
 10
23.78824351930663
 20
-0.072384425926688
 10
23.6768990327034
 20
-0.1529491924311109
 10
23.57102999026667
 20
-0.2466959114220046
 10
23.47144211933485
 20
-0.3529111137620324
 10
23.37889334373853
 20
-0.4707864376268937
 10
23.29408801554247
 20
-0.5994247806269104
 10
23.21767155450112
 20
-0.737847127297897
 10
23.15022553602451
 20
-0.8849999999999898
 10
23.09226326503827
 20
-1.039763476518591
 10
23.04422586942318
 20
-1.200959713348653
 10
23.00647894276565
 20
-1.36736190979495
 10
22.97930976196976
 20
-1.537703644666131
 10
22.96292510090655
 20
-1.710688514504676
 10
22.95744965674006
 20
-1.884999999999992
  0
ELLIPSE
  5
15A
330
124
100
AcDbEntity
  8
AM_9
100
AcDbEllipse
 10
27.22477553341294
 20
-1.884999999999995
 30
0.0
 11
1.714505518806293E-16
 21
2.799999999999998
 31
0.0
210
0.0
220
0.0
230
1.0
 40
0.707106781186548
 41
3.141592653589793
 42
6.283185307179586
  0
ELLIPSE
  5
15B
330
124
100
AcDbEntity
  8
AM_9
100
AcDbEllipse
 10
27.57832892400621
 20
-1.884999999999996
 30
0.0
 11
1.714505518806292E-16
 21
2.799999999999995
 31
0.0
210
0.0
220
0.0
230
1.0
 40
0.7071067811865472
 41
3.716870414355903
 42
5.709504615716894
  0
ELLIPSE
  5
15C
330
124
100
AcDbEntity
  8
AM_9
100
AcDbEllipse
 10
27.22477553341293
 20
-1.884999999999972
 30
0.0
 11
2.449293598294733E-16
 21
4.000000000000043
 31
0.0
210
0.0
220
0.0
230
1.0
 40
0.7071067811865448
 41
4.016553111241546
 42
5.406218619995778
  0
LWPOLYLINE
  5
15D
330
124
100
AcDbEntity
  8
AM_9
100
AcDbPolyline
 90
        3
 70
     0
 43
0.0
 10
27.67647710347205
 20
-2.970677841737628
 10
27.64078389700575
 20
-2.866765865472579
 10
27.60493287357543
 20
-2.746188774385868
  0
LWPOLYLINE
  5
15E
330
124
100
AcDbEntity
  8
AM_9
100
AcDbPolyline
 90
        4
 70
     0
 43
0.0
 10
27.85318129133767
 20
-3.34976777645524
 10
27.80037603558111
 20
-3.253866592990011
 10
27.71524886903171
 20
-3.070214817418849
 10
27.70772098445308
 20
-3.051810908236633
  0
LWPOLYLINE
  5
15F
330
124
100
AcDbEntity
  8
AM_9
100
AcDbPolyline
 90
       24
 70
     0
 43
0.0
 10
29.48146692569548
 20
-1.884999999999996
 10
29.47928779649778
 20
-2.007051253434283
 10
29.46135806510285
 20
-2.254581722735922
 10
29.42585682729442
 20
-2.495683033843877
 10
29.37398310343545
 20
-2.72592706729399
 10
29.30752675800325
 20
-2.941314965546357
 10
29.22884506339878
 20
-3.13827958418785
 10
29.14081097376242
 20
-3.313834757305112
 10
29.04672716820277
 20
-3.465731565859571
 10
28.95020439464567
 20
-3.592598851307701
 10
28.85517446038602
 20
-3.693893974635557
 10
28.76526283390779
 20
-3.770480073413085
 10
28.68348534802375
 20
-3.824437340771754
 10
28.61162037022204
 20
-3.858945266086411
 10
28.54905627166852
 20
-3.877891124599931
 10
28.48976967345226
 20
-3.884563862956734
 10
28.40981737058741
 20
-3.874497047678442
 10
28.34381472901796
 20
-3.851501651210765
 10
28.26910126816291
 20
-3.81211438275353
 10
28.18666466926427
 20
-3.753798423986459
 10
28.08947076497166
 20
-3.665481300737019
 10
27.99064170682985
 20
-3.552650410411344
 10
27.8932302007208
 20
-3.4152253632594
 10
27.85318129133767
 20
-3.34976777645524
  0
LWPOLYLINE
  5
160
330
124
100
AcDbEntity
  8
AM_9
100
AcDbPolyline
 90
       24
 70
     0
 43
0.0
 10
27.85255966790998
 20
-0.4212948399190323
 10
27.86673844784076
 20
-0.3974214523664645
 10
27.96215289237908
 20
-0.2546248214403963
 10
28.05856759712611
 20
-0.1371869970178371
 10
28.15211464668807
 20
-0.0451463063843382
 10
28.23933590672863
 20
0.0228115099880603
 10
28.31758116794712
 20
0.0691946299986816
 10
28.38576772718552
 20
0.097512012035138
 10
28.44594667951225
 20
0.1116840922570656
 10
28.50812510305757
 20
0.1137765572900163
 10
28.57092275897102
 20
0.1025556760605698
 10
28.63824528248248
 20
0.077647137543682
 10
28.71395836677328
 20
0.0360968677998588
 10
28.79722208109522
 20
-0.0246701145268875
 10
28.89470326933125
 20
-0.1156036576894411
 10
28.99352389379045
 20
-0.2311138770731135
 10
29.09059373430985
 20
-0.371191404651334
 10
29.18276083815879
 20
-0.5350763255106964
 10
29.26685820368746
 20
-0.7210032085649933
 10
29.34000805933758
 20
-0.9264410057719114
 10
29.39978667411336
 20
-1.148411362100756
 10
29.44419597932097
 20
-1.383390858902388
 10
29.47173623601027
 20
-1.627432434174571
 10
29.48146692569548
 20
-1.884999999999996
  0
LWPOLYLINE
  5
161
330
124
100
AcDbEntity
  8
AM_9
100
AcDbPolyline
 90
        3
 70
     0
 43
0.0
 10
27.69490190820888
 20
-0.7505095783990431
 10
27.77607475014473
 20
-0.5644875760761271
 10
27.85255966790998
 20
-0.4212948399190323
  0
LWPOLYLINE
  5
162
330
124
100
AcDbEntity
  8
AM_9
100
AcDbPolyline
 90
        3
 70
     0
 43
0.0
 10
27.60585432065858
 20
-1.020455141704246
 10
27.62233380125705
 20
-0.9628801110939841
 10
27.67041096053168
 20
-0.8160570776563213
  0
ELLIPSE
  5
163
330
124
100
AcDbEntity
  8
AM_9
100
AcDbEllipse
 10
29.19849950708961
 20
-1.884999999999994
 30
0.0
 11
1.477791714323911E-16
 21
2.41341702007927
 31
0.0
210
0.0
220
0.0
230
1.0
 40
0.7071067811865478
 41
2.085924364277038
 42
7.349143687966843
  0
ELLIPSE
  5
164
330
124
100
AcDbEntity
  8
AM_9
100
AcDbEllipse
 10
29.59558845024697
 20
-1.884999999999992
 30
0.0
 11
1.538042151633704E-16
 21
2.511813451363363
 31
0.0
210
0.0
220
0.0
230
1.0
 40
0.7071067811865434
 41
3.622405484719774
 42
4.71238898038469
  0
ELLIPSE
  5
165
330
124
100
AcDbEntity
  8
AM_9
100
AcDbEllipse
 10
30.55516980942093
 20
-1.88500000000001
 30
0.0
 11
1.153725330273522E-16
 21
1.884176451654127
 31
0.0
210
0.0
220
0.0
230
1.0
 40
0.7071067811865522
 41
3.627133076620213
 42
4.71238898038469
  0
LWPOLYLINE
  5
166
330
124
100
AcDbEntity
  8
AM_9
100
AcDbPolyline
 90
       19
 70
     0
 43
0.0
 10
22.95744965674006
 20
-1.885000059604641
 10
22.96292510464401
 20
-2.059311544873145
 10
22.97930976941623
 20
-2.232296414032975
 10
23.00647895386447
 20
-2.402638147778706
 10
23.04422588408987
 20
-2.569040342661381
 10
23.09226328316121
 20
-2.730236577501552
 10
23.15022555746577
 20
-2.885000051619137
 10
23.21767157909753
 20
-3.032152921527359
 10
23.29408804310683
 20
-3.170575265032887
 10
23.37889337406105
 20
-3.299213604519946
 10
23.47144215218477
 20
-3.417088924551086
 10
23.57103002539398
 20
-3.523304122765806
 10
23.67689906984076
 20
-3.617050837371203
 10
23.78824355817139
 20
-3.697615599263315
 10
23.90421609159805
 20
-3.76438526195781
 10
24.02393404911521
 20
-3.816851668004957
 10
24.1464863047785
 20
-3.854615516374658
 10
24.27094016192324
 20
-3.877389401378383
 10
24.39634840866675
 20
-3.885000000000005
  0
LINE
  5
167
330
124
100
AcDbEntity
  8
AM_9
100
AcDbLine
 10
31.45599007337855
 20
-3.277247452708012
 30
0.0
 11
31.45599007337855
 21
-0.4931803894585342
 31
0.0
  0
LINE
  5
168
330
124
100
AcDbEntity
  8
AM_9
100
AcDbLine
 10
-19.04999999999999
 20
-18.85
 30
0.0
 11
18.94993403682451
 21
-18.85
 31
0.0
  0
ELLIPSE
  5
169
330
124
100
AcDbEntity
  8
AM_9
100
AcDbEllipse
 10
24.74990179926009
 20
-1.884999999999946
 30
0.0
 11
2.449293598294765E-16
 21
4.000000000000095
 31
0.0
210
0.0
220
0.0
230
1.0
 40
0.707106781186548
 41
0.0
 42
6.283185307179586
  0
ELLIPSE
  5
16A
330
124
100
AcDbEntity
  8
AM_9
100
AcDbEllipse
 10
24.74990179926001
 20
-1.884999999999997
 30
0.0
 11
1.224646799147359E-16
 21
2.00000000000001
 31
0.0
210
0.0
220
0.0
230
1.0
 40
0.7071067811865496
 41
0.0
 42
6.283185307179586
  0
LINE
  5
16B
330
124
100
AcDbEntity
  8
AM_7
100
AcDbLine
 10
-30.65
 20
-0.000000000000002
 30
0.0
 11
-20.15
 21
-0.000000000000002
 31
0.0
  0
LINE
  5
16C
330
124
100
AcDbEntity
  8
AM_7
100
AcDbLine
 10
-25.4
 20
-5.250000000000003
 30
0.0
 11
-25.4
 21
5.249999999999999
 31
0.0
  0
LINE
  5
16D
330
124
100
AcDbEntity
  8
AM_7
100
AcDbLine
 10
0.0
 20
20.735
 30
0.0
 11
0.0
 21
-26.865
 31
0.0
  0
LINE
  5
16E
330
124
100
AcDbEntity
  8
AM_7
100
AcDbLine
 10
20.15
 20
-0.0000000000000053
 30
0.0
 11
30.65000000000001
 21
-0.0000000000000053
 31
0.0
  0
LINE
  5
16F
330
124
100
AcDbEntity
  8
AM_7
100
AcDbLine
 10
25.4
 20
-5.250000000000009
 30
0.0
 11
25.4
 21
5.249999999999998
 31
0.0
  0
LINE
  5
170
330
124
100
AcDbEntity
  8
AM_4
100
AcDbLine
 10
-41.3
 20
-18.85
 30
0.0
 11
-41.29999999999999
 21
18.85
 31
0.0
  0
LINE
  5
171
330
124
100
AcDbEntity
  8
AM_4
100
AcDbLine
 10
41.29999999999998
 20
-18.85
 30
0.0
 11
41.29999999999998
 21
18.85
 31
0.0
  0
LINE
  5
172
330
124
100
AcDbEntity
  8
AM_4
100
AcDbLine
 10
-32.761662294868
 20
-12.04454627290316
 30
0.0
 11
-32.761662294868
 21
12.04454627290318
 31
0.0
  0
LINE
  5
173
330
124
100
AcDbEntity
  8
AM_4
100
AcDbLine
 10
32.761662294868
 20
-12.04454627290316
 30
0.0
 11
32.761662294868
 21
12.04454627290318
 31
0.0
  0
LWPOLYLINE
  5
174
330
124
100
AcDbEntity
  8
AM_4
100
AcDbPolyline
 90
        9
 70
     0
 43
0.0
 10
-19.04999999999999
 20
-16.10388264718549
 10
-20.1768033717107
 20
-15.8631812796785
 10
-21.15004908667571
 20
-15.609593705712
 10
-21.96233015734233
 20
-15.34504987984423
 10
-22.60746463429404
 20
-15.07156314032598
 10
-23.08054265461841
 20
-14.79121488638079
 10
-23.37796380892843
 20
-14.50613873750008
 10
-23.49746454265202
 20
-14.21850429531053
 10
-23.5
 20
-14.16999020441036
  0
LWPOLYLINE
  5
175
330
124
100
AcDbEntity
  8
AM_4
100
AcDbPolyline
 90
        9
 70
     0
 43
0.0
 10
23.5
 20
-14.16999020441036
 10
23.41057540515602
 20
-14.45784031402963
 10
23.14298219578689
 20
-14.74349971050606
 10
22.69925691779311
 20
-15.02479435334659
 10
22.08277658846885
 20
-15.29958342046885
 10
21.29823299536128
 20
-15.56577560114988
 10
20.35159698893431
 20
-15.82134501216346
 10
19.25007304079132
 20
-16.06434661597474
 10
18.94993403682451
 20
-16.12320445767852
  0
LWPOLYLINE
  5
176
330
124
100
AcDbEntity
  8
AM_4
100
AcDbPolyline
 90
       19
 70
     0
 43
0.0
 10
-23.5
 20
-14.16999020441036
 10
-23.41057540515602
 20
-13.88214009479108
 10
-23.14298219578689
 20
-13.59648069831466
 10
-22.69925691779311
 20
-13.31518605547413
 10
-22.08277658846885
 20
-13.04039698835186
 10
-21.29823299536128
 20
-12.77420480767083
 10
-20.35159698893431
 20
-12.51863539665726
 10
-19.25007304079132
 20
-12.27563379284598
 10
-18.002044413296
 20
-12.04704938517038
 10
-16.61700935788389
 20
-11.83462183899591
 10
-15.1055088276337
 20
-11.63996785621621
 10
-13.47904625424961
 20
-11.46456887117554
 10
-11.75000000000003
 20
-11.30975977605885
 10
-9.931529150906469
 20
-11.17671876155626
 10
-8.03747336815325
 20
-11.06645835012051
 10
-6.082247559909277
 20
-10.97981769005968
 10
-4.080732175172905
 20
-10.91745616911188
 10
-2.048159954570012
 20
-10.87984839610645
 10
-0.0000000000000475
 20
-10.86728058890415
  0
LWPOLYLINE
  5
177
330
124
100
AcDbEntity
  8
AM_4
100
AcDbPolyline
 90
       37
 70
     0
 43
0.0
 10
23.5
 20
14.16999020441038
 10
23.41057540515602
 20
13.8821400947911
 10
23.14298219578689
 20
13.59648069831468
 10
22.69925691779311
 20
13.31518605547415
 10
22.08277658846885
 20
13.04039698835188
 10
21.29823299536128
 20
12.77420480767085
 10
20.35159698893431
 20
12.51863539665728
 10
19.25007304079132
 20
12.275633792846
 10
18.002044413296
 20
12.0470493851704
 10
16.61700935788388
 20
11.83462183899593
 10
15.10550882763369
 20
11.63996785621624
 10
13.4790462542496
 20
11.46456887117557
 10
11.75000000000003
 20
11.30975977605888
 10
9.931529150906467
 20
11.17671876155629
 10
8.037473368153249
 20
11.06645835012054
 10
6.082247559909274
 20
10.9798176900597
 10
4.080732175172902
 20
10.91745616911191
 10
2.048159954570009
 20
10.87984839610647
 10
0.0000000000000446
 20
10.86728058890418
 10
-2.048159954569921
 20
10.87984839610647
 10
-4.080732175172815
 20
10.9174561691119
 10
-6.082247559909187
 20
10.9798176900597
 10
-8.037473368153163
 20
11.06645835012053
 10
-9.931529150906385
 20
11.17671876155629
 10
-11.74999999999995
 20
11.30975977605887
 10
-13.47904625424953
 20
11.46456887117556
 10
-15.10550882763362
 20
11.63996785621623
 10
-16.61700935788382
 20
11.83462183899592
 10
-18.00204441329594
 20
12.04704938517039
 10
-19.25007304079126
 20
12.27563379284599
 10
-20.35159698893427
 20
12.51863539665727
 10
-21.29823299536124
 20
12.77420480767084
 10
-22.08277658846882
 20
13.04039698835187
 10
-22.69925691779309
 20
13.31518605547414
 10
-23.14298219578687
 20
13.59648069831466
 10
-23.41057540515601
 20
13.88214009479109
 10
-23.5
 20
14.16999020441036
  0
LWPOLYLINE
  5
178
330
124
100
AcDbEntity
  8
AM_4
100
AcDbPolyline
 90
       19
 70
     0
 43
0.0
 10
-23.5
 20
14.16999020441038
 10
-23.41057540515602
 20
14.45784031402965
 10
-23.14298219578689
 20
14.74349971050607
 10
-22.69925691779311
 20
15.0247943533466
 10
-22.08277658846885
 20
15.29958342046887
 10
-21.29823299536128
 20
15.56577560114989
 10
-20.35159698893431
 20
15.82134501216347
 10
-19.25007304079132
 20
16.06434661597475
 10
-18.002044413296
 20
16.29293102365035
 10
-16.61700935788389
 20
16.50535856982482
 10
-15.1055088276337
 20
16.70001255260451
 10
-13.47904625424961
 20
16.87541153764518
 10
-11.75000000000003
 20
17.03022063276187
 10
-9.931529150906469
 20
17.16326164726446
 10
-8.03747336815325
 20
17.27352205870021
 10
-6.082247559909277
 20
17.36016271876105
 10
-4.080732175172905
 20
17.42252423970885
 10
-2.048159954570012
 20
17.46013201271427
 10
-0.0000000000000475
 20
17.47269981991657
  0
LWPOLYLINE
  5
179
330
124
100
AcDbEntity
  8
AM_4
100
AcDbPolyline
 90
        5
 70
     0
 43
0.0
 10
29.59756088963463
 20
-4.433294178252607
 10
29.56051950898411
 20
-4.474855898114924
 10
29.29100137075259
 20
-4.760121502688868
 10
28.98420223080492
 20
-5.052670606340985
 10
28.63898909578604
 20
-5.349101615137755
  0
LWPOLYLINE
  5
17A
330
124
100
AcDbEntity
  8
AM_4
100
AcDbPolyline
 90
        6
 70
     0
 43
0.0
 10
28.63898909578604
 20
1.579101615137761
 10
28.73804309028038
 20
1.497104242969933
 10
29.04373230284397
 20
1.228272023683171
 10
29.32087280111691
 20
0.9599076588484607
 10
29.57305544897551
 20
0.6908574251773199
 10
29.59923988213859
 20
0.6613959824574892
  0
LWPOLYLINE
  5
17B
330
124
100
AcDbEntity
  8
AM_4
100
AcDbPolyline
 90
        6
 70
     0
 43
0.0
 10
28.63898909578604
 20
-5.349101615137755
 10
28.53719136822012
 20
-5.431098987305577
 10
28.18437881711116
 20
-5.699931206592337
 10
27.80416355639295
 20
-5.968295571427051
 10
27.39731041658066
 20
-6.23734580509819
 10
26.97215061210427
 20
-6.503802153517002
  0
LWPOLYLINE
  5
17C
330
124
100
AcDbEntity
  8
AM_4
100
AcDbPolyline
 90
        5
 70
     0
 43
0.0
 10
26.97215061210427
 20
2.733802153517011
 10
27.41906359246457
 20
2.453347332160589
 10
27.84830062660576
 20
2.168081727586647
 10
28.25809751531436
 20
1.87553262393453
 10
28.63898909578604
 20
1.579101615137761
  0
LINE
  5
17D
330
124
100
AcDbEntity
  8
AM_4
100
AcDbLine
 10
27.5783289240062
 20
0.9150000000000063
 30
0.0
 11
27.22477553341293
 21
0.9150000000000061
 31
0.0
  0
LINE
  5
17E
330
124
100
AcDbEntity
  8
AM_4
100
AcDbLine
 10
27.22477553341293
 20
-4.684999999999999
 30
0.0
 11
27.5783289240062
 21
-4.684999999999999
 31
0.0
  0
ELLIPSE
  5
17F
330
124
100
AcDbEntity
  8
AM_4
100
AcDbEllipse
 10
27.22477553341293
 20
-1.884999999999997
 30
0.0
 11
1.714505518806297E-16
 21
2.800000000000005
 31
0.0
210
0.0
220
0.0
230
1.0
 40
0.7071067811865475
 41
0.0
 42
3.141592653589793
  0
ELLIPSE
  5
180
330
124
100
AcDbEntity
  8
AM_4
100
AcDbEllipse
 10
27.5783289240062
 20
-1.884999999999996
 30
0.0
 11
1.714505518806297E-16
 21
2.800000000000005
 31
0.0
210
0.0
220
0.0
230
1.0
 40
0.7071067811865487
 41
5.709504615716893
 42
10.00005572153549
  0
LWPOLYLINE
  5
181
330
124
100
AcDbEntity
  8
AM_4
100
AcDbPolyline
 90
        5
 70
     0
 43
0.0
 10
26.97215061210427
 20
-6.503802153517002
 10
26.73209238423793
 20
-6.223347332160585
 10
26.4625742460064
 20
-5.938081727586642
 10
26.15577510605873
 20
-5.645532623934523
 10
25.81056197103984
 20
-5.349101615137752
  0
LWPOLYLINE
  5
182
330
124
100
AcDbEntity
  8
AM_4
100
AcDbPolyline
 90
        5
 70
     0
 43
0.0
 10
22.1740995958225
 20
-4.1944010767585
 10
22.41415782368884
 20
-4.474855898114921
 10
22.68367596192037
 20
-4.760121502688864
 10
22.99047510186804
 20
-5.052670606340981
 10
23.33568823688692
 20
-5.349101615137753
  0
LWPOLYLINE
  5
183
330
124
100
AcDbEntity
  8
AM_4
100
AcDbPolyline
 90
        6
 70
     0
 43
0.0
 10
23.33568823688692
 20
-5.349101615137753
 10
23.43748596445283
 20
-5.431098987305573
 10
23.7902985155618
 20
-5.699931206592335
 10
24.17051377628001
 20
-5.968295571427048
 10
24.5773669160923
 20
-6.237345805098188
 10
25.0025267205687
 20
-6.503802153517002
  0
LINE
  5
184
330
124
100
AcDbEntity
  8
AM_4
100
AcDbLine
 10
25.0025267205687
 20
-6.503802153517002
 30
0.0
 11
26.97215061210427
 21
-6.503802153517002
 31
0.0
  0
LWPOLYLINE
  5
185
330
124
100
AcDbEntity
  8
AM_4
100
AcDbPolyline
 90
        6
 70
     0
 43
0.0
 10
25.81056197103985
 20
1.579101615137755
 10
25.90961596553419
 20
1.66109898730558
 10
26.21530517809779
 20
1.929931206592344
 10
26.49244567637073
 20
2.198295571427057
 10
26.74462832422932
 20
2.467345805098198
 10
26.97215061210427
 20
2.733802153517011
  0
LINE
  5
186
330
124
100
AcDbEntity
  8
AM_4
100
AcDbLine
 10
25.0025267205687
 20
2.733802153517011
 30
0.0
 11
26.97215061210427
 21
2.733802153517011
 31
0.0
  0
LWPOLYLINE
  5
187
330
124
100
AcDbEntity
  8
AM_4
100
AcDbPolyline
 90
        5
 70
     0
 43
0.0
 10
25.0025267205687
 20
2.733802153517011
 10
24.55561374020839
 20
2.453347332160589
 10
24.1263767060672
 20
2.168081727586646
 10
23.7165798173586
 20
1.875532623934528
 10
23.33568823688693
 20
1.579101615137757
  0
LWPOLYLINE
  5
188
330
124
100
AcDbEntity
  8
AM_4
100
AcDbPolyline
 90
        6
 70
     0
 43
0.0
 10
23.33568823688693
 20
1.579101615137757
 10
23.23663424239258
 20
1.497104242969935
 10
22.93094502982898
 20
1.228272023683172
 10
22.65380453155604
 20
0.9599076588484591
 10
22.40162188369745
 20
0.6908574251773184
 10
22.1740995958225
 20
0.4244010767585071
  0
LINE
  5
189
330
124
100
AcDbEntity
  8
AM_4
100
AcDbLine
 10
22.1740995958225
 20
0.4244010767585071
 30
0.0
 11
24.14372348735807
 21
0.4244010767585072
 31
0.0
  0
LWPOLYLINE
  5
18A
330
124
100
AcDbEntity
  8
AM_4
100
AcDbPolyline
 90
        5
 70
     0
 43
0.0
 10
22.1740995958225
 20
0.4244010767585071
 10
22.07067221957552
 20
-0.1365085659543346
 10
21.99081277162069
 20
-0.7070397751022206
 10
21.93931389724022
 20
-1.292137982406456
 10
21.92147467451383
 20
-1.884999999999996
  0
LWPOLYLINE
  5
18B
330
124
100
AcDbEntity
  8
AM_4
100
AcDbPolyline
 90
        6
 70
     0
 43
0.0
 10
21.92147467451383
 20
-1.884999999999996
 10
21.92284914683369
 20
-2.04915048534449
 10
21.94641652276814
 20
-2.586777020488606
 10
21.99795515385213
 20
-3.123467108815314
 10
22.07528735479418
 20
-3.661527710153664
 10
22.1740995958225
 20
-4.1944010767585
  0
LINE
  5
18C
330
124
100
AcDbEntity
  8
AM_4
100
AcDbLine
 10
22.1740995958225
 20
-4.1944010767585
 30
0.0
 11
24.14372348735807
 21
-4.1944010767585
 31
0.0
  0
LWPOLYLINE
  5
18D
330
124
100
AcDbEntity
  8
AM_4
100
AcDbPolyline
 90
        5
 70
     0
 43
0.0
 10
24.14372348735807
 20
-4.1944010767585
 10
24.24715086360505
 20
-3.633491434045657
 10
24.32701031155989
 20
-3.062960224897771
 10
24.37850918594035
 20
-2.477862017593535
 10
24.39634840866676
 20
-1.884999999999996
  0
LWPOLYLINE
  5
18E
330
124
100
AcDbEntity
  8
AM_4
100
AcDbPolyline
 90
        6
 70
     0
 43
0.0
 10
25.81056197103984
 20
-5.349101615137752
 10
25.70876424347392
 20
-5.267104242969926
 10
25.35595169236496
 20
-4.998272023683164
 10
24.97573643164675
 20
-4.729907658848453
 10
24.56888329183447
 20
-4.460857425177314
 10
24.14372348735807
 20
-4.1944010767585
  0
ELLIPSE
  5
18F
330
124
100
AcDbEntity
  8
AM_4
100
AcDbEllipse
 10
27.22477553341291
 20
-1.885000000000016
 30
0.0
 11
2.449293598294689E-16
 21
3.999999999999972
 31
0.0
210
0.0
220
0.0
230
1.0
 40
0.7071067811865448
 41
5.406218619995784
 42
10.29973841842115
  0
LWPOLYLINE
  5
190
330
124
100
AcDbEntity
  8
AM_4
100
AcDbPolyline
 90
        6
 70
     0
 43
0.0
 10
24.39634840866676
 20
-1.884999999999996
 10
24.39497393634689
 20
-1.720849514655501
 10
24.37140656041244
 20
-1.183222979511386
 10
24.31986792932845
 20
-0.6465328911846778
 10
24.2425357283864
 20
-0.1084722898463279
 10
24.14372348735807
 20
0.4244010767585072
  0
LWPOLYLINE
  5
191
330
124
100
AcDbEntity
  8
AM_4
100
AcDbPolyline
 90
        5
 70
     0
 43
0.0
 10
24.14372348735807
 20
0.4244010767585072
 10
24.59063646771838
 20
0.7048558981149262
 10
25.01987350185956
 20
0.9901215026888669
 10
25.42967039056817
 20
1.282670606340984
 10
25.81056197103985
 20
1.579101615137755
  0
ELLIPSE
  5
192
330
124
100
AcDbEntity
  8
AM_4
100
AcDbEllipse
 10
29.19849950708962
 20
-1.884999999999989
 30
0.0
 11
1.477791714323919E-16
 21
2.413417020079283
 31
0.0
210
0.0
220
0.0
230
1.0
 40
0.7071067811865483
 41
1.065958380787263
 42
2.085924364277036
  0
LWPOLYLINE
  5
193
330
124
100
AcDbEntity
  8
AM_4
100
AcDbPolyline
 90
       17
 70
     0
 43
0.0
 10
30.41729031053168
 20
0.3418405726978154
 10
30.3647650789492
 20
0.3792162239784057
 10
30.15865902038412
 20
0.5011101691952193
 10
29.94391256442793
 20
0.5908526340434003
 10
29.72413785790211
 20
0.6477775219234022
 10
29.5026480844027
 20
0.6719934006382428
 10
29.28232064990352
 20
0.664095602302866
 10
29.06572005161804
 20
0.6249169690559307
 10
28.85526987662017
 20
0.5554516596123938
 10
28.65281060641014
 20
0.4566039257690301
 10
28.46016392728239
 20
0.3292256128430271
 10
28.27929374670731
 20
0.1743031975957698
 10
28.11235470945133
 20
-0.006789623144291
 10
27.96159753862345
 20
-0.2120922163071087
 10
27.82917377206582
 20
-0.4390160180896263
 10
27.71694238006967
 20
-0.6844732354864268
 10
27.70845087562183
 20
-0.7059130750321199
  0
LWPOLYLINE
  5
194
330
124
100
AcDbEntity
  8
AM_4
100
AcDbPolyline
 90
       16
 70
     0
 43
0.0
 10
27.71718627403705
 20
-3.086135287392994
 10
27.74905497886171
 20
-3.162427686769251
 10
27.86964326449377
 20
-3.406145876897795
 10
28.01167077963084
 20
-3.631364416872561
 10
28.17367155833503
 20
-3.834623512437786
 10
28.35361112453787
 20
-4.012579755026612
 10
28.54877941358178
 20
-4.162199422149314
 10
28.75586877175926
 20
-4.28107934542267
 10
28.97124804558552
 20
-4.367704718608674
 10
29.1913230480763
 20
-4.421493522788726
 10
29.41281893174123
 20
-4.442613921495048
 10
29.63290121768811
 20
-4.43169217048345
 10
29.8489993401087
 20
-4.389582366465824
 10
30.05876485509942
 20
-4.317276979433684
 10
30.26036800605618
 20
-4.215670626858061
 10
30.41965190553704
 20
-4.110094934919752
  0
LINE
  5
195
330
124
100
AcDbEntity
  8
AM_4
100
AcDbLine
 10
31.17136500940738
 20
-0.2144528285632461
 30
0.0
 11
30.41704410034423
 21
0.3420222370457943
 31
0.0
  0
LINE
  5
196
330
124
100
AcDbEntity
  8
AM_4
100
AcDbLine
 10
30.41704410034423
 20
-4.112022237045787
 30
0.0
 11
31.17136500940738
 21
-3.555547171436747
 31
0.0
  0
ELLIPSE
  5
197
330
124
100
AcDbEntity
  8
AM_4
100
AcDbEllipse
 10
29.59558845024697
 20
-1.884999999999996
 30
0.0
 11
1.538042151633698E-16
 21
2.511813451363353
 31
0.0
210
0.0
220
0.0
230
1.0
 40
0.7071067811865475
 41
5.802372476049607
 42
9.905590791899359
  0
ELLIPSE
  5
198
330
124
100
AcDbEntity
  8
AM_4
100
AcDbEllipse
 10
30.76030943934567
 20
-1.884999999999996
 30
0.0
 11
-2.627534078088120E-16
 21
-1.430362931264488
 31
0.0
210
0.0
220
0.0
230
1.0
 40
0.7071067811865481
 41
0.0
 42
6.283185307179586
  0
LWPOLYLINE
  5
199
330
124
100
AcDbEntity
  8
AM_4
100
AcDbPolyline
 90
       10
 70
     0
 43
0.0
 10
31.91817537700738
 20
-1.884999999999996
 10
31.91433221819785
 20
-1.745842785721541
 10
31.88821053112187
 20
-1.498248383887724
 10
31.83746573018935
 20
-1.256087303274204
 10
31.76236046396576
 20
-1.023205774571168
 10
31.66334298158241
 20
-0.8033978556864965
 10
31.54122626146395
 20
-0.6006958603141523
 10
31.39753859270407
 20
-0.4194506907461976
 10
31.23473946157593
 20
-0.2639338644983341
 10
31.17851660585359
 20
-0.2197624852096739
  0
LWPOLYLINE
  5
19A
330
124
100
AcDbEntity
  8
AM_4
100
AcDbPolyline
 90
       10
 70
     0
 43
0.0
 10
31.17781476009885
 20
-3.550761596730676
 10
31.22641708242434
 20
-3.51288392625292
 10
31.38047274648833
 20
-3.369031227265358
 10
31.51942495499982
 20
-3.200148684603269
 10
31.6407883713381
 20
-3.008543525870403
 10
31.74219518566764
 20
-2.79740825486147
 10
31.82170816643559
 20
-2.570588854206961
 10
31.87795014367153
 20
-2.332271966456279
 10
31.91009788649794
 20
-2.086590880676756
 10
31.91817537700738
 20
-1.884999999999996
  0
ELLIPSE
  5
19B
330
124
100
AcDbEntity
  8
AM_4
100
AcDbEllipse
 10
30.55516980942092
 20
-1.884999999999994
 30
0.0
 11
1.153725330273534E-16
 21
1.884176451654146
 31
0.0
210
0.0
220
0.0
230
1.0
 40
0.7071067811865469
 41
5.797144632392033
 42
9.910318383799806
  0
LINE
  5
19C
330
124
100
AcDbEntity
  8
AM_4
100
AcDbLine
 10
31.45599007337855
 20
-0.4931803894585342
 30
0.0
 11
31.45599007337855
 21
11.69943247027145
 31
0.0
  0
LINE
  5
19D
330
124
100
AcDbEntity
  8
AM_4
100
AcDbLine
 10
31.45599007337855
 20
-11.69943247027143
 30
0.0
 11
31.45599007337855
 21
-3.277247452708012
 31
0.0
  0
LINE
  5
19E
330
124
100
AcDbEntity
  8
AM_4
100
AcDbLine
 10
-31.45599007337854
 20
-11.69943247027143
 30
0.0
 11
-31.45599007337854
 21
11.69943247027145
 31
0.0
  0
LINE
  5
19F
330
124
100
AcDbEntity
  8
AM_4
100
AcDbLine
 10
-15.55221465080729
 20
-9.540992641865214
 30
0.0
 11
-15.55221465080729
 21
9.540992641865241
 31
0.0
  0
LINE
  5
1A0
330
124
100
AcDbEntity
  8
AM_4
100
AcDbLine
 10
-12.4262519837418
 20
-9.363493657588556
 30
0.0
 11
-12.4262519837418
 21
9.363493657588588
 31
0.0
  0
LINE
  5
1A1
330
124
100
AcDbEntity
  8
AM_4
100
AcDbLine
 10
12.4262519837418
 20
-9.363493657588556
 30
0.0
 11
12.4262519837418
 21
9.363493657588586
 31
0.0
  0
LINE
  5
1A2
330
124
100
AcDbEntity
  8
AM_4
100
AcDbLine
 10
15.55221465080728
 20
-9.540992641865214
 30
0.0
 11
15.55221465080728
 21
9.540992641865241
 31
0.0
  0
LWPOLYLINE
  5
1A3
330
124
100
AcDbEntity
  8
AM_4
100
AcDbPolyline
 90
       19
 70
     0
 43
0.0
 10
0.0
 20
-10.86728058890415
 10
2.048159954569967
 20
-10.87984839610645
 10
4.080732175172862
 20
-10.91745616911188
 10
6.082247559909238
 20
-10.97981769005967
 10
8.037473368153215
 20
-11.06645835012051
 10
9.931529150906437
 20
-11.17671876155626
 10
11.75
 20
-11.30975977605885
 10
13.47904625424958
 20
-11.46456887117554
 10
15.10550882763367
 20
-11.63996785621621
 10
16.61700935788387
 20
-11.8346218389959
 10
18.00204441329598
 20
-12.04704938517037
 10
19.25007304079131
 20
-12.27563379284597
 10
20.3515969889343
 20
-12.51863539665725
 10
21.29823299536127
 20
-12.77420480767083
 10
22.08277658846885
 20
-13.04039698835186
 10
22.6992569177931
 20
-13.31518605547413
 10
23.14298219578689
 20
-13.59648069831465
 10
23.41057540515602
 20
-13.88214009479108
 10
23.5
 20
-14.16999020441036
  0
LWPOLYLINE
  5
1A4
330
124
100
AcDbEntity
  8
AM_4
100
AcDbPolyline
 90
        9
 70
     0
 43
0.0
 10
31.45599007337855
 20
-11.69943247027143
 10
31.72622051731554
 20
-11.73945336618788
 10
31.97060388100032
 20
-11.7826320072323
 10
32.18728025947256
 20
-11.82863977787436
 10
32.37460061465931
 20
-11.87712653119921
 10
32.53113932555046
 20
-11.92772325373696
 10
32.65570503803549
 20
-11.98004487387796
 10
32.74734973182754
 20
-12.03369319250028
 10
32.761662294868
 20
-12.04454627290316
  0
LINE
  5
1A5
330
124
100
AcDbEntity
  8
AM_4
100
AcDbLine
 10
15.55221465080728
 20
-9.540992641865214
 30
0.0
 11
31.45599007337855
 21
-11.69943247027143
 31
0.0
  0
LWPOLYLINE
  5
1A6
330
124
100
AcDbEntity
  8
AM_4
100
AcDbPolyline
 90
       10
 70
     0
 43
0.0
 10
12.4262519837418
 20
-9.363493657588558
 10
12.81845282610626
 20
-9.36590025896772
 10
13.20766878324299
 20
-9.373101747415568
 10
13.59093768670314
 20
-9.385043315256636
 10
13.96534262870731
 20
-9.401634079949137
 10
14.32803416157494
 20
-9.422747775755983
 10
14.6762519837418
 20
-9.448223714703287
 10
15.0073459473215
 20
-9.477868009512866
 10
15.31879622733122
 20
-9.511455049201507
 10
15.55221465080728
 20
-9.540992641865214
  0
LINE
  5
1A7
330
124
100
AcDbEntity
  8
AM_4
100
AcDbLine
 10
12.4262519837418
 20
-9.363493657588556
 30
0.0
 11
-12.4262519837418
 21
-9.363493657588556
 31
0.0
  0
LWPOLYLINE
  5
1A8
330
124
100
AcDbEntity
  8
AM_4
100
AcDbPolyline
 90
       10
 70
     0
 43
0.0
 10
-15.55221465080729
 20
-9.540992641865214
 10
-15.25819374346607
 20
-9.504434074259922
 10
-14.94262004936016
 20
-9.471616067739934
 10
-14.60789527485031
 20
-9.442788387150927
 10
-14.2565668775829
 20
-9.418170428548807
 10
-13.891308678799
 20
-9.39794954946327
 10
-13.5149005139403
 20
-9.382279642993856
 10
-13.13020707642283
 20
-9.371279966590548
 10
-12.74015611559036
 20
-9.365034234432557
 10
-12.4262519837418
 20
-9.363493657588558
  0
LINE
  5
1A9
330
124
100
AcDbEntity
  8
AM_4
100
AcDbLine
 10
-31.45599007337854
 20
-11.69943247027143
 30
0.0
 11
-15.55221465080729
 21
-9.540992641865214
 31
0.0
  0
LWPOLYLINE
  5
1AA
330
124
100
AcDbEntity
  8
AM_4
100
AcDbPolyline
 90
        9
 70
     0
 43
0.0
 10
-32.761662294868
 20
-12.04454627290316
 10
-32.67669362461387
 20
-11.9906813412954
 10
-32.55864419984965
 20
-11.93806215822944
 10
-32.408412447978
 20
-11.88708918746073
 10
-32.22714172334305
 20
-11.83815036407515
 10
-32.01621160561355
 20
-11.79161814206874
 10
-31.77722740034849
 20
-11.74784665974788
 10
-31.51200792165257
 20
-11.70716904452298
 10
-31.45599007337855
 20
-11.69943247027143
  0
LINE
  5
1AB
330
124
100
AcDbEntity
  8
AM_4
100
AcDbLine
 10
-41.3
 20
-18.85
 30
0.0
 11
-32.761662294868
 21
-12.04454627290316
 31
0.0
  0
LINE
  5
1AC
330
124
100
AcDbEntity
  8
AM_4
100
AcDbLine
 10
18.94993403682451
 20
-18.85
 30
0.0
 11
41.29999999999998
 21
-18.85
 31
0.0
  0
LINE
  5
1AD
330
124
100
AcDbEntity
  8
AM_4
100
AcDbLine
 10
-41.3
 20
-18.85
 30
0.0
 11
-19.04999999999999
 21
-18.85
 31
0.0
  0
LINE
  5
1AE
330
124
100
AcDbEntity
  8
AM_4
100
AcDbLine
 10
32.761662294868
 20
-12.04454627290316
 30
0.0
 11
41.29999999999998
 21
-18.85
 31
0.0
  0
LWPOLYLINE
  5
1AF
330
124
100
AcDbEntity
  8
AM_4
100
AcDbPolyline
 90
       19
 70
     0
 43
0.0
 10
0.0
 20
17.47269981991657
 10
2.048159954569967
 20
17.46013201271427
 10
4.080732175172862
 20
17.42252423970885
 10
6.082247559909238
 20
17.36016271876105
 10
8.037473368153215
 20
17.27352205870021
 10
9.931529150906437
 20
17.16326164726446
 10
11.75
 20
17.03022063276187
 10
13.47904625424958
 20
16.87541153764518
 10
15.10550882763367
 20
16.70001255260451
 10
16.61700935788387
 20
16.50535856982482
 10
18.00204441329598
 20
16.29293102365035
 10
19.25007304079131
 20
16.06434661597475
 10
20.3515969889343
 20
15.82134501216347
 10
21.29823299536127
 20
15.5657756011499
 10
22.08277658846885
 20
15.29958342046887
 10
22.6992569177931
 20
15.0247943533466
 10
23.14298219578689
 20
14.74349971050607
 10
23.41057540515602
 20
14.45784031402965
 10
23.5
 20
14.16999020441038
  0
LINE
  5
1B0
330
124
100
AcDbEntity
  8
AM_4
100
AcDbLine
 10
-41.29999999999999
 20
18.85
 30
0.0
 11
41.29999999999998
 21
18.85
 31
0.0
  0
LINE
  5
1B1
330
124
100
AcDbEntity
  8
AM_4
100
AcDbLine
 10
-32.761662294868
 20
12.04454627290318
 30
0.0
 11
-41.29999999999999
 21
18.85
 31
0.0
  0
LWPOLYLINE
  5
1B2
330
124
100
AcDbEntity
  8
AM_4
100
AcDbPolyline
 90
        9
 70
     0
 43
0.0
 10
-31.45599007337854
 20
11.69943247027145
 10
-31.72622051731553
 20
11.73945336618791
 10
-31.97060388100032
 20
11.78263200723232
 10
-32.18728025947255
 20
11.82863977787438
 10
-32.3746006146593
 20
11.87712653119923
 10
-32.53113932555046
 20
11.92772325373698
 10
-32.65570503803548
 20
11.98004487387798
 10
-32.74734973182754
 20
12.03369319250029
 10
-32.761662294868
 20
12.04454627290318
  0
LINE
  5
1B3
330
124
100
AcDbEntity
  8
AM_4
100
AcDbLine
 10
-15.55221465080729
 20
9.540992641865241
 30
0.0
 11
-31.45599007337854
 21
11.69943247027145
 31
0.0
  0
LWPOLYLINE
  5
1B4
330
124
100
AcDbEntity
  8
AM_4
100
AcDbPolyline
 90
       10
 70
     0
 43
0.0
 10
-12.4262519837418
 20
9.363493657588588
 10
-12.81845282610626
 20
9.365900258967752
 10
-13.20766878324299
 20
9.3731017474156
 10
-13.59093768670314
 20
9.385043315256667
 10
-13.96534262870731
 20
9.401634079949169
 10
-14.32803416157495
 20
9.422747775756013
 10
-14.6762519837418
 20
9.448223714703317
 10
-15.00734594732151
 20
9.477868009512896
 10
-15.31879622733123
 20
9.511455049201535
 10
-15.55221465080728
 20
9.540992641865243
  0
LINE
  5
1B5
330
124
100
AcDbEntity
  8
AM_4
100
AcDbLine
 10
12.4262519837418
 20
9.363493657588586
 30
0.0
 11
-12.4262519837418
 21
9.363493657588588
 31
0.0
  0
LWPOLYLINE
  5
1B6
330
124
100
AcDbEntity
  8
AM_4
100
AcDbPolyline
 90
       10
 70
     0
 43
0.0
 10
15.55221465080728
 20
9.540992641865241
 10
15.25819374346606
 20
9.504434074259947
 10
14.94262004936016
 20
9.471616067739962
 10
14.60789527485031
 20
9.442788387150955
 10
14.2565668775829
 20
9.418170428548835
 10
13.891308678799
 20
9.397949549463299
 10
13.5149005139403
 20
9.382279642993884
 10
13.13020707642283
 20
9.371279966590574
 10
12.74015611559036
 20
9.365034234432583
 10
12.4262519837418
 20
9.363493657588586
  0
LINE
  5
1B7
330
124
100
AcDbEntity
  8
AM_4
100
AcDbLine
 10
31.45599007337855
 20
11.69943247027145
 30
0.0
 11
15.55221465080728
 21
9.540992641865241
 31
0.0
  0
LWPOLYLINE
  5
1B8
330
124
100
AcDbEntity
  8
AM_4
100
AcDbPolyline
 90
        9
 70
     0
 43
0.0
 10
32.761662294868
 20
12.04454627290318
 10
32.67669362461387
 20
11.99068134129542
 10
32.55864419984965
 20
11.93806215822946
 10
32.40841244797799
 20
11.88708918746075
 10
32.22714172334305
 20
11.83815036407517
 10
32.01621160561354
 20
11.79161814206876
 10
31.77722740034849
 20
11.7478466597479
 10
31.51200792165255
 20
11.707169044523
 10
31.45599007337855
 20
11.69943247027145
  0
LINE
  5
1B9
330
124
100
AcDbEntity
  8
AM_4
100
AcDbLine
 10
41.29999999999998
 20
18.85
 30
0.0
 11
32.761662294868
 21
12.04454627290318
 31
0.0
  0
ARC
  5
1BA
330
124
100
AcDbEntity
  8
AM_5
100
AcDbCircle
 10
25.4
 20
0.0000000000000007
 30
0.0
 40
4.999999999999999
100
AcDbArc
 50
75.00000000000001
 51
15.0
  0
ARC
  5
1BB
330
124
100
AcDbEntity
  8
AM_5
100
AcDbCircle
 10
-25.4
 20
0.0000000000000002
 30
0.0
 40
5.0
100
AcDbArc
 50
75.00000000000001
 51
15.0
  0
ENDBLK
  5
127
330
124
100
AcDbEntity
  8
0
100
AcDbBlockEnd
  0
ENDSEC
  0
SECTION
  2
ENTITIES
  0
INSERT
  5
6F
330
1F
100
AcDbEntity
  8
0
100
AcDbBlockReference
  2
1_129292_4
 10
0.0
 20
0.0
 30
0.0
  0
POINT
  5
1BD
330
1F
100
AcDbEntity
  8
ConnectionPoints
100
AcDbPoint
 10
0.0
 20
0.0
 30
0.0
  0
POINT
  5
1BE
330
1F
100
AcDbEntity
  8
ConnectionPoints
100
AcDbPoint
 10
0.0
 20
12.3
 30
-0.0000000000000008
  0
POINT
  5
1BF
330
1F
100
AcDbEntity
  8
ConnectionPoints
100
AcDbPoint
 10
0.0
 20
0.0
 30
0.0
  0
ENDSEC
  0
SECTION
  2
OBJECTS
  0
DICTIONARY
  5
C
330
0
100
AcDbDictionary
281
     1
  3
ACAD_DETAILVIEWSTYLE
350
1C7
  3
ACAD_GROUP
350
D
  3
ACAD_LAYOUT
350
1A
  3
ACAD_MATERIAL
350
43
  3
ACAD_MLEADERSTYLE
350
6B
  3
ACAD_MLINESTYLE
350
17
  3
ACAD_PLOTSETTINGS
350
19
  3
ACAD_PLOTSTYLENAME
350
E
  3
ACAD_SCALELIST
350
47
  3
ACAD_SECTIONVIEWSTYLE
350
1C8
  3
ACAD_TABLESTYLE
350
69
  3
ACAD_VISUALSTYLE
350
2A
  3
ACDB_RECOMPOSE_DATA
350
1C4
  3
AcDbVariableDictionary
350
1C0
  0
SUN
  5
6D
330
29
100
AcDbSun
 90
        1
290
     0
 63
     7
421
 16777215
 40
1.0
291
     1
 91
  2455826
 92
 54000000
292
     0
 70
     2
 71
   256
280
     1
  0
DICTIONARY
  5
1C7
102
{ACAD_REACTORS
330
C
102
}
330
C
100
AcDbDictionary
281
     1
  0
DICTIONARY
  5
D
102
{ACAD_REACTORS
330
C
102
}
330
C
100
AcDbDictionary
281
     1
  0
DICTIONARY
  5
1A
102
{ACAD_REACTORS
330
C
102
}
330
C
100
AcDbDictionary
281
     1
  3
Layout1
350
1E
  3
Layout2
350
26
  3
Model
350
22
  0
DICTIONARY
  5
43
102
{ACAD_REACTORS
330
C
102
}
330
C
100
AcDbDictionary
281
     1
  3
ByBlock
350
45
  3
ByLayer
350
44
  3
Global
350
46
  0
DICTIONARY
  5
6B
102
{ACAD_REACTORS
330
C
102
}
330
C
100
AcDbDictionary
281
     1
  3
Standard
350
6C
  0
DICTIONARY
  5
17
102
{ACAD_REACTORS
330
C
102
}
330
C
100
AcDbDictionary
281
     1
  3
Standard
350
18
  0
DICTIONARY
  5
19
102
{ACAD_REACTORS
330
C
102
}
330
C
100
AcDbDictionary
281
     1
  0
ACDBDICTIONARYWDFLT
  5
E
102
{ACAD_REACTORS
330
C
102
}
330
C
100
AcDbDictionary
281
     1
  3
Normal
350
F
100
AcDbDictionaryWithDefault
340
F
  0
DICTIONARY
  5
47
102
{ACAD_REACTORS
330
C
102
}
330
C
100
AcDbDictionary
281
     1
  3
A0
350
48
  3
A1
350
49
  3
A2
350
4A
  3
A3
350
4B
  3
A4
350
4C
  3
A5
350
4D
  3
A6
350
4E
  3
A7
350
4F
  3
A8
350
50
  3
A9
350
51
  3
B0
350
52
  3
B1
350
53
  3
B2
350
54
  3
B3
350
55
  3
B4
350
56
  3
B5
350
57
  3
B6
350
58
  3
B7
350
59
  3
B8
350
5A
  3
B9
350
5B
  3
C0
350
5C
  3
C1
350
5D
  3
C2
350
5E
  3
C3
350
5F
  3
C4
350
60
  3
C5
350
61
  3
C6
350
62
  3
C7
350
63
  3
C8
350
64
  3
C9
350
65
  3
D0
350
66
  3
D1
350
67
  3
D2
350
68
  0
DICTIONARY
  5
1C8
102
{ACAD_REACTORS
330
C
102
}
330
C
100
AcDbDictionary
281
     1
  0
DICTIONARY
  5
69
102
{ACAD_REACTORS
330
C
102
}
330
C
100
AcDbDictionary
281
     1
  3
Standard
350
6A
  0
DICTIONARY
  5
2A
102
{ACAD_REACTORS
330
C
102
}
330
C
100
AcDbDictionary
281
     1
  3
2dWireframe
350
2F
  3
Basic
350
32
  3
Brighten
350
36
  3
ColorChange
350
3A
  3
Conceptual
350
34
  3
Dim
350
35
  3
EdgeColorOff
350
3D
  3
Facepattern
350
39
  3
Flat
350
2B
  3
FlatWithEdges
350
2C
  3
Gouraud
350
2D
  3
GouraudWithEdges
350
2E
  3
Hidden
350
31
  3
JitterOff
350
3B
  3
Linepattern
350
38
  3
OverhangOff
350
3C
  3
Realistic
350
33
  3
Shaded
350
42
  3
Shaded with edges
350
41
  3
Shades of Gray
350
3E
  3
Sketchy
350
3F
  3
Thicken
350
37
  3
Wireframe
350
30
  3
X-Ray
350
40
  0
XRECORD
  5
1C4
102
{ACAD_REACTORS
330
C
102
}
330
C
100
AcDbXrecord
280
     1
 90
        1
330
6A
  0
DICTIONARY
  5
1C0
102
{ACAD_REACTORS
330
C
102
}
330
C
100
AcDbDictionary
281
     1
  3
CANNOSCALE
350
1C1
  3
CMLEADERSTYLE
350
1C6
  3
CTABLESTYLE
350
1C5
  0
LAYOUT
  5
1E
102
{ACAD_REACTORS
330
1A
102
}
330
1A
100
AcDbPlotSettings
  1

  2
none_device
  4

  6

 40
0.0
 41
0.0
 42
0.0
 43
0.0
 44
0.0
 45
0.0
 46
0.0
 47
0.0
 48
0.0
 49
0.0
140
0.0
141
0.0
142
1.0
143
1.0
 70
   688
 72
     1
 73
     0
 74
     5
  7

 75
    16
 76
     0
 77
     2
 78
   300
147
1.0
148
0.0
149
0.0
100
AcDbLayout
  1
Layout1
 70
     1
 71
     1
 10
0.0
 20
0.0
 11
420.0
 21
297.0
 12
0.0
 22
0.0
 32
0.0
 14
1.000000000000000E+20
 24
1.000000000000000E+20
 34
1.000000000000000E+20
 15
-1.000000000000000E+20
 25
-1.000000000000000E+20
 35
-1.000000000000000E+20
146
0.0
 13
0.0
 23
0.0
 33
0.0
 16
1.0
 26
0.0
 36
0.0
 17
0.0
 27
1.0
 37
0.0
 76
     0
330
1B
  0
LAYOUT
  5
26
102
{ACAD_REACTORS
330
1A
102
}
330
1A
100
AcDbPlotSettings
  1

  2
none_device
  4

  6

 40
0.0
 41
0.0
 42
0.0
 43
0.0
 44
0.0
 45
0.0
 46
0.0
 47
0.0
 48
0.0
 49
0.0
140
0.0
141
0.0
142
1.0
143
1.0
 70
   688
 72
     1
 73
     0
 74
     5
  7

 75
    16
 76
     0
 77
     2
 78
   300
147
1.0
148
0.0
149
0.0
100
AcDbLayout
  1
Layout2
 70
     1
 71
     2
 10
0.0
 20
0.0
 11
0.0
 21
0.0
 12
0.0
 22
0.0
 32
0.0
 14
0.0
 24
0.0
 34
0.0
 15
0.0
 25
0.0
 35
0.0
146
0.0
 13
0.0
 23
0.0
 33
0.0
 16
1.0
 26
0.0
 36
0.0
 17
0.0
 27
1.0
 37
0.0
 76
     0
330
23
  0
LAYOUT
  5
22
102
{ACAD_REACTORS
330
1A
102
}
330
1A
100
AcDbPlotSettings
  1

  2
none_device
  4
Letter_(8.50_x_11.00_Inches)
  6

 40
6.35
 41
6.35
 42
6.35000508
 43
6.35000508
 44
215.9
 45
279.4
 46
0.0
 47
0.0
 48
0.0
 49
0.0
140
0.0
141
0.0
142
1.0
143
1.0
 70
  1712
 72
     1
 73
     0
 74
     0
  7

 75
     0
 76
     0
 77
     2
 78
   300
147
1.0
148
0.0
149
0.0
100
AcDbLayout
  1
Model
 70
     1
 71
     0
 10
0.0
 20
0.0
 11
420.0
 21
297.0
 12
0.0
 22
0.0
 32
0.0
 14
1.000000000000000E+20
 24
1.000000000000000E+20
 34
1.000000000000000E+20
 15
-1.000000000000000E+20
 25
-1.000000000000000E+20
 35
-1.000000000000000E+20
146
0.0
 13
0.0
 23
0.0
 33
0.0
 16
1.0
 26
0.0
 36
0.0
 17
0.0
 27
1.0
 37
0.0
 76
     0
330
1F
331
29
  0
MATERIAL
  5
45
102
{ACAD_REACTORS
330
43
102
}
330
43
100
AcDbMaterial
  1
ByBlock
 72
     1
 94
      127
  0
MATERIAL
  5
44
102
{ACAD_REACTORS
330
43
102
}
330
43
100
AcDbMaterial
  1
ByLayer
 72
     1
 94
      127
  0
MATERIAL
  5
46
102
{ACAD_REACTORS
330
43
102
}
330
43
100
AcDbMaterial
  1
Global
 72
     1
 94
      127
  0
MLEADERSTYLE
  5
6C
102
{ACAD_REACTORS
330
6B
102
}
330
6B
100
AcDbMLeaderStyle
179
     2
170
     2
171
     1
172
     0
 90
        2
 40
0.0
 41
0.0
173
     1
 91
-1056964608
340
14
 92
       -2
290
     1
 42
2.0
291
     1
 43
8.0
  3
Standard
341
0
 44
4.0
300

342
11
174
     1
178
     6
175
     1
176
     0
 93
-1056964608
 45
4.0
292
     0
297
     0
 46
4.0
343
0
 94
-1056964608
 47
1.0
 49
1.0
140
1.0
293
     1
141
0.0
294
     1
177
     0
142
1.0
295
     0
296
     0
143
3.75
271
     0
272
     9
273
     9
298
     0
  0
MLINESTYLE
  5
18
102
{ACAD_REACTORS
330
17
102
}
330
17
100
AcDbMlineStyle
  2
Standard
 70
     0
  3

 62
   256
 51
90.0
 52
90.0
 71
     2
 49
0.5
 62
   256
  6
BYLAYER
 49
-0.5
 62
   256
  6
BYLAYER
  0
ACDBPLACEHOLDER
  5
F
102
{ACAD_REACTORS
330
E
102
}
330
E
  0
SCALE
  5
48
102
{ACAD_REACTORS
330
47
102
}
330
47
100
AcDbScale
 70
     0
300
1:1
140
1.0
141
1.0
290
     1
  0
SCALE
  5
49
102
{ACAD_REACTORS
330
47
102
}
330
47
100
AcDbScale
 70
     0
300
1:2
140
1.0
141
2.0
290
     0
  0
SCALE
  5
4A
102
{ACAD_REACTORS
330
47
102
}
330
47
100
AcDbScale
 70
     0
300
1:4
140
1.0
141
4.0
290
     0
  0
SCALE
  5
4B
102
{ACAD_REACTORS
330
47
102
}
330
47
100
AcDbScale
 70
     0
300
1:5
140
1.0
141
5.0
290
     0
  0
SCALE
  5
4C
102
{ACAD_REACTORS
330
47
102
}
330
47
100
AcDbScale
 70
     0
300
1:8
140
1.0
141
8.0
290
     0
  0
SCALE
  5
4D
102
{ACAD_REACTORS
330
47
102
}
330
47
100
AcDbScale
 70
     0
300
1:10
140
1.0
141
10.0
290
     0
  0
SCALE
  5
4E
102
{ACAD_REACTORS
330
47
102
}
330
47
100
AcDbScale
 70
     0
300
1:16
140
1.0
141
16.0
290
     0
  0
SCALE
  5
4F
102
{ACAD_REACTORS
330
47
102
}
330
47
100
AcDbScale
 70
     0
300
1:20
140
1.0
141
20.0
290
     0
  0
SCALE
  5
50
102
{ACAD_REACTORS
330
47
102
}
330
47
100
AcDbScale
 70
     0
300
1:30
140
1.0
141
30.0
290
     0
  0
SCALE
  5
51
102
{ACAD_REACTORS
330
47
102
}
330
47
100
AcDbScale
 70
     0
300
1:40
140
1.0
141
40.0
290
     0
  0
SCALE
  5
52
102
{ACAD_REACTORS
330
47
102
}
330
47
100
AcDbScale
 70
     0
300
1:50
140
1.0
141
50.0
290
     0
  0
SCALE
  5
53
102
{ACAD_REACTORS
330
47
102
}
330
47
100
AcDbScale
 70
     0
300
1:100
140
1.0
141
100.0
290
     0
  0
SCALE
  5
54
102
{ACAD_REACTORS
330
47
102
}
330
47
100
AcDbScale
 70
     0
300
2:1
140
2.0
141
1.0
290
     0
  0
SCALE
  5
55
102
{ACAD_REACTORS
330
47
102
}
330
47
100
AcDbScale
 70
     0
300
4:1
140
4.0
141
1.0
290
     0
  0
SCALE
  5
56
102
{ACAD_REACTORS
330
47
102
}
330
47
100
AcDbScale
 70
     0
300
8:1
140
8.0
141
1.0
290
     0
  0
SCALE
  5
57
102
{ACAD_REACTORS
330
47
102
}
330
47
100
AcDbScale
 70
     0
300
10:1
140
10.0
141
1.0
290
     0
  0
SCALE
  5
58
102
{ACAD_REACTORS
330
47
102
}
330
47
100
AcDbScale
 70
     0
300
100:1
140
100.0
141
1.0
290
     0
  0
SCALE
  5
59
102
{ACAD_REACTORS
330
47
102
}
330
47
100
AcDbScale
 70
     0
300
1/128" = 1'-0"
140
0.0078125
141
12.0
290
     0
  0
SCALE
  5
5A
102
{ACAD_REACTORS
330
47
102
}
330
47
100
AcDbScale
 70
     0
300
1/64" = 1'-0"
140
0.015625
141
12.0
290
     0
  0
SCALE
  5
5B
102
{ACAD_REACTORS
330
47
102
}
330
47
100
AcDbScale
 70
     0
300
1/32" = 1'-0"
140
0.03125
141
12.0
290
     0
  0
SCALE
  5
5C
102
{ACAD_REACTORS
330
47
102
}
330
47
100
AcDbScale
 70
     0
300
1/16" = 1'-0"
140
0.0625
141
12.0
290
     0
  0
SCALE
  5
5D
102
{ACAD_REACTORS
330
47
102
}
330
47
100
AcDbScale
 70
     0
300
3/32" = 1'-0"
140
0.09375
141
12.0
290
     0
  0
SCALE
  5
5E
102
{ACAD_REACTORS
330
47
102
}
330
47
100
AcDbScale
 70
     0
300
1/8" = 1'-0"
140
0.125
141
12.0
290
     0
  0
SCALE
  5
5F
102
{ACAD_REACTORS
330
47
102
}
330
47
100
AcDbScale
 70
     0
300
3/16" = 1'-0"
140
0.1875
141
12.0
290
     0
  0
SCALE
  5
60
102
{ACAD_REACTORS
330
47
102
}
330
47
100
AcDbScale
 70
     0
300
1/4" = 1'-0"
140
0.25
141
12.0
290
     0
  0
SCALE
  5
61
102
{ACAD_REACTORS
330
47
102
}
330
47
100
AcDbScale
 70
     0
300
3/8" = 1'-0"
140
0.375
141
12.0
290
     0
  0
SCALE
  5
62
102
{ACAD_REACTORS
330
47
102
}
330
47
100
AcDbScale
 70
     0
300
1/2" = 1'-0"
140
0.5
141
12.0
290
     0
  0
SCALE
  5
63
102
{ACAD_REACTORS
330
47
102
}
330
47
100
AcDbScale
 70
     0
300
3/4" = 1'-0"
140
0.75
141
12.0
290
     0
  0
SCALE
  5
64
102
{ACAD_REACTORS
330
47
102
}
330
47
100
AcDbScale
 70
     0
300
1" = 1'-0"
140
1.0
141
12.0
290
     0
  0
SCALE
  5
65
102
{ACAD_REACTORS
330
47
102
}
330
47
100
AcDbScale
 70
     0
300
1-1/2" = 1'-0"
140
1.5
141
12.0
290
     0
  0
SCALE
  5
66
102
{ACAD_REACTORS
330
47
102
}
330
47
100
AcDbScale
 70
     0
300
3" = 1'-0"
140
3.0
141
12.0
290
     0
  0
SCALE
  5
67
102
{ACAD_REACTORS
330
47
102
}
330
47
100
AcDbScale
 70
     0
300
6" = 1'-0"
140
6.0
141
12.0
290
     0
  0
SCALE
  5
68
102
{ACAD_REACTORS
330
47
102
}
330
47
100
AcDbScale
 70
     0
300
1'-0" = 1'-0"
140
12.0
141
12.0
290
     0
  0
TABLESTYLE
  5
6A
102
{ACAD_REACTORS
330
69
102
}
102
{ACAD_XDICTIONARY
360
1C2
102
}
330
69
100
AcDbTableStyle
  3
Standard
 70
     0
 71
     0
 40
0.06
 41
0.06
280
     0
281
     0
  7
Standard
140
4.5
170
     2
 62
     0
 63
   257
283
     0
 90
        4
 91
        0
  1

274
    -2
284
     1
 64
     0
275
    -2
285
     1
 65
     0
276
    -2
286
     1
 66
     0
277
    -2
287
     1
 67
     0
278
    -2
288
     1
 68
     0
279
    -2
289
     1
 69
     0
  7
Standard
140
6.0
170
     5
 62
     0
 63
   257
283
     0
 90
        4
 91
        0
  1

274
    -2
284
     1
 64
     0
275
    -2
285
     1
 65
     0
276
    -2
286
     1
 66
     0
277
    -2
287
     1
 67
     0
278
    -2
288
     1
 68
     0
279
    -2
289
     1
 69
     0
  7
Standard
140
4.5
170
     5
 62
     0
 63
   257
283
     0
 90
        4
 91
        0
  1

274
    -2
284
     1
 64
     0
275
    -2
285
     1
 65
     0
276
    -2
286
     1
 66
     0
277
    -2
287
     1
 67
     0
278
    -2
288
     1
 68
     0
279
    -2
289
     1
 69
     0
  0
VISUALSTYLE
  5
2F
102
{ACAD_REACTORS
330
2A
102
}
330
2A
100
AcDbVisualStyle
  2
2dWireframe
 70
     4
177
     3
291
     0
 70
    58
 90
        0
176
     1
 90
        2
176
     1
 90
        0
176
     1
 90
        0
176
     1
 40
0.6
176
     1
 40
30.0
176
     1
 62
     7
420
 16777215
176
     1
 90
        1
176
     1
 90
        4
176
     1
 62
     7
176
     1
 62
   257
176
     1
 90
        1
176
     1
 90
        1
176
     1
 40
1.0
176
     1
 90
        0
176
     1
 62
   257
176
     1
 40
1.0
176
     1
 90
        1
176
     1
 90
        6
176
     1
 90
        2
176
     1
 62
     7
176
     1
 90
        5
176
     1
 90
        0
176
     1
 90
        0
176
     1
290
     0
176
     1
 90
        1
176
     1
 40
0.0
176
     1
 90
        0
176
     1
290
     1
176
     1
290
     1
176
     1
290
     0
176
     1
290
     0
176
     1
290
     0
176
     1
290
     0
176
     1
290
     0
176
     1
290
     0
176
     1
290
     0
176
     1
 90
       50
176
     1
 40
0.0
176
     1
 40
1.0
176
     1
 90
        0
176
     1
 62
    18
420
        0
176
     1
 90
       50
176
     1
 90
        3
176
     1
 62
     5
420
      255
176
     1
290
     0
176
     1
 90
       50
176
     1
 90
       50
176
     1
 90
       50
176
     1
290
     0
176
     1
 90
       50
176
     1
 62
   256
176
     0
 40
1.0
176
     0
 90
        2
176
     1
  1
strokes_ogs.tif
176
     1
290
     0
176
     1
 40
1.0
176
     1
 40
1.0
176
     1
  0
VISUALSTYLE
  5
32
102
{ACAD_REACTORS
330
2A
102
}
330
2A
100
AcDbVisualStyle
  2
Basic
 70
     7
177
     3
291
     1
 70
    58
 90
        1
176
     1
 90
        0
176
     1
 90
        1
176
     1
 90
        0
176
     1
 40
0.6
176
     1
 40
30.0
176
     1
 62
     7
420
 16777215
176
     1
 90
        0
176
     1
 90
        4
176
     1
 62
     7
176
     1
 62
   257
176
     1
 90
        1
176
     1
 90
        1
176
     1
 40
1.0
176
     1
 90
        8
176
     1
 62
     7
176
     1
 40
1.0
176
     1
 90
        1
176
     1
 90
        6
176
     1
 90
        2
176
     1
 62
     7
176
     1
 90
        5
176
     1
 90
        0
176
     1
 90
        0
176
     1
290
     0
176
     1
 90
        1
176
     1
 40
0.0
176
     1
 90
        0
176
     1
290
     0
176
     1
290
     1
176
     1
290
     1
176
     1
290
     0
176
     1
290
     0
176
     1
290
     0
176
     1
290
     0
176
     1
290
     0
176
     1
290
     0
176
     1
 90
       50
176
     1
 40
0.0
176
     1
 40
1.0
176
     1
 90
        0
176
     1
 62
    18
420
        0
176
     1
 90
       50
176
     1
 90
        3
176
     1
 62
     5
420
      255
176
     1
290
     0
176
     1
 90
       50
176
     1
 90
       50
176
     1
 90
       50
176
     1
290
     0
176
     1
 90
       50
176
     1
 62
   256
176
     0
 40
1.0
176
     0
 90
        2
176
     1
  1
strokes_ogs.tif
176
     1
290
     0
176
     1
 40
1.0
176
     1
 40
1.0
176
     1
  0
VISUALSTYLE
  5
36
102
{ACAD_REACTORS
330
2A
102
}
330
2A
100
AcDbVisualStyle
  2
Brighten
 70
    12
177
     3
291
     1
 70
    58
 90
        2
176
     1
 90
        2
176
     1
 90
        0
176
     1
 90
        0
176
     1
 40
0.6
176
     1
 40
30.0
176
     1
 62
     7
420
 16777215
176
     1
 90
        1
176
     1
 90
        4
176
     1
 62
     7
176
     1
 62
   257
176
     1
 90
        1
176
     1
 90
        1
176
     1
 40
1.0
176
     1
 90
        8
176
     1
 62
     7
176
     1
 40
1.0
176
     1
 90
        1
176
     1
 90
        6
176
     1
 90
        2
176
     1
 62
     7
176
     1
 90
        5
176
     1
 90
        0
176
     1
 90
        0
176
     1
290
     0
176
     1
 90
        1
176
     1
 40
50.0
176
     1
 90
        0
176
     1
290
     0
176
     1
290
     1
176
     1
290
     1
176
     1
290
     0
176
     1
290
     0
176
     1
290
     0
176
     1
290
     0
176
     1
290
     0
176
     1
290
     0
176
     1
 90
       50
176
     1
 40
0.0
176
     1
 40
1.0
176
     1
 90
        0
176
     1
 62
    18
420
        0
176
     1
 90
       50
176
     1
 90
        3
176
     1
 62
     5
420
      255
176
     1
290
     0
176
     1
 90
       50
176
     1
 90
       50
176
     1
 90
       50
176
     1
290
     0
176
     1
 90
       50
176
     1
 62
   256
176
     0
 40
1.0
176
     0
 90
        2
176
     1
  1
strokes_ogs.tif
176
     1
290
     0
176
     1
 40
1.0
176
     1
 40
1.0
176
     1
  0
VISUALSTYLE
  5
3A
102
{ACAD_REACTORS
330
2A
102
}
330
2A
100
AcDbVisualStyle
  2
ColorChange
 70
    16
177
     3
291
     1
 70
    58
 90
        2
176
     1
 90
        2
176
     1
 90
        3
176
     1
 90
        0
176
     1
 40
0.6
176
     1
 40
30.0
176
     1
 62
     8
420
  8421504
176
     1
 90
        1
176
     1
 90
        4
176
     1
 62
     7
176
     1
 62
   257
176
     1
 90
        1
176
     1
 90
        1
176
     1
 40
1.0
176
     1
 90
        8
176
     1
 62
     8
420
  8421504
176
     1
 40
1.0
176
     1
 90
        1
176
     1
 90
        6
176
     1
 90
        2
176
     1
 62
     7
176
     1
 90
        5
176
     1
 90
        0
176
     1
 90
        0
176
     1
290
     0
176
     1
 90
        1
176
     1
 40
0.0
176
     1
 90
        0
176
     1
290
     0
176
     1
290
     1
176
     1
290
     1
176
     1
290
     0
176
     1
290
     0
176
     1
290
     0
176
     1
290
     0
176
     1
290
     0
176
     1
290
     0
176
     1
 90
       50
176
     1
 40
0.0
176
     1
 40
1.0
176
     1
 90
        0
176
     1
 62
    18
420
        0
176
     1
 90
       50
176
     1
 90
        3
176
     1
 62
     5
420
      255
176
     1
290
     0
176
     1
 90
       50
176
     1
 90
       50
176
     1
 90
       50
176
     1
290
     0
176
     1
 90
       50
176
     1
 62
   256
176
     0
 40
1.0
176
     0
 90
        2
176
     1
  1
strokes_ogs.tif
176
     1
290
     0
176
     1
 40
1.0
176
     1
 40
1.0
176
     1
  0
VISUALSTYLE
  5
34
102
{ACAD_REACTORS
330
2A
102
}
330
2A
100
AcDbVisualStyle
  2
Conceptual
 70
     9
177
     3
291
     0
 70
    58
 90
        3
176
     1
 90
        2
176
     1
 90
        0
176
     1
 90
        0
176
     1
 40
0.6
176
     1
 40
30.0
176
     1
 62
     7
420
 16777215
176
     1
 90
        2
176
     1
 90
        2
176
     1
 62
     7
176
     1
 62
   257
176
     1
 90
        1
176
     1
 90
        1
176
     1
 40
179.0
176
     1
 90
        8
176
     1
 62
     7
176
     1
 40
1.0
176
     1
 90
        1
176
     1
 90
        6
176
     1
 90
        2
176
     1
 62
     7
176
     1
 90
        3
176
     1
 90
        0
176
     1
 90
        0
176
     1
290
     0
176
     1
 90
        1
176
     1
 40
0.0
176
     1
 90
        0
176
     1
290
     0
176
     1
290
     1
176
     1
290
     1
176
     1
290
     0
176
     1
290
     0
176
     1
290
     0
176
     1
290
     0
176
     1
290
     0
176
     1
290
     0
176
     1
 90
       50
176
     1
 40
0.0
176
     1
 40
1.0
176
     1
 90
        0
176
     1
 62
    18
420
        0
176
     1
 90
       50
176
     1
 90
        3
176
     1
 62
     5
420
      255
176
     1
290
     0
176
     1
 90
       50
176
     1
 90
       50
176
     1
 90
       50
176
     1
290
     0
176
     1
 90
       50
176
     1
 62
   256
176
     0
 40
1.0
176
     0
 90
        2
176
     1
  1
strokes_ogs.tif
176
     1
290
     0
176
     1
 40
1.0
176
     1
 40
1.0
176
     1
  0
VISUALSTYLE
  5
35
102
{ACAD_REACTORS
330
2A
102
}
330
2A
100
AcDbVisualStyle
  2
Dim
 70
    11
177
     3
291
     1
 70
    58
 90
        2
176
     1
 90
        2
176
     1
 90
        0
176
     1
 90
        0
176
     1
 40
0.6
176
     1
 40
30.0
176
     1
 62
     7
420
 16777215
176
     1
 90
        1
176
     1
 90
        4
176
     1
 62
     7
176
     1
 62
   257
176
     1
 90
        1
176
     1
 90
        1
176
     1
 40
1.0
176
     1
 90
        8
176
     1
 62
     7
176
     1
 40
1.0
176
     1
 90
        1
176
     1
 90
        6
176
     1
 90
        2
176
     1
 62
     7
176
     1
 90
        5
176
     1
 90
        0
176
     1
 90
        0
176
     1
290
     0
176
     1
 90
        1
176
     1
 40
-50.0
176
     1
 90
        0
176
     1
290
     0
176
     1
290
     1
176
     1
290
     1
176
     1
290
     0
176
     1
290
     0
176
     1
290
     0
176
     1
290
     0
176
     1
290
     0
176
     1
290
     0
176
     1
 90
       50
176
     1
 40
0.0
176
     1
 40
1.0
176
     1
 90
        0
176
     1
 62
    18
420
        0
176
     1
 90
       50
176
     1
 90
        3
176
     1
 62
     5
420
      255
176
     1
290
     0
176
     1
 90
       50
176
     1
 90
       50
176
     1
 90
       50
176
     1
290
     0
176
     1
 90
       50
176
     1
 62
   256
176
     0
 40
1.0
176
     0
 90
        2
176
     1
  1
strokes_ogs.tif
176
     1
290
     0
176
     1
 40
1.0
176
     1
 40
1.0
176
     1
  0
VISUALSTYLE
  5
3D
102
{ACAD_REACTORS
330
2A
102
}
330
2A
100
AcDbVisualStyle
  2
EdgeColorOff
 70
    22
177
     3
291
     1
 70
    58
 90
        2
176
     0
 90
        2
176
     0
 90
        0
176
     0
 90
        0
176
     0
 40
0.6
176
     0
 40
30.0
176
     0
 62
     7
420
 16777215
176
     0
 90
        1
176
     0
 90
        4
176
     0
 62
     7
176
     0
 62
   257
176
     0
 90
        1
176
     0
 90
        1
176
     0
 40
1.0
176
     0
 90
        8
176
     2
 62
     7
176
     0
 40
1.0
176
     0
 90
        1
176
     0
 90
        6
176
     0
 90
        2
176
     0
 62
     7
176
     0
 90
        5
176
     0
 90
        0
176
     0
 90
        0
176
     0
290
     0
176
     0
 90
        1
176
     0
 40
0.0
176
     0
 90
        0
176
     0
290
     0
176
     0
290
     1
176
     0
290
     1
176
     0
290
     0
176
     0
290
     0
176
     0
290
     0
176
     0
290
     0
176
     0
290
     0
176
     0
290
     0
176
     0
 90
       50
176
     0
 40
0.0
176
     0
 40
1.0
176
     0
 90
        0
176
     0
 62
    18
420
        0
176
     0
 90
       50
176
     0
 90
        3
176
     0
 62
     5
420
      255
176
     0
290
     0
176
     0
 90
       50
176
     0
 90
       50
176
     0
 90
       50
176
     0
290
     0
176
     0
 90
       50
176
     0
 62
   256
176
     0
 40
1.0
176
     0
 90
        2
176
     0
  1
strokes_ogs.tif
176
     0
290
     0
176
     0
 40
1.0
176
     0
 40
1.0
176
     0
  0
VISUALSTYLE
  5
39
102
{ACAD_REACTORS
330
2A
102
}
330
2A
100
AcDbVisualStyle
  2
Facepattern
 70
    15
177
     3
291
     1
 70
    58
 90
        2
176
     1
 90
        2
176
     1
 90
        0
176
     1
 90
        0
176
     1
 40
0.6
176
     1
 40
30.0
176
     1
 62
     7
420
 16777215
176
     1
 90
        1
176
     1
 90
        4
176
     1
 62
     7
176
     1
 62
   257
176
     1
 90
        1
176
     1
 90
        1
176
     1
 40
1.0
176
     1
 90
        8
176
     1
 62
     7
176
     1
 40
1.0
176
     1
 90
        1
176
     1
 90
        6
176
     1
 90
        2
176
     1
 62
     7
176
     1
 90
        5
176
     1
 90
        0
176
     1
 90
        0
176
     1
290
     0
176
     1
 90
        1
176
     1
 40
0.0
176
     1
 90
        0
176
     1
290
     0
176
     1
290
     1
176
     1
290
     1
176
     1
290
     0
176
     1
290
     0
176
     1
290
     0
176
     1
290
     0
176
     1
290
     0
176
     1
290
     0
176
     1
 90
       50
176
     1
 40
0.0
176
     1
 40
1.0
176
     1
 90
        0
176
     1
 62
    18
420
        0
176
     1
 90
       50
176
     1
 90
        3
176
     1
 62
     5
420
      255
176
     1
290
     0
176
     1
 90
       50
176
     1
 90
       50
176
     1
 90
       50
176
     1
290
     0
176
     1
 90
       50
176
     1
 62
   256
176
     0
 40
1.0
176
     0
 90
        2
176
     1
  1
strokes_ogs.tif
176
     1
290
     0
176
     1
 40
1.0
176
     1
 40
1.0
176
     1
  0
VISUALSTYLE
  5
2B
102
{ACAD_REACTORS
330
2A
102
}
330
2A
100
AcDbVisualStyle
  2
Flat
 70
     0
177
     3
291
     1
 70
    58
 90
        2
176
     1
 90
        1
176
     1
 90
        1
176
     1
 90
        2
176
     1
 40
0.6
176
     1
 40
30.0
176
     1
 62
     7
420
 16777215
176
     1
 90
        0
176
     1
 90
        0
176
     1
 62
     7
176
     1
 62
   257
176
     1
 90
        1
176
     1
 90
        1
176
     1
 40
1.0
176
     1
 90
        8
176
     1
 62
     7
176
     1
 40
1.0
176
     1
 90
        1
176
     1
 90
        6
176
     1
 90
        2
176
     1
 62
     7
176
     1
 90
        5
176
     1
 90
        0
176
     1
 90
        0
176
     1
290
     0
176
     1
 90
       13
176
     1
 40
0.0
176
     1
 90
        0
176
     1
290
     0
176
     1
290
     1
176
     1
290
     1
176
     1
290
     0
176
     1
290
     0
176
     1
290
     0
176
     1
290
     0
176
     1
290
     0
176
     1
290
     0
176
     1
 90
       50
176
     1
 40
0.0
176
     1
 40
1.0
176
     1
 90
        0
176
     1
 62
    18
420
        0
176
     1
 90
       50
176
     1
 90
        3
176
     1
 62
     5
420
      255
176
     1
290
     0
176
     1
 90
       50
176
     1
 90
       50
176
     1
 90
       50
176
     1
290
     0
176
     1
 90
       50
176
     1
 62
   256
176
     0
 40
1.0
176
     0
 90
        2
176
     1
  1
strokes_ogs.tif
176
     1
290
     0
176
     1
 40
1.0
176
     1
 40
1.0
176
     1
  0
VISUALSTYLE
  5
2C
102
{ACAD_REACTORS
330
2A
102
}
330
2A
100
AcDbVisualStyle
  2
FlatWithEdges
 70
     1
177
     3
291
     1
 70
    58
 90
        2
176
     1
 90
        1
176
     1
 90
        1
176
     1
 90
        2
176
     1
 40
0.6
176
     1
 40
30.0
176
     1
 62
     7
420
 16777215
176
     1
 90
        1
176
     1
 90
        0
176
     1
 62
     7
176
     1
 62
   257
176
     1
 90
        1
176
     1
 90
        1
176
     1
 40
1.0
176
     1
 90
        0
176
     1
 62
   257
176
     1
 40
1.0
176
     1
 90
        1
176
     1
 90
        6
176
     1
 90
        2
176
     1
 62
     7
176
     1
 90
        5
176
     1
 90
        0
176
     1
 90
        0
176
     1
290
     0
176
     1
 90
       13
176
     1
 40
0.0
176
     1
 90
        0
176
     1
290
     0
176
     1
290
     1
176
     1
290
     1
176
     1
290
     0
176
     1
290
     0
176
     1
290
     0
176
     1
290
     0
176
     1
290
     0
176
     1
290
     0
176
     1
 90
       50
176
     1
 40
0.0
176
     1
 40
1.0
176
     1
 90
        0
176
     1
 62
    18
420
        0
176
     1
 90
       50
176
     1
 90
        3
176
     1
 62
     5
420
      255
176
     1
290
     0
176
     1
 90
       50
176
     1
 90
       50
176
     1
 90
       50
176
     1
290
     0
176
     1
 90
       50
176
     1
 62
   256
176
     0
 40
1.0
176
     0
 90
        2
176
     1
  1
strokes_ogs.tif
176
     1
290
     0
176
     1
 40
1.0
176
     1
 40
1.0
176
     1
  0
VISUALSTYLE
  5
2D
102
{ACAD_REACTORS
330
2A
102
}
330
2A
100
AcDbVisualStyle
  2
Gouraud
 70
     2
177
     3
291
     1
 70
    58
 90
        2
176
     1
 90
        2
176
     1
 90
        1
176
     1
 90
        2
176
     1
 40
0.6
176
     1
 40
30.0
176
     1
 62
     7
420
 16777215
176
     1
 90
        0
176
     1
 90
        0
176
     1
 62
     7
176
     1
 62
   257
176
     1
 90
        1
176
     1
 90
        1
176
     1
 40
1.0
176
     1
 90
        0
176
     1
 62
     7
176
     1
 40
1.0
176
     1
 90
        1
176
     1
 90
        6
176
     1
 90
        2
176
     1
 62
     7
176
     1
 90
        5
176
     1
 90
        0
176
     1
 90
        0
176
     1
290
     0
176
     1
 90
       13
176
     1
 40
0.0
176
     1
 90
        0
176
     1
290
     0
176
     1
290
     1
176
     1
290
     1
176
     1
290
     0
176
     1
290
     0
176
     1
290
     0
176
     1
290
     0
176
     1
290
     0
176
     1
290
     0
176
     1
 90
       50
176
     1
 40
0.0
176
     1
 40
1.0
176
     1
 90
        0
176
     1
 62
    18
420
        0
176
     1
 90
       50
176
     1
 90
        3
176
     1
 62
     5
420
      255
176
     1
290
     0
176
     1
 90
       50
176
     1
 90
       50
176
     1
 90
       50
176
     1
290
     0
176
     1
 90
       50
176
     1
 62
   256
176
     0
 40
1.0
176
     0
 90
        2
176
     1
  1
strokes_ogs.tif
176
     1
290
     0
176
     1
 40
1.0
176
     1
 40
1.0
176
     1
  0
VISUALSTYLE
  5
2E
102
{ACAD_REACTORS
330
2A
102
}
330
2A
100
AcDbVisualStyle
  2
GouraudWithEdges
 70
     3
177
     3
291
     1
 70
    58
 90
        2
176
     1
 90
        2
176
     1
 90
        1
176
     1
 90
        2
176
     1
 40
0.6
176
     1
 40
30.0
176
     1
 62
     7
420
 16777215
176
     1
 90
        1
176
     1
 90
        0
176
     1
 62
     7
176
     1
 62
   257
176
     1
 90
        1
176
     1
 90
        1
176
     1
 40
1.0
176
     1
 90
        0
176
     1
 62
   257
176
     1
 40
1.0
176
     1
 90
        1
176
     1
 90
        6
176
     1
 90
        2
176
     1
 62
     7
176
     1
 90
        5
176
     1
 90
        0
176
     1
 90
        0
176
     1
290
     0
176
     1
 90
       13
176
     1
 40
0.0
176
     1
 90
        0
176
     1
290
     0
176
     1
290
     1
176
     1
290
     1
176
     1
290
     0
176
     1
290
     0
176
     1
290
     0
176
     1
290
     0
176
     1
290
     0
176
     1
290
     0
176
     1
 90
       50
176
     1
 40
0.0
176
     1
 40
1.0
176
     1
 90
        0
176
     1
 62
    18
420
        0
176
     1
 90
       50
176
     1
 90
        3
176
     1
 62
     5
420
      255
176
     1
290
     0
176
     1
 90
       50
176
     1
 90
       50
176
     1
 90
       50
176
     1
290
     0
176
     1
 90
       50
176
     1
 62
   256
176
     0
 40
1.0
176
     0
 90
        2
176
     1
  1
strokes_ogs.tif
176
     1
290
     0
176
     1
 40
1.0
176
     1
 40
1.0
176
     1
  0
VISUALSTYLE
  5
31
102
{ACAD_REACTORS
330
2A
102
}
330
2A
100
AcDbVisualStyle
  2
Hidden
 70
     6
177
     3
291
     0
 70
    58
 90
        1
176
     1
 90
        2
176
     1
 90
        2
176
     1
 90
        0
176
     1
 40
0.6
176
     1
 40
30.0
176
     1
 62
     7
420
 16777215
176
     1
 90
        2
176
     1
 90
        2
176
     1
 62
     7
176
     1
 62
   257
176
     1
 90
        2
176
     1
 90
        1
176
     1
 40
40.0
176
     1
 90
        0
176
     1
 62
   257
176
     1
 40
1.0
176
     1
 90
        1
176
     1
 90
        6
176
     1
 90
        2
176
     1
 62
     7
176
     1
 90
        3
176
     1
 90
        0
176
     1
 90
        0
176
     1
290
     0
176
     1
 90
        1
176
     1
 40
0.0
176
     1
 90
        0
176
     1
290
     0
176
     1
290
     1
176
     1
290
     1
176
     1
290
     0
176
     1
290
     0
176
     1
290
     0
176
     1
290
     0
176
     1
290
     0
176
     1
290
     0
176
     1
 90
       50
176
     1
 40
0.0
176
     1
 40
1.0
176
     1
 90
        0
176
     1
 62
    18
420
        0
176
     1
 90
       50
176
     1
 90
        3
176
     1
 62
     5
420
      255
176
     1
290
     0
176
     1
 90
       50
176
     1
 90
       50
176
     1
 90
       50
176
     1
290
     0
176
     1
 90
       50
176
     1
 62
   256
176
     0
 40
1.0
176
     0
 90
        2
176
     1
  1
strokes_ogs.tif
176
     1
290
     0
176
     1
 40
1.0
176
     1
 40
1.0
176
     1
  0
VISUALSTYLE
  5
3B
102
{ACAD_REACTORS
330
2A
102
}
330
2A
100
AcDbVisualStyle
  2
JitterOff
 70
    20
177
     3
291
     1
 70
    58
 90
        2
176
     0
 90
        2
176
     0
 90
        0
176
     0
 90
        0
176
     0
 40
0.6
176
     0
 40
30.0
176
     0
 62
     7
420
 16777215
176
     0
 90
        1
176
     0
 90
        4
176
     0
 62
     7
176
     0
 62
   257
176
     0
 90
        1
176
     0
 90
        1
176
     0
 40
1.0
176
     0
 90
       10
176
     2
 62
     7
176
     0
 40
1.0
176
     0
 90
        1
176
     0
 90
        6
176
     0
 90
        2
176
     0
 62
     7
176
     0
 90
        5
176
     0
 90
        0
176
     0
 90
        0
176
     0
290
     0
176
     0
 90
        1
176
     0
 40
0.0
176
     0
 90
        0
176
     0
290
     0
176
     0
290
     1
176
     0
290
     1
176
     0
290
     0
176
     0
290
     0
176
     0
290
     0
176
     0
290
     0
176
     0
290
     0
176
     0
290
     0
176
     0
 90
       50
176
     0
 40
0.0
176
     0
 40
1.0
176
     0
 90
        0
176
     0
 62
    18
420
        0
176
     0
 90
       50
176
     0
 90
        3
176
     0
 62
     5
420
      255
176
     0
290
     0
176
     0
 90
       50
176
     0
 90
       50
176
     0
 90
       50
176
     0
290
     0
176
     0
 90
       50
176
     0
 62
   256
176
     0
 40
1.0
176
     0
 90
        2
176
     0
  1
strokes_ogs.tif
176
     0
290
     0
176
     0
 40
1.0
176
     0
 40
1.0
176
     0
  0
VISUALSTYLE
  5
38
102
{ACAD_REACTORS
330
2A
102
}
330
2A
100
AcDbVisualStyle
  2
Linepattern
 70
    14
177
     3
291
     1
 70
    58
 90
        2
176
     1
 90
        2
176
     1
 90
        0
176
     1
 90
        0
176
     1
 40
0.6
176
     1
 40
30.0
176
     1
 62
     7
420
 16777215
176
     1
 90
        1
176
     1
 90
        4
176
     1
 62
     7
176
     1
 62
   257
176
     1
 90
        7
176
     1
 90
        7
176
     1
 40
1.0
176
     1
 90
        8
176
     1
 62
     7
176
     1
 40
1.0
176
     1
 90
        1
176
     1
 90
        6
176
     1
 90
        2
176
     1
 62
     7
176
     1
 90
        5
176
     1
 90
        0
176
     1
 90
        0
176
     1
290
     0
176
     1
 90
        1
176
     1
 40
0.0
176
     1
 90
        0
176
     1
290
     0
176
     1
290
     1
176
     1
290
     1
176
     1
290
     0
176
     1
290
     0
176
     1
290
     0
176
     1
290
     0
176
     1
290
     0
176
     1
290
     0
176
     1
 90
       50
176
     1
 40
0.0
176
     1
 40
1.0
176
     1
 90
        0
176
     1
 62
    18
420
        0
176
     1
 90
       50
176
     1
 90
        3
176
     1
 62
     5
420
      255
176
     1
290
     0
176
     1
 90
       50
176
     1
 90
       50
176
     1
 90
       50
176
     1
290
     0
176
     1
 90
       50
176
     1
 62
   256
176
     0
 40
1.0
176
     0
 90
        2
176
     1
  1
strokes_ogs.tif
176
     1
290
     0
176
     1
 40
1.0
176
     1
 40
1.0
176
     1
  0
VISUALSTYLE
  5
3C
102
{ACAD_REACTORS
330
2A
102
}
330
2A
100
AcDbVisualStyle
  2
OverhangOff
 70
    21
177
     3
291
     1
 70
    58
 90
        2
176
     0
 90
        2
176
     0
 90
        0
176
     0
 90
        0
176
     0
 40
0.6
176
     0
 40
30.0
176
     0
 62
     7
420
 16777215
176
     0
 90
        1
176
     0
 90
        4
176
     0
 62
     7
176
     0
 62
   257
176
     0
 90
        1
176
     0
 90
        1
176
     0
 40
1.0
176
     0
 90
        9
176
     2
 62
     7
176
     0
 40
1.0
176
     0
 90
        1
176
     0
 90
        6
176
     0
 90
        2
176
     0
 62
     7
176
     0
 90
        5
176
     0
 90
        0
176
     0
 90
        0
176
     0
290
     0
176
     0
 90
        1
176
     0
 40
0.0
176
     0
 90
        0
176
     0
290
     0
176
     0
290
     1
176
     0
290
     1
176
     0
290
     0
176
     0
290
     0
176
     0
290
     0
176
     0
290
     0
176
     0
290
     0
176
     0
290
     0
176
     0
 90
       50
176
     0
 40
0.0
176
     0
 40
1.0
176
     0
 90
        0
176
     0
 62
    18
420
        0
176
     0
 90
       50
176
     0
 90
        3
176
     0
 62
     5
420
      255
176
     0
290
     0
176
     0
 90
       50
176
     0
 90
       50
176
     0
 90
       50
176
     0
290
     0
176
     0
 90
       50
176
     0
 62
   256
176
     0
 40
1.0
176
     0
 90
        2
176
     0
  1
strokes_ogs.tif
176
     0
290
     0
176
     0
 40
1.0
176
     0
 40
1.0
176
     0
  0
VISUALSTYLE
  5
33
102
{ACAD_REACTORS
330
2A
102
}
330
2A
100
AcDbVisualStyle
  2
Realistic
 70
     8
177
     3
291
     0
 70
    58
 90
        2
176
     1
 90
        3
176
     1
 90
        0
176
     1
 90
        2
176
     1
 40
0.6
176
     1
 40
30.0
176
     1
 62
     7
420
 16777215
176
     1
 90
        0
176
     1
 90
        0
176
     1
 62
     7
176
     1
 62
   257
176
     1
 90
        1
176
     1
 90
        1
176
     1
 40
1.0
176
     1
 90
        8
176
     1
 62
   257
176
     1
 40
1.0
176
     1
 90
        1
176
     1
 90
        6
176
     1
 90
        2
176
     1
 62
     7
176
     1
 90
        3
176
     1
 90
        0
176
     1
 90
        0
176
     1
290
     0
176
     1
 90
       13
176
     1
 40
0.0
176
     1
 90
        0
176
     1
290
     0
176
     1
290
     1
176
     1
290
     1
176
     1
290
     0
176
     1
290
     0
176
     1
290
     0
176
     1
290
     0
176
     1
290
     0
176
     1
290
     0
176
     1
 90
       50
176
     1
 40
0.0
176
     1
 40
1.0
176
     1
 90
        0
176
     1
 62
    18
420
        0
176
     1
 90
       50
176
     1
 90
        3
176
     1
 62
     5
420
      255
176
     1
290
     0
176
     1
 90
       50
176
     1
 90
       50
176
     1
 90
       50
176
     1
290
     0
176
     1
 90
       50
176
     1
 62
   256
176
     0
 40
1.0
176
     0
 90
        2
176
     1
  1
strokes_ogs.tif
176
     1
290
     0
176
     1
 40
1.0
176
     1
 40
1.0
176
     1
  0
VISUALSTYLE
  5
42
102
{ACAD_REACTORS
330
2A
102
}
330
2A
100
AcDbVisualStyle
  2
Shaded
 70
    27
177
     3
291
     0
 70
    58
 90
        2
176
     1
 90
        2
176
     1
 90
        1
176
     1
 90
        2
176
     1
 40
0.6
176
     1
 40
30.0
176
     1
 62
     7
420
 16777215
176
     1
 90
        0
176
     1
 90
        4
176
     1
 62
     7
176
     1
 62
   257
176
     1
 90
        1
176
     1
 90
        1
176
     1
 40
1.0
176
     1
 90
        8
176
     1
 62
   257
176
     1
 40
1.0
176
     1
 90
        1
176
     1
 90
        6
176
     1
 90
        2
176
     1
 62
     8
420
  7895160
176
     1
 90
        3
176
     1
 90
        0
176
     1
 90
        0
176
     1
290
     0
176
     1
 90
        5
176
     1
 40
0.0
176
     1
 90
        0
176
     1
290
     0
176
     1
290
     1
176
     1
290
     1
176
     1
290
     0
176
     1
290
     0
176
     1
290
     0
176
     1
290
     0
176
     1
290
     0
176
     1
290
     0
176
     1
 90
       50
176
     1
 40
0.0
176
     1
 40
1.0
176
     1
 90
        0
176
     1
 62
    18
420
        0
176
     1
 90
       50
176
     1
 90
        3
176
     1
 62
     5
420
      255
176
     1
290
     0
176
     1
 90
       50
176
     1
 90
       50
176
     1
 90
       50
176
     1
290
     0
176
     1
 90
       50
176
     1
 62
   256
176
     0
 40
1.0
176
     0
 90
        2
176
     1
  1
strokes_ogs.tif
176
     1
290
     0
176
     1
 40
1.0
176
     1
 40
1.0
176
     1
  0
VISUALSTYLE
  5
41
102
{ACAD_REACTORS
330
2A
102
}
330
2A
100
AcDbVisualStyle
  2
Shaded with edges
 70
    26
177
     3
291
     0
 70
    58
 90
        2
176
     1
 90
        2
176
     1
 90
        1
176
     1
 90
        2
176
     1
 40
0.6
176
     1
 40
30.0
176
     1
 62
     7
420
 16777215
176
     1
 90
        1
176
     1
 90
       10
176
     1
 62
     7
176
     1
 62
   257
176
     1
 90
        2
176
     1
 90
        1
176
     1
 40
1.0
176
     1
 90
        8
176
     1
 62
   257
176
     1
 40
1.0
176
     1
 90
        1
176
     1
 90
        6
176
     1
 90
        2
176
     1
 62
     7
176
     1
 90
        3
176
     1
 90
        0
176
     1
 90
        0
176
     1
290
     0
176
     1
 90
        5
176
     1
 40
0.0
176
     1
 90
        0
176
     1
290
     0
176
     1
290
     1
176
     1
290
     1
176
     1
290
     0
176
     1
290
     0
176
     1
290
     0
176
     1
290
     0
176
     1
290
     0
176
     1
290
     0
176
     1
 90
       50
176
     1
 40
0.0
176
     1
 40
1.0
176
     1
 90
        0
176
     1
 62
    18
420
        0
176
     1
 90
       50
176
     1
 90
        3
176
     1
 62
     5
420
      255
176
     1
290
     0
176
     1
 90
       50
176
     1
 90
       50
176
     1
 90
       50
176
     1
290
     0
176
     1
 90
       50
176
     1
 62
   256
176
     0
 40
1.0
176
     0
 90
        2
176
     1
  1
strokes_ogs.tif
176
     1
290
     0
176
     1
 40
1.0
176
     1
 40
1.0
176
     1
  0
VISUALSTYLE
  5
3E
102
{ACAD_REACTORS
330
2A
102
}
330
2A
100
AcDbVisualStyle
  2
Shades of Gray
 70
    23
177
     3
291
     0
 70
    58
 90
        2
176
     1
 90
        2
176
     1
 90
        3
176
     1
 90
        0
176
     1
 40
0.6
176
     1
 40
30.0
176
     1
 62
     7
420
 16777215
176
     1
 90
        2
176
     1
 90
        2
176
     1
 62
     7
176
     1
 62
     7
176
     1
 90
        1
176
     1
 90
        1
176
     1
 40
40.0
176
     1
 90
        8
176
     1
 62
     7
176
     1
 40
1.0
176
     1
 90
        1
176
     1
 90
        6
176
     1
 90
        2
176
     1
 62
     7
176
     1
 90
        3
176
     1
 90
        0
176
     1
 90
        0
176
     1
290
     0
176
     1
 90
        1
176
     1
 40
0.0
176
     1
 90
        0
176
     1
290
     0
176
     1
290
     1
176
     1
290
     1
176
     1
290
     0
176
     1
290
     0
176
     1
290
     0
176
     1
290
     0
176
     1
290
     0
176
     1
290
     0
176
     1
 90
       50
176
     1
 40
0.0
176
     1
 40
1.0
176
     1
 90
        0
176
     1
 62
    18
420
        0
176
     1
 90
       50
176
     1
 90
        3
176
     1
 62
     5
420
      255
176
     1
290
     0
176
     1
 90
       50
176
     1
 90
       50
176
     1
 90
       50
176
     1
290
     0
176
     1
 90
       50
176
     1
 62
   256
176
     0
 40
1.0
176
     0
 90
        2
176
     1
  1
strokes_ogs.tif
176
     1
290
     0
176
     1
 40
1.0
176
     1
 40
1.0
176
     1
  0
VISUALSTYLE
  5
3F
102
{ACAD_REACTORS
330
2A
102
}
330
2A
100
AcDbVisualStyle
  2
Sketchy
 70
    24
177
     3
291
     0
 70
    58
 90
        1
176
     1
 90
        2
176
     1
 90
        2
176
     1
 90
        0
176
     1
 40
0.6
176
     1
 40
30.0
176
     1
 62
     7
420
 16777215
176
     1
 90
        2
176
     1
 90
        2
176
     1
 62
     7
176
     1
 62
     7
176
     1
 90
        1
176
     1
 90
        1
176
     1
 40
40.0
176
     1
 90
       11
176
     1
 62
     7
176
     1
 40
1.0
176
     1
 90
        1
176
     1
 90
        6
176
     1
 90
        2
176
     1
 62
     7
176
     1
 90
        6
176
     1
 90
        0
176
     1
 90
        0
176
     1
290
     0
176
     1
 90
        1
176
     1
 40
0.0
176
     1
 90
        0
176
     1
290
     0
176
     1
290
     1
176
     1
290
     1
176
     1
290
     0
176
     1
290
     0
176
     1
290
     0
176
     1
290
     0
176
     1
290
     0
176
     1
290
     0
176
     1
 90
       50
176
     1
 40
0.0
176
     1
 40
1.0
176
     1
 90
        0
176
     1
 62
    18
420
        0
176
     1
 90
       50
176
     1
 90
        3
176
     1
 62
     5
420
      255
176
     1
290
     0
176
     1
 90
       50
176
     1
 90
       50
176
     1
 90
       50
176
     1
290
     0
176
     1
 90
       50
176
     1
 62
   256
176
     0
 40
1.0
176
     0
 90
        2
176
     1
  1
strokes_ogs.tif
176
     1
290
     0
176
     1
 40
1.0
176
     1
 40
1.0
176
     1
  0
VISUALSTYLE
  5
37
102
{ACAD_REACTORS
330
2A
102
}
330
2A
100
AcDbVisualStyle
  2
Thicken
 70
    13
177
     3
291
     1
 70
    58
 90
        2
176
     1
 90
        2
176
     1
 90
        0
176
     1
 90
        0
176
     1
 40
0.6
176
     1
 40
30.0
176
     1
 62
     7
420
 16777215
176
     1
 90
        1
176
     1
 90
        4
176
     1
 62
     7
176
     1
 62
   257
176
     1
 90
        1
176
     1
 90
        1
176
     1
 40
1.0
176
     1
 90
       12
176
     1
 62
     7
176
     1
 40
1.0
176
     1
 90
        1
176
     1
 90
        6
176
     1
 90
        2
176
     1
 62
     7
176
     1
 90
        5
176
     1
 90
        0
176
     1
 90
        0
176
     1
290
     0
176
     1
 90
        1
176
     1
 40
0.0
176
     1
 90
        0
176
     1
290
     0
176
     1
290
     1
176
     1
290
     1
176
     1
290
     0
176
     1
290
     0
176
     1
290
     0
176
     1
290
     0
176
     1
290
     0
176
     1
290
     0
176
     1
 90
       50
176
     1
 40
0.0
176
     1
 40
1.0
176
     1
 90
        0
176
     1
 62
    18
420
        0
176
     1
 90
       50
176
     1
 90
        3
176
     1
 62
     5
420
      255
176
     1
290
     0
176
     1
 90
       50
176
     1
 90
       50
176
     1
 90
       50
176
     1
290
     0
176
     1
 90
       50
176
     1
 62
   256
176
     0
 40
1.0
176
     0
 90
        2
176
     1
  1
strokes_ogs.tif
176
     1
290
     0
176
     1
 40
1.0
176
     1
 40
1.0
176
     1
  0
VISUALSTYLE
  5
30
102
{ACAD_REACTORS
330
2A
102
}
330
2A
100
AcDbVisualStyle
  2
Wireframe
 70
     5
177
     3
291
     0
 70
    58
 90
        0
176
     1
 90
        2
176
     1
 90
        0
176
     1
 90
        0
176
     1
 40
0.6
176
     1
 40
30.0
176
     1
 62
     7
420
 16777215
176
     1
 90
        1
176
     1
 90
        4
176
     1
 62
     7
176
     1
 62
   257
176
     1
 90
        1
176
     1
 90
        1
176
     1
 40
1.0
176
     1
 90
        0
176
     1
 62
   257
176
     1
 40
1.0
176
     1
 90
        1
176
     1
 90
        6
176
     1
 90
        2
176
     1
 62
     7
176
     1
 90
        3
176
     1
 90
        0
176
     1
 90
        0
176
     1
290
     0
176
     1
 90
        1
176
     1
 40
0.0
176
     1
 90
        0
176
     1
290
     0
176
     1
290
     1
176
     1
290
     1
176
     1
290
     0
176
     1
290
     0
176
     1
290
     0
176
     1
290
     0
176
     1
290
     0
176
     1
290
     0
176
     1
 90
       50
176
     1
 40
0.0
176
     1
 40
1.0
176
     1
 90
        0
176
     1
 62
    18
420
        0
176
     1
 90
       50
176
     1
 90
        3
176
     1
 62
     5
420
      255
176
     1
290
     0
176
     1
 90
       50
176
     1
 90
       50
176
     1
 90
       50
176
     1
290
     0
176
     1
 90
       50
176
     1
 62
   256
176
     0
 40
1.0
176
     0
 90
        2
176
     1
  1
strokes_ogs.tif
176
     1
290
     0
176
     1
 40
1.0
176
     1
 40
1.0
176
     1
  0
VISUALSTYLE
  5
40
102
{ACAD_REACTORS
330
2A
102
}
330
2A
100
AcDbVisualStyle
  2
X-Ray
 70
    25
177
     3
291
     0
 70
    58
 90
        2
176
     1
 90
        2
176
     1
 90
        1
176
     1
 90
        1
176
     1
 40
0.5
176
     1
 40
30.0
176
     1
 62
     7
420
 16777215
176
     1
 90
        1
176
     1
 90
        0
176
     1
 62
     7
176
     1
 62
   257
176
     1
 90
        1
176
     1
 90
        1
176
     1
 40
1.0
176
     1
 90
        8
176
     1
 62
     7
176
     1
 40
1.0
176
     1
 90
        1
176
     1
 90
        6
176
     1
 90
        2
176
     1
 62
     7
176
     1
 90
        3
176
     1
 90
        0
176
     1
 90
        0
176
     1
290
     0
176
     1
 90
       13
176
     1
 40
0.0
176
     1
 90
        0
176
     1
290
     0
176
     1
290
     1
176
     1
290
     1
176
     1
290
     0
176
     1
290
     0
176
     1
290
     0
176
     1
290
     0
176
     1
290
     0
176
     1
290
     0
176
     1
 90
       50
176
     1
 40
0.0
176
     1
 40
1.0
176
     1
 90
        0
176
     1
 62
    18
420
        0
176
     1
 90
       50
176
     1
 90
        3
176
     1
 62
     5
420
      255
176
     1
290
     0
176
     1
 90
       50
176
     1
 90
       50
176
     1
 90
       50
176
     1
290
     0
176
     1
 90
       50
176
     1
 62
   256
176
     0
 40
1.0
176
     0
 90
        2
176
     1
  1
strokes_ogs.tif
176
     1
290
     0
176
     1
 40
1.0
176
     1
 40
1.0
176
     1
  0
DICTIONARYVAR
  5
1C1
102
{ACAD_REACTORS
330
1C0
102
}
330
1C0
100
DictionaryVariables
280
     0
  1
1:1
  0
DICTIONARYVAR
  5
1C6
102
{ACAD_REACTORS
330
1C0
102
}
330
1C0
100
DictionaryVariables
280
     0
  1
Standard
  0
DICTIONARYVAR
  5
1C5
102
{ACAD_REACTORS
330
1C0
102
}
330
1C0
100
DictionaryVariables
280
     0
  1
Standard
  0
DICTIONARY
  5
1C2
330
6A
100
AcDbDictionary
280
     1
281
     1
  3
ACAD_ROUNDTRIP_2008_TABLESTYLE_CELLSTYLEMAP
360
1C3
  0
CELLSTYLEMAP
  5
1C3
102
{ACAD_REACTORS
330
1C2
102
}
330
1C2
100
AcDbCellStyleMap
 90
        3
300
CELLSTYLE
  1
TABLEFORMAT_BEGIN
 90
        5
170
     1
 91
        0
 92
    32768
 62
   257
 93
        1
300
CONTENTFORMAT
  1
CONTENTFORMAT_BEGIN
 90
        0
 91
        0
 92
        4
 93
        0
300

 40
0.0
140
1.0
 94
        5
 62
     0
340
11
144
6.0
309
CONTENTFORMAT_END
171
     1
301
MARGIN
  1
CELLMARGIN_BEGIN
 40
1.5
 40
1.5
 40
1.5
 40
1.5
 40
1.5
 40
1.5
309
CELLMARGIN_END
 94
        6
 95
        1
302
GRIDFORMAT
  1
GRIDFORMAT_BEGIN
 90
        0
 91
        1
 62
     0
 92
       -2
340
14
 93
        0
 40
0.045
309
GRIDFORMAT_END
 95
        2
302
GRIDFORMAT
  1
GRIDFORMAT_BEGIN
 90
        0
 91
        1
 62
     0
 92
       -2
340
14
 93
        0
 40
0.045
309
GRIDFORMAT_END
 95
        4
302
GRIDFORMAT
  1
GRIDFORMAT_BEGIN
 90
        0
 91
        1
 62
     0
 92
       -2
340
14
 93
        0
 40
0.045
309
GRIDFORMAT_END
 95
        8
302
GRIDFORMAT
  1
GRIDFORMAT_BEGIN
 90
        0
 91
        1
 62
     0
 92
       -2
340
14
 93
        0
 40
0.045
309
GRIDFORMAT_END
 95
       16
302
GRIDFORMAT
  1
GRIDFORMAT_BEGIN
 90
        0
 91
        1
 62
     0
 92
       -2
340
14
 93
        0
 40
0.045
309
GRIDFORMAT_END
 95
       32
302
GRIDFORMAT
  1
GRIDFORMAT_BEGIN
 90
        0
 91
        1
 62
     0
 92
       -2
340
14
 93
        0
 40
0.045
309
GRIDFORMAT_END
309
TABLEFORMAT_END
  1
CELLSTYLE_BEGIN
 90
        1
 91
        1
300
_TITLE
309
CELLSTYLE_END
300
CELLSTYLE
  1
TABLEFORMAT_BEGIN
 90
        5
170
     1
 91
        0
 92
        0
 62
   257
 93
        1
300
CONTENTFORMAT
  1
CONTENTFORMAT_BEGIN
 90
        0
 91
        0
 92
        4
 93
        0
300

 40
0.0
140
1.0
 94
        5
 62
     0
340
11
144
4.5
309
CONTENTFORMAT_END
171
     1
301
MARGIN
  1
CELLMARGIN_BEGIN
 40
1.5
 40
1.5
 40
1.5
 40
1.5
 40
1.5
 40
1.5
309
CELLMARGIN_END
 94
        6
 95
        1
302
GRIDFORMAT
  1
GRIDFORMAT_BEGIN
 90
        0
 91
        1
 62
     0
 92
       -2
340
14
 93
        0
 40
0.045
309
GRIDFORMAT_END
 95
        2
302
GRIDFORMAT
  1
GRIDFORMAT_BEGIN
 90
        0
 91
        1
 62
     0
 92
       -2
340
14
 93
        0
 40
0.045
309
GRIDFORMAT_END
 95
        4
302
GRIDFORMAT
  1
GRIDFORMAT_BEGIN
 90
        0
 91
        1
 62
     0
 92
       -2
340
14
 93
        0
 40
0.045
309
GRIDFORMAT_END
 95
        8
302
GRIDFORMAT
  1
GRIDFORMAT_BEGIN
 90
        0
 91
        1
 62
     0
 92
       -2
340
14
 93
        0
 40
0.045
309
GRIDFORMAT_END
 95
       16
302
GRIDFORMAT
  1
GRIDFORMAT_BEGIN
 90
        0
 91
        1
 62
     0
 92
       -2
340
14
 93
        0
 40
0.045
309
GRIDFORMAT_END
 95
       32
302
GRIDFORMAT
  1
GRIDFORMAT_BEGIN
 90
        0
 91
        1
 62
     0
 92
       -2
340
14
 93
        0
 40
0.045
309
GRIDFORMAT_END
309
TABLEFORMAT_END
  1
CELLSTYLE_BEGIN
 90
        2
 91
        1
300
_HEADER
309
CELLSTYLE_END
300
CELLSTYLE
  1
TABLEFORMAT_BEGIN
 90
        5
170
     1
 91
        0
 92
        0
 62
   257
 93
        1
300
CONTENTFORMAT
  1
CONTENTFORMAT_BEGIN
 90
        0
 91
        0
 92
        4
 93
        0
300

 40
0.0
140
1.0
 94
        2
 62
     0
340
11
144
4.5
309
CONTENTFORMAT_END
171
     1
301
MARGIN
  1
CELLMARGIN_BEGIN
 40
1.5
 40
1.5
 40
1.5
 40
1.5
 40
1.5
 40
1.5
309
CELLMARGIN_END
 94
        6
 95
        1
302
GRIDFORMAT
  1
GRIDFORMAT_BEGIN
 90
        0
 91
        1
 62
     0
 92
       -2
340
14
 93
        0
 40
0.045
309
GRIDFORMAT_END
 95
        2
302
GRIDFORMAT
  1
GRIDFORMAT_BEGIN
 90
        0
 91
        1
 62
     0
 92
       -2
340
14
 93
        0
 40
0.045
309
GRIDFORMAT_END
 95
        4
302
GRIDFORMAT
  1
GRIDFORMAT_BEGIN
 90
        0
 91
        1
 62
     0
 92
       -2
340
14
 93
        0
 40
0.045
309
GRIDFORMAT_END
 95
        8
302
GRIDFORMAT
  1
GRIDFORMAT_BEGIN
 90
        0
 91
        1
 62
     0
 92
       -2
340
14
 93
        0
 40
0.045
309
GRIDFORMAT_END
 95
       16
302
GRIDFORMAT
  1
GRIDFORMAT_BEGIN
 90
        0
 91
        1
 62
     0
 92
       -2
340
14
 93
        0
 40
0.045
309
GRIDFORMAT_END
 95
       32
302
GRIDFORMAT
  1
GRIDFORMAT_BEGIN
 90
        0
 91
        1
 62
     0
 92
       -2
340
14
 93
        0
 40
0.045
309
GRIDFORMAT_END
309
TABLEFORMAT_END
  1
CELLSTYLE_BEGIN
 90
        3
 91
        2
300
_DATA
309
CELLSTYLE_END
  0
ENDSEC
  0
EOF