0
SECTION
  2
HEADER
  9
$ACADVER
  1
AC1027
  9
$ACADMAINTVER
 70
     8
  9
$DWGCODEPAGE
  3
ANSI_1252
  9
$REQUIREDVERSIONS
160
                 0
  9
$COMMENTS
  1
File was created by Cadenas
  9
$CUSTOMPROPERTYTAG
  1
NN
  9
$CUSTOMPROPERTY
  1
Grip Tight Tapped Base Inch Bore
  9
$CUSTOMPROPERTYTAG
  1
NT
  9
$CUSTOMPROPERTY
  1
GT Normal Duty Tapped Base Pillow Blocks
  9
$CUSTOMPROPERTYTAG
  1
NB
  9
$CUSTOMPROPERTY
  1
129290
  9
$CUSTOMPROPERTYTAG
  1
NBSYN
  9
$CUSTOMPROPERTY
  1
$PN.$LUBE.
  9
$CUSTOMPROPERTYTAG
  1
LINA
  9
$CUSTOMPROPERTY
  1
129290
  9
$CUSTOMPROPERTYTAG
  1
SERIES
  9
$CUSTOMPROPERTY
  1
210
  9
$CUSTOMPROPERTYTAG
  1
SS
  9
$CUSTOMPROPERTY
  1
2
  9
$CUSTOMPROPERTYTAG
  1
PN
  9
$CUSTOMPROPERTY
  1
129290
  9
$CUSTOMPROPERTYTAG
  1
DESCRIPTION
  9
$CUSTOMPROPERTY
  1
TB-GT-200
  9
$CUSTOMPROPERTYTAG
  1
A
  9
$CUSTOMPROPERTY
  1
1-55/64
  9
$CUSTOMPROPERTYTAG
  1
B
  9
$CUSTOMPROPERTY
  1
5-1/2
  9
$CUSTOMPROPERTYTAG
  1
C
  9
$CUSTOMPROPERTY
  1
2
  9
$CUSTOMPROPERTYTAG
  1
D
  9
$CUSTOMPROPERTY
  1
4
  9
$CUSTOMPROPERTYTAG
  1
J
  9
$CUSTOMPROPERTY
  1
4-5/8
  9
$CUSTOMPROPERTYTAG
  1
L
  9
$CUSTOMPROPERTY
  1
2-15/16
  9
$CUSTOMPROPERTYTAG
  1
M
  9
$CUSTOMPROPERTY
  1
2-1/4
  9
$CUSTOMPROPERTYTAG
  1
N
  9
$CUSTOMPROPERTY
  1
7/8
  9
$CUSTOMPROPERTYTAG
  1
R
  9
$CUSTOMPROPERTY
  1
5/8-11
  9
$CUSTOMPROPERTYTAG
  1
S
  9
$CUSTOMPROPERTY
  1
1-13/64
  9
$CUSTOMPROPERTYTAG
  1
Z
  9
$CUSTOMPROPERTY
  1
1-5/32
  9
$CUSTOMPROPERTYTAG
  1
COMPANY
  9
$CUSTOMPROPERTY
  1
baldor
  9
$INSBASE
 10
0.0
 20
0.0
 30
0.0
  9
$EXTMIN
 10
1.000000000000000E+20
 20
1.000000000000000E+20
 30
1.000000000000000E+20
  9
$EXTMAX
 10
-1.000000000000000E+20
 20
-1.000000000000000E+20
 30
-1.000000000000000E+20
  9
$LIMMIN
 10
0.0
 20
0.0
  9
$LIMMAX
 10
12.0
 20
9.0
  9
$ORTHOMODE
 70
     0
  9
$REGENMODE
 70
     1
  9
$FILLMODE
 70
     1
  9
$QTEXTMODE
 70
     0
  9
$MIRRTEXT
 70
     1
  9
$LTSCALE
 40
1.0
  9
$ATTMODE
 70
     1
  9
$TEXTSIZE
 40
0.2
  9
$TRACEWID
 40
0.05
  9
$TEXTSTYLE
  7
Standard
  9
$CLAYER
  8
0
  9
$CELTYPE
  6
ByLayer
  9
$CECOLOR
 62
   256
  9
$CELTSCALE
 40
1.0
  9
$DISPSILH
 70
     0
  9
$DIMSCALE
 40
1.0
  9
$DIMASZ
 40
0.18
  9
$DIMEXO
 40
0.0625
  9
$DIMDLI
 40
0.38
  9
$DIMRND
 40
0.0
  9
$DIMDLE
 40
0.0
  9
$DIMEXE
 40
0.18
  9
$DIMTP
 40
0.0
  9
$DIMTM
 40
0.0
  9
$DIMTXT
 40
0.18
  9
$DIMCEN
 40
0.09
  9
$DIMTSZ
 40
0.0
  9
$DIMTOL
 70
     0
  9
$DIMLIM
 70
     0
  9
$DIMTIH
 70
     1
  9
$DIMTOH
 70
     1
  9
$DIMSE1
 70
     0
  9
$DIMSE2
 70
     0
  9
$DIMTAD
 70
     0
  9
$DIMZIN
 70
     0
  9
$DIMBLK
  1

  9
$DIMASO
 70
     1
  9
$DIMSHO
 70
     1
  9
$DIMPOST
  1

  9
$DIMAPOST
  1

  9
$DIMALT
 70
     0
  9
$DIMALTD
 70
     2
  9
$DIMALTF
 40
25.4
  9
$DIMLFAC
 40
1.0
  9
$DIMTOFL
 70
     0
  9
$DIMTVP
 40
0.0
  9
$DIMTIX
 70
     0
  9
$DIMSOXD
 70
     0
  9
$DIMSAH
 70
     0
  9
$DIMBLK1
  1

  9
$DIMBLK2
  1

  9
$DIMSTYLE
  2
Standard
  9
$DIMCLRD
 70
     0
  9
$DIMCLRE
 70
     0
  9
$DIMCLRT
 70
     0
  9
$DIMTFAC
 40
1.0
  9
$DIMGAP
 40
0.09
  9
$DIMJUST
 70
     0
  9
$DIMSD1
 70
     0
  9
$DIMSD2
 70
     0
  9
$DIMTOLJ
 70
     1
  9
$DIMTZIN
 70
     0
  9
$DIMALTZ
 70
     0
  9
$DIMALTTZ
 70
     0
  9
$DIMUPT
 70
     0
  9
$DIMDEC
 70
     4
  9
$DIMTDEC
 70
     4
  9
$DIMALTU
 70
     2
  9
$DIMALTTD
 70
     2
  9
$DIMTXSTY
  7
Standard
  9
$DIMAUNIT
 70
     0
  9
$DIMADEC
 70
     0
  9
$DIMALTRND
 40
0.0
  9
$DIMAZIN
 70
     0
  9
$DIMDSEP
 70
    46
  9
$DIMATFIT
 70
     3
  9
$DIMFRAC
 70
     0
  9
$DIMLDRBLK
  1

  9
$DIMLUNIT
 70
     2
  9
$DIMLWD
 70
    -2
  9
$DIMLWE
 70
    -2
  9
$DIMTMOVE
 70
     0
  9
$DIMFXL
 40
1.0
  9
$DIMFXLON
 70
     0
  9
$DIMJOGANG
 40
0.7853981633974483
  9
$DIMTFILL
 70
     0
  9
$DIMTFILLCLR
 70
     0
  9
$DIMARCSYM
 70
     0
  9
$DIMLTYPE
  6

  9
$DIMLTEX1
  6

  9
$DIMLTEX2
  6

  9
$DIMTXTDIRECTION
 70
     0
  9
$LUNITS
 70
     2
  9
$LUPREC
 70
     4
  9
$SKETCHINC
 40
0.1
  9
$FILLETRAD
 40
0.5
  9
$AUNITS
 70
     0
  9
$AUPREC
 70
     0
  9
$MENU
  1
.
  9
$ELEVATION
 40
0.0
  9
$PELEVATION
 40
0.0
  9
$THICKNESS
 40
0.0
  9
$LIMCHECK
 70
     0
  9
$CHAMFERA
 40
0.0
  9
$CHAMFERB
 40
0.0
  9
$CHAMFERC
 40
0.0
  9
$CHAMFERD
 40
0.0
  9
$SKPOLY
 70
     0
  9
$TDCREATE
 40
2458168.994145729
  9
$TDUCREATE
 40
2458168.952479063
  9
$TDUPDATE
 40
2458168.994145903
  9
$TDUUPDATE
 40
2458168.952479236
  9
$TDINDWG
 40
0.0000000116
  9
$TDUSRTIMER
 40
0.0000000116
  9
$USRTIMER
 70
     1
  9
$ANGBASE
 50
0.0
  9
$ANGDIR
 70
     0
  9
$PDMODE
 70
     0
  9
$PDSIZE
 40
0.0
  9
$PLINEWID
 40
0.0
  9
$SPLFRAME
 70
     0
  9
$SPLINETYPE
 70
     6
  9
$SPLINESEGS
 70
     8
  9
$HANDSEED
  5
1FC
  9
$SURFTAB1
 70
     6
  9
$SURFTAB2
 70
     6
  9
$SURFTYPE
 70
     6
  9
$SURFU
 70
     6
  9
$SURFV
 70
     6
  9
$UCSBASE
  2

  9
$UCSNAME
  2

  9
$UCSORG
 10
0.0
 20
0.0
 30
0.0
  9
$UCSXDIR
 10
1.0
 20
0.0
 30
0.0
  9
$UCSYDIR
 10
0.0
 20
1.0
 30
0.0
  9
$UCSORTHOREF
  2

  9
$UCSORTHOVIEW
 70
     0
  9
$UCSORGTOP
 10
0.0
 20
0.0
 30
0.0
  9
$UCSORGBOTTOM
 10
0.0
 20
0.0
 30
0.0
  9
$UCSORGLEFT
 10
0.0
 20
0.0
 30
0.0
  9
$UCSORGRIGHT
 10
0.0
 20
0.0
 30
0.0
  9
$UCSORGFRONT
 10
0.0
 20
0.0
 30
0.0
  9
$UCSORGBACK
 10
0.0
 20
0.0
 30
0.0
  9
$PUCSBASE
  2

  9
$PUCSNAME
  2

  9
$PUCSORG
 10
0.0
 20
0.0
 30
0.0
  9
$PUCSXDIR
 10
1.0
 20
0.0
 30
0.0
  9
$PUCSYDIR
 10
0.0
 20
1.0
 30
0.0
  9
$PUCSORTHOREF
  2

  9
$PUCSORTHOVIEW
 70
     0
  9
$PUCSORGTOP
 10
0.0
 20
0.0
 30
0.0
  9
$PUCSORGBOTTOM
 10
0.0
 20
0.0
 30
0.0
  9
$PUCSORGLEFT
 10
0.0
 20
0.0
 30
0.0
  9
$PUCSORGRIGHT
 10
0.0
 20
0.0
 30
0.0
  9
$PUCSORGFRONT
 10
0.0
 20
0.0
 30
0.0
  9
$PUCSORGBACK
 10
0.0
 20
0.0
 30
0.0
  9
$USERI1
 70
     0
  9
$USERI2
 70
     0
  9
$USERI3
 70
     0
  9
$USERI4
 70
     0
  9
$USERI5
 70
     0
  9
$USERR1
 40
0.0
  9
$USERR2
 40
0.0
  9
$USERR3
 40
0.0
  9
$USERR4
 40
0.0
  9
$USERR5
 40
0.0
  9
$WORLDVIEW
 70
     1
  9
$SHADEDGE
 70
     3
  9
$SHADEDIF
 70
    70
  9
$TILEMODE
 70
     1
  9
$MAXACTVP
 70
    64
  9
$PINSBASE
 10
0.0
 20
0.0
 30
0.0
  9
$PLIMCHECK
 70
     0
  9
$PEXTMIN
 10
1.000000000000000E+20
 20
1.000000000000000E+20
 30
1.000000000000000E+20
  9
$PEXTMAX
 10
-1.000000000000000E+20
 20
-1.000000000000000E+20
 30
-1.000000000000000E+20
  9
$PLIMMIN
 10
0.0
 20
0.0
  9
$PLIMMAX
 10
12.0
 20
9.0
  9
$UNITMODE
 70
     0
  9
$VISRETAIN
 70
     1
  9
$PLINEGEN
 70
     0
  9
$PSLTSCALE
 70
     1
  9
$TREEDEPTH
 70
  3020
  9
$CMLSTYLE
  2
Standard
  9
$CMLJUST
 70
     0
  9
$CMLSCALE
 40
1.0
  9
$PROXYGRAPHICS
 70
     1
  9
$MEASUREMENT
 70
     0
  9
$CELWEIGHT
370
    -1
  9
$ENDCAPS
280
     0
  9
$JOINSTYLE
280
     0
  9
$LWDISPLAY
290
     0
  9
$INSUNITS
 70
     1
  9
$HYPERLINKBASE
  1

  9
$STYLESHEET
  1

  9
$XEDIT
290
     1
  9
$CEPSNTYPE
380
     0
  9
$PSTYLEMODE
290
     1
  9
$FINGERPRINTGUID
  2
{5146F8EB-1D79-4464-AF79-4BBD99A640CE}
  9
$VERSIONGUID
  2
{FAEB1C32-E019-11D5-929B-00C0DF256EC4}
  9
$EXTNAMES
290
     1
  9
$PSVPSCALE
 40
0.0
  9
$OLESTARTUP
290
     0
  9
$SORTENTS
280
   127
  9
$INDEXCTL
280
     0
  9
$HIDETEXT
280
     1
  9
$XCLIPFRAME
280
     2
  9
$HALOGAP
280
     0
  9
$OBSCOLOR
 70
   257
  9
$OBSLTYPE
280
     0
  9
$INTERSECTIONDISPLAY
280
     0
  9
$INTERSECTIONCOLOR
 70
   257
  9
$DIMASSOC
280
     2
  9
$PROJECTNAME
  1

  9
$CAMERADISPLAY
290
     0
  9
$LENSLENGTH
 40
50.0
  9
$CAMERAHEIGHT
 40
0.0
  9
$STEPSPERSEC
 40
2.0
  9
$STEPSIZE
 40
6.0
  9
$3DDWFPREC
 40
2.0
  9
$PSOLWIDTH
 40
0.25
  9
$PSOLHEIGHT
 40
4.0
  9
$LOFTANG1
 40
1.570796326794897
  9
$LOFTANG2
 40
1.570796326794897
  9
$LOFTMAG1
 40
0.0
  9
$LOFTMAG2
 40
0.0
  9
$LOFTPARAM
 70
     7
  9
$LOFTNORMALS
280
     1
  9
$LATITUDE
 40
37.795
  9
$LONGITUDE
 40
-122.394
  9
$NORTHDIRECTION
 40
0.0
  9
$TIMEZONE
 70
 -8000
  9
$LIGHTGLYPHDISPLAY
280
     1
  9
$TILEMODELIGHTSYNCH
280
     1
  9
$CMATERIAL
347
44
  9
$SOLIDHIST
280
     0
  9
$SHOWHIST
280
     1
  9
$DWFFRAME
280
     2
  9
$DGNFRAME
280
     2
  9
$REALWORLDSCALE
290
     1
  9
$INTERFERECOLOR
 62
   256
  9
$CSHADOW
280
     0
  9
$SHADOWPLANELOCATION
 40
0.0
  0
ENDSEC
  0
SECTION
  2
CLASSES
  0
CLASS
  1
ACDBDICTIONARYWDFLT
  2
AcDbDictionaryWithDefault
  3
ObjectDBX Classes
 90
        0
 91
        4
280
     0
281
     0
  0
CLASS
  1
VISUALSTYLE
  2
AcDbVisualStyle
  3
ObjectDBX Classes
 90
     4095
 91
        4
280
     0
281
     0
  0
CLASS
  1
MATERIAL
  2
AcDbMaterial
  3
ObjectDBX Classes
 90
     1153
 91
        4
280
     0
281
     0
  0
CLASS
  1
SCALE
  2
AcDbScale
  3
ObjectDBX Classes
 90
     1153
 91
        4
280
     0
281
     0
  0
CLASS
  1
TABLESTYLE
  2
AcDbTableStyle
  3
ObjectDBX Classes
 90
     4095
 91
        4
280
     0
281
     0
  0
CLASS
  1
MLEADERSTYLE
  2
AcDbMLeaderStyle
  3
ACDB_MLEADERSTYLE_CLASS
 90
     4095
 91
        4
280
     0
281
     0
  0
CLASS
  1
SUN
  2
AcDbSun
  3
SCENEOE
 90
     1153
 91
        4
280
     0
281
     0
  0
CLASS
  1
DICTIONARYVAR
  2
AcDbDictionaryVar
  3
ObjectDBX Classes
 90
        0
 91
        4
280
     0
281
     0
  0
CLASS
  1
CELLSTYLEMAP
  2
AcDbCellStyleMap
  3
ObjectDBX Classes
 90
     1152
 91
        4
280
     0
281
     0
  0
ENDSEC
  0
SECTION
  2
TABLES
  0
TABLE
  2
VPORT
  5
8
330
0
100
AcDbSymbolTable
 70
     1
  0
VPORT
  5
29
330
8
100
AcDbSymbolTableRecord
100
AcDbViewportTableRecord
  2
*Active
 70
     0
 10
0.0
 20
0.0
 11
1.0
 21
1.0
 12
0.0
 22
0.0322280336872574
 13
0.0
 23
0.0
 14
0.5
 24
0.5
 15
0.5
 25
0.5
 16
0.0
 26
0.0
 36
1.0
 17
0.0
 27
0.0
 37
0.0
 40
4.779254811277995
 41
1.173823163134476
 42
50.0
 43
0.0
 44
0.0
 50
0.0
 51
0.0
 71
     0
 72
   100
 73
     1
 74
     3
 75
     0
 76
     0
 77
     0
 78
     0
281
     0
 65
     1
110
0.0
120
0.0
130
0.0
111
1.0
121
0.0
131
0.0
112
0.0
122
1.0
132
0.0
 79
     0
146
0.0
348
2F
 60
     3
 61
     5
292
     1
282
     1
141
0.0
142
0.0
 63
   250
361
6D
  0
ENDTAB
  0
TABLE
  2
LTYPE
  5
5
330
0
100
AcDbSymbolTable
 70
     3
  0
LTYPE
  5
14
330
5
100
AcDbSymbolTableRecord
100
AcDbLinetypeTableRecord
  2
ByBlock
 70
     0
  3

 72
    65
 73
     0
 40
0.0
  0
LTYPE
  5
15
330
5
100
AcDbSymbolTableRecord
100
AcDbLinetypeTableRecord
  2
ByLayer
 70
     0
  3

 72
    65
 73
     0
 40
0.0
  0
LTYPE
  5
16
330
5
100
AcDbSymbolTableRecord
100
AcDbLinetypeTableRecord
  2
Continuous
 70
     0
  3
Solid line
 72
    65
 73
     0
 40
0.0
  0
LTYPE
  5
9E
330
5
100
AcDbSymbolTableRecord
100
AcDbLinetypeTableRecord
  2
Dashed
 70
     0
  3

 72
    65
 73
     2
 40
2.0
 49
1.0
 74
     0
 49
-1.0
 74
     0
  0
LTYPE
  5
A9
330
5
100
AcDbSymbolTableRecord
100
AcDbLinetypeTableRecord
  2
Center
 70
     0
  3

 72
    65
 73
     4
 40
1.5
 49
0.45
 74
     0
 49
-0.5
 74
     0
 49
0.05
 74
     0
 49
-0.5
 74
     0
  0
ENDTAB
  0
TABLE
  2
LAYER
  5
2
330
0
100
AcDbSymbolTable
 70
     7
  0
LAYER
  5
10
330
2
100
AcDbSymbolTableRecord
100
AcDbLayerTableRecord
  2
0
 70
     0
 62
     7
  6
Continuous
370
    -3
390
F
347
46
348
0
  0
LAYER
  5
72
330
2
100
AcDbSymbolTableRecord
100
AcDbLayerTableRecord
  2
AM_6
 70
     0
 62
    -2
  6
Continuous
370
    35
390
F
347
46
348
0
  0
LAYER
  5
9F
330
2
100
AcDbSymbolTableRecord
100
AcDbLayerTableRecord
  2
AM_9
 70
     0
 62
     6
  6
Dashed
370
    25
390
F
347
46
348
0
  0
LAYER
  5
AA
330
2
100
AcDbSymbolTableRecord
100
AcDbLayerTableRecord
  2
AM_7
 70
     0
 62
     7
  6
Center
370
    25
390
F
347
46
348
0
  0
LAYER
  5
AD
330
2
100
AcDbSymbolTableRecord
100
AcDbLayerTableRecord
  2
AM_4
 70
     0
 62
     3
  6
Continuous
370
    25
390
F
347
46
348
0
  0
LAYER
  5
DD
330
2
100
AcDbSymbolTableRecord
100
AcDbLayerTableRecord
  2
AM_5
 70
     0
 62
     3
  6
Continuous
370
    25
390
F
347
46
348
0
  0
LAYER
  5
1EE
330
2
100
AcDbSymbolTableRecord
100
AcDbLayerTableRecord
  2
ConnectionPoints
 70
     0
 62
     7
  6
Continuous
370
    50
390
F
347
46
348
0
  0
ENDTAB
  0
TABLE
  2
STYLE
  5
3
330
0
100
AcDbSymbolTable
 70
     1
  0
STYLE
  5
11
330
3
100
AcDbSymbolTableRecord
100
AcDbTextStyleTableRecord
  2
Standard
 70
     0
 40
0.0
 41
1.0
 50
0.0
 71
     0
 42
0.2
  3
txt
  4

  0
ENDTAB
  0
TABLE
  2
VIEW
  5
6
330
0
100
AcDbSymbolTable
 70
     0
  0
ENDTAB
  0
TABLE
  2
UCS
  5
7
330
0
100
AcDbSymbolTable
 70
     0
  0
ENDTAB
  0
TABLE
  2
APPID
  5
9
330
0
100
AcDbSymbolTable
 70
     1
  0
APPID
  5
12
330
9
100
AcDbSymbolTableRecord
100
AcDbRegAppTableRecord
  2
ACAD
 70
     0
  0
ENDTAB
  0
TABLE
  2
DIMSTYLE
  5
A
330
0
100
AcDbSymbolTable
 70
     1
100
AcDbDimStyleTable
  0
DIMSTYLE
105
27
330
A
100
AcDbSymbolTableRecord
100
AcDbDimStyleTableRecord
  2
Standard
 70
     0
178
     0
340
11
  0
ENDTAB
  0
TABLE
  2
BLOCK_RECORD
  5
1
330
0
100
AcDbSymbolTable
 70
     5
  0
BLOCK_RECORD
  5
1F
330
1
100
AcDbSymbolTableRecord
100
AcDbBlockTableRecord
  2
*Model_Space
340
22
 70
     0
280
     1
281
     0
  0
BLOCK_RECORD
  5
1B
330
1
100
AcDbSymbolTableRecord
100
AcDbBlockTableRecord
  2
*Paper_Space
340
1E
 70
     0
280
     1
281
     0
  0
BLOCK_RECORD
  5
23
330
1
100
AcDbSymbolTableRecord
100
AcDbBlockTableRecord
  2
*Paper_Space0
340
26
 70
     0
280
     1
281
     0
  0
BLOCK_RECORD
  5
6E
330
1
100
AcDbSymbolTableRecord
100
AcDbBlockTableRecord
  2
1_129290_0
340
0
102
{BLKREFS
331
6F
102
}
 70
     0
280
     1
281
     0
  0
BLOCK_RECORD
  5
88
330
1
100
AcDbSymbolTableRecord
100
AcDbBlockTableRecord
  2
2_129523I_0_in_129290_0
340
0
102
{BLKREFS
331
89
102
}
 70
     0
280
     1
281
     0
  0
BLOCK_RECORD
  5
B6
330
1
100
AcDbSymbolTableRecord
100
AcDbBlockTableRecord
  2
3_129919_0_in_129290_0
340
0
102
{BLKREFS
331
B7
102
}
 70
     0
280
     1
281
     0
  0
BLOCK_RECORD
  5
F6
330
1
100
AcDbSymbolTableRecord
100
AcDbBlockTableRecord
  2
4_129463I_0_in_129290_0
340
0
102
{BLKREFS
331
F7
102
}
 70
     0
280
     1
281
     0
  0
ENDTAB
  0
ENDSEC
  0
SECTION
  2
BLOCKS
  0
BLOCK
  5
20
330
1F
100
AcDbEntity
  8
0
100
AcDbBlockBegin
  2
*Model_Space
 70
     0
 10
0.0
 20
0.0
 30
0.0
  3
*Model_Space
  1

  0
ENDBLK
  5
21
330
1F
100
AcDbEntity
  8
0
100
AcDbBlockEnd
  0
BLOCK
  5
1C
330
1B
100
AcDbEntity
 67
     1
  8
0
100
AcDbBlockBegin
  2
*Paper_Space
 70
     0
 10
0.0
 20
0.0
 30
0.0
  3
*Paper_Space
  1

  0
ENDBLK
  5
1D
330
1B
100
AcDbEntity
 67
     1
  8
0
100
AcDbBlockEnd
  0
BLOCK
  5
24
330
23
100
AcDbEntity
  8
0
100
AcDbBlockBegin
  2
*Paper_Space0
 70
     0
 10
0.0
 20
0.0
 30
0.0
  3
*Paper_Space0
  1

  0
ENDBLK
  5
25
330
23
100
AcDbEntity
  8
0
100
AcDbBlockEnd
  0
BLOCK
  5
70
330
6E
100
AcDbEntity
  8
0
100
AcDbBlockBegin
  2
1_129290_0
 70
     2
 10
0.0
 20
0.0
 30
0.0
  3
1_129290_0
  1

  0
ATTDEF
  5
73
330
6E
100
AcDbEntity
  8
AM_6
100
AcDbText
 10
7.750000000000001
 20
2.375
 30
0.0
 40
0.5
  1
Grip Tight Tapped Base Inch Bore
100
AcDbAttributeDefinition
  3

  2
NN
 70
     8
280
     0
  0
ATTDEF
  5
74
330
6E
100
AcDbEntity
  8
AM_6
100
AcDbText
 10
7.750000000000001
 20
1.875
 30
0.0
 40
0.5
  1
GT Normal Duty Tapped Base Pillow Blocks
100
AcDbAttributeDefinition
  3

  2
NT
 70
     8
280
     0
  0
ATTDEF
  5
75
330
6E
100
AcDbEntity
  8
AM_6
100
AcDbText
 10
7.750000000000001
 20
1.375
 30
0.0
 40
0.5
  1
129290
100
AcDbAttributeDefinition
  3

  2
NB
 70
     8
280
     0
  0
ATTDEF
  5
76
330
6E
100
AcDbEntity
  8
AM_6
100
AcDbText
 10
7.750000000000001
 20
0.875
 30
0.0
 40
0.5
  1
$PN.$LUBE.
100
AcDbAttributeDefinition
  3

  2
NBSYN
 70
     8
280
     0
  0
ATTDEF
  5
77
330
6E
100
AcDbEntity
  8
AM_6
100
AcDbText
 10
7.750000000000001
 20
0.375
 30
0.0
 40
0.5
  1
129290
100
AcDbAttributeDefinition
  3

  2
LINA
 70
     8
280
     0
  0
ATTDEF
  5
78
330
6E
100
AcDbEntity
  8
AM_6
100
AcDbText
 10
7.750000000000001
 20
-0.125
 30
0.0
 40
0.5
  1
210
100
AcDbAttributeDefinition
  3

  2
SERIES
 70
     8
280
     0
  0
ATTDEF
  5
79
330
6E
100
AcDbEntity
  8
AM_6
100
AcDbText
 10
7.750000000000001
 20
-0.625
 30
0.0
 40
0.5
  1
2
100
AcDbAttributeDefinition
  3

  2
SS
 70
     8
280
     0
  0
ATTDEF
  5
7A
330
6E
100
AcDbEntity
  8
AM_6
100
AcDbText
 10
7.750000000000001
 20
-1.125
 30
0.0
 40
0.5
  1
129290
100
AcDbAttributeDefinition
  3

  2
PN
 70
     8
280
     0
  0
ATTDEF
  5
7B
330
6E
100
AcDbEntity
  8
AM_6
100
AcDbText
 10
7.750000000000001
 20
-1.625
 30
0.0
 40
0.5
  1
TB-GT-200
100
AcDbAttributeDefinition
  3

  2
DESCRIPTION
 70
     8
280
     0
  0
ATTDEF
  5
7C
330
6E
100
AcDbEntity
  8
AM_6
100
AcDbText
 10
7.750000000000001
 20
-2.125
 30
0.0
 40
0.5
  1
1-55/64
100
AcDbAttributeDefinition
  3

  2
A
 70
     8
280
     0
  0
ATTDEF
  5
7D
330
6E
100
AcDbEntity
  8
AM_6
100
AcDbText
 10
7.750000000000001
 20
-2.625
 30
0.0
 40
0.5
  1
5-1/2
100
AcDbAttributeDefinition
  3

  2
B
 70
     8
280
     0
  0
ATTDEF
  5
7E
330
6E
100
AcDbEntity
  8
AM_6
100
AcDbText
 10
7.750000000000001
 20
-3.125
 30
0.0
 40
0.5
  1
2
100
AcDbAttributeDefinition
  3

  2
C
 70
     8
280
     0
  0
ATTDEF
  5
7F
330
6E
100
AcDbEntity
  8
AM_6
100
AcDbText
 10
7.750000000000001
 20
-3.625
 30
0.0
 40
0.5
  1
4
100
AcDbAttributeDefinition
  3

  2
D
 70
     8
280
     0
  0
ATTDEF
  5
80
330
6E
100
AcDbEntity
  8
AM_6
100
AcDbText
 10
7.750000000000001
 20
-4.125
 30
0.0
 40
0.5
  1
4-5/8
100
AcDbAttributeDefinition
  3

  2
J
 70
     8
280
     0
  0
ATTDEF
  5
81
330
6E
100
AcDbEntity
  8
AM_6
100
AcDbText
 10
7.750000000000001
 20
-4.625
 30
0.0
 40
0.5
  1
2-15/16
100
AcDbAttributeDefinition
  3

  2
L
 70
     8
280
     0
  0
ATTDEF
  5
82
330
6E
100
AcDbEntity
  8
AM_6
100
AcDbText
 10
7.750000000000001
 20
-5.125
 30
0.0
 40
0.5
  1
2-1/4
100
AcDbAttributeDefinition
  3

  2
M
 70
     8
280
     0
  0
ATTDEF
  5
83
330
6E
100
AcDbEntity
  8
AM_6
100
AcDbText
 10
7.750000000000001
 20
-5.625
 30
0.0
 40
0.5
  1
7/8
100
AcDbAttributeDefinition
  3

  2
N
 70
     8
280
     0
  0
ATTDEF
  5
84
330
6E
100
AcDbEntity
  8
AM_6
100
AcDbText
 10
7.750000000000001
 20
-6.125
 30
0.0
 40
0.5
  1
5/8-11
100
AcDbAttributeDefinition
  3

  2
R
 70
     8
280
     0
  0
ATTDEF
  5
85
330
6E
100
AcDbEntity
  8
AM_6
100
AcDbText
 10
7.750000000000001
 20
-6.625
 30
0.0
 40
0.5
  1
1-13/64
100
AcDbAttributeDefinition
  3

  2
S
 70
     8
280
     0
  0
ATTDEF
  5
86
330
6E
100
AcDbEntity
  8
AM_6
100
AcDbText
 10
7.750000000000001
 20
-7.125
 30
0.0
 40
0.5
  1
1-5/32
100
AcDbAttributeDefinition
  3

  2
Z
 70
     8
280
     0
  0
ATTDEF
  5
87
330
6E
100
AcDbEntity
  8
AM_6
100
AcDbText
 10
7.750000000000001
 20
-7.625
 30
0.0
 40
0.5
  1
baldor
100
AcDbAttributeDefinition
  3

  2
COMPANY
 70
     8
280
     0
  0
INSERT
  5
89
330
6E
100
AcDbEntity
  8
0
100
AcDbBlockReference
  2
2_129523I_0_in_129290_0
 10
0.0
 20
0.0
 30
0.0
  0
INSERT
  5
B7
330
6E
100
AcDbEntity
  8
0
100
AcDbBlockReference
  2
3_129919_0_in_129290_0
 10
0.0
 20
0.0
 30
0.0
  0
INSERT
  5
F7
330
6E
100
AcDbEntity
  8
0
100
AcDbBlockReference
  2
4_129463I_0_in_129290_0
 10
0.0
 20
0.0
 30
0.0
  0
ENDBLK
  5
71
330
6E
100
AcDbEntity
  8
0
100
AcDbBlockEnd
  0
BLOCK
  5
8A
330
88
100
AcDbEntity
  8
0
100
AcDbBlockBegin
  2
2_129523I_0_in_129290_0
 70
     2
 10
0.0
 20
0.0
 30
0.0
  3
2_129523I_0_in_129290_0
  1

  0
ATTDEF
  5
8C
330
88
100
AcDbEntity
  8
AM_6
100
AcDbText
 10
6.842853555340238
 20
1.842853555340237
 30
0.0
 40
0.5
  1
INS-GT B
100
AcDbAttributeDefinition
  3

  2
NN
 70
     8
280
     0
  0
ATTDEF
  5
8D
330
88
100
AcDbEntity
  8
AM_6
100
AcDbText
 10
6.842853555340238
 20
1.342853555340237
 30
0.0
 40
0.5
  1
GT Normal Duty Bearing Inserts
100
AcDbAttributeDefinition
  3

  2
NT
 70
     8
280
     0
  0
ATTDEF
  5
8E
330
88
100
AcDbEntity
  8
AM_6
100
AcDbText
 10
6.842853555340238
 20
0.8428535553402374
 30
0.0
 40
0.5
  1
129523I
100
AcDbAttributeDefinition
  3

  2
NB
 70
     8
280
     0
  0
ATTDEF
  5
8F
330
88
100
AcDbEntity
  8
AM_6
100
AcDbText
 10
6.842853555340238
 20
0.3428535553402374
 30
0.0
 40
0.5
  1
$PN.I
100
AcDbAttributeDefinition
  3

  2
NBSYN
 70
     8
280
     0
  0
ATTDEF
  5
90
330
88
100
AcDbEntity
  8
AM_6
100
AcDbText
 10
6.842853555340238
 20
-0.1571464446597626
 30
0.0
 40
0.5
  1
129523
100
AcDbAttributeDefinition
  3

  2
LINA
 70
     8
280
     0
  0
ATTDEF
  5
91
330
88
100
AcDbEntity
  8
AM_6
100
AcDbText
 10
6.842853555340238
 20
-0.6571464446597626
 30
0.0
 40
0.5
  1
210
100
AcDbAttributeDefinition
  3

  2
SERIES
 70
     8
280
     0
  0
ATTDEF
  5
92
330
88
100
AcDbEntity
  8
AM_6
100
AcDbText
 10
6.842853555340238
 20
-1.157146444659763
 30
0.0
 40
0.5
  1
129523
100
AcDbAttributeDefinition
  3

  2
PN
 70
     8
280
     0
  0
ATTDEF
  5
93
330
88
100
AcDbEntity
  8
AM_6
100
AcDbText
 10
6.842853555340238
 20
-1.657146444659763
 30
0.0
 40
0.5
  1
INS-GT-10
100
AcDbAttributeDefinition
  3

  2
DESCRIPTION
 70
     8
280
     0
  0
ATTDEF
  5
94
330
88
100
AcDbEntity
  8
AM_6
100
AcDbText
 10
6.842853555340238
 20
-2.157146444659762
 30
0.0
 40
0.5
  1
1.86
100
AcDbAttributeDefinition
  3

  2
A
 70
     8
280
     0
  0
ATTDEF
  5
95
330
88
100
AcDbEntity
  8
AM_6
100
AcDbText
 10
6.842853555340238
 20
-2.657146444659762
 30
0.0
 40
0.5
  1
0.87
100
AcDbAttributeDefinition
  3

  2
C
 70
     8
280
     0
  0
ATTDEF
  5
96
330
88
100
AcDbEntity
  8
AM_6
100
AcDbText
 10
6.842853555340238
 20
-3.157146444659762
 30
0.0
 40
0.5
  1
3.5433
100
AcDbAttributeDefinition
  3

  2
D
 70
     8
280
     0
  0
ATTDEF
  5
97
330
88
100
AcDbEntity
  8
AM_6
100
AcDbText
 10
6.842853555340238
 20
-3.657146444659762
 30
0.0
 40
0.5
  1
0.25
100
AcDbAttributeDefinition
  3

  2
J
 70
     8
280
     0
  0
ATTDEF
  5
98
330
88
100
AcDbEntity
  8
AM_6
100
AcDbText
 10
6.842853555340238
 20
-4.157146444659762
 30
0.0
 40
0.5
  1
3.13
100
AcDbAttributeDefinition
  3

  2
L
 70
     8
280
     0
  0
ATTDEF
  5
99
330
88
100
AcDbEntity
  8
AM_6
100
AcDbText
 10
6.842853555340238
 20
-4.657146444659762
 30
0.0
 40
0.5
  1
#10 - 32 x 1/4
100
AcDbAttributeDefinition
  3

  2
N
 70
     8
280
     0
  0
ATTDEF
  5
9A
330
88
100
AcDbEntity
  8
AM_6
100
AcDbText
 10
6.842853555340238
 20
-5.157146444659762
 30
0.0
 40
0.5
  1
0.63000
100
AcDbAttributeDefinition
  3

  2
W
 70
     8
280
     0
  0
ATTDEF
  5
9B
330
88
100
AcDbEntity
  8
AM_6
100
AcDbText
 10
6.842853555340238
 20
-5.657146444659762
 30
0.0
 40
0.5
  1
1.26
100
AcDbAttributeDefinition
  3

  2
X
 70
     8
280
     0
  0
ATTDEF
  5
9C
330
88
100
AcDbEntity
  8
AM_6
100
AcDbText
 10
6.842853555340238
 20
-6.157146444659762
 30
0.0
 40
0.5
  1
1.23
100
AcDbAttributeDefinition
  3

  2
Y
 70
     8
280
     0
  0
ATTDEF
  5
9D
330
88
100
AcDbEntity
  8
AM_6
100
AcDbText
 10
6.842853555340238
 20
-6.657146444659762
 30
0.0
 40
0.5
  1
baldor
100
AcDbAttributeDefinition
  3

  2
COMPANY
 70
     8
280
     0
  0
CIRCLE
  5
A0
330
88
100
AcDbEntity
  8
AM_9
100
AcDbCircle
 10
0.0
 20
0.0
 30
0.0
 40
1.203839705057619
  0
CIRCLE
  5
A1
330
88
100
AcDbEntity
  8
AM_9
100
AcDbCircle
 10
0.0
 20
0.0
 30
0.0
 40
1.68465
  0
CIRCLE
  5
A2
330
88
100
AcDbEntity
  8
AM_9
100
AcDbCircle
 10
0.0
 20
0.0
 30
0.0
 40
1.719659545833585
  0
CIRCLE
  5
A3
330
88
100
AcDbEntity
  8
AM_9
100
AcDbCircle
 10
0.0
 20
0.0
 30
0.0
 40
1.279325352111111
  0
ARC
  5
A4
330
88
100
AcDbEntity
  8
AM_9
100
AcDbCircle
 10
-0.0000000000000002
 20
-0.0000000000000007
 30
0.0
 40
1.391111111111111
100
AcDbArc
 50
5.113983158837613
 51
114.8860168411624
  0
ARC
  5
A5
330
88
100
AcDbEntity
  8
AM_9
100
AcDbCircle
 10
0.0
 20
0.0000000000000002
 30
0.0
 40
1.391111111111111
100
AcDbArc
 50
125.1139831588377
 51
234.8860168411624
  0
ARC
  5
A6
330
88
100
AcDbEntity
  8
AM_9
100
AcDbCircle
 10
0.0000000000000003
 20
-0.0000000000000004
 30
0.0
 40
1.391111111111111
100
AcDbArc
 50
245.1139831588376
 51
354.8860168411624
  0
CIRCLE
  5
A7
330
88
100
AcDbEntity
  8
AM_9
100
AcDbCircle
 10
0.0
 20
0.0
 30
0.0
 40
1.167539593111111
  0
CIRCLE
  5
A8
330
88
100
AcDbEntity
  8
AM_9
100
AcDbCircle
 10
0.0
 20
0.0
 30
0.0
 40
1.356311111111111
  0
LINE
  5
AB
330
88
100
AcDbEntity
  8
AM_7
100
AcDbLine
 10
-1.842853555340237
 20
0.0
 30
0.0
 11
1.842853555340237
 21
0.0
 31
0.0
  0
LINE
  5
AC
330
88
100
AcDbEntity
  8
AM_7
100
AcDbLine
 10
0.0
 20
-1.842853555340237
 30
0.0
 11
0.0
 21
1.842853555340237
 31
0.0
  0
CIRCLE
  5
AE
330
88
100
AcDbEntity
  8
AM_4
100
AcDbCircle
 10
0.0
 20
0.0
 30
0.0
 40
1.746525942539095
  0
CIRCLE
  5
AF
330
88
100
AcDbEntity
  8
AM_4
100
AcDbCircle
 10
0.0
 20
0.0
 30
0.0
 40
1.755098624133559
  0
CIRCLE
  5
B0
330
88
100
AcDbEntity
  8
AM_4
100
AcDbCircle
 10
0.0
 20
0.0
 30
0.0
 40
1.728023961504525
  0
CIRCLE
  5
B1
330
88
100
AcDbEntity
  8
AM_4
100
AcDbCircle
 10
0.0
 20
0.0
 30
0.0
 40
1.693584308300557
  0
CIRCLE
  5
B2
330
88
100
AcDbEntity
  8
AM_4
100
AcDbCircle
 10
0.0
 20
0.0
 30
0.0
 40
1.661186329583617
  0
ARC
  5
B3
330
88
100
AcDbEntity
  8
AM_4
100
AcDbCircle
 10
0.0000000000000063
 20
-0.0000000000000104
 30
0.0
 40
1.391111111111123
100
AcDbArc
 50
114.8860168411625
 51
125.1139831588376
  0
ARC
  5
B4
330
88
100
AcDbEntity
  8
AM_4
100
AcDbCircle
 10
0.0000000000000031
 20
0.0000000000000064
 30
0.0
 40
1.391111111111118
100
AcDbArc
 50
234.8860168411624
 51
245.1139831588376
  0
ARC
  5
B5
330
88
100
AcDbEntity
  8
AM_4
100
AcDbCircle
 10
-0.0000000000000375
 20
0.0
 30
0.0
 40
1.391111111111148
100
AcDbArc
 50
354.8860168411625
 51
5.113983158837469
  0
ENDBLK
  5
8B
330
88
100
AcDbEntity
  8
0
100
AcDbBlockEnd
  0
BLOCK
  5
B8
330
B6
100
AcDbEntity
  8
0
100
AcDbBlockBegin
  2
3_129919_0_in_129290_0
 70
     2
 10
0.0
 20
0.0
 30
0.0
  3
3_129919_0_in_129290_0
  1

  0
ATTDEF
  5
BA
330
B6
100
AcDbEntity
  8
AM_6
100
AcDbText
 10
6.463506256392503
 20
1.468440791986326
 30
0.0
 40
0.5
  1
Grip Tight Normal Duty Adapter and Nut Inch Bore
100
AcDbAttributeDefinition
  3

  2
NN
 70
     8
280
     0
  0
ATTDEF
  5
BB
330
B6
100
AcDbEntity
  8
AM_6
100
AcDbText
 10
6.463506256392503
 20
0.9684407919863256
 30
0.0
 40
0.5
  1
GT and GTM Adapter & Lock Nut Assemblies
100
AcDbAttributeDefinition
  3

  2
NT
 70
     8
280
     0
  0
ATTDEF
  5
BC
330
B6
100
AcDbEntity
  8
AM_6
100
AcDbText
 10
6.463506256392503
 20
0.4684407919863256
 30
0.0
 40
0.5
  1
129919
100
AcDbAttributeDefinition
  3

  2
NB
 70
     8
280
     0
  0
ATTDEF
  5
BD
330
B6
100
AcDbEntity
  8
AM_6
100
AcDbText
 10
6.463506256392503
 20
-0.0315592080136744
 30
0.0
 40
0.5
  1
$PN.
100
AcDbAttributeDefinition
  3

  2
NBSYN
 70
     8
280
     0
  0
ATTDEF
  5
BE
330
B6
100
AcDbEntity
  8
AM_6
100
AcDbText
 10
6.463506256392503
 20
-0.5315592080136744
 30
0.0
 40
0.5
  1
129919
100
AcDbAttributeDefinition
  3

  2
LINA
 70
     8
280
     0
  0
ATTDEF
  5
BF
330
B6
100
AcDbEntity
  8
AM_6
100
AcDbText
 10
6.463506256392503
 20
-1.031559208013674
 30
0.0
 40
0.5
  1
210
100
AcDbAttributeDefinition
  3

  2
SERIES
 70
     8
280
     0
  0
ATTDEF
  5
C0
330
B6
100
AcDbEntity
  8
AM_6
100
AcDbText
 10
6.463506256392503
 20
-1.531559208013674
 30
0.0
 40
0.5
  1
2
100
AcDbAttributeDefinition
  3

  2
SS
 70
     8
280
     0
  0
ATTDEF
  5
C1
330
B6
100
AcDbEntity
  8
AM_6
100
AcDbText
 10
6.463506256392503
 20
-2.031559208013674
 30
0.0
 40
0.5
  1
129919
100
AcDbAttributeDefinition
  3

  2
PN
 70
     8
280
     0
  0
ATTDEF
  5
C2
330
B6
100
AcDbEntity
  8
AM_6
100
AcDbText
 10
6.463506256392503
 20
-2.531559208013674
 30
0.0
 40
0.5
  1
AN-GT-10-200
100
AcDbAttributeDefinition
  3

  2
DESCRIPTION
 70
     8
280
     0
  0
ATTDEF
  5
C3
330
B6
100
AcDbEntity
  8
AM_6
100
AcDbText
 10
6.463506256392503
 20
-3.031559208013674
 30
0.0
 40
0.5
  1
1-55/64
100
AcDbAttributeDefinition
  3

  2
A
 70
     8
280
     0
  0
ATTDEF
  5
C4
330
B6
100
AcDbEntity
  8
AM_6
100
AcDbText
 10
6.463506256392503
 20
-3.531559208013674
 30
0.0
 40
0.5
  1
0.8661
100
AcDbAttributeDefinition
  3

  2
C
 70
     8
280
     0
  0
ATTDEF
  5
C5
330
B6
100
AcDbEntity
  8
AM_6
100
AcDbText
 10
6.463506256392503
 20
-4.031559208013674
 30
0.0
 40
0.5
  1
3.5433
100
AcDbAttributeDefinition
  3

  2
D
 70
     8
280
     0
  0
ATTDEF
  5
C6
330
B6
100
AcDbEntity
  8
AM_6
100
AcDbText
 10
6.463506256392503
 20
-4.531559208013674
 30
0.0
 40
0.5
  1
0.248
100
AcDbAttributeDefinition
  3

  2
J
 70
     8
280
     0
  0
ATTDEF
  5
C7
330
B6
100
AcDbEntity
  8
AM_6
100
AcDbText
 10
6.463506256392503
 20
-5.031559208013674
 30
0.0
 40
0.5
  1
2-15/16
100
AcDbAttributeDefinition
  3

  2
L
 70
     8
280
     0
  0
ATTDEF
  5
C8
330
B6
100
AcDbEntity
  8
AM_6
100
AcDbText
 10
6.463506256392503
 20
-5.531559208013674
 30
0.0
 40
0.5
  1
10 - 32 x 1/4
100
AcDbAttributeDefinition
  3

  2
N
 70
     8
280
     0
  0
ATTDEF
  5
C9
330
B6
100
AcDbEntity
  8
AM_6
100
AcDbText
 10
6.463506256392503
 20
-6.031559208013674
 30
0.0
 40
0.5
  1
21/32
100
AcDbAttributeDefinition
  3

  2
W
 70
     8
280
     0
  0
ATTDEF
  5
CA
330
B6
100
AcDbEntity
  8
AM_6
100
AcDbText
 10
6.463506256392503
 20
-6.531559208013674
 30
0.0
 40
0.5
  1
1-5/32
100
AcDbAttributeDefinition
  3

  2
X
 70
     8
280
     0
  0
ATTDEF
  5
CB
330
B6
100
AcDbEntity
  8
AM_6
100
AcDbText
 10
6.463506256392503
 20
-7.031559208013674
 30
0.0
 40
0.5
  1
1-13/64
100
AcDbAttributeDefinition
  3

  2
Y
 70
     8
280
     0
  0
ATTDEF
  5
CC
330
B6
100
AcDbEntity
  8
AM_6
100
AcDbText
 10
6.463506256392503
 20
-7.531559208013674
 30
0.0
 40
0.5
  1
baldor
100
AcDbAttributeDefinition
  3

  2
COMPANY
 70
     8
280
     0
  0
LINE
  5
CD
330
B6
100
AcDbEntity
  8
AM_9
100
AcDbLine
 10
-0.05
 20
1.095740483028169
 30
0.0
 11
-0.05
 21
1.132689278118078
 31
0.0
  0
LINE
  5
CE
330
B6
100
AcDbEntity
  8
AM_9
100
AcDbLine
 10
0.05
 20
1.095740483028169
 30
0.0
 11
0.05
 21
1.132689278118078
 31
0.0
  0
ARC
  5
CF
330
B6
100
AcDbEntity
  8
AM_9
100
AcDbCircle
 10
0.0
 20
0.0000000000000001
 30
0.0
 40
1.133792309359899
100
AcDbArc
 50
92.52755141749567
 51
87.47244858250434
  0
CIRCLE
  5
D0
330
B6
100
AcDbEntity
  8
AM_9
100
AcDbCircle
 10
0.0
 20
0.0
 30
0.0
 40
1.200644841269841
  0
CIRCLE
  5
D1
330
B6
100
AcDbEntity
  8
AM_9
100
AcDbCircle
 10
0.0
 20
0.0
 30
0.0
 40
1.305555555555557
  0
LINE
  5
D2
330
B6
100
AcDbEntity
  8
AM_9
100
AcDbLine
 10
-1.4462
 20
-0.0724499999999999
 30
0.0
 11
-1.1241125
 21
-0.0724499999999999
 31
0.0
  0
LINE
  5
D3
330
B6
100
AcDbEntity
  8
AM_9
100
AcDbLine
 10
-1.1241125
 20
0.0724499999999999
 30
0.0
 11
-1.4462
 21
0.0724499999999999
 31
0.0
  0
LINE
  5
D4
330
B6
100
AcDbEntity
  8
AM_9
100
AcDbLine
 10
-1.1241125
 20
-0.0724499999999999
 30
0.0
 11
-1.1015625
 21
-0.0949999999999999
 31
0.0
  0
LINE
  5
D5
330
B6
100
AcDbEntity
  8
AM_9
100
AcDbLine
 10
-1.1015625
 20
0.0949999999999999
 30
0.0
 11
-1.1241125
 21
0.0724499999999999
 31
0.0
  0
LINE
  5
D6
330
B6
100
AcDbEntity
  8
AM_9
100
AcDbLine
 10
-1.1015625
 20
0.0949999999999999
 30
0.0
 11
-1.1015625
 21
-0.0949999999999999
 31
0.0
  0
LINE
  5
D7
330
B6
100
AcDbEntity
  8
AM_9
100
AcDbLine
 10
-1.1241125
 20
0.0724499999999999
 30
0.0
 11
-1.1241125
 21
-0.0724499999999999
 31
0.0
  0
LINE
  5
D8
330
B6
100
AcDbEntity
  8
AM_9
100
AcDbLine
 10
-1.4462
 20
0.0724499999999999
 30
0.0
 11
-1.465457835103657
 21
0.091707835103657
 31
0.0
  0
LINE
  5
D9
330
B6
100
AcDbEntity
  8
AM_9
100
AcDbLine
 10
-1.4655890910051
 20
-0.0918390910051004
 30
0.0
 11
-1.4462
 21
-0.0724499999999999
 31
0.0
  0
LINE
  5
DA
330
B6
100
AcDbEntity
  8
AM_9
100
AcDbLine
 10
-1.4462
 20
0.0724499999999999
 30
0.0
 11
-1.4462
 21
-0.0724499999999999
 31
0.0
  0
LWPOLYLINE
  5
DB
330
B6
100
AcDbEntity
  8
AM_9
100
AcDbPolyline
 90
        6
 70
     0
 43
0.0
 10
-1.468185596154612
 20
0.0407138519932407
 10
-1.468070037255858
 20
0.0446870027142581
 10
-1.467168923284019
 20
0.0681315862842809
 10
-1.466310895316392
 20
0.0846104058401817
 10
-1.465871882133133
 20
0.0919031428813369
 10
-1.465858964457998
 20
0.0921089508035385
  0
LINE
  5
DC
330
B6
100
AcDbEntity
  8
AM_9
100
AcDbLine
 10
-1.465858964190464
 20
-0.0921089550611763
 30
0.0
 11
-1.466121770356075
 21
-0.0878266302892784
 31
0.0
  0
LINE
  5
DE
330
B6
100
AcDbEntity
  8
AM_5
100
AcDbLine
 10
-1.465674439464645
 20
-0.0949999999999999
 30
0.0
 11
-1.1015625
 21
-0.0949999999999999
 31
0.0
  0
LINE
  5
DF
330
B6
100
AcDbEntity
  8
AM_5
100
AcDbLine
 10
-1.465674439464645
 20
0.0949999999999999
 30
0.0
 11
-1.1015625
 21
0.0949999999999999
 31
0.0
  0
LINE
  5
E0
330
B6
100
AcDbEntity
  8
AM_4
100
AcDbLine
 10
-0.5780293922429813
 20
1.249176275633002
 30
0.0
 11
-0.6243659781269819
 21
1.32943359663337
 31
0.0
  0
LINE
  5
E1
330
B6
100
AcDbEntity
  8
AM_4
100
AcDbLine
 10
1.463506256392503
 20
0.124
 30
0.0
 11
1.370833084624502
 21
0.124
 31
0.0
  0
ARC
  5
E2
330
B6
100
AcDbEntity
  8
AM_4
100
AcDbCircle
 10
-0.0000000000000002
 20
-0.0000000000000002
 30
0.0
 40
1.46875
100
AcDbArc
 50
4.842991531200671
 51
115.1570084687994
  0
LINE
  5
E3
330
B6
100
AcDbEntity
  8
AM_4
100
AcDbLine
 10
-0.6243659781269811
 20
-1.32943359663337
 30
0.0
 11
-0.5780293922429806
 21
-1.249176275633002
 31
0.0
  0
LINE
  5
E4
330
B6
100
AcDbEntity
  8
AM_4
100
AcDbLine
 10
1.370833084624502
 20
-0.124
 30
0.0
 11
1.463506256392503
 21
-0.124
 31
0.0
  0
ARC
  5
E5
330
B6
100
AcDbEntity
  8
AM_4
100
AcDbCircle
 10
0.0
 20
0.0
 30
0.0
 40
1.46875
100
AcDbArc
 50
244.8429915312006
 51
355.1570084687994
  0
LINE
  5
E6
330
B6
100
AcDbEntity
  8
AM_4
100
AcDbLine
 10
-0.8391402782655228
 20
1.20543359663337
 30
0.0
 11
-0.7928036923815223
 21
1.125176275633002
 31
0.0
  0
LINE
  5
E7
330
B6
100
AcDbEntity
  8
AM_4
100
AcDbLine
 10
-0.7928036923815214
 20
-1.125176275633002
 30
0.0
 11
-0.8391402782655218
 21
-1.20543359663337
 31
0.0
  0
ARC
  5
E8
330
B6
100
AcDbEntity
  8
AM_4
100
AcDbCircle
 10
-0.0000000000000018
 20
0.0000000000000019
 30
0.0
 40
1.468749999999998
100
AcDbArc
 50
124.8429915312006
 51
178.449816597886
  0
LWPOLYLINE
  5
E9
330
B6
100
AcDbEntity
  8
AM_4
100
AcDbPolyline
 90
        4
 70
     0
 43
0.0
 10
-1.468212458137745
 20
0.0397333646840972
 10
-1.464926858289362
 20
0.0178422529703618
 10
-1.464171223759154
 20
-0.0052454682959433
 10
-1.468212458137745
 20
-0.0397333646840994
  0
ARC
  5
EA
330
B6
100
AcDbEntity
  8
AM_4
100
AcDbCircle
 10
0.0000000000000016
 20
0.0000000000000008
 30
0.0
 40
1.468750000000002
100
AcDbArc
 50
181.5501834021137
 51
235.1570084687994
  0
LINE
  5
EB
330
B6
100
AcDbEntity
  8
AM_4
100
AcDbLine
 10
-0.05
 20
0.9987492177719091
 30
0.0
 11
-0.05
 21
1.095734126984127
 31
0.0
  0
LINE
  5
EC
330
B6
100
AcDbEntity
  8
AM_4
100
AcDbLine
 10
0.05
 20
0.9987492177719091
 30
0.0
 11
0.05
 21
1.095734126984127
 31
0.0
  0
LINE
  5
ED
330
B6
100
AcDbEntity
  8
AM_4
100
AcDbLine
 10
-0.05
 20
1.095734126984127
 30
0.0
 11
0.05
 21
1.095734126984127
 31
0.0
  0
LINE
  5
EE
330
B6
100
AcDbEntity
  8
AM_4
100
AcDbLine
 10
-0.7928036923815223
 20
1.125176275633002
 30
0.0
 11
-0.5780293922429813
 21
1.249176275633002
 31
0.0
  0
LINE
  5
EF
330
B6
100
AcDbEntity
  8
AM_4
100
AcDbLine
 10
-0.5780293922429806
 20
-1.249176275633002
 30
0.0
 11
-0.7928036923815214
 21
-1.125176275633002
 31
0.0
  0
LINE
  5
F0
330
B6
100
AcDbEntity
  8
AM_4
100
AcDbLine
 10
1.370833084624502
 20
0.124
 30
0.0
 11
1.370833084624502
 21
-0.124
 31
0.0
  0
ARC
  5
F1
330
B6
100
AcDbEntity
  8
AM_4
100
AcDbCircle
 10
-0.0000000000000004
 20
-0.0000000000000006
 30
0.0
 40
1.434106000000001
100
AcDbArc
 50
4.960274372158683
 51
115.0397256278414
  0
ARC
  5
F2
330
B6
100
AcDbEntity
  8
AM_4
100
AcDbCircle
 10
-0.0000000000000011
 20
0.0000000000000001
 30
0.0
 40
1.434105999999999
100
AcDbArc
 50
124.9602743721586
 51
235.0397256278414
  0
ARC
  5
F3
330
B6
100
AcDbEntity
  8
AM_4
100
AcDbCircle
 10
-0.0000000000000001
 20
0.0
 30
0.0
 40
1.434106
100
AcDbArc
 50
244.9602743721586
 51
355.0397256278414
  0
ARC
  5
F4
330
B6
100
AcDbEntity
  8
AM_4
100
AcDbCircle
 10
0.0
 20
0.0
 30
0.0
 40
1.095734126984127
100
AcDbArc
 50
92.61540097321847
 51
87.38459902678153
  0
ARC
  5
F5
330
B6
100
AcDbEntity
  8
AM_4
100
AcDbCircle
 10
0.0
 20
0.0000000000000001
 30
0.0
 40
1.0
100
AcDbArc
 50
92.86598398259886
 51
87.13401601740115
  0
ENDBLK
  5
B9
330
B6
100
AcDbEntity
  8
0
100
AcDbBlockEnd
  0
BLOCK
  5
F8
330
F6
100
AcDbEntity
  8
0
100
AcDbBlockBegin
  2
4_129463I_0_in_129290_0
 70
     2
 10
0.0
 20
0.0
 30
0.0
  3
4_129463I_0_in_129290_0
  1

  0
ATTDEF
  5
FA
330
F6
100
AcDbEntity
  8
AM_6
100
AcDbText
 10
7.750000000000001
 20
2.375
 30
0.0
 40
0.5
  1
TB-GT-I
100
AcDbAttributeDefinition
  3

  2
NN
 70
     8
280
     0
  0
ATTDEF
  5
FB
330
F6
100
AcDbEntity
  8
AM_6
100
AcDbText
 10
7.750000000000001
 20
1.875
 30
0.0
 40
0.5
  1
GT Normal Duty Tapped Base Pillow Blocks
100
AcDbAttributeDefinition
  3

  2
NT
 70
     8
280
     0
  0
ATTDEF
  5
FC
330
F6
100
AcDbEntity
  8
AM_6
100
AcDbText
 10
7.750000000000001
 20
1.375
 30
0.0
 40
0.5
  1
129463I
100
AcDbAttributeDefinition
  3

  2
NB
 70
     8
280
     0
  0
ATTDEF
  5
FD
330
F6
100
AcDbEntity
  8
AM_6
100
AcDbText
 10
7.750000000000001
 20
0.875
 30
0.0
 40
0.5
  1
$PN.$LUBE.I
100
AcDbAttributeDefinition
  3

  2
NBSYN
 70
     8
280
     0
  0
ATTDEF
  5
FE
330
F6
100
AcDbEntity
  8
AM_6
100
AcDbText
 10
7.750000000000001
 20
0.375
 30
0.0
 40
0.5
  1
129463
100
AcDbAttributeDefinition
  3

  2
LINA
 70
     8
280
     0
  0
ATTDEF
  5
FF
330
F6
100
AcDbEntity
  8
AM_6
100
AcDbText
 10
7.750000000000001
 20
-0.125
 30
0.0
 40
0.5
  1
210
100
AcDbAttributeDefinition
  3

  2
SERIES
 70
     8
280
     0
  0
ATTDEF
  5
100
330
F6
100
AcDbEntity
  8
AM_6
100
AcDbText
 10
7.750000000000001
 20
-0.625
 30
0.0
 40
0.5
  1
129463
100
AcDbAttributeDefinition
  3

  2
PN
 70
     8
280
     0
  0
ATTDEF
  5
101
330
F6
100
AcDbEntity
  8
AM_6
100
AcDbText
 10
7.750000000000001
 20
-1.125
 30
0.0
 40
0.5
  1
TB-GT-10
100
AcDbAttributeDefinition
  3

  2
DESCRIPTION
 70
     8
280
     0
  0
ATTDEF
  5
102
330
F6
100
AcDbEntity
  8
AM_6
100
AcDbText
 10
7.750000000000001
 20
-1.625
 30
0.0
 40
0.5
  1
1-55/64
100
AcDbAttributeDefinition
  3

  2
A
 70
     8
280
     0
  0
ATTDEF
  5
103
330
F6
100
AcDbEntity
  8
AM_6
100
AcDbText
 10
7.750000000000001
 20
-2.125
 30
0.0
 40
0.5
  1
5-1/2
100
AcDbAttributeDefinition
  3

  2
B
 70
     8
280
     0
  0
ATTDEF
  5
104
330
F6
100
AcDbEntity
  8
AM_6
100
AcDbText
 10
7.750000000000001
 20
-2.625
 30
0.0
 40
0.5
  1
2
100
AcDbAttributeDefinition
  3

  2
C
 70
     8
280
     0
  0
ATTDEF
  5
105
330
F6
100
AcDbEntity
  8
AM_6
100
AcDbText
 10
7.750000000000001
 20
-3.125
 30
0.0
 40
0.5
  1
4
100
AcDbAttributeDefinition
  3

  2
D
 70
     8
280
     0
  0
ATTDEF
  5
106
330
F6
100
AcDbEntity
  8
AM_6
100
AcDbText
 10
7.750000000000001
 20
-3.625
 30
0.0
 40
0.5
  1
4-5/8
100
AcDbAttributeDefinition
  3

  2
J
 70
     8
280
     0
  0
ATTDEF
  5
107
330
F6
100
AcDbEntity
  8
AM_6
100
AcDbText
 10
7.750000000000001
 20
-4.125
 30
0.0
 40
0.5
  1
2-15/16
100
AcDbAttributeDefinition
  3

  2
L
 70
     8
280
     0
  0
ATTDEF
  5
108
330
F6
100
AcDbEntity
  8
AM_6
100
AcDbText
 10
7.750000000000001
 20
-4.625
 30
0.0
 40
0.5
  1
2-1/4
100
AcDbAttributeDefinition
  3

  2
M
 70
     8
280
     0
  0
ATTDEF
  5
109
330
F6
100
AcDbEntity
  8
AM_6
100
AcDbText
 10
7.750000000000001
 20
-5.125
 30
0.0
 40
0.5
  1
7/8
100
AcDbAttributeDefinition
  3

  2
N
 70
     8
280
     0
  0
ATTDEF
  5
10A
330
F6
100
AcDbEntity
  8
AM_6
100
AcDbText
 10
7.750000000000001
 20
-5.625
 30
0.0
 40
0.5
  1
5/8-11
100
AcDbAttributeDefinition
  3

  2
R
 70
     8
280
     0
  0
ATTDEF
  5
10B
330
F6
100
AcDbEntity
  8
AM_6
100
AcDbText
 10
7.750000000000001
 20
-6.125
 30
0.0
 40
0.5
  1
1-13/64
100
AcDbAttributeDefinition
  3

  2
S
 70
     8
280
     0
  0
ATTDEF
  5
10C
330
F6
100
AcDbEntity
  8
AM_6
100
AcDbText
 10
7.750000000000001
 20
-6.625
 30
0.0
 40
0.5
  1
1-5/32
100
AcDbAttributeDefinition
  3

  2
Z
 70
     8
280
     0
  0
ATTDEF
  5
10D
330
F6
100
AcDbEntity
  8
AM_6
100
AcDbText
 10
7.750000000000001
 20
-7.125
 30
0.0
 40
0.5
  1
baldor
100
AcDbAttributeDefinition
  3

  2
COMPANY
 70
     8
280
     0
  0
LINE
  5
10E
330
F6
100
AcDbEntity
  8
AM_9
100
AcDbLine
 10
2.0
 20
-1.039121347490306
 30
0.0
 11
1.72135
 21
-1.200000000000006
 31
0.0
  0
LINE
  5
10F
330
F6
100
AcDbEntity
  8
AM_9
100
AcDbLine
 10
2.27865
 20
-1.200000000000006
 30
0.0
 11
2.0
 21
-1.039121347490306
 31
0.0
  0
LINE
  5
110
330
F6
100
AcDbEntity
  8
AM_9
100
AcDbLine
 10
-2.0
 20
-1.039121347490311
 30
0.0
 11
-2.27865
 21
-1.2
 31
0.0
  0
LINE
  5
111
330
F6
100
AcDbEntity
  8
AM_9
100
AcDbLine
 10
-1.72135
 20
-1.2
 30
0.0
 11
-2.0
 21
-1.039121347490311
 31
0.0
  0
LINE
  5
112
330
F6
100
AcDbEntity
  8
AM_9
100
AcDbLine
 10
1.72135
 20
-1.200000000000006
 30
0.0
 11
2.27865
 21
-1.200000000000006
 31
0.0
  0
LINE
  5
113
330
F6
100
AcDbEntity
  8
AM_9
100
AcDbLine
 10
2.27865
 20
-2.216149999999998
 30
0.0
 11
2.27865
 21
-1.200000000000006
 31
0.0
  0
LINE
  5
114
330
F6
100
AcDbEntity
  8
AM_9
100
AcDbLine
 10
1.72135
 20
-1.200000000000006
 30
0.0
 11
1.72135
 21
-2.216149999999998
 31
0.0
  0
LINE
  5
115
330
F6
100
AcDbEntity
  8
AM_9
100
AcDbLine
 10
-2.27865
 20
-1.2
 30
0.0
 11
-2.27865
 21
-2.21615
 31
0.0
  0
LINE
  5
116
330
F6
100
AcDbEntity
  8
AM_9
100
AcDbLine
 10
-1.72135
 20
-2.21615
 30
0.0
 11
-1.72135
 21
-1.2
 31
0.0
  0
LINE
  5
117
330
F6
100
AcDbEntity
  8
AM_9
100
AcDbLine
 10
-1.72135
 20
-1.2
 30
0.0
 11
-2.27865
 21
-1.2
 31
0.0
  0
LINE
  5
118
330
F6
100
AcDbEntity
  8
AM_9
100
AcDbLine
 10
-2.27865
 20
-2.21615
 30
0.0
 11
-2.3125
 21
-2.25
 31
0.0
  0
LINE
  5
119
330
F6
100
AcDbEntity
  8
AM_9
100
AcDbLine
 10
-1.6875
 20
-2.25
 30
0.0
 11
-1.72135
 21
-2.21615
 31
0.0
  0
LINE
  5
11A
330
F6
100
AcDbEntity
  8
AM_9
100
AcDbLine
 10
-1.72135
 20
-2.21615
 30
0.0
 11
-2.27865
 21
-2.21615
 31
0.0
  0
LINE
  5
11B
330
F6
100
AcDbEntity
  8
AM_9
100
AcDbLine
 10
1.72135
 20
-2.216149999999998
 30
0.0
 11
2.27865
 21
-2.216149999999998
 31
0.0
  0
LINE
  5
11C
330
F6
100
AcDbEntity
  8
AM_9
100
AcDbLine
 10
1.72135
 20
-2.216149999999998
 30
0.0
 11
1.6875
 21
-2.25
 31
0.0
  0
LINE
  5
11D
330
F6
100
AcDbEntity
  8
AM_9
100
AcDbLine
 10
2.3125
 20
-2.25
 30
0.0
 11
2.27865
 21
-2.216149999999998
 31
0.0
  0
LINE
  5
11E
330
F6
100
AcDbEntity
  8
AM_5
100
AcDbLine
 10
-1.6875
 20
-2.25
 30
0.0
 11
-1.6875
 21
-1.375
 31
0.0
  0
LINE
  5
11F
330
F6
100
AcDbEntity
  8
AM_5
100
AcDbLine
 10
-1.6875
 20
-1.375
 30
0.0
 11
-2.3125
 21
-1.375
 31
0.0
  0
LINE
  5
120
330
F6
100
AcDbEntity
  8
AM_5
100
AcDbLine
 10
-1.6875
 20
-1.375
 30
0.0
 11
-1.72135
 21
-1.316370080163793
 31
0.0
  0
LINE
  5
121
330
F6
100
AcDbEntity
  8
AM_5
100
AcDbLine
 10
-2.3125
 20
-2.25
 30
0.0
 11
-2.3125
 21
-1.375
 31
0.0
  0
LINE
  5
122
330
F6
100
AcDbEntity
  8
AM_5
100
AcDbLine
 10
-2.3125
 20
-1.375
 30
0.0
 11
-2.27865
 21
-1.316370080163794
 31
0.0
  0
LINE
  5
123
330
F6
100
AcDbEntity
  8
AM_5
100
AcDbLine
 10
1.6875
 20
-2.25
 30
0.0
 11
1.6875
 21
-1.375
 31
0.0
  0
LINE
  5
124
330
F6
100
AcDbEntity
  8
AM_5
100
AcDbLine
 10
1.6875
 20
-1.375
 30
0.0
 11
2.3125
 21
-1.375
 31
0.0
  0
LINE
  5
125
330
F6
100
AcDbEntity
  8
AM_5
100
AcDbLine
 10
1.6875
 20
-1.375
 30
0.0
 11
1.72135
 21
-1.316370080163792
 31
0.0
  0
LINE
  5
126
330
F6
100
AcDbEntity
  8
AM_5
100
AcDbLine
 10
2.3125
 20
-2.25
 30
0.0
 11
2.3125
 21
-1.375
 31
0.0
  0
LINE
  5
127
330
F6
100
AcDbEntity
  8
AM_5
100
AcDbLine
 10
2.3125
 20
-1.375
 30
0.0
 11
2.27865
 21
-1.316370080163793
 31
0.0
  0
LINE
  5
128
330
F6
100
AcDbEntity
  8
AM_7
100
AcDbLine
 10
1.644730560908375
 20
1.644730560908374
 30
0.0
 11
2.045294735871072
 21
2.045294735871072
 31
0.0
  0
LINE
  5
129
330
F6
100
AcDbEntity
  8
AM_7
100
AcDbLine
 10
-2.0
 20
-0.9785774148648263
 30
0.0
 11
-2.0
 21
-2.310543932625484
 31
0.0
  0
LINE
  5
12A
330
F6
100
AcDbEntity
  8
AM_7
100
AcDbLine
 10
2.0
 20
-0.9785774148648211
 30
0.0
 11
2.0
 21
-2.310543932625485
 31
0.0
  0
LINE
  5
12B
330
F6
100
AcDbEntity
  8
AM_4
100
AcDbLine
 10
2.044117932359029
 20
1.964478621235383
 30
0.0
 11
1.964478626031794
 21
2.044117927562618
 31
0.0
  0
ARC
  5
12C
330
F6
100
AcDbEntity
  8
AM_4
100
AcDbCircle
 10
1.950559224247726
 20
2.030198535371375
 30
0.0
 40
0.019684999999998
100
AcDbArc
 50
44.99999999999589
 51
110.1794241971019
  0
ARC
  5
12D
330
F6
100
AcDbEntity
  8
AM_4
100
AcDbCircle
 10
2.030198535371375
 20
1.950559224247726
 30
0.0
 40
0.0196849999999975
100
AcDbArc
 50
339.8205758028977
 51
45.00000000000458
  0
LINE
  5
12E
330
F6
100
AcDbEntity
  8
AM_4
100
AcDbLine
 10
1.711990091528268
 20
1.823345550272236
 30
0.0
 11
1.686184210594328
 21
1.797539669338296
 31
0.0
  0
LINE
  5
12F
330
F6
100
AcDbEntity
  8
AM_4
100
AcDbLine
 10
1.808248060304983
 20
1.696892601561014
 30
0.0
 11
1.823345550272237
 21
1.711990091528268
 31
0.0
  0
LINE
  5
130
330
F6
100
AcDbEntity
  8
AM_4
100
AcDbLine
 10
2.048675210311231
 20
1.943768664022915
 30
0.0
 11
1.943768664022914
 21
2.048675210311231
 31
0.0
  0
LINE
  5
131
330
F6
100
AcDbEntity
  8
AM_4
100
AcDbLine
 10
1.943768664022914
 20
2.048675210311231
 30
0.0
 11
1.888517037215549
 21
2.028369094596395
 31
0.0
  0
LINE
  5
132
330
F6
100
AcDbEntity
  8
AM_4
100
AcDbLine
 10
2.028369094596396
 20
1.888517037215549
 30
0.0
 11
2.048675210311231
 21
1.943768664022915
 31
0.0
  0
LINE
  5
133
330
F6
100
AcDbEntity
  8
AM_4
100
AcDbLine
 10
2.028369094596396
 20
1.888517037215549
 30
0.0
 11
1.888517037215549
 21
2.028369094596395
 31
0.0
  0
ARC
  5
134
330
F6
100
AcDbEntity
  8
AM_4
100
AcDbCircle
 10
1.895307597440358
 20
2.009892419656537
 30
0.0
 40
0.0196849999999981
100
AcDbArc
 50
110.179424197092
 51
179.6971498835834
  0
ARC
  5
135
330
F6
100
AcDbEntity
  8
AM_4
100
AcDbCircle
 10
2.009892419656538
 20
1.895307597440358
 30
0.0
 40
0.0196849999999981
100
AcDbArc
 50
270.3028501164159
 51
339.8205758029063
  0
LINE
  5
136
330
F6
100
AcDbEntity
  8
AM_4
100
AcDbLine
 10
2.009996468799986
 20
1.875622872428927
 30
0.0
 11
1.875622872428927
 21
2.009996468799986
 31
0.0
  0
ARC
  5
137
330
F6
100
AcDbEntity
  8
AM_4
100
AcDbCircle
 10
1.819279444605001
 20
2.010294285270983
 30
0.0
 40
0.0563442149080126
100
AcDbArc
 50
251.1496780397952
 51
359.6971524700269
  0
ARC
  5
138
330
F6
100
AcDbEntity
  8
AM_4
100
AcDbCircle
 10
2.010294285270983
 20
1.819279444605002
 30
0.0
 40
0.056344214908012
100
AcDbArc
 50
90.30284752997304
 51
198.8503219602055
  0
LINE
  5
139
330
F6
100
AcDbEntity
  8
AM_4
100
AcDbLine
 10
1.956972044196459
 20
1.801074797934699
 30
0.0
 11
1.801074797934699
 21
1.956972044196458
 31
0.0
  0
LINE
  5
13A
330
F6
100
AcDbEntity
  8
AM_4
100
AcDbLine
 10
1.801074797934699
 20
1.956972044196458
 30
0.0
 11
1.787155400947041
 21
1.943052647208801
 31
0.0
  0
LINE
  5
13B
330
F6
100
AcDbEntity
  8
AM_4
100
AcDbLine
 10
1.943052647208801
 20
1.787155400947041
 30
0.0
 11
1.956972044196459
 21
1.801074797934699
 31
0.0
  0
LINE
  5
13C
330
F6
100
AcDbEntity
  8
AM_4
100
AcDbLine
 10
1.87902299680151
 20
1.656312644998995
 30
0.0
 11
1.656312644998995
 21
1.87902299680151
 31
0.0
  0
LWPOLYLINE
  5
13D
330
F6
100
AcDbEntity
  8
AM_4
100
AcDbPolyline
 90
        5
 70
     0
 43
0.0
 10
1.666258370299787
 20
1.888969429209083
 10
1.687860651344159
 20
1.852247190250637
 10
1.715998049565124
 20
1.819446021598147
 10
1.744857446141544
 20
1.796499943033779
 10
1.777613899754436
 20
1.777613899754435
  0
LINE
  5
13E
330
F6
100
AcDbEntity
  8
AM_4
100
AcDbLine
 10
1.656312496383039
 20
1.879023555292335
 30
0.0
 11
1.75374828968584
 21
1.976459348595134
 31
0.0
  0
LWPOLYLINE
  5
13F
330
F6
100
AcDbEntity
  8
AM_4
100
AcDbPolyline
 90
        5
 70
     0
 43
0.0
 10
1.85515794522374
 20
1.855157945223737
 10
1.833555664179368
 20
1.891880184182184
 10
1.805418265958403
 20
1.924681352834674
 10
1.776558869381984
 20
1.947627431399042
 10
1.743802415769092
 20
1.966513474678386
  0
LINE
  5
140
330
F6
100
AcDbEntity
  8
AM_4
100
AcDbLine
 10
1.976459199979179
 20
1.753748848176664
 30
0.0
 11
1.753748848176664
 21
1.976459199979179
 31
0.0
  0
LINE
  5
141
330
F6
100
AcDbEntity
  8
AM_4
100
AcDbLine
 10
1.976459348595135
 20
1.753748289685837
 30
0.0
 11
1.879023555292336
 21
1.656312496383039
 31
0.0
  0
LWPOLYLINE
  5
142
330
F6
100
AcDbEntity
  8
AM_4
100
AcDbPolyline
 90
        5
 70
     0
 43
0.0
 10
1.966513474678387
 20
1.743802415769089
 10
1.944911193634016
 20
1.780524654727535
 10
1.91677379541305
 20
1.813325823380026
 10
1.887914398836631
 20
1.836271901944393
 10
1.85515794522374
 20
1.855157945223737
  0
LINE
  5
143
330
F6
100
AcDbEntity
  8
AM_4
100
AcDbLine
 10
1.85515794522374
 20
1.855157945223737
 30
0.0
 11
1.777613899754436
 21
1.777613899754435
 31
0.0
  0
LWPOLYLINE
  5
144
330
F6
100
AcDbEntity
  8
AM_4
100
AcDbPolyline
 90
        5
 70
     0
 43
0.0
 10
1.777613899754436
 20
1.777613899754435
 10
1.799216180798807
 20
1.740891660795989
 10
1.827353579019773
 20
1.708090492143499
 10
1.856212975596192
 20
1.685144413579131
 10
1.888969429209084
 20
1.666258370299787
  0
LINE
  5
145
330
F6
100
AcDbEntity
  8
AM_4
100
AcDbLine
 10
0.0198956999999999
 20
2.087793939397
 30
0.0
 11
-0.0352000977482
 21
2.087793939397
 31
0.0
  0
LINE
  5
146
330
F6
100
AcDbEntity
  8
AM_4
100
AcDbLine
 10
0.0321392
 20
2.090707326797
 30
0.0
 11
0.0198956999999999
 21
2.087793939397
 31
0.0
  0
LINE
  5
147
330
F6
100
AcDbEntity
  8
AM_4
100
AcDbLine
 10
-0.0352000977482
 20
2.087793939397
 30
0.0
 11
-0.0352000977482
 21
2.1897648
 31
0.0
  0
LINE
  5
148
330
F6
100
AcDbEntity
  8
AM_4
100
AcDbLine
 10
0.0413216999999997
 20
2.096534495298
 30
0.0
 11
0.0321392
 21
2.090707326797
 31
0.0
  0
LINE
  5
149
330
F6
100
AcDbEntity
  8
AM_4
100
AcDbLine
 10
0.0474437000000002
 20
2.1052746968681
 30
0.0
 11
0.0413216999999997
 21
2.096534495298
 31
0.0
  0
LINE
  5
14A
330
F6
100
AcDbEntity
  8
AM_4
100
AcDbLine
 10
0.0505042999999999
 20
2.116928522058799
 30
0.0
 11
0.0474437000000002
 21
2.1052746968681
 31
0.0
  0
LINE
  5
14B
330
F6
100
AcDbEntity
  8
AM_4
100
AcDbLine
 10
0.0505043
 20
2.160630299999999
 30
0.0
 11
0.0505042999999999
 21
2.116928522058799
 31
0.0
  0
LINE
  5
14C
330
F6
100
AcDbEntity
  8
AM_4
100
AcDbLine
 10
0.0474437
 20
2.1722841
 30
0.0
 11
0.0505043
 21
2.160630299999999
 31
0.0
  0
LINE
  5
14D
330
F6
100
AcDbEntity
  8
AM_4
100
AcDbLine
 10
0.0413217000000001
 20
2.181024299999999
 30
0.0
 11
0.0474437
 21
2.1722841
 31
0.0
  0
LINE
  5
14E
330
F6
100
AcDbEntity
  8
AM_4
100
AcDbLine
 10
0.0321392000000005
 20
2.1868514
 30
0.0
 11
0.0413217000000001
 21
2.181024299999999
 31
0.0
  0
LINE
  5
14F
330
F6
100
AcDbEntity
  8
AM_4
100
AcDbLine
 10
0.0198957000000002
 20
2.1897648
 30
0.0
 11
0.0321392000000005
 21
2.1868514
 31
0.0
  0
LINE
  5
150
330
F6
100
AcDbEntity
  8
AM_4
100
AcDbLine
 10
-0.0352000977482
 20
2.1897648
 30
0.0
 11
0.0198957000000002
 21
2.1897648
 31
0.0
  0
LINE
  5
151
330
F6
100
AcDbEntity
  8
AM_4
100
AcDbLine
 10
-0.3290446658729999
 20
2.087793939397
 30
0.0
 11
-0.3290446658729999
 21
2.1897648
 31
0.0
  0
LINE
  5
152
330
F6
100
AcDbEntity
  8
AM_4
100
AcDbLine
 10
-0.261705259431
 20
2.090707326797
 30
0.0
 11
-0.273948573129
 21
2.087793939397
 31
0.0
  0
LINE
  5
153
330
F6
100
AcDbEntity
  8
AM_4
100
AcDbLine
 10
-0.273948573129
 20
2.087793939397
 30
0.0
 11
-0.3290446658729999
 21
2.087793939397
 31
0.0
  0
LINE
  5
154
330
F6
100
AcDbEntity
  8
AM_4
100
AcDbLine
 10
-0.2525225773070001
 20
2.096534495298
 30
0.0
 11
-0.261705259431
 21
2.090707326797
 31
0.0
  0
LINE
  5
155
330
F6
100
AcDbEntity
  8
AM_4
100
AcDbLine
 10
-0.2464009204579997
 20
2.1052746968681
 30
0.0
 11
-0.2525225773070001
 21
2.096534495298
 31
0.0
  0
LINE
  5
156
330
F6
100
AcDbEntity
  8
AM_4
100
AcDbLine
 10
-0.2433398951830002
 20
2.116928522058799
 30
0.0
 11
-0.2464009204579997
 21
2.1052746968681
 31
0.0
  0
LINE
  5
157
330
F6
100
AcDbEntity
  8
AM_4
100
AcDbLine
 10
-0.2433398951829999
 20
2.160630299999999
 30
0.0
 11
-0.2433398951830002
 21
2.116928522058799
 31
0.0
  0
LINE
  5
158
330
F6
100
AcDbEntity
  8
AM_4
100
AcDbLine
 10
-0.2464009204580001
 20
2.1722841
 30
0.0
 11
-0.2433398951829999
 21
2.160630299999999
 31
0.0
  0
LINE
  5
159
330
F6
100
AcDbEntity
  8
AM_4
100
AcDbLine
 10
-0.252522577307
 20
2.1810243
 30
0.0
 11
-0.2464009204580001
 21
2.1722841
 31
0.0
  0
LINE
  5
15A
330
F6
100
AcDbEntity
  8
AM_4
100
AcDbLine
 10
-0.261705259431
 20
2.1868514
 30
0.0
 11
-0.252522577307
 21
2.1810243
 31
0.0
  0
LINE
  5
15B
330
F6
100
AcDbEntity
  8
AM_4
100
AcDbLine
 10
-0.273948573129
 20
2.1897648
 30
0.0
 11
-0.261705259431
 21
2.1868514
 31
0.0
  0
LINE
  5
15C
330
F6
100
AcDbEntity
  8
AM_4
100
AcDbLine
 10
-0.3290446658729999
 20
2.1897648
 30
0.0
 11
-0.273948573129
 21
2.1897648
 31
0.0
  0
LINE
  5
15D
330
F6
100
AcDbEntity
  8
AM_4
100
AcDbLine
 10
-0.1515134676439994
 20
2.087793939397
 30
0.0
 11
-0.1637571750430003
 21
2.090707326797
 31
0.0
  0
LINE
  5
15E
330
F6
100
AcDbEntity
  8
AM_4
100
AcDbLine
 10
-0.127026446547
 20
2.087793939397
 30
0.0
 11
-0.1515134676439994
 21
2.087793939397
 31
0.0
  0
LINE
  5
15F
330
F6
100
AcDbEntity
  8
AM_4
100
AcDbLine
 10
-0.18212214559
 20
2.160630299999999
 30
0.0
 11
-0.179061514016
 21
2.1722841
 31
0.0
  0
LINE
  5
160
330
F6
100
AcDbEntity
  8
AM_4
100
AcDbLine
 10
-0.18212214559
 20
2.116928522058799
 30
0.0
 11
-0.18212214559
 21
2.160630299999999
 31
0.0
  0
LINE
  5
161
330
F6
100
AcDbEntity
  8
AM_4
100
AcDbLine
 10
-0.1790615140160001
 20
2.1052746968681
 30
0.0
 11
-0.18212214559
 21
2.116928522058799
 31
0.0
  0
LINE
  5
162
330
F6
100
AcDbEntity
  8
AM_4
100
AcDbLine
 10
-0.1729394634660001
 20
2.096534495298
 30
0.0
 11
-0.1790615140160001
 21
2.1052746968681
 31
0.0
  0
LINE
  5
163
330
F6
100
AcDbEntity
  8
AM_4
100
AcDbLine
 10
-0.1637571750430003
 20
2.090707326797
 30
0.0
 11
-0.1729394634660001
 21
2.096534495298
 31
0.0
  0
LINE
  5
164
330
F6
100
AcDbEntity
  8
AM_4
100
AcDbLine
 10
-0.1147831328489998
 20
2.090707326797
 30
0.0
 11
-0.127026446547
 21
2.087793939397
 31
0.0
  0
LINE
  5
165
330
F6
100
AcDbEntity
  8
AM_4
100
AcDbLine
 10
-0.1056004507249999
 20
2.096534495298
 30
0.0
 11
-0.1147831328489998
 21
2.090707326797
 31
0.0
  0
LINE
  5
166
330
F6
100
AcDbEntity
  8
AM_4
100
AcDbLine
 10
-0.0994784001749998
 20
2.1052746968681
 30
0.0
 11
-0.1056004507249999
 21
2.096534495298
 31
0.0
  0
LINE
  5
167
330
F6
100
AcDbEntity
  8
AM_4
100
AcDbLine
 10
-0.0964177686009998
 20
2.116928522058799
 30
0.0
 11
-0.0994784001749998
 21
2.1052746968681
 31
0.0
  0
LINE
  5
168
330
F6
100
AcDbEntity
  8
AM_4
100
AcDbLine
 10
-0.096417768601
 20
2.160630299999999
 30
0.0
 11
-0.0964177686009998
 21
2.116928522058799
 31
0.0
  0
LINE
  5
169
330
F6
100
AcDbEntity
  8
AM_4
100
AcDbLine
 10
-0.0994784001750001
 20
2.1722841
 30
0.0
 11
-0.096417768601
 21
2.160630299999999
 31
0.0
  0
LINE
  5
16A
330
F6
100
AcDbEntity
  8
AM_4
100
AcDbLine
 10
-0.105600450725
 20
2.181024299999999
 30
0.0
 11
-0.0994784001750001
 21
2.1722841
 31
0.0
  0
LINE
  5
16B
330
F6
100
AcDbEntity
  8
AM_4
100
AcDbLine
 10
-0.1147831328489998
 20
2.1868514
 30
0.0
 11
-0.105600450725
 21
2.181024299999999
 31
0.0
  0
LINE
  5
16C
330
F6
100
AcDbEntity
  8
AM_4
100
AcDbLine
 10
-0.1270264465469998
 20
2.1897648
 30
0.0
 11
-0.1147831328489998
 21
2.1868514
 31
0.0
  0
LINE
  5
16D
330
F6
100
AcDbEntity
  8
AM_4
100
AcDbLine
 10
-0.151513467644
 20
2.1897648
 30
0.0
 11
-0.1270264465469998
 21
2.1897648
 31
0.0
  0
LINE
  5
16E
330
F6
100
AcDbEntity
  8
AM_4
100
AcDbLine
 10
-0.1637571750430004
 20
2.1868514
 30
0.0
 11
-0.151513467644
 21
2.1897648
 31
0.0
  0
LINE
  5
16F
330
F6
100
AcDbEntity
  8
AM_4
100
AcDbLine
 10
-0.1729394634660003
 20
2.181024299999999
 30
0.0
 11
-0.1637571750430004
 21
2.1868514
 31
0.0
  0
LINE
  5
170
330
F6
100
AcDbEntity
  8
AM_4
100
AcDbLine
 10
-0.179061514016
 20
2.1722841
 30
0.0
 11
-0.1729394634660003
 21
2.181024299999999
 31
0.0
  0
LINE
  5
171
330
F6
100
AcDbEntity
  8
AM_4
100
AcDbLine
 10
0.3474089999999999
 20
2.070313221296
 30
0.0
 11
0.237218
 21
2.070313221296
 31
0.0
  0
LINE
  5
172
330
F6
100
AcDbEntity
  8
AM_4
100
AcDbLine
 10
0.237218
 20
2.070313221296
 30
0.0
 11
0.237218
 21
2.2072455
 31
0.0
  0
LINE
  5
173
330
F6
100
AcDbEntity
  8
AM_4
100
AcDbLine
 10
0.237218
 20
2.2072455
 30
0.0
 11
0.3474089999999999
 21
2.2072455
 31
0.0
  0
LINE
  5
174
330
F6
100
AcDbEntity
  8
AM_4
100
AcDbLine
 10
0.3474089999999999
 20
2.2072455
 30
0.0
 11
0.3474089999999999
 21
2.1897648
 31
0.0
  0
LINE
  5
175
330
F6
100
AcDbEntity
  8
AM_4
100
AcDbLine
 10
0.3474089999999999
 20
2.1897648
 30
0.0
 11
0.255583
 21
2.1897648
 31
0.0
  0
LINE
  5
176
330
F6
100
AcDbEntity
  8
AM_4
100
AcDbLine
 10
0.255583
 20
2.1897648
 30
0.0
 11
0.2555830000000001
 21
2.1518899
 31
0.0
  0
LINE
  5
177
330
F6
100
AcDbEntity
  8
AM_4
100
AcDbLine
 10
0.2555830000000001
 20
2.1518899
 30
0.0
 11
0.335166
 21
2.1518899
 31
0.0
  0
LINE
  5
178
330
F6
100
AcDbEntity
  8
AM_4
100
AcDbLine
 10
0.335166
 20
2.1518899
 30
0.0
 11
0.3351660000000001
 21
2.134409240159799
 31
0.0
  0
LINE
  5
179
330
F6
100
AcDbEntity
  8
AM_4
100
AcDbLine
 10
0.3351660000000001
 20
2.134409240159799
 30
0.0
 11
0.255583
 21
2.134409240159799
 31
0.0
  0
LINE
  5
17A
330
F6
100
AcDbEntity
  8
AM_4
100
AcDbLine
 10
0.255583
 20
2.134409240159799
 30
0.0
 11
0.2555830000000001
 21
2.087793939397
 31
0.0
  0
LINE
  5
17B
330
F6
100
AcDbEntity
  8
AM_4
100
AcDbLine
 10
0.2555830000000001
 20
2.087793939397
 30
0.0
 11
0.347409
 21
2.087793939397
 31
0.0
  0
LINE
  5
17C
330
F6
100
AcDbEntity
  8
AM_4
100
AcDbLine
 10
0.347409
 20
2.087793939397
 30
0.0
 11
0.3474089999999999
 21
2.070313221296
 31
0.0
  0
LINE
  5
17D
330
F6
100
AcDbEntity
  8
AM_4
100
AcDbLine
 10
0.0933567
 20
2.116928522058799
 30
0.0
 11
0.0933567
 21
2.160630299999999
 31
0.0
  0
LINE
  5
17E
330
F6
100
AcDbEntity
  8
AM_4
100
AcDbLine
 10
0.0933567
 20
2.160630299999999
 30
0.0
 11
0.0964176999999999
 21
2.175197499999999
 31
0.0
  0
LINE
  5
17F
330
F6
100
AcDbEntity
  8
AM_4
100
AcDbLine
 10
0.0964176999999999
 20
2.175197499999999
 30
0.0
 11
0.1025389999999999
 21
2.1868514
 31
0.0
  0
LINE
  5
180
330
F6
100
AcDbEntity
  8
AM_4
100
AcDbLine
 10
0.1025389999999999
 20
2.1868514
 30
0.0
 11
0.1147829999999998
 21
2.198504999999999
 31
0.0
  0
LINE
  5
181
330
F6
100
AcDbEntity
  8
AM_4
100
AcDbLine
 10
0.1147829999999998
 20
2.198504999999999
 30
0.0
 11
0.1270260000000001
 21
2.2043322
 31
0.0
  0
LINE
  5
182
330
F6
100
AcDbEntity
  8
AM_4
100
AcDbLine
 10
0.1270260000000001
 20
2.2043322
 30
0.0
 11
0.1423309999999995
 21
2.2072455
 31
0.0
  0
LINE
  5
183
330
F6
100
AcDbEntity
  8
AM_4
100
AcDbLine
 10
0.1423309999999995
 20
2.2072455
 30
0.0
 11
0.169879
 21
2.2072455
 31
0.0
  0
LINE
  5
184
330
F6
100
AcDbEntity
  8
AM_4
100
AcDbLine
 10
0.169879
 20
2.2072455
 30
0.0
 11
0.1851830000000003
 21
2.204332199999999
 31
0.0
  0
LINE
  5
185
330
F6
100
AcDbEntity
  8
AM_4
100
AcDbLine
 10
0.1851830000000003
 20
2.204332199999999
 30
0.0
 11
0.1974269999999996
 21
2.198505
 31
0.0
  0
LINE
  5
186
330
F6
100
AcDbEntity
  8
AM_4
100
AcDbLine
 10
0.1974269999999996
 20
2.198505
 30
0.0
 11
0.2096700000000001
 21
2.1868514
 31
0.0
  0
LINE
  5
187
330
F6
100
AcDbEntity
  8
AM_4
100
AcDbLine
 10
0.2096700000000001
 20
2.1868514
 30
0.0
 11
0.212731
 21
2.1722841
 31
0.0
  0
LINE
  5
188
330
F6
100
AcDbEntity
  8
AM_4
100
AcDbLine
 10
0.212731
 20
2.1722841
 30
0.0
 11
0.194366
 21
2.1722841
 31
0.0
  0
LINE
  5
189
330
F6
100
AcDbEntity
  8
AM_4
100
AcDbLine
 10
0.194366
 20
2.1722841
 30
0.0
 11
0.191305
 21
2.181024299999999
 31
0.0
  0
LINE
  5
18A
330
F6
100
AcDbEntity
  8
AM_4
100
AcDbLine
 10
0.191305
 20
2.181024299999999
 30
0.0
 11
0.1821219999999999
 21
2.1868514
 31
0.0
  0
LINE
  5
18B
330
F6
100
AcDbEntity
  8
AM_4
100
AcDbLine
 10
0.1821219999999999
 20
2.1868514
 30
0.0
 11
0.1698789999999997
 21
2.1897648
 31
0.0
  0
LINE
  5
18C
330
F6
100
AcDbEntity
  8
AM_4
100
AcDbLine
 10
0.1698789999999997
 20
2.1897648
 30
0.0
 11
0.142331
 21
2.1897648
 31
0.0
  0
LINE
  5
18D
330
F6
100
AcDbEntity
  8
AM_4
100
AcDbLine
 10
0.142331
 20
2.1897648
 30
0.0
 11
0.1300870000000003
 21
2.1868514
 31
0.0
  0
LINE
  5
18E
330
F6
100
AcDbEntity
  8
AM_4
100
AcDbLine
 10
0.1300870000000003
 20
2.1868514
 30
0.0
 11
0.1209049999999995
 21
2.1810243
 31
0.0
  0
LINE
  5
18F
330
F6
100
AcDbEntity
  8
AM_4
100
AcDbLine
 10
0.1209049999999995
 20
2.1810243
 30
0.0
 11
0.1147829999999999
 21
2.1722841
 31
0.0
  0
LINE
  5
190
330
F6
100
AcDbEntity
  8
AM_4
100
AcDbLine
 10
0.1147829999999999
 20
2.1722841
 30
0.0
 11
0.111722
 21
2.1606303
 31
0.0
  0
LINE
  5
191
330
F6
100
AcDbEntity
  8
AM_4
100
AcDbLine
 10
0.111722
 20
2.1606303
 30
0.0
 11
0.1117220000000001
 21
2.116928522058799
 31
0.0
  0
LINE
  5
192
330
F6
100
AcDbEntity
  8
AM_4
100
AcDbLine
 10
0.1117220000000001
 20
2.116928522058799
 30
0.0
 11
0.114783
 21
2.1052746968681
 31
0.0
  0
LINE
  5
193
330
F6
100
AcDbEntity
  8
AM_4
100
AcDbLine
 10
0.114783
 20
2.1052746968681
 30
0.0
 11
0.1209050000000001
 21
2.096534495298
 31
0.0
  0
LINE
  5
194
330
F6
100
AcDbEntity
  8
AM_4
100
AcDbLine
 10
0.1209050000000001
 20
2.096534495298
 30
0.0
 11
0.130087
 21
2.090707326797
 31
0.0
  0
LINE
  5
195
330
F6
100
AcDbEntity
  8
AM_4
100
AcDbLine
 10
0.130087
 20
2.090707326797
 30
0.0
 11
0.142331
 21
2.087793939397
 31
0.0
  0
LINE
  5
196
330
F6
100
AcDbEntity
  8
AM_4
100
AcDbLine
 10
0.142331
 20
2.087793939397
 30
0.0
 11
0.169879
 21
2.087793939397
 31
0.0
  0
LINE
  5
197
330
F6
100
AcDbEntity
  8
AM_4
100
AcDbLine
 10
0.169879
 20
2.087793939397
 30
0.0
 11
0.182122
 21
2.090707326797
 31
0.0
  0
LINE
  5
198
330
F6
100
AcDbEntity
  8
AM_4
100
AcDbLine
 10
0.182122
 20
2.090707326797
 30
0.0
 11
0.1913050000000001
 21
2.096534495298
 31
0.0
  0
LINE
  5
199
330
F6
100
AcDbEntity
  8
AM_4
100
AcDbLine
 10
0.1913050000000001
 20
2.096534495298
 30
0.0
 11
0.1943660000000002
 21
2.105274696868099
 31
0.0
  0
LINE
  5
19A
330
F6
100
AcDbEntity
  8
AM_4
100
AcDbLine
 10
0.1943660000000002
 20
2.105274696868099
 30
0.0
 11
0.194366
 21
2.1285823078794
 31
0.0
  0
LINE
  5
19B
330
F6
100
AcDbEntity
  8
AM_4
100
AcDbLine
 10
0.194366
 20
2.1285823078794
 30
0.0
 11
0.166818
 21
2.1285823078794
 31
0.0
  0
LINE
  5
19C
330
F6
100
AcDbEntity
  8
AM_4
100
AcDbLine
 10
0.166818
 20
2.1285823078794
 30
0.0
 11
0.166818
 21
2.14606302
 31
0.0
  0
LINE
  5
19D
330
F6
100
AcDbEntity
  8
AM_4
100
AcDbLine
 10
0.166818
 20
2.14606302
 30
0.0
 11
0.212731
 21
2.14606302
 31
0.0
  0
LINE
  5
19E
330
F6
100
AcDbEntity
  8
AM_4
100
AcDbLine
 10
0.212731
 20
2.14606302
 30
0.0
 11
0.212731
 21
2.102361270098
 31
0.0
  0
LINE
  5
19F
330
F6
100
AcDbEntity
  8
AM_4
100
AcDbLine
 10
0.212731
 20
2.102361270098
 30
0.0
 11
0.20967
 21
2.090707326797
 31
0.0
  0
LINE
  5
1A0
330
F6
100
AcDbEntity
  8
AM_4
100
AcDbLine
 10
0.20967
 20
2.090707326797
 30
0.0
 11
0.197427
 21
2.079053777197
 31
0.0
  0
LINE
  5
1A1
330
F6
100
AcDbEntity
  8
AM_4
100
AcDbLine
 10
0.197427
 20
2.079053777197
 30
0.0
 11
0.1851829999999999
 21
2.073226608695999
 31
0.0
  0
LINE
  5
1A2
330
F6
100
AcDbEntity
  8
AM_4
100
AcDbLine
 10
0.1851829999999999
 20
2.073226608695999
 30
0.0
 11
0.1698790000000001
 21
2.070313221296
 31
0.0
  0
LINE
  5
1A3
330
F6
100
AcDbEntity
  8
AM_4
100
AcDbLine
 10
0.1698790000000001
 20
2.070313221296
 30
0.0
 11
0.142331
 21
2.070313221296
 31
0.0
  0
LINE
  5
1A4
330
F6
100
AcDbEntity
  8
AM_4
100
AcDbLine
 10
0.142331
 20
2.070313221296
 30
0.0
 11
0.1270259999999996
 21
2.073226608695999
 31
0.0
  0
LINE
  5
1A5
330
F6
100
AcDbEntity
  8
AM_4
100
AcDbLine
 10
0.1270259999999996
 20
2.073226608695999
 30
0.0
 11
0.1147829999999997
 21
2.079053777197
 31
0.0
  0
LINE
  5
1A6
330
F6
100
AcDbEntity
  8
AM_4
100
AcDbLine
 10
0.1147829999999997
 20
2.079053777197
 30
0.0
 11
0.1025389999999998
 21
2.090707326797
 31
0.0
  0
LINE
  5
1A7
330
F6
100
AcDbEntity
  8
AM_4
100
AcDbLine
 10
0.1025389999999998
 20
2.090707326797
 30
0.0
 11
0.0964176999999999
 21
2.102361270098
 31
0.0
  0
LINE
  5
1A8
330
F6
100
AcDbEntity
  8
AM_4
100
AcDbLine
 10
0.0964176999999999
 20
2.102361270098
 30
0.0
 11
0.0933567
 21
2.116928522058799
 31
0.0
  0
LINE
  5
1A9
330
F6
100
AcDbEntity
  8
AM_4
100
AcDbLine
 10
0.0198957000000002
 20
2.070313221296
 30
0.0
 11
-0.053565383256
 21
2.070313221296
 31
0.0
  0
LINE
  5
1AA
330
F6
100
AcDbEntity
  8
AM_4
100
AcDbLine
 10
-0.053565383256
 20
2.070313221296
 30
0.0
 11
-0.053565383256
 21
2.2072455
 31
0.0
  0
LINE
  5
1AB
330
F6
100
AcDbEntity
  8
AM_4
100
AcDbLine
 10
-0.053565383256
 20
2.2072455
 30
0.0
 11
0.0198956999999999
 21
2.2072455
 31
0.0
  0
LINE
  5
1AC
330
F6
100
AcDbEntity
  8
AM_4
100
AcDbLine
 10
0.0198956999999999
 20
2.2072455
 30
0.0
 11
0.0352000999999996
 21
2.2043322
 31
0.0
  0
LINE
  5
1AD
330
F6
100
AcDbEntity
  8
AM_4
100
AcDbLine
 10
0.0352000999999996
 20
2.2043322
 30
0.0
 11
0.0474437
 21
2.198505
 31
0.0
  0
LINE
  5
1AE
330
F6
100
AcDbEntity
  8
AM_4
100
AcDbLine
 10
0.0474437
 20
2.198505
 30
0.0
 11
0.0596870000000003
 21
2.1868514
 31
0.0
  0
LINE
  5
1AF
330
F6
100
AcDbEntity
  8
AM_4
100
AcDbLine
 10
0.0596870000000003
 20
2.1868514
 30
0.0
 11
0.0658091000000002
 21
2.175197499999999
 31
0.0
  0
LINE
  5
1B0
330
F6
100
AcDbEntity
  8
AM_4
100
AcDbLine
 10
0.0658091000000002
 20
2.175197499999999
 30
0.0
 11
0.0688697000000001
 21
2.1606303
 31
0.0
  0
LINE
  5
1B1
330
F6
100
AcDbEntity
  8
AM_4
100
AcDbLine
 10
0.0688697000000001
 20
2.1606303
 30
0.0
 11
0.0688697000000001
 21
2.116928522058799
 31
0.0
  0
LINE
  5
1B2
330
F6
100
AcDbEntity
  8
AM_4
100
AcDbLine
 10
0.0688697000000001
 20
2.116928522058799
 30
0.0
 11
0.0658091000000001
 21
2.102361270098
 31
0.0
  0
LINE
  5
1B3
330
F6
100
AcDbEntity
  8
AM_4
100
AcDbLine
 10
0.0658091000000001
 20
2.102361270098
 30
0.0
 11
0.0596870000000001
 21
2.090707326797
 31
0.0
  0
LINE
  5
1B4
330
F6
100
AcDbEntity
  8
AM_4
100
AcDbLine
 10
0.0596870000000001
 20
2.090707326797
 30
0.0
 11
0.0474436999999999
 21
2.079053777197
 31
0.0
  0
LINE
  5
1B5
330
F6
100
AcDbEntity
  8
AM_4
100
AcDbLine
 10
0.0474436999999999
 20
2.079053777197
 30
0.0
 11
0.0352001000000003
 21
2.073226608696
 31
0.0
  0
LINE
  5
1B6
330
F6
100
AcDbEntity
  8
AM_4
100
AcDbLine
 10
0.0352001000000003
 20
2.073226608696
 30
0.0
 11
0.0198957000000002
 21
2.070313221296
 31
0.0
  0
LINE
  5
1B7
330
F6
100
AcDbEntity
  8
AM_4
100
AcDbLine
 10
-0.200487509838
 20
2.116928522058799
 30
0.0
 11
-0.200487509838
 21
2.160630299999999
 31
0.0
  0
LINE
  5
1B8
330
F6
100
AcDbEntity
  8
AM_4
100
AcDbLine
 10
-0.200487509838
 20
2.160630299999999
 30
0.0
 11
-0.1974268782639999
 21
2.175197499999999
 31
0.0
  0
LINE
  5
1B9
330
F6
100
AcDbEntity
  8
AM_4
100
AcDbLine
 10
-0.1974268782639999
 20
2.175197499999999
 30
0.0
 11
-0.1913048277139995
 21
2.1868514
 31
0.0
  0
LINE
  5
1BA
330
F6
100
AcDbEntity
  8
AM_4
100
AcDbLine
 10
-0.1913048277139995
 20
2.1868514
 30
0.0
 11
-0.1790615140159999
 21
2.198505
 31
0.0
  0
LINE
  5
1BB
330
F6
100
AcDbEntity
  8
AM_4
100
AcDbLine
 10
-0.1790615140159999
 20
2.198505
 30
0.0
 11
-0.1668178066170003
 21
2.204332199999999
 31
0.0
  0
LINE
  5
1BC
330
F6
100
AcDbEntity
  8
AM_4
100
AcDbLine
 10
-0.1668178066170003
 20
2.204332199999999
 30
0.0
 11
-0.1515134676440003
 21
2.2072455
 31
0.0
  0
LINE
  5
1BD
330
F6
100
AcDbEntity
  8
AM_4
100
AcDbLine
 10
-0.1515134676440003
 20
2.2072455
 30
0.0
 11
-0.127026446547
 21
2.2072455
 31
0.0
  0
LINE
  5
1BE
330
F6
100
AcDbEntity
  8
AM_4
100
AcDbLine
 10
-0.127026446547
 20
2.2072455
 30
0.0
 11
-0.1117221075740001
 21
2.204332199999999
 31
0.0
  0
LINE
  5
1BF
330
F6
100
AcDbEntity
  8
AM_4
100
AcDbLine
 10
-0.1117221075740001
 20
2.204332199999999
 30
0.0
 11
-0.099478400175
 21
2.198505
 31
0.0
  0
LINE
  5
1C0
330
F6
100
AcDbEntity
  8
AM_4
100
AcDbLine
 10
-0.099478400175
 20
2.198505
 30
0.0
 11
-0.0872350864769999
 21
2.1868514
 31
0.0
  0
LINE
  5
1C1
330
F6
100
AcDbEntity
  8
AM_4
100
AcDbLine
 10
-0.0872350864769999
 20
2.1868514
 30
0.0
 11
-0.0811134296280001
 21
2.175197499999999
 31
0.0
  0
LINE
  5
1C2
330
F6
100
AcDbEntity
  8
AM_4
100
AcDbLine
 10
-0.0811134296280001
 20
2.175197499999999
 30
0.0
 11
-0.078052404353
 21
2.160630299999999
 31
0.0
  0
LINE
  5
1C3
330
F6
100
AcDbEntity
  8
AM_4
100
AcDbLine
 10
-0.078052404353
 20
2.160630299999999
 30
0.0
 11
-0.078052404353
 21
2.116928522058799
 31
0.0
  0
LINE
  5
1C4
330
F6
100
AcDbEntity
  8
AM_4
100
AcDbLine
 10
-0.078052404353
 20
2.116928522058799
 30
0.0
 11
-0.0811134296280002
 21
2.102361270098
 31
0.0
  0
LINE
  5
1C5
330
F6
100
AcDbEntity
  8
AM_4
100
AcDbLine
 10
-0.0811134296280002
 20
2.102361270098
 30
0.0
 11
-0.0872350864769998
 21
2.090707326797
 31
0.0
  0
LINE
  5
1C6
330
F6
100
AcDbEntity
  8
AM_4
100
AcDbLine
 10
-0.0872350864769998
 20
2.090707326797
 30
0.0
 11
-0.0994784001749999
 21
2.079053777197001
 31
0.0
  0
LINE
  5
1C7
330
F6
100
AcDbEntity
  8
AM_4
100
AcDbLine
 10
-0.0994784001749999
 20
2.079053777197001
 30
0.0
 11
-0.1117221075739999
 21
2.073226608695999
 31
0.0
  0
LINE
  5
1C8
330
F6
100
AcDbEntity
  8
AM_4
100
AcDbLine
 10
-0.1117221075739999
 20
2.073226608695999
 30
0.0
 11
-0.1270264465470003
 21
2.070313221296
 31
0.0
  0
LINE
  5
1C9
330
F6
100
AcDbEntity
  8
AM_4
100
AcDbLine
 10
-0.1270264465470003
 20
2.070313221296
 30
0.0
 11
-0.151513467644
 21
2.070313221296
 31
0.0
  0
LINE
  5
1CA
330
F6
100
AcDbEntity
  8
AM_4
100
AcDbLine
 10
-0.151513467644
 20
2.070313221296
 30
0.0
 11
-0.1668178066170005
 21
2.073226608696
 31
0.0
  0
LINE
  5
1CB
330
F6
100
AcDbEntity
  8
AM_4
100
AcDbLine
 10
-0.1668178066170005
 20
2.073226608696
 30
0.0
 11
-0.1790615140160005
 21
2.079053777197001
 31
0.0
  0
LINE
  5
1CC
330
F6
100
AcDbEntity
  8
AM_4
100
AcDbLine
 10
-0.1790615140160005
 20
2.079053777197001
 30
0.0
 11
-0.1913048277139996
 21
2.090707326797
 31
0.0
  0
LINE
  5
1CD
330
F6
100
AcDbEntity
  8
AM_4
100
AcDbLine
 10
-0.1913048277139996
 20
2.090707326797
 30
0.0
 11
-0.1974268782639996
 21
2.102361270098
 31
0.0
  0
LINE
  5
1CE
330
F6
100
AcDbEntity
  8
AM_4
100
AcDbLine
 10
-0.1974268782639996
 20
2.102361270098
 30
0.0
 11
-0.200487509838
 21
2.116928522058799
 31
0.0
  0
LINE
  5
1CF
330
F6
100
AcDbEntity
  8
AM_4
100
AcDbLine
 10
-0.3474096364199999
 20
2.070313221296
 30
0.0
 11
-0.3474096364199999
 21
2.2072455
 31
0.0
  0
LINE
  5
1D0
330
F6
100
AcDbEntity
  8
AM_4
100
AcDbLine
 10
-0.3474096364199999
 20
2.2072455
 30
0.0
 11
-0.2739485731290003
 21
2.2072455
 31
0.0
  0
LINE
  5
1D1
330
F6
100
AcDbEntity
  8
AM_4
100
AcDbLine
 10
-0.2739485731290003
 20
2.2072455
 30
0.0
 11
-0.258644234156
 21
2.204332199999999
 31
0.0
  0
LINE
  5
1D2
330
F6
100
AcDbEntity
  8
AM_4
100
AcDbLine
 10
-0.258644234156
 20
2.204332199999999
 30
0.0
 11
-0.2464009204580001
 21
2.198505
 31
0.0
  0
LINE
  5
1D3
330
F6
100
AcDbEntity
  8
AM_4
100
AcDbLine
 10
-0.2464009204580001
 20
2.198505
 30
0.0
 11
-0.2341572130590001
 21
2.1868514
 31
0.0
  0
LINE
  5
1D4
330
F6
100
AcDbEntity
  8
AM_4
100
AcDbLine
 10
-0.2341572130590001
 20
2.1868514
 30
0.0
 11
-0.2280355562099999
 21
2.1751975
 31
0.0
  0
LINE
  5
1D5
330
F6
100
AcDbEntity
  8
AM_4
100
AcDbLine
 10
-0.2280355562099999
 20
2.1751975
 30
0.0
 11
-0.2249745309349998
 21
2.160630299999999
 31
0.0
  0
LINE
  5
1D6
330
F6
100
AcDbEntity
  8
AM_4
100
AcDbLine
 10
-0.2249745309349998
 20
2.160630299999999
 30
0.0
 11
-0.2249745309349999
 21
2.116928522058799
 31
0.0
  0
LINE
  5
1D7
330
F6
100
AcDbEntity
  8
AM_4
100
AcDbLine
 10
-0.2249745309349999
 20
2.116928522058799
 30
0.0
 11
-0.2280355562099998
 21
2.102361270098
 31
0.0
  0
LINE
  5
1D8
330
F6
100
AcDbEntity
  8
AM_4
100
AcDbLine
 10
-0.2280355562099998
 20
2.102361270098
 30
0.0
 11
-0.2341572130590001
 21
2.090707326797
 31
0.0
  0
LINE
  5
1D9
330
F6
100
AcDbEntity
  8
AM_4
100
AcDbLine
 10
-0.2341572130590001
 20
2.090707326797
 30
0.0
 11
-0.2464009204579998
 21
2.079053777197001
 31
0.0
  0
LINE
  5
1DA
330
F6
100
AcDbEntity
  8
AM_4
100
AcDbLine
 10
-0.2464009204579998
 20
2.079053777197001
 30
0.0
 11
-0.2586442341560001
 21
2.073226608695999
 31
0.0
  0
LINE
  5
1DB
330
F6
100
AcDbEntity
  8
AM_4
100
AcDbLine
 10
-0.2586442341560001
 20
2.073226608695999
 30
0.0
 11
-0.2739485731290003
 21
2.070313221296
 31
0.0
  0
LINE
  5
1DC
330
F6
100
AcDbEntity
  8
AM_4
100
AcDbLine
 10
-0.2739485731290003
 20
2.070313221296
 30
0.0
 11
-0.3474096364199999
 21
2.070313221296
 31
0.0
  0
LWPOLYLINE
  5
1DD
330
F6
100
AcDbEntity
  8
AM_4
100
AcDbPolyline
 90
       73
 70
     0
 43
0.0
 10
0.0
 20
1.77165
 10
0.1544094716388886
 20
1.764908336874241
 10
0.3076437939636172
 20
1.744734655624078
 10
0.4585367612558809
 20
1.711282490145028
 10
0.6059399869229211
 20
1.664806431615355
 10
0.7487316434129103
 20
1.605660190903481
 10
0.885825
 20
1.534293906614701
 10
1.016176693461331
 20
1.451250719264592
 10
1.138794668701158
 20
1.357162637651737
 10
1.252745728889147
 20
1.252745728889147
 10
1.357162637651738
 20
1.138794668701157
 10
1.451250719264593
 20
1.016176693461331
 10
1.534293906614701
 20
0.8858250000000001
 10
1.605660190903481
 20
0.7487316434129104
 10
1.664806431615355
 20
0.6059399869229215
 10
1.711282490145028
 20
0.4585367612558817
 10
1.744734655624079
 20
0.307643793963618
 10
1.764908336874241
 20
0.1544094716388897
 10
1.77165
 20
0.0000000000000013
 10
1.764908336874241
 20
-0.1544094716388871
 10
1.744734655624079
 20
-0.3076437939636156
 10
1.711282490145029
 20
-0.4585367612558791
 10
1.664806431615355
 20
-0.6059399869229191
 10
1.605660190903482
 20
-0.7487316434129084
 10
1.534293906614702
 20
-0.8858249999999982
 10
1.451250719264594
 20
-1.016176693461329
 10
1.357162637651739
 20
-1.138794668701156
 10
1.252745728889149
 20
-1.252745728889145
 10
1.13879466870116
 20
-1.357162637651736
 10
1.016176693461333
 20
-1.451250719264591
 10
0.8858250000000027
 20
-1.534293906614699
 10
0.7487316434129132
 20
-1.605660190903479
 10
0.6059399869229244
 20
-1.664806431615353
 10
0.4585367612558845
 20
-1.711282490145027
 10
0.307643793963621
 20
-1.744734655624078
 10
0.1544094716388926
 20
-1.76490833687424
 10
0.0000000000000042
 20
-1.77165
 10
-0.1544094716388843
 20
-1.764908336874241
 10
-0.3076437939636127
 20
-1.744734655624079
 10
-0.4585367612558764
 20
-1.711282490145029
 10
-0.6059399869229166
 20
-1.664806431615356
 10
-0.7487316434129057
 20
-1.605660190903483
 10
-0.8858249999999956
 20
-1.534293906614703
 10
-1.016176693461327
 20
-1.451250719264595
 10
-1.138794668701153
 20
-1.357162637651741
 10
-1.252745728889143
 20
-1.252745728889151
 10
-1.357162637651735
 20
-1.138794668701161
 10
-1.451250719264589
 20
-1.016176693461335
 10
-1.534293906614698
 20
-0.8858250000000047
 10
-1.605660190903479
 20
-0.7487316434129153
 10
-1.664806431615353
 20
-0.6059399869229265
 10
-1.711282490145026
 20
-0.4585367612558868
 10
-1.744734655624077
 20
-0.3076437939636233
 10
-1.764908336874241
 20
-0.154409471638895
 10
-1.77165
 20
-0.0000000000000066
 10
-1.764908336874242
 20
0.1544094716388818
 10
-1.74473465562408
 20
0.3076437939636103
 10
-1.71128249014503
 20
0.4585367612558739
 10
-1.664806431615357
 20
0.6059399869229141
 10
-1.605660190903484
 20
0.7487316434129033
 10
-1.534293906614705
 20
0.8858249999999933
 10
-1.451250719264597
 20
1.016176693461325
 10
-1.357162637651743
 20
1.138794668701151
 10
-1.252745728889153
 20
1.252745728889141
 10
-1.138794668701164
 20
1.357162637651732
 10
-1.016176693461338
 20
1.451250719264587
 10
-0.8858250000000077
 20
1.534293906614696
 10
-0.7487316434129184
 20
1.605660190903477
 10
-0.6059399869229297
 20
1.664806431615351
 10
-0.45853676125589
 20
1.711282490145025
 10
-0.3076437939636266
 20
1.744734655624077
 10
-0.1544094716388983
 20
1.76490833687424
 10
-0.0000000000000099
 20
1.77165
  0
LINE
  5
1DE
330
F6
100
AcDbEntity
  8
AM_4
100
AcDbLine
 10
2.750000000000001
 20
-1.320064375532608
 30
0.0
 11
1.375
 21
-1.320064375532607
 31
0.0
  0
LWPOLYLINE
  5
1DF
330
F6
100
AcDbEntity
  8
AM_4
100
AcDbPolyline
 90
       37
 70
     0
 43
0.0
 10
-2.75
 20
-0.3750000000000004
 10
-2.739535419752301
 20
-0.1353217074439408
 10
-2.708221320783573
 20
0.1025324885840574
 10
-2.656296022294939
 20
0.3367523740319307
 10
-2.584154707161249
 20
0.5655553941455874
 10
-2.492346414350789
 20
0.7872002197869218
 10
-2.381569860407208
 20
0.9999999999999981
 10
-2.25266812179473
 20
1.202335199965375
 10
-2.106622218577192
 20
1.392665926637981
 10
-1.944543648263008
 20
1.569543648263004
 10
-1.767665926637986
 20
1.731622218577187
 10
-1.57733519996538
 20
1.877668121794725
 10
-1.375000000000004
 20
2.006569860407204
 10
-1.162200219786927
 20
2.117346414350785
 10
-0.9405553941455935
 20
2.209154707161247
 10
-0.7117523740319367
 20
2.281296022294936
 10
-0.4775324885840635
 20
2.333221320783571
 10
-0.2396782925560653
 20
2.364535419752299
 10
-0.0000000000000056
 20
2.375
 10
0.2396782925560542
 20
2.364535419752301
 10
0.4775324885840526
 20
2.333221320783573
 10
0.711752374031926
 20
2.281296022294939
 10
0.940555394145583
 20
2.20915470716125
 10
1.162200219786917
 20
2.11734641435079
 10
1.374999999999994
 20
2.00656986040721
 10
1.577335199965371
 20
1.877668121794732
 10
1.767665926637977
 20
1.731622218577195
 10
1.944543648263001
 20
1.569543648263011
 10
2.106622218577185
 20
1.392665926637989
 10
2.252668121794723
 20
1.202335199965384
 10
2.381569860407202
 20
1.000000000000008
 10
2.492346414350784
 20
0.7872002197869319
 10
2.584154707161245
 20
0.565555394145598
 10
2.656296022294935
 20
0.3367523740319415
 10
2.708221320783571
 20
0.1025324885840683
 10
2.7395354197523
 20
-0.1353217074439297
 10
2.75
 20
-0.3749999999999894
  0
LINE
  5
1E0
330
F6
100
AcDbEntity
  8
AM_4
100
AcDbLine
 10
-1.375
 20
-1.320064375532608
 30
0.0
 11
-2.749999999999999
 21
-1.320064375532608
 31
0.0
  0
LINE
  5
1E1
330
F6
100
AcDbEntity
  8
AM_4
100
AcDbLine
 10
-1.2875
 20
-2.1625
 30
0.0
 11
-1.375
 21
-2.25
 31
0.0
  0
LINE
  5
1E2
330
F6
100
AcDbEntity
  8
AM_4
100
AcDbLine
 10
1.2875
 20
-2.1625
 30
0.0
 11
-1.2875
 21
-2.1625
 31
0.0
  0
LINE
  5
1E3
330
F6
100
AcDbEntity
  8
AM_4
100
AcDbLine
 10
1.375
 20
-2.25
 30
0.0
 11
1.2875
 21
-2.1625
 31
0.0
  0
LINE
  5
1E4
330
F6
100
AcDbEntity
  8
AM_4
100
AcDbLine
 10
-1.375
 20
-1.375
 30
0.0
 11
-2.749999999999999
 21
-1.375
 31
0.0
  0
LINE
  5
1E5
330
F6
100
AcDbEntity
  8
AM_4
100
AcDbLine
 10
-2.75
 20
-2.25
 30
0.0
 11
-1.375
 21
-2.25
 31
0.0
  0
LINE
  5
1E6
330
F6
100
AcDbEntity
  8
AM_4
100
AcDbLine
 10
-1.375
 20
-2.25
 30
0.0
 11
-1.375
 21
-1.320064375532608
 31
0.0
  0
LINE
  5
1E7
330
F6
100
AcDbEntity
  8
AM_4
100
AcDbLine
 10
-2.749999999999999
 20
-1.4340551
 30
0.0
 11
-1.375
 21
-1.4340551
 31
0.0
  0
LINE
  5
1E8
330
F6
100
AcDbEntity
  8
AM_4
100
AcDbLine
 10
-2.749999999999999
 20
-0.3749999999999994
 30
0.0
 11
-2.75
 21
-2.25
 31
0.0
  0
LINE
  5
1E9
330
F6
100
AcDbEntity
  8
AM_4
100
AcDbLine
 10
1.375
 20
-2.25
 30
0.0
 11
1.375
 21
-1.320064375532607
 31
0.0
  0
LINE
  5
1EA
330
F6
100
AcDbEntity
  8
AM_4
100
AcDbLine
 10
1.375
 20
-2.25
 30
0.0
 11
2.75
 21
-2.25
 31
0.0
  0
LINE
  5
1EB
330
F6
100
AcDbEntity
  8
AM_4
100
AcDbLine
 10
2.75
 20
-2.25
 30
0.0
 11
2.750000000000001
 21
-0.3749999999999994
 31
0.0
  0
LINE
  5
1EC
330
F6
100
AcDbEntity
  8
AM_4
100
AcDbLine
 10
2.750000000000001
 20
-1.375
 30
0.0
 11
1.375
 21
-1.375
 31
0.0
  0
LINE
  5
1ED
330
F6
100
AcDbEntity
  8
AM_4
100
AcDbLine
 10
2.750000000000001
 20
-1.4340551
 30
0.0
 11
1.375
 21
-1.4340551
 31
0.0
  0
ENDBLK
  5
F9
330
F6
100
AcDbEntity
  8
0
100
AcDbBlockEnd
  0
ENDSEC
  0
SECTION
  2
ENTITIES
  0
INSERT
  5
6F
330
1F
100
AcDbEntity
  8
0
100
AcDbBlockReference
  2
1_129290_0
 10
0.0
 20
0.0
 30
0.0
  0
POINT
  5
1EF
330
1F
100
AcDbEntity
  8
ConnectionPoints
100
AcDbPoint
 10
0.0
 20
0.0
 30
0.0
  0
POINT
  5
1F0
330
1F
100
AcDbEntity
  8
ConnectionPoints
100
AcDbPoint
 10
0.0
 20
0.0
 30
-0.65625
  0
POINT
  5
1F1
330
1F
100
AcDbEntity
  8
ConnectionPoints
100
AcDbPoint
 10
0.0
 20
0.0
 30
0.0
  0
POINT
  5
1F2
330
1F
100
AcDbEntity
  8
ConnectionPoints
100
AcDbPoint
 10
0.0
 20
0.0
 30
0.0
  0
ENDSEC
  0
SECTION
  2
OBJECTS
  0
DICTIONARY
  5
C
330
0
100
AcDbDictionary
281
     1
  3
ACAD_DETAILVIEWSTYLE
350
1FA
  3
ACAD_GROUP
350
D
  3
ACAD_LAYOUT
350
1A
  3
ACAD_MATERIAL
350
43
  3
ACAD_MLEADERSTYLE
350
6B
  3
ACAD_MLINESTYLE
350
17
  3
ACAD_PLOTSETTINGS
350
19
  3
ACAD_PLOTSTYLENAME
350
E
  3
ACAD_SCALELIST
350
47
  3
ACAD_SECTIONVIEWSTYLE
350
1FB
  3
ACAD_TABLESTYLE
350
69
  3
ACAD_VISUALSTYLE
350
2A
  3
ACDB_RECOMPOSE_DATA
350
1F7
  3
AcDbVariableDictionary
350
1F3
  0
SUN
  5
6D
330
29
100
AcDbSun
 90
        1
290
     0
 63
     7
421
 16777215
 40
1.0
291
     1
 91
  2455826
 92
 54000000
292
     0
 70
     2
 71
   256
280
     1
  0
DICTIONARY
  5
1FA
102
{ACAD_REACTORS
330
C
102
}
330
C
100
AcDbDictionary
281
     1
  0
DICTIONARY
  5
D
102
{ACAD_REACTORS
330
C
102
}
330
C
100
AcDbDictionary
281
     1
  0
DICTIONARY
  5
1A
102
{ACAD_REACTORS
330
C
102
}
330
C
100
AcDbDictionary
281
     1
  3
Layout1
350
1E
  3
Layout2
350
26
  3
Model
350
22
  0
DICTIONARY
  5
43
102
{ACAD_REACTORS
330
C
102
}
330
C
100
AcDbDictionary
281
     1
  3
ByBlock
350
45
  3
ByLayer
350
44
  3
Global
350
46
  0
DICTIONARY
  5
6B
102
{ACAD_REACTORS
330
C
102
}
330
C
100
AcDbDictionary
281
     1
  3
Standard
350
6C
  0
DICTIONARY
  5
17
102
{ACAD_REACTORS
330
C
102
}
330
C
100
AcDbDictionary
281
     1
  3
Standard
350
18
  0
DICTIONARY
  5
19
102
{ACAD_REACTORS
330
C
102
}
330
C
100
AcDbDictionary
281
     1
  0
ACDBDICTIONARYWDFLT
  5
E
102
{ACAD_REACTORS
330
C
102
}
330
C
100
AcDbDictionary
281
     1
  3
Normal
350
F
100
AcDbDictionaryWithDefault
340
F
  0
DICTIONARY
  5
47
102
{ACAD_REACTORS
330
C
102
}
330
C
100
AcDbDictionary
281
     1
  3
A0
350
48
  3
A1
350
49
  3
A2
350
4A
  3
A3
350
4B
  3
A4
350
4C
  3
A5
350
4D
  3
A6
350
4E
  3
A7
350
4F
  3
A8
350
50
  3
A9
350
51
  3
B0
350
52
  3
B1
350
53
  3
B2
350
54
  3
B3
350
55
  3
B4
350
56
  3
B5
350
57
  3
B6
350
58
  3
B7
350
59
  3
B8
350
5A
  3
B9
350
5B
  3
C0
350
5C
  3
C1
350
5D
  3
C2
350
5E
  3
C3
350
5F
  3
C4
350
60
  3
C5
350
61
  3
C6
350
62
  3
C7
350
63
  3
C8
350
64
  3
C9
350
65
  3
D0
350
66
  3
D1
350
67
  3
D2
350
68
  0
DICTIONARY
  5
1FB
102
{ACAD_REACTORS
330
C
102
}
330
C
100
AcDbDictionary
281
     1
  0
DICTIONARY
  5
69
102
{ACAD_REACTORS
330
C
102
}
330
C
100
AcDbDictionary
281
     1
  3
Standard
350
6A
  0
DICTIONARY
  5
2A
102
{ACAD_REACTORS
330
C
102
}
330
C
100
AcDbDictionary
281
     1
  3
2dWireframe
350
2F
  3
Basic
350
32
  3
Brighten
350
36
  3
ColorChange
350
3A
  3
Conceptual
350
34
  3
Dim
350
35
  3
EdgeColorOff
350
3D
  3
Facepattern
350
39
  3
Flat
350
2B
  3
FlatWithEdges
350
2C
  3
Gouraud
350
2D
  3
GouraudWithEdges
350
2E
  3
Hidden
350
31
  3
JitterOff
350
3B
  3
Linepattern
350
38
  3
OverhangOff
350
3C
  3
Realistic
350
33
  3
Shaded
350
42
  3
Shaded with edges
350
41
  3
Shades of Gray
350
3E
  3
Sketchy
350
3F
  3
Thicken
350
37
  3
Wireframe
350
30
  3
X-Ray
350
40
  0
XRECORD
  5
1F7
102
{ACAD_REACTORS
330
C
102
}
330
C
100
AcDbXrecord
280
     1
 90
        1
330
6A
  0
DICTIONARY
  5
1F3
102
{ACAD_REACTORS
330
C
102
}
330
C
100
AcDbDictionary
281
     1
  3
CANNOSCALE
350
1F4
  3
CMLEADERSTYLE
350
1F9
  3
CTABLESTYLE
350
1F8
  0
LAYOUT
  5
1E
102
{ACAD_REACTORS
330
1A
102
}
330
1A
100
AcDbPlotSettings
  1

  2
none_device
  4

  6

 40
0.0
 41
0.0
 42
0.0
 43
0.0
 44
0.0
 45
0.0
 46
0.0
 47
0.0
 48
0.0
 49
0.0
140
0.0
141
0.0
142
1.0
143
1.0
 70
   688
 72
     0
 73
     0
 74
     5
  7

 75
    16
 76
     0
 77
     2
 78
   300
147
1.0
148
0.0
149
0.0
100
AcDbLayout
  1
Layout1
 70
     1
 71
     1
 10
0.0
 20
0.0
 11
12.0
 21
9.0
 12
0.0
 22
0.0
 32
0.0
 14
1.000000000000000E+20
 24
1.000000000000000E+20
 34
1.000000000000000E+20
 15
-1.000000000000000E+20
 25
-1.000000000000000E+20
 35
-1.000000000000000E+20
146
0.0
 13
0.0
 23
0.0
 33
0.0
 16
1.0
 26
0.0
 36
0.0
 17
0.0
 27
1.0
 37
0.0
 76
     0
330
1B
  0
LAYOUT
  5
26
102
{ACAD_REACTORS
330
1A
102
}
330
1A
100
AcDbPlotSettings
  1

  2
none_device
  4

  6

 40
0.0
 41
0.0
 42
0.0
 43
0.0
 44
0.0
 45
0.0
 46
0.0
 47
0.0
 48
0.0
 49
0.0
140
0.0
141
0.0
142
1.0
143
1.0
 70
   688
 72
     0
 73
     0
 74
     5
  7

 75
    16
 76
     0
 77
     2
 78
   300
147
1.0
148
0.0
149
0.0
100
AcDbLayout
  1
Layout2
 70
     1
 71
     2
 10
0.0
 20
0.0
 11
0.0
 21
0.0
 12
0.0
 22
0.0
 32
0.0
 14
0.0
 24
0.0
 34
0.0
 15
0.0
 25
0.0
 35
0.0
146
0.0
 13
0.0
 23
0.0
 33
0.0
 16
1.0
 26
0.0
 36
0.0
 17
0.0
 27
1.0
 37
0.0
 76
     0
330
23
  0
LAYOUT
  5
22
102
{ACAD_REACTORS
330
1A
102
}
330
1A
100
AcDbPlotSettings
  1

  2
none_device
  4
Letter_(8.50_x_11.00_Inches)
  6

 40
6.35
 41
6.35
 42
6.35000508
 43
6.35000508
 44
215.9
 45
279.4
 46
0.0
 47
0.0
 48
0.0
 49
0.0
140
0.0
141
0.0
142
1.0
143
1.0
 70
  1712
 72
     0
 73
     0
 74
     0
  7

 75
     0
 76
     0
 77
     2
 78
   300
147
1.0
148
0.0
149
0.0
100
AcDbLayout
  1
Model
 70
     1
 71
     0
 10
0.0
 20
0.0
 11
12.0
 21
9.0
 12
0.0
 22
0.0
 32
0.0
 14
1.000000000000000E+20
 24
1.000000000000000E+20
 34
1.000000000000000E+20
 15
-1.000000000000000E+20
 25
-1.000000000000000E+20
 35
-1.000000000000000E+20
146
0.0
 13
0.0
 23
0.0
 33
0.0
 16
1.0
 26
0.0
 36
0.0
 17
0.0
 27
1.0
 37
0.0
 76
     0
330
1F
331
29
  0
MATERIAL
  5
45
102
{ACAD_REACTORS
330
43
102
}
330
43
100
AcDbMaterial
  1
ByBlock
 72
     1
 94
      127
  0
MATERIAL
  5
44
102
{ACAD_REACTORS
330
43
102
}
330
43
100
AcDbMaterial
  1
ByLayer
 72
     1
 94
      127
  0
MATERIAL
  5
46
102
{ACAD_REACTORS
330
43
102
}
330
43
100
AcDbMaterial
  1
Global
 72
     1
 94
      127
  0
MLEADERSTYLE
  5
6C
102
{ACAD_REACTORS
330
6B
102
}
330
6B
100
AcDbMLeaderStyle
179
     2
170
     2
171
     1
172
     0
 90
        2
 40
0.0
 41
0.0
173
     1
 91
-1056964608
340
14
 92
       -2
290
     1
 42
0.09
291
     1
 43
0.36
  3
Standard
341
0
 44
0.18
300

342
11
174
     1
178
     6
175
     1
176
     0
 93
-1056964608
 45
0.18
292
     0
297
     0
 46
0.18
343
0
 94
-1056964608
 47
1.0
 49
1.0
140
1.0
293
     1
141
0.0
294
     1
177
     0
142
1.0
295
     0
296
     0
143
0.125
271
     0
272
     9
273
     9
298
     0
  0
MLINESTYLE
  5
18
102
{ACAD_REACTORS
330
17
102
}
330
17
100
AcDbMlineStyle
  2
Standard
 70
     0
  3

 62
   256
 51
90.0
 52
90.0
 71
     2
 49
0.5
 62
   256
  6
BYLAYER
 49
-0.5
 62
   256
  6
BYLAYER
  0
ACDBPLACEHOLDER
  5
F
102
{ACAD_REACTORS
330
E
102
}
330
E
  0
SCALE
  5
48
102
{ACAD_REACTORS
330
47
102
}
330
47
100
AcDbScale
 70
     0
300
1:1
140
1.0
141
1.0
290
     1
  0
SCALE
  5
49
102
{ACAD_REACTORS
330
47
102
}
330
47
100
AcDbScale
 70
     0
300
1:2
140
1.0
141
2.0
290
     0
  0
SCALE
  5
4A
102
{ACAD_REACTORS
330
47
102
}
330
47
100
AcDbScale
 70
     0
300
1:4
140
1.0
141
4.0
290
     0
  0
SCALE
  5
4B
102
{ACAD_REACTORS
330
47
102
}
330
47
100
AcDbScale
 70
     0
300
1:5
140
1.0
141
5.0
290
     0
  0
SCALE
  5
4C
102
{ACAD_REACTORS
330
47
102
}
330
47
100
AcDbScale
 70
     0
300
1:8
140
1.0
141
8.0
290
     0
  0
SCALE
  5
4D
102
{ACAD_REACTORS
330
47
102
}
330
47
100
AcDbScale
 70
     0
300
1:10
140
1.0
141
10.0
290
     0
  0
SCALE
  5
4E
102
{ACAD_REACTORS
330
47
102
}
330
47
100
AcDbScale
 70
     0
300
1:16
140
1.0
141
16.0
290
     0
  0
SCALE
  5
4F
102
{ACAD_REACTORS
330
47
102
}
330
47
100
AcDbScale
 70
     0
300
1:20
140
1.0
141
20.0
290
     0
  0
SCALE
  5
50
102
{ACAD_REACTORS
330
47
102
}
330
47
100
AcDbScale
 70
     0
300
1:30
140
1.0
141
30.0
290
     0
  0
SCALE
  5
51
102
{ACAD_REACTORS
330
47
102
}
330
47
100
AcDbScale
 70
     0
300
1:40
140
1.0
141
40.0
290
     0
  0
SCALE
  5
52
102
{ACAD_REACTORS
330
47
102
}
330
47
100
AcDbScale
 70
     0
300
1:50
140
1.0
141
50.0
290
     0
  0
SCALE
  5
53
102
{ACAD_REACTORS
330
47
102
}
330
47
100
AcDbScale
 70
     0
300
1:100
140
1.0
141
100.0
290
     0
  0
SCALE
  5
54
102
{ACAD_REACTORS
330
47
102
}
330
47
100
AcDbScale
 70
     0
300
2:1
140
2.0
141
1.0
290
     0
  0
SCALE
  5
55
102
{ACAD_REACTORS
330
47
102
}
330
47
100
AcDbScale
 70
     0
300
4:1
140
4.0
141
1.0
290
     0
  0
SCALE
  5
56
102
{ACAD_REACTORS
330
47
102
}
330
47
100
AcDbScale
 70
     0
300
8:1
140
8.0
141
1.0
290
     0
  0
SCALE
  5
57
102
{ACAD_REACTORS
330
47
102
}
330
47
100
AcDbScale
 70
     0
300
10:1
140
10.0
141
1.0
290
     0
  0
SCALE
  5
58
102
{ACAD_REACTORS
330
47
102
}
330
47
100
AcDbScale
 70
     0
300
100:1
140
100.0
141
1.0
290
     0
  0
SCALE
  5
59
102
{ACAD_REACTORS
330
47
102
}
330
47
100
AcDbScale
 70
     0
300
1/128" = 1'-0"
140
0.0078125
141
12.0
290
     0
  0
SCALE
  5
5A
102
{ACAD_REACTORS
330
47
102
}
330
47
100
AcDbScale
 70
     0
300
1/64" = 1'-0"
140
0.015625
141
12.0
290
     0
  0
SCALE
  5
5B
102
{ACAD_REACTORS
330
47
102
}
330
47
100
AcDbScale
 70
     0
300
1/32" = 1'-0"
140
0.03125
141
12.0
290
     0
  0
SCALE
  5
5C
102
{ACAD_REACTORS
330
47
102
}
330
47
100
AcDbScale
 70
     0
300
1/16" = 1'-0"
140
0.0625
141
12.0
290
     0
  0
SCALE
  5
5D
102
{ACAD_REACTORS
330
47
102
}
330
47
100
AcDbScale
 70
     0
300
3/32" = 1'-0"
140
0.09375
141
12.0
290
     0
  0
SCALE
  5
5E
102
{ACAD_REACTORS
330
47
102
}
330
47
100
AcDbScale
 70
     0
300
1/8" = 1'-0"
140
0.125
141
12.0
290
     0
  0
SCALE
  5
5F
102
{ACAD_REACTORS
330
47
102
}
330
47
100
AcDbScale
 70
     0
300
3/16" = 1'-0"
140
0.1875
141
12.0
290
     0
  0
SCALE
  5
60
102
{ACAD_REACTORS
330
47
102
}
330
47
100
AcDbScale
 70
     0
300
1/4" = 1'-0"
140
0.25
141
12.0
290
     0
  0
SCALE
  5
61
102
{ACAD_REACTORS
330
47
102
}
330
47
100
AcDbScale
 70
     0
300
3/8" = 1'-0"
140
0.375
141
12.0
290
     0
  0
SCALE
  5
62
102
{ACAD_REACTORS
330
47
102
}
330
47
100
AcDbScale
 70
     0
300
1/2" = 1'-0"
140
0.5
141
12.0
290
     0
  0
SCALE
  5
63
102
{ACAD_REACTORS
330
47
102
}
330
47
100
AcDbScale
 70
     0
300
3/4" = 1'-0"
140
0.75
141
12.0
290
     0
  0
SCALE
  5
64
102
{ACAD_REACTORS
330
47
102
}
330
47
100
AcDbScale
 70
     0
300
1" = 1'-0"
140
1.0
141
12.0
290
     0
  0
SCALE
  5
65
102
{ACAD_REACTORS
330
47
102
}
330
47
100
AcDbScale
 70
     0
300
1-1/2" = 1'-0"
140
1.5
141
12.0
290
     0
  0
SCALE
  5
66
102
{ACAD_REACTORS
330
47
102
}
330
47
100
AcDbScale
 70
     0
300
3" = 1'-0"
140
3.0
141
12.0
290
     0
  0
SCALE
  5
67
102
{ACAD_REACTORS
330
47
102
}
330
47
100
AcDbScale
 70
     0
300
6" = 1'-0"
140
6.0
141
12.0
290
     0
  0
SCALE
  5
68
102
{ACAD_REACTORS
330
47
102
}
330
47
100
AcDbScale
 70
     0
300
1'-0" = 1'-0"
140
12.0
141
12.0
290
     0
  0
TABLESTYLE
  5
6A
102
{ACAD_REACTORS
330
69
102
}
102
{ACAD_XDICTIONARY
360
1F5
102
}
330
69
100
AcDbTableStyle
  3
Standard
 70
     0
 71
     0
 40
0.06
 41
0.06
280
     0
281
     0
  7
Standard
140
0.18
170
     2
 62
     0
 63
   257
283
     0
 90
        4
 91
        0
  1

274
    -2
284
     1
 64
     0
275
    -2
285
     1
 65
     0
276
    -2
286
     1
 66
     0
277
    -2
287
     1
 67
     0
278
    -2
288
     1
 68
     0
279
    -2
289
     1
 69
     0
  7
Standard
140
0.25
170
     5
 62
     0
 63
   257
283
     0
 90
        4
 91
        0
  1

274
    -2
284
     1
 64
     0
275
    -2
285
     1
 65
     0
276
    -2
286
     1
 66
     0
277
    -2
287
     1
 67
     0
278
    -2
288
     1
 68
     0
279
    -2
289
     1
 69
     0
  7
Standard
140
0.18
170
     5
 62
     0
 63
   257
283
     0
 90
        4
 91
        0
  1

274
    -2
284
     1
 64
     0
275
    -2
285
     1
 65
     0
276
    -2
286
     1
 66
     0
277
    -2
287
     1
 67
     0
278
    -2
288
     1
 68
     0
279
    -2
289
     1
 69
     0
  0
VISUALSTYLE
  5
2F
102
{ACAD_REACTORS
330
2A
102
}
330
2A
100
AcDbVisualStyle
  2
2dWireframe
 70
     4
177
     3
291
     0
 70
    58
 90
        0
176
     1
 90
        2
176
     1
 90
        0
176
     1
 90
        0
176
     1
 40
0.6
176
     1
 40
30.0
176
     1
 62
     7
420
 16777215
176
     1
 90
        1
176
     1
 90
        4
176
     1
 62
     7
176
     1
 62
   257
176
     1
 90
        1
176
     1
 90
        1
176
     1
 40
1.0
176
     1
 90
        0
176
     1
 62
   257
176
     1
 40
1.0
176
     1
 90
        1
176
     1
 90
        6
176
     1
 90
        2
176
     1
 62
     7
176
     1
 90
        5
176
     1
 90
        0
176
     1
 90
        0
176
     1
290
     0
176
     1
 90
        1
176
     1
 40
0.0
176
     1
 90
        0
176
     1
290
     1
176
     1
290
     1
176
     1
290
     0
176
     1
290
     0
176
     1
290
     0
176
     1
290
     0
176
     1
290
     0
176
     1
290
     0
176
     1
290
     0
176
     1
 90
       50
176
     1
 40
0.0
176
     1
 40
1.0
176
     1
 90
        0
176
     1
 62
    18
420
        0
176
     1
 90
       50
176
     1
 90
        3
176
     1
 62
     5
420
      255
176
     1
290
     0
176
     1
 90
       50
176
     1
 90
       50
176
     1
 90
       50
176
     1
290
     0
176
     1
 90
       50
176
     1
 62
   256
176
     0
 40
1.0
176
     0
 90
        2
176
     1
  1
strokes_ogs.tif
176
     1
290
     0
176
     1
 40
1.0
176
     1
 40
1.0
176
     1
  0
VISUALSTYLE
  5
32
102
{ACAD_REACTORS
330
2A
102
}
330
2A
100
AcDbVisualStyle
  2
Basic
 70
     7
177
     3
291
     1
 70
    58
 90
        1
176
     1
 90
        0
176
     1
 90
        1
176
     1
 90
        0
176
     1
 40
0.6
176
     1
 40
30.0
176
     1
 62
     7
420
 16777215
176
     1
 90
        0
176
     1
 90
        4
176
     1
 62
     7
176
     1
 62
   257
176
     1
 90
        1
176
     1
 90
        1
176
     1
 40
1.0
176
     1
 90
        8
176
     1
 62
     7
176
     1
 40
1.0
176
     1
 90
        1
176
     1
 90
        6
176
     1
 90
        2
176
     1
 62
     7
176
     1
 90
        5
176
     1
 90
        0
176
     1
 90
        0
176
     1
290
     0
176
     1
 90
        1
176
     1
 40
0.0
176
     1
 90
        0
176
     1
290
     0
176
     1
290
     1
176
     1
290
     1
176
     1
290
     0
176
     1
290
     0
176
     1
290
     0
176
     1
290
     0
176
     1
290
     0
176
     1
290
     0
176
     1
 90
       50
176
     1
 40
0.0
176
     1
 40
1.0
176
     1
 90
        0
176
     1
 62
    18
420
        0
176
     1
 90
       50
176
     1
 90
        3
176
     1
 62
     5
420
      255
176
     1
290
     0
176
     1
 90
       50
176
     1
 90
       50
176
     1
 90
       50
176
     1
290
     0
176
     1
 90
       50
176
     1
 62
   256
176
     0
 40
1.0
176
     0
 90
        2
176
     1
  1
strokes_ogs.tif
176
     1
290
     0
176
     1
 40
1.0
176
     1
 40
1.0
176
     1
  0
VISUALSTYLE
  5
36
102
{ACAD_REACTORS
330
2A
102
}
330
2A
100
AcDbVisualStyle
  2
Brighten
 70
    12
177
     3
291
     1
 70
    58
 90
        2
176
     1
 90
        2
176
     1
 90
        0
176
     1
 90
        0
176
     1
 40
0.6
176
     1
 40
30.0
176
     1
 62
     7
420
 16777215
176
     1
 90
        1
176
     1
 90
        4
176
     1
 62
     7
176
     1
 62
   257
176
     1
 90
        1
176
     1
 90
        1
176
     1
 40
1.0
176
     1
 90
        8
176
     1
 62
     7
176
     1
 40
1.0
176
     1
 90
        1
176
     1
 90
        6
176
     1
 90
        2
176
     1
 62
     7
176
     1
 90
        5
176
     1
 90
        0
176
     1
 90
        0
176
     1
290
     0
176
     1
 90
        1
176
     1
 40
50.0
176
     1
 90
        0
176
     1
290
     0
176
     1
290
     1
176
     1
290
     1
176
     1
290
     0
176
     1
290
     0
176
     1
290
     0
176
     1
290
     0
176
     1
290
     0
176
     1
290
     0
176
     1
 90
       50
176
     1
 40
0.0
176
     1
 40
1.0
176
     1
 90
        0
176
     1
 62
    18
420
        0
176
     1
 90
       50
176
     1
 90
        3
176
     1
 62
     5
420
      255
176
     1
290
     0
176
     1
 90
       50
176
     1
 90
       50
176
     1
 90
       50
176
     1
290
     0
176
     1
 90
       50
176
     1
 62
   256
176
     0
 40
1.0
176
     0
 90
        2
176
     1
  1
strokes_ogs.tif
176
     1
290
     0
176
     1
 40
1.0
176
     1
 40
1.0
176
     1
  0
VISUALSTYLE
  5
3A
102
{ACAD_REACTORS
330
2A
102
}
330
2A
100
AcDbVisualStyle
  2
ColorChange
 70
    16
177
     3
291
     1
 70
    58
 90
        2
176
     1
 90
        2
176
     1
 90
        3
176
     1
 90
        0
176
     1
 40
0.6
176
     1
 40
30.0
176
     1
 62
     8
420
  8421504
176
     1
 90
        1
176
     1
 90
        4
176
     1
 62
     7
176
     1
 62
   257
176
     1
 90
        1
176
     1
 90
        1
176
     1
 40
1.0
176
     1
 90
        8
176
     1
 62
     8
420
  8421504
176
     1
 40
1.0
176
     1
 90
        1
176
     1
 90
        6
176
     1
 90
        2
176
     1
 62
     7
176
     1
 90
        5
176
     1
 90
        0
176
     1
 90
        0
176
     1
290
     0
176
     1
 90
        1
176
     1
 40
0.0
176
     1
 90
        0
176
     1
290
     0
176
     1
290
     1
176
     1
290
     1
176
     1
290
     0
176
     1
290
     0
176
     1
290
     0
176
     1
290
     0
176
     1
290
     0
176
     1
290
     0
176
     1
 90
       50
176
     1
 40
0.0
176
     1
 40
1.0
176
     1
 90
        0
176
     1
 62
    18
420
        0
176
     1
 90
       50
176
     1
 90
        3
176
     1
 62
     5
420
      255
176
     1
290
     0
176
     1
 90
       50
176
     1
 90
       50
176
     1
 90
       50
176
     1
290
     0
176
     1
 90
       50
176
     1
 62
   256
176
     0
 40
1.0
176
     0
 90
        2
176
     1
  1
strokes_ogs.tif
176
     1
290
     0
176
     1
 40
1.0
176
     1
 40
1.0
176
     1
  0
VISUALSTYLE
  5
34
102
{ACAD_REACTORS
330
2A
102
}
330
2A
100
AcDbVisualStyle
  2
Conceptual
 70
     9
177
     3
291
     0
 70
    58
 90
        3
176
     1
 90
        2
176
     1
 90
        0
176
     1
 90
        0
176
     1
 40
0.6
176
     1
 40
30.0
176
     1
 62
     7
420
 16777215
176
     1
 90
        2
176
     1
 90
        2
176
     1
 62
     7
176
     1
 62
   257
176
     1
 90
        1
176
     1
 90
        1
176
     1
 40
179.0
176
     1
 90
        8
176
     1
 62
     7
176
     1
 40
1.0
176
     1
 90
        1
176
     1
 90
        6
176
     1
 90
        2
176
     1
 62
     7
176
     1
 90
        3
176
     1
 90
        0
176
     1
 90
        0
176
     1
290
     0
176
     1
 90
        1
176
     1
 40
0.0
176
     1
 90
        0
176
     1
290
     0
176
     1
290
     1
176
     1
290
     1
176
     1
290
     0
176
     1
290
     0
176
     1
290
     0
176
     1
290
     0
176
     1
290
     0
176
     1
290
     0
176
     1
 90
       50
176
     1
 40
0.0
176
     1
 40
1.0
176
     1
 90
        0
176
     1
 62
    18
420
        0
176
     1
 90
       50
176
     1
 90
        3
176
     1
 62
     5
420
      255
176
     1
290
     0
176
     1
 90
       50
176
     1
 90
       50
176
     1
 90
       50
176
     1
290
     0
176
     1
 90
       50
176
     1
 62
   256
176
     0
 40
1.0
176
     0
 90
        2
176
     1
  1
strokes_ogs.tif
176
     1
290
     0
176
     1
 40
1.0
176
     1
 40
1.0
176
     1
  0
VISUALSTYLE
  5
35
102
{ACAD_REACTORS
330
2A
102
}
330
2A
100
AcDbVisualStyle
  2
Dim
 70
    11
177
     3
291
     1
 70
    58
 90
        2
176
     1
 90
        2
176
     1
 90
        0
176
     1
 90
        0
176
     1
 40
0.6
176
     1
 40
30.0
176
     1
 62
     7
420
 16777215
176
     1
 90
        1
176
     1
 90
        4
176
     1
 62
     7
176
     1
 62
   257
176
     1
 90
        1
176
     1
 90
        1
176
     1
 40
1.0
176
     1
 90
        8
176
     1
 62
     7
176
     1
 40
1.0
176
     1
 90
        1
176
     1
 90
        6
176
     1
 90
        2
176
     1
 62
     7
176
     1
 90
        5
176
     1
 90
        0
176
     1
 90
        0
176
     1
290
     0
176
     1
 90
        1
176
     1
 40
-50.0
176
     1
 90
        0
176
     1
290
     0
176
     1
290
     1
176
     1
290
     1
176
     1
290
     0
176
     1
290
     0
176
     1
290
     0
176
     1
290
     0
176
     1
290
     0
176
     1
290
     0
176
     1
 90
       50
176
     1
 40
0.0
176
     1
 40
1.0
176
     1
 90
        0
176
     1
 62
    18
420
        0
176
     1
 90
       50
176
     1
 90
        3
176
     1
 62
     5
420
      255
176
     1
290
     0
176
     1
 90
       50
176
     1
 90
       50
176
     1
 90
       50
176
     1
290
     0
176
     1
 90
       50
176
     1
 62
   256
176
     0
 40
1.0
176
     0
 90
        2
176
     1
  1
strokes_ogs.tif
176
     1
290
     0
176
     1
 40
1.0
176
     1
 40
1.0
176
     1
  0
VISUALSTYLE
  5
3D
102
{ACAD_REACTORS
330
2A
102
}
330
2A
100
AcDbVisualStyle
  2
EdgeColorOff
 70
    22
177
     3
291
     1
 70
    58
 90
        2
176
     0
 90
        2
176
     0
 90
        0
176
     0
 90
        0
176
     0
 40
0.6
176
     0
 40
30.0
176
     0
 62
     7
420
 16777215
176
     0
 90
        1
176
     0
 90
        4
176
     0
 62
     7
176
     0
 62
   257
176
     0
 90
        1
176
     0
 90
        1
176
     0
 40
1.0
176
     0
 90
        8
176
     2
 62
     7
176
     0
 40
1.0
176
     0
 90
        1
176
     0
 90
        6
176
     0
 90
        2
176
     0
 62
     7
176
     0
 90
        5
176
     0
 90
        0
176
     0
 90
        0
176
     0
290
     0
176
     0
 90
        1
176
     0
 40
0.0
176
     0
 90
        0
176
     0
290
     0
176
     0
290
     1
176
     0
290
     1
176
     0
290
     0
176
     0
290
     0
176
     0
290
     0
176
     0
290
     0
176
     0
290
     0
176
     0
290
     0
176
     0
 90
       50
176
     0
 40
0.0
176
     0
 40
1.0
176
     0
 90
        0
176
     0
 62
    18
420
        0
176
     0
 90
       50
176
     0
 90
        3
176
     0
 62
     5
420
      255
176
     0
290
     0
176
     0
 90
       50
176
     0
 90
       50
176
     0
 90
       50
176
     0
290
     0
176
     0
 90
       50
176
     0
 62
   256
176
     0
 40
1.0
176
     0
 90
        2
176
     0
  1
strokes_ogs.tif
176
     0
290
     0
176
     0
 40
1.0
176
     0
 40
1.0
176
     0
  0
VISUALSTYLE
  5
39
102
{ACAD_REACTORS
330
2A
102
}
330
2A
100
AcDbVisualStyle
  2
Facepattern
 70
    15
177
     3
291
     1
 70
    58
 90
        2
176
     1
 90
        2
176
     1
 90
        0
176
     1
 90
        0
176
     1
 40
0.6
176
     1
 40
30.0
176
     1
 62
     7
420
 16777215
176
     1
 90
        1
176
     1
 90
        4
176
     1
 62
     7
176
     1
 62
   257
176
     1
 90
        1
176
     1
 90
        1
176
     1
 40
1.0
176
     1
 90
        8
176
     1
 62
     7
176
     1
 40
1.0
176
     1
 90
        1
176
     1
 90
        6
176
     1
 90
        2
176
     1
 62
     7
176
     1
 90
        5
176
     1
 90
        0
176
     1
 90
        0
176
     1
290
     0
176
     1
 90
        1
176
     1
 40
0.0
176
     1
 90
        0
176
     1
290
     0
176
     1
290
     1
176
     1
290
     1
176
     1
290
     0
176
     1
290
     0
176
     1
290
     0
176
     1
290
     0
176
     1
290
     0
176
     1
290
     0
176
     1
 90
       50
176
     1
 40
0.0
176
     1
 40
1.0
176
     1
 90
        0
176
     1
 62
    18
420
        0
176
     1
 90
       50
176
     1
 90
        3
176
     1
 62
     5
420
      255
176
     1
290
     0
176
     1
 90
       50
176
     1
 90
       50
176
     1
 90
       50
176
     1
290
     0
176
     1
 90
       50
176
     1
 62
   256
176
     0
 40
1.0
176
     0
 90
        2
176
     1
  1
strokes_ogs.tif
176
     1
290
     0
176
     1
 40
1.0
176
     1
 40
1.0
176
     1
  0
VISUALSTYLE
  5
2B
102
{ACAD_REACTORS
330
2A
102
}
330
2A
100
AcDbVisualStyle
  2
Flat
 70
     0
177
     3
291
     1
 70
    58
 90
        2
176
     1
 90
        1
176
     1
 90
        1
176
     1
 90
        2
176
     1
 40
0.6
176
     1
 40
30.0
176
     1
 62
     7
420
 16777215
176
     1
 90
        0
176
     1
 90
        0
176
     1
 62
     7
176
     1
 62
   257
176
     1
 90
        1
176
     1
 90
        1
176
     1
 40
1.0
176
     1
 90
        8
176
     1
 62
     7
176
     1
 40
1.0
176
     1
 90
        1
176
     1
 90
        6
176
     1
 90
        2
176
     1
 62
     7
176
     1
 90
        5
176
     1
 90
        0
176
     1
 90
        0
176
     1
290
     0
176
     1
 90
       13
176
     1
 40
0.0
176
     1
 90
        0
176
     1
290
     0
176
     1
290
     1
176
     1
290
     1
176
     1
290
     0
176
     1
290
     0
176
     1
290
     0
176
     1
290
     0
176
     1
290
     0
176
     1
290
     0
176
     1
 90
       50
176
     1
 40
0.0
176
     1
 40
1.0
176
     1
 90
        0
176
     1
 62
    18
420
        0
176
     1
 90
       50
176
     1
 90
        3
176
     1
 62
     5
420
      255
176
     1
290
     0
176
     1
 90
       50
176
     1
 90
       50
176
     1
 90
       50
176
     1
290
     0
176
     1
 90
       50
176
     1
 62
   256
176
     0
 40
1.0
176
     0
 90
        2
176
     1
  1
strokes_ogs.tif
176
     1
290
     0
176
     1
 40
1.0
176
     1
 40
1.0
176
     1
  0
VISUALSTYLE
  5
2C
102
{ACAD_REACTORS
330
2A
102
}
330
2A
100
AcDbVisualStyle
  2
FlatWithEdges
 70
     1
177
     3
291
     1
 70
    58
 90
        2
176
     1
 90
        1
176
     1
 90
        1
176
     1
 90
        2
176
     1
 40
0.6
176
     1
 40
30.0
176
     1
 62
     7
420
 16777215
176
     1
 90
        1
176
     1
 90
        0
176
     1
 62
     7
176
     1
 62
   257
176
     1
 90
        1
176
     1
 90
        1
176
     1
 40
1.0
176
     1
 90
        0
176
     1
 62
   257
176
     1
 40
1.0
176
     1
 90
        1
176
     1
 90
        6
176
     1
 90
        2
176
     1
 62
     7
176
     1
 90
        5
176
     1
 90
        0
176
     1
 90
        0
176
     1
290
     0
176
     1
 90
       13
176
     1
 40
0.0
176
     1
 90
        0
176
     1
290
     0
176
     1
290
     1
176
     1
290
     1
176
     1
290
     0
176
     1
290
     0
176
     1
290
     0
176
     1
290
     0
176
     1
290
     0
176
     1
290
     0
176
     1
 90
       50
176
     1
 40
0.0
176
     1
 40
1.0
176
     1
 90
        0
176
     1
 62
    18
420
        0
176
     1
 90
       50
176
     1
 90
        3
176
     1
 62
     5
420
      255
176
     1
290
     0
176
     1
 90
       50
176
     1
 90
       50
176
     1
 90
       50
176
     1
290
     0
176
     1
 90
       50
176
     1
 62
   256
176
     0
 40
1.0
176
     0
 90
        2
176
     1
  1
strokes_ogs.tif
176
     1
290
     0
176
     1
 40
1.0
176
     1
 40
1.0
176
     1
  0
VISUALSTYLE
  5
2D
102
{ACAD_REACTORS
330
2A
102
}
330
2A
100
AcDbVisualStyle
  2
Gouraud
 70
     2
177
     3
291
     1
 70
    58
 90
        2
176
     1
 90
        2
176
     1
 90
        1
176
     1
 90
        2
176
     1
 40
0.6
176
     1
 40
30.0
176
     1
 62
     7
420
 16777215
176
     1
 90
        0
176
     1
 90
        0
176
     1
 62
     7
176
     1
 62
   257
176
     1
 90
        1
176
     1
 90
        1
176
     1
 40
1.0
176
     1
 90
        0
176
     1
 62
     7
176
     1
 40
1.0
176
     1
 90
        1
176
     1
 90
        6
176
     1
 90
        2
176
     1
 62
     7
176
     1
 90
        5
176
     1
 90
        0
176
     1
 90
        0
176
     1
290
     0
176
     1
 90
       13
176
     1
 40
0.0
176
     1
 90
        0
176
     1
290
     0
176
     1
290
     1
176
     1
290
     1
176
     1
290
     0
176
     1
290
     0
176
     1
290
     0
176
     1
290
     0
176
     1
290
     0
176
     1
290
     0
176
     1
 90
       50
176
     1
 40
0.0
176
     1
 40
1.0
176
     1
 90
        0
176
     1
 62
    18
420
        0
176
     1
 90
       50
176
     1
 90
        3
176
     1
 62
     5
420
      255
176
     1
290
     0
176
     1
 90
       50
176
     1
 90
       50
176
     1
 90
       50
176
     1
290
     0
176
     1
 90
       50
176
     1
 62
   256
176
     0
 40
1.0
176
     0
 90
        2
176
     1
  1
strokes_ogs.tif
176
     1
290
     0
176
     1
 40
1.0
176
     1
 40
1.0
176
     1
  0
VISUALSTYLE
  5
2E
102
{ACAD_REACTORS
330
2A
102
}
330
2A
100
AcDbVisualStyle
  2
GouraudWithEdges
 70
     3
177
     3
291
     1
 70
    58
 90
        2
176
     1
 90
        2
176
     1
 90
        1
176
     1
 90
        2
176
     1
 40
0.6
176
     1
 40
30.0
176
     1
 62
     7
420
 16777215
176
     1
 90
        1
176
     1
 90
        0
176
     1
 62
     7
176
     1
 62
   257
176
     1
 90
        1
176
     1
 90
        1
176
     1
 40
1.0
176
     1
 90
        0
176
     1
 62
   257
176
     1
 40
1.0
176
     1
 90
        1
176
     1
 90
        6
176
     1
 90
        2
176
     1
 62
     7
176
     1
 90
        5
176
     1
 90
        0
176
     1
 90
        0
176
     1
290
     0
176
     1
 90
       13
176
     1
 40
0.0
176
     1
 90
        0
176
     1
290
     0
176
     1
290
     1
176
     1
290
     1
176
     1
290
     0
176
     1
290
     0
176
     1
290
     0
176
     1
290
     0
176
     1
290
     0
176
     1
290
     0
176
     1
 90
       50
176
     1
 40
0.0
176
     1
 40
1.0
176
     1
 90
        0
176
     1
 62
    18
420
        0
176
     1
 90
       50
176
     1
 90
        3
176
     1
 62
     5
420
      255
176
     1
290
     0
176
     1
 90
       50
176
     1
 90
       50
176
     1
 90
       50
176
     1
290
     0
176
     1
 90
       50
176
     1
 62
   256
176
     0
 40
1.0
176
     0
 90
        2
176
     1
  1
strokes_ogs.tif
176
     1
290
     0
176
     1
 40
1.0
176
     1
 40
1.0
176
     1
  0
VISUALSTYLE
  5
31
102
{ACAD_REACTORS
330
2A
102
}
330
2A
100
AcDbVisualStyle
  2
Hidden
 70
     6
177
     3
291
     0
 70
    58
 90
        1
176
     1
 90
        2
176
     1
 90
        2
176
     1
 90
        0
176
     1
 40
0.6
176
     1
 40
30.0
176
     1
 62
     7
420
 16777215
176
     1
 90
        2
176
     1
 90
        2
176
     1
 62
     7
176
     1
 62
   257
176
     1
 90
        2
176
     1
 90
        1
176
     1
 40
40.0
176
     1
 90
        0
176
     1
 62
   257
176
     1
 40
1.0
176
     1
 90
        1
176
     1
 90
        6
176
     1
 90
        2
176
     1
 62
     7
176
     1
 90
        3
176
     1
 90
        0
176
     1
 90
        0
176
     1
290
     0
176
     1
 90
        1
176
     1
 40
0.0
176
     1
 90
        0
176
     1
290
     0
176
     1
290
     1
176
     1
290
     1
176
     1
290
     0
176
     1
290
     0
176
     1
290
     0
176
     1
290
     0
176
     1
290
     0
176
     1
290
     0
176
     1
 90
       50
176
     1
 40
0.0
176
     1
 40
1.0
176
     1
 90
        0
176
     1
 62
    18
420
        0
176
     1
 90
       50
176
     1
 90
        3
176
     1
 62
     5
420
      255
176
     1
290
     0
176
     1
 90
       50
176
     1
 90
       50
176
     1
 90
       50
176
     1
290
     0
176
     1
 90
       50
176
     1
 62
   256
176
     0
 40
1.0
176
     0
 90
        2
176
     1
  1
strokes_ogs.tif
176
     1
290
     0
176
     1
 40
1.0
176
     1
 40
1.0
176
     1
  0
VISUALSTYLE
  5
3B
102
{ACAD_REACTORS
330
2A
102
}
330
2A
100
AcDbVisualStyle
  2
JitterOff
 70
    20
177
     3
291
     1
 70
    58
 90
        2
176
     0
 90
        2
176
     0
 90
        0
176
     0
 90
        0
176
     0
 40
0.6
176
     0
 40
30.0
176
     0
 62
     7
420
 16777215
176
     0
 90
        1
176
     0
 90
        4
176
     0
 62
     7
176
     0
 62
   257
176
     0
 90
        1
176
     0
 90
        1
176
     0
 40
1.0
176
     0
 90
       10
176
     2
 62
     7
176
     0
 40
1.0
176
     0
 90
        1
176
     0
 90
        6
176
     0
 90
        2
176
     0
 62
     7
176
     0
 90
        5
176
     0
 90
        0
176
     0
 90
        0
176
     0
290
     0
176
     0
 90
        1
176
     0
 40
0.0
176
     0
 90
        0
176
     0
290
     0
176
     0
290
     1
176
     0
290
     1
176
     0
290
     0
176
     0
290
     0
176
     0
290
     0
176
     0
290
     0
176
     0
290
     0
176
     0
290
     0
176
     0
 90
       50
176
     0
 40
0.0
176
     0
 40
1.0
176
     0
 90
        0
176
     0
 62
    18
420
        0
176
     0
 90
       50
176
     0
 90
        3
176
     0
 62
     5
420
      255
176
     0
290
     0
176
     0
 90
       50
176
     0
 90
       50
176
     0
 90
       50
176
     0
290
     0
176
     0
 90
       50
176
     0
 62
   256
176
     0
 40
1.0
176
     0
 90
        2
176
     0
  1
strokes_ogs.tif
176
     0
290
     0
176
     0
 40
1.0
176
     0
 40
1.0
176
     0
  0
VISUALSTYLE
  5
38
102
{ACAD_REACTORS
330
2A
102
}
330
2A
100
AcDbVisualStyle
  2
Linepattern
 70
    14
177
     3
291
     1
 70
    58
 90
        2
176
     1
 90
        2
176
     1
 90
        0
176
     1
 90
        0
176
     1
 40
0.6
176
     1
 40
30.0
176
     1
 62
     7
420
 16777215
176
     1
 90
        1
176
     1
 90
        4
176
     1
 62
     7
176
     1
 62
   257
176
     1
 90
        7
176
     1
 90
        7
176
     1
 40
1.0
176
     1
 90
        8
176
     1
 62
     7
176
     1
 40
1.0
176
     1
 90
        1
176
     1
 90
        6
176
     1
 90
        2
176
     1
 62
     7
176
     1
 90
        5
176
     1
 90
        0
176
     1
 90
        0
176
     1
290
     0
176
     1
 90
        1
176
     1
 40
0.0
176
     1
 90
        0
176
     1
290
     0
176
     1
290
     1
176
     1
290
     1
176
     1
290
     0
176
     1
290
     0
176
     1
290
     0
176
     1
290
     0
176
     1
290
     0
176
     1
290
     0
176
     1
 90
       50
176
     1
 40
0.0
176
     1
 40
1.0
176
     1
 90
        0
176
     1
 62
    18
420
        0
176
     1
 90
       50
176
     1
 90
        3
176
     1
 62
     5
420
      255
176
     1
290
     0
176
     1
 90
       50
176
     1
 90
       50
176
     1
 90
       50
176
     1
290
     0
176
     1
 90
       50
176
     1
 62
   256
176
     0
 40
1.0
176
     0
 90
        2
176
     1
  1
strokes_ogs.tif
176
     1
290
     0
176
     1
 40
1.0
176
     1
 40
1.0
176
     1
  0
VISUALSTYLE
  5
3C
102
{ACAD_REACTORS
330
2A
102
}
330
2A
100
AcDbVisualStyle
  2
OverhangOff
 70
    21
177
     3
291
     1
 70
    58
 90
        2
176
     0
 90
        2
176
     0
 90
        0
176
     0
 90
        0
176
     0
 40
0.6
176
     0
 40
30.0
176
     0
 62
     7
420
 16777215
176
     0
 90
        1
176
     0
 90
        4
176
     0
 62
     7
176
     0
 62
   257
176
     0
 90
        1
176
     0
 90
        1
176
     0
 40
1.0
176
     0
 90
        9
176
     2
 62
     7
176
     0
 40
1.0
176
     0
 90
        1
176
     0
 90
        6
176
     0
 90
        2
176
     0
 62
     7
176
     0
 90
        5
176
     0
 90
        0
176
     0
 90
        0
176
     0
290
     0
176
     0
 90
        1
176
     0
 40
0.0
176
     0
 90
        0
176
     0
290
     0
176
     0
290
     1
176
     0
290
     1
176
     0
290
     0
176
     0
290
     0
176
     0
290
     0
176
     0
290
     0
176
     0
290
     0
176
     0
290
     0
176
     0
 90
       50
176
     0
 40
0.0
176
     0
 40
1.0
176
     0
 90
        0
176
     0
 62
    18
420
        0
176
     0
 90
       50
176
     0
 90
        3
176
     0
 62
     5
420
      255
176
     0
290
     0
176
     0
 90
       50
176
     0
 90
       50
176
     0
 90
       50
176
     0
290
     0
176
     0
 90
       50
176
     0
 62
   256
176
     0
 40
1.0
176
     0
 90
        2
176
     0
  1
strokes_ogs.tif
176
     0
290
     0
176
     0
 40
1.0
176
     0
 40
1.0
176
     0
  0
VISUALSTYLE
  5
33
102
{ACAD_REACTORS
330
2A
102
}
330
2A
100
AcDbVisualStyle
  2
Realistic
 70
     8
177
     3
291
     0
 70
    58
 90
        2
176
     1
 90
        3
176
     1
 90
        0
176
     1
 90
        2
176
     1
 40
0.6
176
     1
 40
30.0
176
     1
 62
     7
420
 16777215
176
     1
 90
        0
176
     1
 90
        0
176
     1
 62
     7
176
     1
 62
   257
176
     1
 90
        1
176
     1
 90
        1
176
     1
 40
1.0
176
     1
 90
        8
176
     1
 62
   257
176
     1
 40
1.0
176
     1
 90
        1
176
     1
 90
        6
176
     1
 90
        2
176
     1
 62
     7
176
     1
 90
        3
176
     1
 90
        0
176
     1
 90
        0
176
     1
290
     0
176
     1
 90
       13
176
     1
 40
0.0
176
     1
 90
        0
176
     1
290
     0
176
     1
290
     1
176
     1
290
     1
176
     1
290
     0
176
     1
290
     0
176
     1
290
     0
176
     1
290
     0
176
     1
290
     0
176
     1
290
     0
176
     1
 90
       50
176
     1
 40
0.0
176
     1
 40
1.0
176
     1
 90
        0
176
     1
 62
    18
420
        0
176
     1
 90
       50
176
     1
 90
        3
176
     1
 62
     5
420
      255
176
     1
290
     0
176
     1
 90
       50
176
     1
 90
       50
176
     1
 90
       50
176
     1
290
     0
176
     1
 90
       50
176
     1
 62
   256
176
     0
 40
1.0
176
     0
 90
        2
176
     1
  1
strokes_ogs.tif
176
     1
290
     0
176
     1
 40
1.0
176
     1
 40
1.0
176
     1
  0
VISUALSTYLE
  5
42
102
{ACAD_REACTORS
330
2A
102
}
330
2A
100
AcDbVisualStyle
  2
Shaded
 70
    27
177
     3
291
     0
 70
    58
 90
        2
176
     1
 90
        2
176
     1
 90
        1
176
     1
 90
        2
176
     1
 40
0.6
176
     1
 40
30.0
176
     1
 62
     7
420
 16777215
176
     1
 90
        0
176
     1
 90
        4
176
     1
 62
     7
176
     1
 62
   257
176
     1
 90
        1
176
     1
 90
        1
176
     1
 40
1.0
176
     1
 90
        8
176
     1
 62
   257
176
     1
 40
1.0
176
     1
 90
        1
176
     1
 90
        6
176
     1
 90
        2
176
     1
 62
     8
420
  7895160
176
     1
 90
        3
176
     1
 90
        0
176
     1
 90
        0
176
     1
290
     0
176
     1
 90
        5
176
     1
 40
0.0
176
     1
 90
        0
176
     1
290
     0
176
     1
290
     1
176
     1
290
     1
176
     1
290
     0
176
     1
290
     0
176
     1
290
     0
176
     1
290
     0
176
     1
290
     0
176
     1
290
     0
176
     1
 90
       50
176
     1
 40
0.0
176
     1
 40
1.0
176
     1
 90
        0
176
     1
 62
    18
420
        0
176
     1
 90
       50
176
     1
 90
        3
176
     1
 62
     5
420
      255
176
     1
290
     0
176
     1
 90
       50
176
     1
 90
       50
176
     1
 90
       50
176
     1
290
     0
176
     1
 90
       50
176
     1
 62
   256
176
     0
 40
1.0
176
     0
 90
        2
176
     1
  1
strokes_ogs.tif
176
     1
290
     0
176
     1
 40
1.0
176
     1
 40
1.0
176
     1
  0
VISUALSTYLE
  5
41
102
{ACAD_REACTORS
330
2A
102
}
330
2A
100
AcDbVisualStyle
  2
Shaded with edges
 70
    26
177
     3
291
     0
 70
    58
 90
        2
176
     1
 90
        2
176
     1
 90
        1
176
     1
 90
        2
176
     1
 40
0.6
176
     1
 40
30.0
176
     1
 62
     7
420
 16777215
176
     1
 90
        1
176
     1
 90
       10
176
     1
 62
     7
176
     1
 62
   257
176
     1
 90
        2
176
     1
 90
        1
176
     1
 40
1.0
176
     1
 90
        8
176
     1
 62
   257
176
     1
 40
1.0
176
     1
 90
        1
176
     1
 90
        6
176
     1
 90
        2
176
     1
 62
     7
176
     1
 90
        3
176
     1
 90
        0
176
     1
 90
        0
176
     1
290
     0
176
     1
 90
        5
176
     1
 40
0.0
176
     1
 90
        0
176
     1
290
     0
176
     1
290
     1
176
     1
290
     1
176
     1
290
     0
176
     1
290
     0
176
     1
290
     0
176
     1
290
     0
176
     1
290
     0
176
     1
290
     0
176
     1
 90
       50
176
     1
 40
0.0
176
     1
 40
1.0
176
     1
 90
        0
176
     1
 62
    18
420
        0
176
     1
 90
       50
176
     1
 90
        3
176
     1
 62
     5
420
      255
176
     1
290
     0
176
     1
 90
       50
176
     1
 90
       50
176
     1
 90
       50
176
     1
290
     0
176
     1
 90
       50
176
     1
 62
   256
176
     0
 40
1.0
176
     0
 90
        2
176
     1
  1
strokes_ogs.tif
176
     1
290
     0
176
     1
 40
1.0
176
     1
 40
1.0
176
     1
  0
VISUALSTYLE
  5
3E
102
{ACAD_REACTORS
330
2A
102
}
330
2A
100
AcDbVisualStyle
  2
Shades of Gray
 70
    23
177
     3
291
     0
 70
    58
 90
        2
176
     1
 90
        2
176
     1
 90
        3
176
     1
 90
        0
176
     1
 40
0.6
176
     1
 40
30.0
176
     1
 62
     7
420
 16777215
176
     1
 90
        2
176
     1
 90
        2
176
     1
 62
     7
176
     1
 62
     7
176
     1
 90
        1
176
     1
 90
        1
176
     1
 40
40.0
176
     1
 90
        8
176
     1
 62
     7
176
     1
 40
1.0
176
     1
 90
        1
176
     1
 90
        6
176
     1
 90
        2
176
     1
 62
     7
176
     1
 90
        3
176
     1
 90
        0
176
     1
 90
        0
176
     1
290
     0
176
     1
 90
        1
176
     1
 40
0.0
176
     1
 90
        0
176
     1
290
     0
176
     1
290
     1
176
     1
290
     1
176
     1
290
     0
176
     1
290
     0
176
     1
290
     0
176
     1
290
     0
176
     1
290
     0
176
     1
290
     0
176
     1
 90
       50
176
     1
 40
0.0
176
     1
 40
1.0
176
     1
 90
        0
176
     1
 62
    18
420
        0
176
     1
 90
       50
176
     1
 90
        3
176
     1
 62
     5
420
      255
176
     1
290
     0
176
     1
 90
       50
176
     1
 90
       50
176
     1
 90
       50
176
     1
290
     0
176
     1
 90
       50
176
     1
 62
   256
176
     0
 40
1.0
176
     0
 90
        2
176
     1
  1
strokes_ogs.tif
176
     1
290
     0
176
     1
 40
1.0
176
     1
 40
1.0
176
     1
  0
VISUALSTYLE
  5
3F
102
{ACAD_REACTORS
330
2A
102
}
330
2A
100
AcDbVisualStyle
  2
Sketchy
 70
    24
177
     3
291
     0
 70
    58
 90
        1
176
     1
 90
        2
176
     1
 90
        2
176
     1
 90
        0
176
     1
 40
0.6
176
     1
 40
30.0
176
     1
 62
     7
420
 16777215
176
     1
 90
        2
176
     1
 90
        2
176
     1
 62
     7
176
     1
 62
     7
176
     1
 90
        1
176
     1
 90
        1
176
     1
 40
40.0
176
     1
 90
       11
176
     1
 62
     7
176
     1
 40
1.0
176
     1
 90
        1
176
     1
 90
        6
176
     1
 90
        2
176
     1
 62
     7
176
     1
 90
        6
176
     1
 90
        0
176
     1
 90
        0
176
     1
290
     0
176
     1
 90
        1
176
     1
 40
0.0
176
     1
 90
        0
176
     1
290
     0
176
     1
290
     1
176
     1
290
     1
176
     1
290
     0
176
     1
290
     0
176
     1
290
     0
176
     1
290
     0
176
     1
290
     0
176
     1
290
     0
176
     1
 90
       50
176
     1
 40
0.0
176
     1
 40
1.0
176
     1
 90
        0
176
     1
 62
    18
420
        0
176
     1
 90
       50
176
     1
 90
        3
176
     1
 62
     5
420
      255
176
     1
290
     0
176
     1
 90
       50
176
     1
 90
       50
176
     1
 90
       50
176
     1
290
     0
176
     1
 90
       50
176
     1
 62
   256
176
     0
 40
1.0
176
     0
 90
        2
176
     1
  1
strokes_ogs.tif
176
     1
290
     0
176
     1
 40
1.0
176
     1
 40
1.0
176
     1
  0
VISUALSTYLE
  5
37
102
{ACAD_REACTORS
330
2A
102
}
330
2A
100
AcDbVisualStyle
  2
Thicken
 70
    13
177
     3
291
     1
 70
    58
 90
        2
176
     1
 90
        2
176
     1
 90
        0
176
     1
 90
        0
176
     1
 40
0.6
176
     1
 40
30.0
176
     1
 62
     7
420
 16777215
176
     1
 90
        1
176
     1
 90
        4
176
     1
 62
     7
176
     1
 62
   257
176
     1
 90
        1
176
     1
 90
        1
176
     1
 40
1.0
176
     1
 90
       12
176
     1
 62
     7
176
     1
 40
1.0
176
     1
 90
        1
176
     1
 90
        6
176
     1
 90
        2
176
     1
 62
     7
176
     1
 90
        5
176
     1
 90
        0
176
     1
 90
        0
176
     1
290
     0
176
     1
 90
        1
176
     1
 40
0.0
176
     1
 90
        0
176
     1
290
     0
176
     1
290
     1
176
     1
290
     1
176
     1
290
     0
176
     1
290
     0
176
     1
290
     0
176
     1
290
     0
176
     1
290
     0
176
     1
290
     0
176
     1
 90
       50
176
     1
 40
0.0
176
     1
 40
1.0
176
     1
 90
        0
176
     1
 62
    18
420
        0
176
     1
 90
       50
176
     1
 90
        3
176
     1
 62
     5
420
      255
176
     1
290
     0
176
     1
 90
       50
176
     1
 90
       50
176
     1
 90
       50
176
     1
290
     0
176
     1
 90
       50
176
     1
 62
   256
176
     0
 40
1.0
176
     0
 90
        2
176
     1
  1
strokes_ogs.tif
176
     1
290
     0
176
     1
 40
1.0
176
     1
 40
1.0
176
     1
  0
VISUALSTYLE
  5
30
102
{ACAD_REACTORS
330
2A
102
}
330
2A
100
AcDbVisualStyle
  2
Wireframe
 70
     5
177
     3
291
     0
 70
    58
 90
        0
176
     1
 90
        2
176
     1
 90
        0
176
     1
 90
        0
176
     1
 40
0.6
176
     1
 40
30.0
176
     1
 62
     7
420
 16777215
176
     1
 90
        1
176
     1
 90
        4
176
     1
 62
     7
176
     1
 62
   257
176
     1
 90
        1
176
     1
 90
        1
176
     1
 40
1.0
176
     1
 90
        0
176
     1
 62
   257
176
     1
 40
1.0
176
     1
 90
        1
176
     1
 90
        6
176
     1
 90
        2
176
     1
 62
     7
176
     1
 90
        3
176
     1
 90
        0
176
     1
 90
        0
176
     1
290
     0
176
     1
 90
        1
176
     1
 40
0.0
176
     1
 90
        0
176
     1
290
     0
176
     1
290
     1
176
     1
290
     1
176
     1
290
     0
176
     1
290
     0
176
     1
290
     0
176
     1
290
     0
176
     1
290
     0
176
     1
290
     0
176
     1
 90
       50
176
     1
 40
0.0
176
     1
 40
1.0
176
     1
 90
        0
176
     1
 62
    18
420
        0
176
     1
 90
       50
176
     1
 90
        3
176
     1
 62
     5
420
      255
176
     1
290
     0
176
     1
 90
       50
176
     1
 90
       50
176
     1
 90
       50
176
     1
290
     0
176
     1
 90
       50
176
     1
 62
   256
176
     0
 40
1.0
176
     0
 90
        2
176
     1
  1
strokes_ogs.tif
176
     1
290
     0
176
     1
 40
1.0
176
     1
 40
1.0
176
     1
  0
VISUALSTYLE
  5
40
102
{ACAD_REACTORS
330
2A
102
}
330
2A
100
AcDbVisualStyle
  2
X-Ray
 70
    25
177
     3
291
     0
 70
    58
 90
        2
176
     1
 90
        2
176
     1
 90
        1
176
     1
 90
        1
176
     1
 40
0.5
176
     1
 40
30.0
176
     1
 62
     7
420
 16777215
176
     1
 90
        1
176
     1
 90
        0
176
     1
 62
     7
176
     1
 62
   257
176
     1
 90
        1
176
     1
 90
        1
176
     1
 40
1.0
176
     1
 90
        8
176
     1
 62
     7
176
     1
 40
1.0
176
     1
 90
        1
176
     1
 90
        6
176
     1
 90
        2
176
     1
 62
     7
176
     1
 90
        3
176
     1
 90
        0
176
     1
 90
        0
176
     1
290
     0
176
     1
 90
       13
176
     1
 40
0.0
176
     1
 90
        0
176
     1
290
     0
176
     1
290
     1
176
     1
290
     1
176
     1
290
     0
176
     1
290
     0
176
     1
290
     0
176
     1
290
     0
176
     1
290
     0
176
     1
290
     0
176
     1
 90
       50
176
     1
 40
0.0
176
     1
 40
1.0
176
     1
 90
        0
176
     1
 62
    18
420
        0
176
     1
 90
       50
176
     1
 90
        3
176
     1
 62
     5
420
      255
176
     1
290
     0
176
     1
 90
       50
176
     1
 90
       50
176
     1
 90
       50
176
     1
290
     0
176
     1
 90
       50
176
     1
 62
   256
176
     0
 40
1.0
176
     0
 90
        2
176
     1
  1
strokes_ogs.tif
176
     1
290
     0
176
     1
 40
1.0
176
     1
 40
1.0
176
     1
  0
DICTIONARYVAR
  5
1F4
102
{ACAD_REACTORS
330
1F3
102
}
330
1F3
100
DictionaryVariables
280
     0
  1
1:1
  0
DICTIONARYVAR
  5
1F9
102
{ACAD_REACTORS
330
1F3
102
}
330
1F3
100
DictionaryVariables
280
     0
  1
Standard
  0
DICTIONARYVAR
  5
1F8
102
{ACAD_REACTORS
330
1F3
102
}
330
1F3
100
DictionaryVariables
280
     0
  1
Standard
  0
DICTIONARY
  5
1F5
330
6A
100
AcDbDictionary
280
     1
281
     1
  3
ACAD_ROUNDTRIP_2008_TABLESTYLE_CELLSTYLEMAP
360
1F6
  0
CELLSTYLEMAP
  5
1F6
102
{ACAD_REACTORS
330
1F5
102
}
330
1F5
100
AcDbCellStyleMap
 90
        3
300
CELLSTYLE
  1
TABLEFORMAT_BEGIN
 90
        5
170
     1
 91
        0
 92
    32768
 62
   257
 93
        1
300
CONTENTFORMAT
  1
CONTENTFORMAT_BEGIN
 90
        0
 91
        0
 92
        4
 93
        0
300

 40
0.0
140
1.0
 94
        5
 62
     0
340
11
144
0.25
309
CONTENTFORMAT_END
171
     1
301
MARGIN
  1
CELLMARGIN_BEGIN
 40
0.06
 40
0.06
 40
0.06
 40
0.06
 40
0.06
 40
0.06
309
CELLMARGIN_END
 94
        6
 95
        1
302
GRIDFORMAT
  1
GRIDFORMAT_BEGIN
 90
        0
 91
        1
 62
     0
 92
       -2
340
14
 93
        0
 40
0.045
309
GRIDFORMAT_END
 95
        2
302
GRIDFORMAT
  1
GRIDFORMAT_BEGIN
 90
        0
 91
        1
 62
     0
 92
       -2
340
14
 93
        0
 40
0.045
309
GRIDFORMAT_END
 95
        4
302
GRIDFORMAT
  1
GRIDFORMAT_BEGIN
 90
        0
 91
        1
 62
     0
 92
       -2
340
14
 93
        0
 40
0.045
309
GRIDFORMAT_END
 95
        8
302
GRIDFORMAT
  1
GRIDFORMAT_BEGIN
 90
        0
 91
        1
 62
     0
 92
       -2
340
14
 93
        0
 40
0.045
309
GRIDFORMAT_END
 95
       16
302
GRIDFORMAT
  1
GRIDFORMAT_BEGIN
 90
        0
 91
        1
 62
     0
 92
       -2
340
14
 93
        0
 40
0.045
309
GRIDFORMAT_END
 95
       32
302
GRIDFORMAT
  1
GRIDFORMAT_BEGIN
 90
        0
 91
        1
 62
     0
 92
       -2
340
14
 93
        0
 40
0.045
309
GRIDFORMAT_END
309
TABLEFORMAT_END
  1
CELLSTYLE_BEGIN
 90
        1
 91
        1
300
_TITLE
309
CELLSTYLE_END
300
CELLSTYLE
  1
TABLEFORMAT_BEGIN
 90
        5
170
     1
 91
        0
 92
        0
 62
   257
 93
        1
300
CONTENTFORMAT
  1
CONTENTFORMAT_BEGIN
 90
        0
 91
        0
 92
        4
 93
        0
300

 40
0.0
140
1.0
 94
        5
 62
     0
340
11
144
0.18
309
CONTENTFORMAT_END
171
     1
301
MARGIN
  1
CELLMARGIN_BEGIN
 40
0.06
 40
0.06
 40
0.06
 40
0.06
 40
0.06
 40
0.06
309
CELLMARGIN_END
 94
        6
 95
        1
302
GRIDFORMAT
  1
GRIDFORMAT_BEGIN
 90
        0
 91
        1
 62
     0
 92
       -2
340
14
 93
        0
 40
0.045
309
GRIDFORMAT_END
 95
        2
302
GRIDFORMAT
  1
GRIDFORMAT_BEGIN
 90
        0
 91
        1
 62
     0
 92
       -2
340
14
 93
        0
 40
0.045
309
GRIDFORMAT_END
 95
        4
302
GRIDFORMAT
  1
GRIDFORMAT_BEGIN
 90
        0
 91
        1
 62
     0
 92
       -2
340
14
 93
        0
 40
0.045
309
GRIDFORMAT_END
 95
        8
302
GRIDFORMAT
  1
GRIDFORMAT_BEGIN
 90
        0
 91
        1
 62
     0
 92
       -2
340
14
 93
        0
 40
0.045
309
GRIDFORMAT_END
 95
       16
302
GRIDFORMAT
  1
GRIDFORMAT_BEGIN
 90
        0
 91
        1
 62
     0
 92
       -2
340
14
 93
        0
 40
0.045
309
GRIDFORMAT_END
 95
       32
302
GRIDFORMAT
  1
GRIDFORMAT_BEGIN
 90
        0
 91
        1
 62
     0
 92
       -2
340
14
 93
        0
 40
0.045
309
GRIDFORMAT_END
309
TABLEFORMAT_END
  1
CELLSTYLE_BEGIN
 90
        2
 91
        1
300
_HEADER
309
CELLSTYLE_END
300
CELLSTYLE
  1
TABLEFORMAT_BEGIN
 90
        5
170
     1
 91
        0
 92
        0
 62
   257
 93
        1
300
CONTENTFORMAT
  1
CONTENTFORMAT_BEGIN
 90
        0
 91
        0
 92
        4
 93
        0
300

 40
0.0
140
1.0
 94
        2
 62
     0
340
11
144
0.18
309
CONTENTFORMAT_END
171
     1
301
MARGIN
  1
CELLMARGIN_BEGIN
 40
0.06
 40
0.06
 40
0.06
 40
0.06
 40
0.06
 40
0.06
309
CELLMARGIN_END
 94
        6
 95
        1
302
GRIDFORMAT
  1
GRIDFORMAT_BEGIN
 90
        0
 91
        1
 62
     0
 92
       -2
340
14
 93
        0
 40
0.045
309
GRIDFORMAT_END
 95
        2
302
GRIDFORMAT
  1
GRIDFORMAT_BEGIN
 90
        0
 91
        1
 62
     0
 92
       -2
340
14
 93
        0
 40
0.045
309
GRIDFORMAT_END
 95
        4
302
GRIDFORMAT
  1
GRIDFORMAT_BEGIN
 90
        0
 91
        1
 62
     0
 92
       -2
340
14
 93
        0
 40
0.045
309
GRIDFORMAT_END
 95
        8
302
GRIDFORMAT
  1
GRIDFORMAT_BEGIN
 90
        0
 91
        1
 62
     0
 92
       -2
340
14
 93
        0
 40
0.045
309
GRIDFORMAT_END
 95
       16
302
GRIDFORMAT
  1
GRIDFORMAT_BEGIN
 90
        0
 91
        1
 62
     0
 92
       -2
340
14
 93
        0
 40
0.045
309
GRIDFORMAT_END
 95
       32
302
GRIDFORMAT
  1
GRIDFORMAT_BEGIN
 90
        0
 91
        1
 62
     0
 92
       -2
340
14
 93
        0
 40
0.045
309
GRIDFORMAT_END
309
TABLEFORMAT_END
  1
CELLSTYLE_BEGIN
 90
        3
 91
        2
300
_DATA
309
CELLSTYLE_END
  0
ENDSEC
  0
EOF