0
SECTION
  2
HEADER
  9
$ACADVER
  1
AC1027
  9
$ACADMAINTVER
 70
     8
  9
$DWGCODEPAGE
  3
ANSI_1252
  9
$REQUIREDVERSIONS
160
                 0
  9
$COMMENTS
  1
File was created by Cadenas
  9
$CUSTOMPROPERTYTAG
  1
NN
  9
$CUSTOMPROPERTY
  1
Grip Tight Tapped Base Inch Bore
  9
$CUSTOMPROPERTYTAG
  1
NT
  9
$CUSTOMPROPERTY
  1
GT Normal Duty Tapped Base Pillow Blocks
  9
$CUSTOMPROPERTYTAG
  1
NB
  9
$CUSTOMPROPERTY
  1
129285
  9
$CUSTOMPROPERTYTAG
  1
NBSYN
  9
$CUSTOMPROPERTY
  1
$PN.$LUBE.
  9
$CUSTOMPROPERTYTAG
  1
LINA
  9
$CUSTOMPROPERTY
  1
129285
  9
$CUSTOMPROPERTYTAG
  1
SERIES
  9
$CUSTOMPROPERTY
  1
208
  9
$CUSTOMPROPERTYTAG
  1
SS
  9
$CUSTOMPROPERTY
  1
1-1/2
  9
$CUSTOMPROPERTYTAG
  1
PN
  9
$CUSTOMPROPERTY
  1
129285
  9
$CUSTOMPROPERTYTAG
  1
DESCRIPTION
  9
$CUSTOMPROPERTY
  1
TB-GT-108
  9
$CUSTOMPROPERTYTAG
  1
A
  9
$CUSTOMPROPERTY
  1
1-27/32
  9
$CUSTOMPROPERTYTAG
  1
B
  9
$CUSTOMPROPERTY
  1
4-5/8
  9
$CUSTOMPROPERTYTAG
  1
C
  9
$CUSTOMPROPERTY
  1
1-7/8
  9
$CUSTOMPROPERTYTAG
  1
D
  9
$CUSTOMPROPERTY
  1
3-1/2
  9
$CUSTOMPROPERTYTAG
  1
J
  9
$CUSTOMPROPERTY
  1
3-15/16
  9
$CUSTOMPROPERTYTAG
  1
L
  9
$CUSTOMPROPERTY
  1
2-1/2
  9
$CUSTOMPROPERTYTAG
  1
M
  9
$CUSTOMPROPERTY
  1
1-15/16
  9
$CUSTOMPROPERTYTAG
  1
N
  9
$CUSTOMPROPERTY
  1
3/4
  9
$CUSTOMPROPERTYTAG
  1
R
  9
$CUSTOMPROPERTY
  1
1/2-13
  9
$CUSTOMPROPERTYTAG
  1
S
  9
$CUSTOMPROPERTY
  1
1-3/16
  9
$CUSTOMPROPERTYTAG
  1
Z
  9
$CUSTOMPROPERTY
  1
1-9/64
  9
$CUSTOMPROPERTYTAG
  1
COMPANY
  9
$CUSTOMPROPERTY
  1
baldor
  9
$INSBASE
 10
0.0
 20
0.0
 30
0.0
  9
$EXTMIN
 10
1.000000000000000E+20
 20
1.000000000000000E+20
 30
1.000000000000000E+20
  9
$EXTMAX
 10
-1.000000000000000E+20
 20
-1.000000000000000E+20
 30
-1.000000000000000E+20
  9
$LIMMIN
 10
0.0
 20
0.0
  9
$LIMMAX
 10
12.0
 20
9.0
  9
$ORTHOMODE
 70
     0
  9
$REGENMODE
 70
     1
  9
$FILLMODE
 70
     1
  9
$QTEXTMODE
 70
     0
  9
$MIRRTEXT
 70
     1
  9
$LTSCALE
 40
1.0
  9
$ATTMODE
 70
     1
  9
$TEXTSIZE
 40
0.2
  9
$TRACEWID
 40
0.05
  9
$TEXTSTYLE
  7
Standard
  9
$CLAYER
  8
0
  9
$CELTYPE
  6
ByLayer
  9
$CECOLOR
 62
   256
  9
$CELTSCALE
 40
1.0
  9
$DISPSILH
 70
     0
  9
$DIMSCALE
 40
1.0
  9
$DIMASZ
 40
0.18
  9
$DIMEXO
 40
0.0625
  9
$DIMDLI
 40
0.38
  9
$DIMRND
 40
0.0
  9
$DIMDLE
 40
0.0
  9
$DIMEXE
 40
0.18
  9
$DIMTP
 40
0.0
  9
$DIMTM
 40
0.0
  9
$DIMTXT
 40
0.18
  9
$DIMCEN
 40
0.09
  9
$DIMTSZ
 40
0.0
  9
$DIMTOL
 70
     0
  9
$DIMLIM
 70
     0
  9
$DIMTIH
 70
     1
  9
$DIMTOH
 70
     1
  9
$DIMSE1
 70
     0
  9
$DIMSE2
 70
     0
  9
$DIMTAD
 70
     0
  9
$DIMZIN
 70
     0
  9
$DIMBLK
  1

  9
$DIMASO
 70
     1
  9
$DIMSHO
 70
     1
  9
$DIMPOST
  1

  9
$DIMAPOST
  1

  9
$DIMALT
 70
     0
  9
$DIMALTD
 70
     2
  9
$DIMALTF
 40
25.4
  9
$DIMLFAC
 40
1.0
  9
$DIMTOFL
 70
     0
  9
$DIMTVP
 40
0.0
  9
$DIMTIX
 70
     0
  9
$DIMSOXD
 70
     0
  9
$DIMSAH
 70
     0
  9
$DIMBLK1
  1

  9
$DIMBLK2
  1

  9
$DIMSTYLE
  2
Standard
  9
$DIMCLRD
 70
     0
  9
$DIMCLRE
 70
     0
  9
$DIMCLRT
 70
     0
  9
$DIMTFAC
 40
1.0
  9
$DIMGAP
 40
0.09
  9
$DIMJUST
 70
     0
  9
$DIMSD1
 70
     0
  9
$DIMSD2
 70
     0
  9
$DIMTOLJ
 70
     1
  9
$DIMTZIN
 70
     0
  9
$DIMALTZ
 70
     0
  9
$DIMALTTZ
 70
     0
  9
$DIMUPT
 70
     0
  9
$DIMDEC
 70
     4
  9
$DIMTDEC
 70
     4
  9
$DIMALTU
 70
     2
  9
$DIMALTTD
 70
     2
  9
$DIMTXSTY
  7
Standard
  9
$DIMAUNIT
 70
     0
  9
$DIMADEC
 70
     0
  9
$DIMALTRND
 40
0.0
  9
$DIMAZIN
 70
     0
  9
$DIMDSEP
 70
    46
  9
$DIMATFIT
 70
     3
  9
$DIMFRAC
 70
     0
  9
$DIMLDRBLK
  1

  9
$DIMLUNIT
 70
     2
  9
$DIMLWD
 70
    -2
  9
$DIMLWE
 70
    -2
  9
$DIMTMOVE
 70
     0
  9
$DIMFXL
 40
1.0
  9
$DIMFXLON
 70
     0
  9
$DIMJOGANG
 40
0.7853981633974483
  9
$DIMTFILL
 70
     0
  9
$DIMTFILLCLR
 70
     0
  9
$DIMARCSYM
 70
     0
  9
$DIMLTYPE
  6

  9
$DIMLTEX1
  6

  9
$DIMLTEX2
  6

  9
$DIMTXTDIRECTION
 70
     0
  9
$LUNITS
 70
     2
  9
$LUPREC
 70
     4
  9
$SKETCHINC
 40
0.1
  9
$FILLETRAD
 40
0.5
  9
$AUNITS
 70
     0
  9
$AUPREC
 70
     0
  9
$MENU
  1
.
  9
$ELEVATION
 40
0.0
  9
$PELEVATION
 40
0.0
  9
$THICKNESS
 40
0.0
  9
$LIMCHECK
 70
     0
  9
$CHAMFERA
 40
0.0
  9
$CHAMFERB
 40
0.0
  9
$CHAMFERC
 40
0.0
  9
$CHAMFERD
 40
0.0
  9
$SKPOLY
 70
     0
  9
$TDCREATE
 40
2458168.994189815
  9
$TDUCREATE
 40
2458168.952523148
  9
$TDUPDATE
 40
2458168.994189815
  9
$TDUUPDATE
 40
2458168.952523148
  9
$TDINDWG
 40
0.0000000116
  9
$TDUSRTIMER
 40
0.0000000116
  9
$USRTIMER
 70
     1
  9
$ANGBASE
 50
0.0
  9
$ANGDIR
 70
     0
  9
$PDMODE
 70
     0
  9
$PDSIZE
 40
0.0
  9
$PLINEWID
 40
0.0
  9
$SPLFRAME
 70
     0
  9
$SPLINETYPE
 70
     6
  9
$SPLINESEGS
 70
     8
  9
$HANDSEED
  5
1F9
  9
$SURFTAB1
 70
     6
  9
$SURFTAB2
 70
     6
  9
$SURFTYPE
 70
     6
  9
$SURFU
 70
     6
  9
$SURFV
 70
     6
  9
$UCSBASE
  2

  9
$UCSNAME
  2

  9
$UCSORG
 10
0.0
 20
0.0
 30
0.0
  9
$UCSXDIR
 10
1.0
 20
0.0
 30
0.0
  9
$UCSYDIR
 10
0.0
 20
1.0
 30
0.0
  9
$UCSORTHOREF
  2

  9
$UCSORTHOVIEW
 70
     0
  9
$UCSORGTOP
 10
0.0
 20
0.0
 30
0.0
  9
$UCSORGBOTTOM
 10
0.0
 20
0.0
 30
0.0
  9
$UCSORGLEFT
 10
0.0
 20
0.0
 30
0.0
  9
$UCSORGRIGHT
 10
0.0
 20
0.0
 30
0.0
  9
$UCSORGFRONT
 10
0.0
 20
0.0
 30
0.0
  9
$UCSORGBACK
 10
0.0
 20
0.0
 30
0.0
  9
$PUCSBASE
  2

  9
$PUCSNAME
  2

  9
$PUCSORG
 10
0.0
 20
0.0
 30
0.0
  9
$PUCSXDIR
 10
1.0
 20
0.0
 30
0.0
  9
$PUCSYDIR
 10
0.0
 20
1.0
 30
0.0
  9
$PUCSORTHOREF
  2

  9
$PUCSORTHOVIEW
 70
     0
  9
$PUCSORGTOP
 10
0.0
 20
0.0
 30
0.0
  9
$PUCSORGBOTTOM
 10
0.0
 20
0.0
 30
0.0
  9
$PUCSORGLEFT
 10
0.0
 20
0.0
 30
0.0
  9
$PUCSORGRIGHT
 10
0.0
 20
0.0
 30
0.0
  9
$PUCSORGFRONT
 10
0.0
 20
0.0
 30
0.0
  9
$PUCSORGBACK
 10
0.0
 20
0.0
 30
0.0
  9
$USERI1
 70
     0
  9
$USERI2
 70
     0
  9
$USERI3
 70
     0
  9
$USERI4
 70
     0
  9
$USERI5
 70
     0
  9
$USERR1
 40
0.0
  9
$USERR2
 40
0.0
  9
$USERR3
 40
0.0
  9
$USERR4
 40
0.0
  9
$USERR5
 40
0.0
  9
$WORLDVIEW
 70
     1
  9
$SHADEDGE
 70
     3
  9
$SHADEDIF
 70
    70
  9
$TILEMODE
 70
     1
  9
$MAXACTVP
 70
    64
  9
$PINSBASE
 10
0.0
 20
0.0
 30
0.0
  9
$PLIMCHECK
 70
     0
  9
$PEXTMIN
 10
1.000000000000000E+20
 20
1.000000000000000E+20
 30
1.000000000000000E+20
  9
$PEXTMAX
 10
-1.000000000000000E+20
 20
-1.000000000000000E+20
 30
-1.000000000000000E+20
  9
$PLIMMIN
 10
0.0
 20
0.0
  9
$PLIMMAX
 10
12.0
 20
9.0
  9
$UNITMODE
 70
     0
  9
$VISRETAIN
 70
     1
  9
$PLINEGEN
 70
     0
  9
$PSLTSCALE
 70
     1
  9
$TREEDEPTH
 70
  3020
  9
$CMLSTYLE
  2
Standard
  9
$CMLJUST
 70
     0
  9
$CMLSCALE
 40
1.0
  9
$PROXYGRAPHICS
 70
     1
  9
$MEASUREMENT
 70
     0
  9
$CELWEIGHT
370
    -1
  9
$ENDCAPS
280
     0
  9
$JOINSTYLE
280
     0
  9
$LWDISPLAY
290
     0
  9
$INSUNITS
 70
     1
  9
$HYPERLINKBASE
  1

  9
$STYLESHEET
  1

  9
$XEDIT
290
     1
  9
$CEPSNTYPE
380
     0
  9
$PSTYLEMODE
290
     1
  9
$FINGERPRINTGUID
  2
{8A86568E-64D2-4FBA-8AE7-AD115147AB1B}
  9
$VERSIONGUID
  2
{FAEB1C32-E019-11D5-929B-00C0DF256EC4}
  9
$EXTNAMES
290
     1
  9
$PSVPSCALE
 40
0.0
  9
$OLESTARTUP
290
     0
  9
$SORTENTS
280
   127
  9
$INDEXCTL
280
     0
  9
$HIDETEXT
280
     1
  9
$XCLIPFRAME
280
     2
  9
$HALOGAP
280
     0
  9
$OBSCOLOR
 70
   257
  9
$OBSLTYPE
280
     0
  9
$INTERSECTIONDISPLAY
280
     0
  9
$INTERSECTIONCOLOR
 70
   257
  9
$DIMASSOC
280
     2
  9
$PROJECTNAME
  1

  9
$CAMERADISPLAY
290
     0
  9
$LENSLENGTH
 40
50.0
  9
$CAMERAHEIGHT
 40
0.0
  9
$STEPSPERSEC
 40
2.0
  9
$STEPSIZE
 40
6.0
  9
$3DDWFPREC
 40
2.0
  9
$PSOLWIDTH
 40
0.25
  9
$PSOLHEIGHT
 40
4.0
  9
$LOFTANG1
 40
1.570796326794897
  9
$LOFTANG2
 40
1.570796326794897
  9
$LOFTMAG1
 40
0.0
  9
$LOFTMAG2
 40
0.0
  9
$LOFTPARAM
 70
     7
  9
$LOFTNORMALS
280
     1
  9
$LATITUDE
 40
37.795
  9
$LONGITUDE
 40
-122.394
  9
$NORTHDIRECTION
 40
0.0
  9
$TIMEZONE
 70
 -8000
  9
$LIGHTGLYPHDISPLAY
280
     1
  9
$TILEMODELIGHTSYNCH
280
     1
  9
$CMATERIAL
347
44
  9
$SOLIDHIST
280
     0
  9
$SHOWHIST
280
     1
  9
$DWFFRAME
280
     2
  9
$DGNFRAME
280
     2
  9
$REALWORLDSCALE
290
     1
  9
$INTERFERECOLOR
 62
   256
  9
$CSHADOW
280
     0
  9
$SHADOWPLANELOCATION
 40
0.0
  0
ENDSEC
  0
SECTION
  2
CLASSES
  0
CLASS
  1
ACDBDICTIONARYWDFLT
  2
AcDbDictionaryWithDefault
  3
ObjectDBX Classes
 90
        0
 91
        4
280
     0
281
     0
  0
CLASS
  1
VISUALSTYLE
  2
AcDbVisualStyle
  3
ObjectDBX Classes
 90
     4095
 91
        4
280
     0
281
     0
  0
CLASS
  1
MATERIAL
  2
AcDbMaterial
  3
ObjectDBX Classes
 90
     1153
 91
        4
280
     0
281
     0
  0
CLASS
  1
SCALE
  2
AcDbScale
  3
ObjectDBX Classes
 90
     1153
 91
        4
280
     0
281
     0
  0
CLASS
  1
TABLESTYLE
  2
AcDbTableStyle
  3
ObjectDBX Classes
 90
     4095
 91
        4
280
     0
281
     0
  0
CLASS
  1
MLEADERSTYLE
  2
AcDbMLeaderStyle
  3
ACDB_MLEADERSTYLE_CLASS
 90
     4095
 91
        4
280
     0
281
     0
  0
CLASS
  1
SUN
  2
AcDbSun
  3
SCENEOE
 90
     1153
 91
        4
280
     0
281
     0
  0
CLASS
  1
DICTIONARYVAR
  2
AcDbDictionaryVar
  3
ObjectDBX Classes
 90
        0
 91
        4
280
     0
281
     0
  0
CLASS
  1
CELLSTYLEMAP
  2
AcDbCellStyleMap
  3
ObjectDBX Classes
 90
     1152
 91
        4
280
     0
281
     0
  0
ENDSEC
  0
SECTION
  2
TABLES
  0
TABLE
  2
VPORT
  5
8
330
0
100
AcDbSymbolTable
 70
     1
  0
VPORT
  5
29
330
8
100
AcDbSymbolTableRecord
100
AcDbViewportTableRecord
  2
*Active
 70
     0
 10
0.0
 20
0.0
 11
1.0
 21
1.0
 12
0.0
 22
0.0053801434828644
 13
0.0
 23
0.0
 14
0.5
 24
0.5
 15
0.5
 25
0.5
 16
0.0
 26
0.0
 36
1.0
 17
0.0
 27
0.0
 37
0.0
 40
4.069024507294959
 41
1.159368785206983
 42
50.0
 43
0.0
 44
0.0
 50
0.0
 51
0.0
 71
     0
 72
   100
 73
     1
 74
     3
 75
     0
 76
     0
 77
     0
 78
     0
281
     0
 65
     1
110
0.0
120
0.0
130
0.0
111
1.0
121
0.0
131
0.0
112
0.0
122
1.0
132
0.0
 79
     0
146
0.0
348
2F
 60
     3
 61
     5
292
     1
282
     1
141
0.0
142
0.0
 63
   250
361
6D
  0
ENDTAB
  0
TABLE
  2
LTYPE
  5
5
330
0
100
AcDbSymbolTable
 70
     3
  0
LTYPE
  5
14
330
5
100
AcDbSymbolTableRecord
100
AcDbLinetypeTableRecord
  2
ByBlock
 70
     0
  3

 72
    65
 73
     0
 40
0.0
  0
LTYPE
  5
15
330
5
100
AcDbSymbolTableRecord
100
AcDbLinetypeTableRecord
  2
ByLayer
 70
     0
  3

 72
    65
 73
     0
 40
0.0
  0
LTYPE
  5
16
330
5
100
AcDbSymbolTableRecord
100
AcDbLinetypeTableRecord
  2
Continuous
 70
     0
  3
Solid line
 72
    65
 73
     0
 40
0.0
  0
LTYPE
  5
9E
330
5
100
AcDbSymbolTableRecord
100
AcDbLinetypeTableRecord
  2
Dashed
 70
     0
  3

 72
    65
 73
     2
 40
2.0
 49
1.0
 74
     0
 49
-1.0
 74
     0
  0
LTYPE
  5
A7
330
5
100
AcDbSymbolTableRecord
100
AcDbLinetypeTableRecord
  2
Center
 70
     0
  3

 72
    65
 73
     4
 40
1.5
 49
0.45
 74
     0
 49
-0.5
 74
     0
 49
0.05
 74
     0
 49
-0.5
 74
     0
  0
ENDTAB
  0
TABLE
  2
LAYER
  5
2
330
0
100
AcDbSymbolTable
 70
     7
  0
LAYER
  5
10
330
2
100
AcDbSymbolTableRecord
100
AcDbLayerTableRecord
  2
0
 70
     0
 62
     7
  6
Continuous
370
    -3
390
F
347
46
348
0
  0
LAYER
  5
72
330
2
100
AcDbSymbolTableRecord
100
AcDbLayerTableRecord
  2
AM_6
 70
     0
 62
    -2
  6
Continuous
370
    35
390
F
347
46
348
0
  0
LAYER
  5
9F
330
2
100
AcDbSymbolTableRecord
100
AcDbLayerTableRecord
  2
AM_9
 70
     0
 62
     6
  6
Dashed
370
    25
390
F
347
46
348
0
  0
LAYER
  5
A8
330
2
100
AcDbSymbolTableRecord
100
AcDbLayerTableRecord
  2
AM_7
 70
     0
 62
     7
  6
Center
370
    25
390
F
347
46
348
0
  0
LAYER
  5
AB
330
2
100
AcDbSymbolTableRecord
100
AcDbLayerTableRecord
  2
AM_4
 70
     0
 62
     3
  6
Continuous
370
    25
390
F
347
46
348
0
  0
LAYER
  5
D9
330
2
100
AcDbSymbolTableRecord
100
AcDbLayerTableRecord
  2
AM_5
 70
     0
 62
     3
  6
Continuous
370
    25
390
F
347
46
348
0
  0
LAYER
  5
1EB
330
2
100
AcDbSymbolTableRecord
100
AcDbLayerTableRecord
  2
ConnectionPoints
 70
     0
 62
     7
  6
Continuous
370
    50
390
F
347
46
348
0
  0
ENDTAB
  0
TABLE
  2
STYLE
  5
3
330
0
100
AcDbSymbolTable
 70
     1
  0
STYLE
  5
11
330
3
100
AcDbSymbolTableRecord
100
AcDbTextStyleTableRecord
  2
Standard
 70
     0
 40
0.0
 41
1.0
 50
0.0
 71
     0
 42
0.2
  3
txt
  4

  0
ENDTAB
  0
TABLE
  2
VIEW
  5
6
330
0
100
AcDbSymbolTable
 70
     0
  0
ENDTAB
  0
TABLE
  2
UCS
  5
7
330
0
100
AcDbSymbolTable
 70
     0
  0
ENDTAB
  0
TABLE
  2
APPID
  5
9
330
0
100
AcDbSymbolTable
 70
     1
  0
APPID
  5
12
330
9
100
AcDbSymbolTableRecord
100
AcDbRegAppTableRecord
  2
ACAD
 70
     0
  0
ENDTAB
  0
TABLE
  2
DIMSTYLE
  5
A
330
0
100
AcDbSymbolTable
 70
     1
100
AcDbDimStyleTable
  0
DIMSTYLE
105
27
330
A
100
AcDbSymbolTableRecord
100
AcDbDimStyleTableRecord
  2
Standard
 70
     0
178
     0
340
11
  0
ENDTAB
  0
TABLE
  2
BLOCK_RECORD
  5
1
330
0
100
AcDbSymbolTable
 70
     5
  0
BLOCK_RECORD
  5
1F
330
1
100
AcDbSymbolTableRecord
100
AcDbBlockTableRecord
  2
*Model_Space
340
22
 70
     0
280
     1
281
     0
  0
BLOCK_RECORD
  5
1B
330
1
100
AcDbSymbolTableRecord
100
AcDbBlockTableRecord
  2
*Paper_Space
340
1E
 70
     0
280
     1
281
     0
  0
BLOCK_RECORD
  5
23
330
1
100
AcDbSymbolTableRecord
100
AcDbBlockTableRecord
  2
*Paper_Space0
340
26
 70
     0
280
     1
281
     0
  0
BLOCK_RECORD
  5
6E
330
1
100
AcDbSymbolTableRecord
100
AcDbBlockTableRecord
  2
1_129285_0
340
0
102
{BLKREFS
331
6F
102
}
 70
     0
280
     1
281
     0
  0
BLOCK_RECORD
  5
88
330
1
100
AcDbSymbolTableRecord
100
AcDbBlockTableRecord
  2
2_129521I_0_in_129285_0
340
0
102
{BLKREFS
331
89
102
}
 70
     0
280
     1
281
     0
  0
BLOCK_RECORD
  5
B1
330
1
100
AcDbSymbolTableRecord
100
AcDbBlockTableRecord
  2
3_129914_0_in_129285_0
340
0
102
{BLKREFS
331
B2
102
}
 70
     0
280
     1
281
     0
  0
BLOCK_RECORD
  5
F3
330
1
100
AcDbSymbolTableRecord
100
AcDbBlockTableRecord
  2
4_129461I_0_in_129285_0
340
0
102
{BLKREFS
331
F4
102
}
 70
     0
280
     1
281
     0
  0
ENDTAB
  0
ENDSEC
  0
SECTION
  2
BLOCKS
  0
BLOCK
  5
20
330
1F
100
AcDbEntity
  8
0
100
AcDbBlockBegin
  2
*Model_Space
 70
     0
 10
0.0
 20
0.0
 30
0.0
  3
*Model_Space
  1

  0
ENDBLK
  5
21
330
1F
100
AcDbEntity
  8
0
100
AcDbBlockEnd
  0
BLOCK
  5
1C
330
1B
100
AcDbEntity
 67
     1
  8
0
100
AcDbBlockBegin
  2
*Paper_Space
 70
     0
 10
0.0
 20
0.0
 30
0.0
  3
*Paper_Space
  1

  0
ENDBLK
  5
1D
330
1B
100
AcDbEntity
 67
     1
  8
0
100
AcDbBlockEnd
  0
BLOCK
  5
24
330
23
100
AcDbEntity
  8
0
100
AcDbBlockBegin
  2
*Paper_Space0
 70
     0
 10
0.0
 20
0.0
 30
0.0
  3
*Paper_Space0
  1

  0
ENDBLK
  5
25
330
23
100
AcDbEntity
  8
0
100
AcDbBlockEnd
  0
BLOCK
  5
70
330
6E
100
AcDbEntity
  8
0
100
AcDbBlockBegin
  2
1_129285_0
 70
     2
 10
0.0
 20
0.0
 30
0.0
  3
1_129285_0
  1

  0
ATTDEF
  5
73
330
6E
100
AcDbEntity
  8
AM_6
100
AcDbText
 10
7.3125
 20
2.0
 30
0.0
 40
0.5
  1
Grip Tight Tapped Base Inch Bore
100
AcDbAttributeDefinition
  3

  2
NN
 70
     8
280
     0
  0
ATTDEF
  5
74
330
6E
100
AcDbEntity
  8
AM_6
100
AcDbText
 10
7.3125
 20
1.5
 30
0.0
 40
0.5
  1
GT Normal Duty Tapped Base Pillow Blocks
100
AcDbAttributeDefinition
  3

  2
NT
 70
     8
280
     0
  0
ATTDEF
  5
75
330
6E
100
AcDbEntity
  8
AM_6
100
AcDbText
 10
7.3125
 20
1.0
 30
0.0
 40
0.5
  1
129285
100
AcDbAttributeDefinition
  3

  2
NB
 70
     8
280
     0
  0
ATTDEF
  5
76
330
6E
100
AcDbEntity
  8
AM_6
100
AcDbText
 10
7.3125
 20
0.5000000000000004
 30
0.0
 40
0.5
  1
$PN.$LUBE.
100
AcDbAttributeDefinition
  3

  2
NBSYN
 70
     8
280
     0
  0
ATTDEF
  5
77
330
6E
100
AcDbEntity
  8
AM_6
100
AcDbText
 10
7.3125
 20
0.0000000000000004
 30
0.0
 40
0.5
  1
129285
100
AcDbAttributeDefinition
  3

  2
LINA
 70
     8
280
     0
  0
ATTDEF
  5
78
330
6E
100
AcDbEntity
  8
AM_6
100
AcDbText
 10
7.3125
 20
-0.4999999999999996
 30
0.0
 40
0.5
  1
208
100
AcDbAttributeDefinition
  3

  2
SERIES
 70
     8
280
     0
  0
ATTDEF
  5
79
330
6E
100
AcDbEntity
  8
AM_6
100
AcDbText
 10
7.3125
 20
-0.9999999999999996
 30
0.0
 40
0.5
  1
1-1/2
100
AcDbAttributeDefinition
  3

  2
SS
 70
     8
280
     0
  0
ATTDEF
  5
7A
330
6E
100
AcDbEntity
  8
AM_6
100
AcDbText
 10
7.3125
 20
-1.5
 30
0.0
 40
0.5
  1
129285
100
AcDbAttributeDefinition
  3

  2
PN
 70
     8
280
     0
  0
ATTDEF
  5
7B
330
6E
100
AcDbEntity
  8
AM_6
100
AcDbText
 10
7.3125
 20
-2.0
 30
0.0
 40
0.5
  1
TB-GT-108
100
AcDbAttributeDefinition
  3

  2
DESCRIPTION
 70
     8
280
     0
  0
ATTDEF
  5
7C
330
6E
100
AcDbEntity
  8
AM_6
100
AcDbText
 10
7.3125
 20
-2.5
 30
0.0
 40
0.5
  1
1-27/32
100
AcDbAttributeDefinition
  3

  2
A
 70
     8
280
     0
  0
ATTDEF
  5
7D
330
6E
100
AcDbEntity
  8
AM_6
100
AcDbText
 10
7.3125
 20
-3.0
 30
0.0
 40
0.5
  1
4-5/8
100
AcDbAttributeDefinition
  3

  2
B
 70
     8
280
     0
  0
ATTDEF
  5
7E
330
6E
100
AcDbEntity
  8
AM_6
100
AcDbText
 10
7.3125
 20
-3.5
 30
0.0
 40
0.5
  1
1-7/8
100
AcDbAttributeDefinition
  3

  2
C
 70
     8
280
     0
  0
ATTDEF
  5
7F
330
6E
100
AcDbEntity
  8
AM_6
100
AcDbText
 10
7.3125
 20
-4.0
 30
0.0
 40
0.5
  1
3-1/2
100
AcDbAttributeDefinition
  3

  2
D
 70
     8
280
     0
  0
ATTDEF
  5
80
330
6E
100
AcDbEntity
  8
AM_6
100
AcDbText
 10
7.3125
 20
-4.5
 30
0.0
 40
0.5
  1
3-15/16
100
AcDbAttributeDefinition
  3

  2
J
 70
     8
280
     0
  0
ATTDEF
  5
81
330
6E
100
AcDbEntity
  8
AM_6
100
AcDbText
 10
7.3125
 20
-5.0
 30
0.0
 40
0.5
  1
2-1/2
100
AcDbAttributeDefinition
  3

  2
L
 70
     8
280
     0
  0
ATTDEF
  5
82
330
6E
100
AcDbEntity
  8
AM_6
100
AcDbText
 10
7.3125
 20
-5.5
 30
0.0
 40
0.5
  1
1-15/16
100
AcDbAttributeDefinition
  3

  2
M
 70
     8
280
     0
  0
ATTDEF
  5
83
330
6E
100
AcDbEntity
  8
AM_6
100
AcDbText
 10
7.3125
 20
-6.0
 30
0.0
 40
0.5
  1
3/4
100
AcDbAttributeDefinition
  3

  2
N
 70
     8
280
     0
  0
ATTDEF
  5
84
330
6E
100
AcDbEntity
  8
AM_6
100
AcDbText
 10
7.3125
 20
-6.5
 30
0.0
 40
0.5
  1
1/2-13
100
AcDbAttributeDefinition
  3

  2
R
 70
     8
280
     0
  0
ATTDEF
  5
85
330
6E
100
AcDbEntity
  8
AM_6
100
AcDbText
 10
7.3125
 20
-7.0
 30
0.0
 40
0.5
  1
1-3/16
100
AcDbAttributeDefinition
  3

  2
S
 70
     8
280
     0
  0
ATTDEF
  5
86
330
6E
100
AcDbEntity
  8
AM_6
100
AcDbText
 10
7.3125
 20
-7.5
 30
0.0
 40
0.5
  1
1-9/64
100
AcDbAttributeDefinition
  3

  2
Z
 70
     8
280
     0
  0
ATTDEF
  5
87
330
6E
100
AcDbEntity
  8
AM_6
100
AcDbText
 10
7.3125
 20
-8.0
 30
0.0
 40
0.5
  1
baldor
100
AcDbAttributeDefinition
  3

  2
COMPANY
 70
     8
280
     0
  0
INSERT
  5
89
330
6E
100
AcDbEntity
  8
0
100
AcDbBlockReference
  2
2_129521I_0_in_129285_0
 10
0.0
 20
0.0
 30
0.0
  0
INSERT
  5
B2
330
6E
100
AcDbEntity
  8
0
100
AcDbBlockReference
  2
3_129914_0_in_129285_0
 10
0.0
 20
0.0
 30
0.0
  0
INSERT
  5
F4
330
6E
100
AcDbEntity
  8
0
100
AcDbBlockReference
  2
4_129461I_0_in_129285_0
 10
0.0
 20
0.0
 30
0.0
  0
ENDBLK
  5
71
330
6E
100
AcDbEntity
  8
0
100
AcDbBlockEnd
  0
BLOCK
  5
8A
330
88
100
AcDbEntity
  8
0
100
AcDbBlockBegin
  2
2_129521I_0_in_129285_0
 70
     2
 10
0.0
 20
0.0
 30
0.0
  3
2_129521I_0_in_129285_0
  1

  0
ATTDEF
  5
8C
330
88
100
AcDbEntity
  8
AM_6
100
AcDbText
 10
6.640271284166144
 20
1.640271284166144
 30
0.0
 40
0.5
  1
INS-GT B
100
AcDbAttributeDefinition
  3

  2
NN
 70
     8
280
     0
  0
ATTDEF
  5
8D
330
88
100
AcDbEntity
  8
AM_6
100
AcDbText
 10
6.640271284166144
 20
1.140271284166144
 30
0.0
 40
0.5
  1
GT Normal Duty Bearing Inserts
100
AcDbAttributeDefinition
  3

  2
NT
 70
     8
280
     0
  0
ATTDEF
  5
8E
330
88
100
AcDbEntity
  8
AM_6
100
AcDbText
 10
6.640271284166144
 20
0.6402712841661444
 30
0.0
 40
0.5
  1
129521I
100
AcDbAttributeDefinition
  3

  2
NB
 70
     8
280
     0
  0
ATTDEF
  5
8F
330
88
100
AcDbEntity
  8
AM_6
100
AcDbText
 10
6.640271284166144
 20
0.1402712841661444
 30
0.0
 40
0.5
  1
$PN.I
100
AcDbAttributeDefinition
  3

  2
NBSYN
 70
     8
280
     0
  0
ATTDEF
  5
90
330
88
100
AcDbEntity
  8
AM_6
100
AcDbText
 10
6.640271284166144
 20
-0.3597287158338556
 30
0.0
 40
0.5
  1
129521
100
AcDbAttributeDefinition
  3

  2
LINA
 70
     8
280
     0
  0
ATTDEF
  5
91
330
88
100
AcDbEntity
  8
AM_6
100
AcDbText
 10
6.640271284166144
 20
-0.8597287158338556
 30
0.0
 40
0.5
  1
208
100
AcDbAttributeDefinition
  3

  2
SERIES
 70
     8
280
     0
  0
ATTDEF
  5
92
330
88
100
AcDbEntity
  8
AM_6
100
AcDbText
 10
6.640271284166144
 20
-1.359728715833856
 30
0.0
 40
0.5
  1
129521
100
AcDbAttributeDefinition
  3

  2
PN
 70
     8
280
     0
  0
ATTDEF
  5
93
330
88
100
AcDbEntity
  8
AM_6
100
AcDbText
 10
6.640271284166144
 20
-1.859728715833856
 30
0.0
 40
0.5
  1
INS-GT-08
100
AcDbAttributeDefinition
  3

  2
DESCRIPTION
 70
     8
280
     0
  0
ATTDEF
  5
94
330
88
100
AcDbEntity
  8
AM_6
100
AcDbText
 10
6.640271284166144
 20
-2.359728715833856
 30
0.0
 40
0.5
  1
1.84
100
AcDbAttributeDefinition
  3

  2
A
 70
     8
280
     0
  0
ATTDEF
  5
95
330
88
100
AcDbEntity
  8
AM_6
100
AcDbText
 10
6.640271284166144
 20
-2.859728715833856
 30
0.0
 40
0.5
  1
0.87
100
AcDbAttributeDefinition
  3

  2
C
 70
     8
280
     0
  0
ATTDEF
  5
96
330
88
100
AcDbEntity
  8
AM_6
100
AcDbText
 10
6.640271284166144
 20
-3.359728715833856
 30
0.0
 40
0.5
  1
3.1496
100
AcDbAttributeDefinition
  3

  2
D
 70
     8
280
     0
  0
ATTDEF
  5
97
330
88
100
AcDbEntity
  8
AM_6
100
AcDbText
 10
6.640271284166144
 20
-3.859728715833856
 30
0.0
 40
0.5
  1
0.22
100
AcDbAttributeDefinition
  3

  2
J
 70
     8
280
     0
  0
ATTDEF
  5
98
330
88
100
AcDbEntity
  8
AM_6
100
AcDbText
 10
6.640271284166144
 20
-4.359728715833856
 30
0.0
 40
0.5
  1
2.62
100
AcDbAttributeDefinition
  3

  2
L
 70
     8
280
     0
  0
ATTDEF
  5
99
330
88
100
AcDbEntity
  8
AM_6
100
AcDbText
 10
6.640271284166144
 20
-4.859728715833856
 30
0.0
 40
0.5
  1
#10 - 32 x 1/4
100
AcDbAttributeDefinition
  3

  2
N
 70
     8
280
     0
  0
ATTDEF
  5
9A
330
88
100
AcDbEntity
  8
AM_6
100
AcDbText
 10
6.640271284166144
 20
-5.359728715833856
 30
0.0
 40
0.5
  1
0.61000
100
AcDbAttributeDefinition
  3

  2
W
 70
     8
280
     0
  0
ATTDEF
  5
9B
330
88
100
AcDbEntity
  8
AM_6
100
AcDbText
 10
6.640271284166144
 20
-5.859728715833856
 30
0.0
 40
0.5
  1
1.23
100
AcDbAttributeDefinition
  3

  2
X
 70
     8
280
     0
  0
ATTDEF
  5
9C
330
88
100
AcDbEntity
  8
AM_6
100
AcDbText
 10
6.640271284166144
 20
-6.359728715833856
 30
0.0
 40
0.5
  1
1.23
100
AcDbAttributeDefinition
  3

  2
Y
 70
     8
280
     0
  0
ATTDEF
  5
9D
330
88
100
AcDbEntity
  8
AM_6
100
AcDbText
 10
6.640271284166144
 20
-6.859728715833856
 30
0.0
 40
0.5
  1
baldor
100
AcDbAttributeDefinition
  3

  2
COMPANY
 70
     8
280
     0
  0
CIRCLE
  5
A0
330
88
100
AcDbEntity
  8
AM_9
100
AcDbCircle
 10
0.0
 20
0.0
 30
0.0
 40
1.012580192548561
  0
CIRCLE
  5
A1
330
88
100
AcDbEntity
  8
AM_9
100
AcDbCircle
 10
0.0
 20
0.0
 30
0.0
 40
1.4878
  0
CIRCLE
  5
A2
330
88
100
AcDbEntity
  8
AM_9
100
AcDbCircle
 10
0.0
 20
0.0
 30
0.0
 40
1.532465237802696
  0
CIRCLE
  5
A3
330
88
100
AcDbEntity
  8
AM_9
100
AcDbCircle
 10
0.0
 20
0.0
 30
0.0
 40
1.070872978444444
  0
CIRCLE
  5
A4
330
88
100
AcDbEntity
  8
AM_9
100
AcDbCircle
 10
0.0
 20
0.0
 30
0.0
 40
1.164444444444444
  0
CIRCLE
  5
A5
330
88
100
AcDbEntity
  8
AM_9
100
AcDbCircle
 10
0.0
 20
0.0
 30
0.0
 40
0.9773015124444444
  0
CIRCLE
  5
A6
330
88
100
AcDbEntity
  8
AM_9
100
AcDbCircle
 10
0.0
 20
0.0
 30
0.0
 40
1.129644444444444
  0
LINE
  5
A9
330
88
100
AcDbEntity
  8
AM_7
100
AcDbLine
 10
-1.640271284166144
 20
0.0
 30
0.0
 11
1.640271284166144
 21
0.0
 31
0.0
  0
LINE
  5
AA
330
88
100
AcDbEntity
  8
AM_7
100
AcDbLine
 10
0.0
 20
-1.640271284166144
 30
0.0
 11
0.0
 21
1.640271284166144
 31
0.0
  0
CIRCLE
  5
AC
330
88
100
AcDbEntity
  8
AM_4
100
AcDbCircle
 10
0.0
 20
0.0
 30
0.0
 40
1.553560334486685
  0
CIRCLE
  5
AD
330
88
100
AcDbEntity
  8
AM_4
100
AcDbCircle
 10
0.0
 20
0.0
 30
0.0
 40
1.56216312777728
  0
CIRCLE
  5
AE
330
88
100
AcDbEntity
  8
AM_4
100
AcDbCircle
 10
0.0
 20
0.0
 30
0.0
 40
1.540904503212019
  0
CIRCLE
  5
AF
330
88
100
AcDbEntity
  8
AM_4
100
AcDbCircle
 10
0.0
 20
0.0
 30
0.0
 40
1.464336329583616
  0
CIRCLE
  5
B0
330
88
100
AcDbEntity
  8
AM_4
100
AcDbCircle
 10
0.0
 20
0.0
 30
0.0
 40
1.496734308300556
  0
ENDBLK
  5
8B
330
88
100
AcDbEntity
  8
0
100
AcDbBlockEnd
  0
BLOCK
  5
B3
330
B1
100
AcDbEntity
  8
0
100
AcDbBlockBegin
  2
3_129914_0_in_129285_0
 70
     2
 10
0.0
 20
0.0
 30
0.0
  3
3_129914_0_in_129285_0
  1

  0
ATTDEF
  5
B5
330
B1
100
AcDbEntity
  8
AM_6
100
AcDbText
 10
6.24497228884823
 20
1.249998880313173
 30
0.0
 40
0.5
  1
Grip Tight Normal Duty Adapter and Nut Inch Bore
100
AcDbAttributeDefinition
  3

  2
NN
 70
     8
280
     0
  0
ATTDEF
  5
B6
330
B1
100
AcDbEntity
  8
AM_6
100
AcDbText
 10
6.24497228884823
 20
0.7499988803131727
 30
0.0
 40
0.5
  1
GT and GTM Adapter & Lock Nut Assemblies
100
AcDbAttributeDefinition
  3

  2
NT
 70
     8
280
     0
  0
ATTDEF
  5
B7
330
B1
100
AcDbEntity
  8
AM_6
100
AcDbText
 10
6.24497228884823
 20
0.2499988803131727
 30
0.0
 40
0.5
  1
129914
100
AcDbAttributeDefinition
  3

  2
NB
 70
     8
280
     0
  0
ATTDEF
  5
B8
330
B1
100
AcDbEntity
  8
AM_6
100
AcDbText
 10
6.24497228884823
 20
-0.2500011196868273
 30
0.0
 40
0.5
  1
$PN.
100
AcDbAttributeDefinition
  3

  2
NBSYN
 70
     8
280
     0
  0
ATTDEF
  5
B9
330
B1
100
AcDbEntity
  8
AM_6
100
AcDbText
 10
6.24497228884823
 20
-0.7500011196868273
 30
0.0
 40
0.5
  1
129914
100
AcDbAttributeDefinition
  3

  2
LINA
 70
     8
280
     0
  0
ATTDEF
  5
BA
330
B1
100
AcDbEntity
  8
AM_6
100
AcDbText
 10
6.24497228884823
 20
-1.250001119686827
 30
0.0
 40
0.5
  1
208
100
AcDbAttributeDefinition
  3

  2
SERIES
 70
     8
280
     0
  0
ATTDEF
  5
BB
330
B1
100
AcDbEntity
  8
AM_6
100
AcDbText
 10
6.24497228884823
 20
-1.750001119686827
 30
0.0
 40
0.5
  1
1-1/2
100
AcDbAttributeDefinition
  3

  2
SS
 70
     8
280
     0
  0
ATTDEF
  5
BC
330
B1
100
AcDbEntity
  8
AM_6
100
AcDbText
 10
6.24497228884823
 20
-2.250001119686827
 30
0.0
 40
0.5
  1
129914
100
AcDbAttributeDefinition
  3

  2
PN
 70
     8
280
     0
  0
ATTDEF
  5
BD
330
B1
100
AcDbEntity
  8
AM_6
100
AcDbText
 10
6.24497228884823
 20
-2.750001119686827
 30
0.0
 40
0.5
  1
AN-GT-08-108
100
AcDbAttributeDefinition
  3

  2
DESCRIPTION
 70
     8
280
     0
  0
ATTDEF
  5
BE
330
B1
100
AcDbEntity
  8
AM_6
100
AcDbText
 10
6.24497228884823
 20
-3.250001119686827
 30
0.0
 40
0.5
  1
1-27/32
100
AcDbAttributeDefinition
  3

  2
A
 70
     8
280
     0
  0
ATTDEF
  5
BF
330
B1
100
AcDbEntity
  8
AM_6
100
AcDbText
 10
6.24497228884823
 20
-3.750001119686827
 30
0.0
 40
0.5
  1
0.8661
100
AcDbAttributeDefinition
  3

  2
C
 70
     8
280
     0
  0
ATTDEF
  5
C0
330
B1
100
AcDbEntity
  8
AM_6
100
AcDbText
 10
6.24497228884823
 20
-4.250001119686827
 30
0.0
 40
0.5
  1
3.1496
100
AcDbAttributeDefinition
  3

  2
D
 70
     8
280
     0
  0
ATTDEF
  5
C1
330
B1
100
AcDbEntity
  8
AM_6
100
AcDbText
 10
6.24497228884823
 20
-4.750001119686827
 30
0.0
 40
0.5
  1
0.224
100
AcDbAttributeDefinition
  3

  2
J
 70
     8
280
     0
  0
ATTDEF
  5
C2
330
B1
100
AcDbEntity
  8
AM_6
100
AcDbText
 10
6.24497228884823
 20
-5.250001119686827
 30
0.0
 40
0.5
  1
2-1/2
100
AcDbAttributeDefinition
  3

  2
L
 70
     8
280
     0
  0
ATTDEF
  5
C3
330
B1
100
AcDbEntity
  8
AM_6
100
AcDbText
 10
6.24497228884823
 20
-5.750001119686827
 30
0.0
 40
0.5
  1
10 - 32 x 1/4
100
AcDbAttributeDefinition
  3

  2
N
 70
     8
280
     0
  0
ATTDEF
  5
C4
330
B1
100
AcDbEntity
  8
AM_6
100
AcDbText
 10
6.24497228884823
 20
-6.250001119686827
 30
0.0
 40
0.5
  1
21/32
100
AcDbAttributeDefinition
  3

  2
W
 70
     8
280
     0
  0
ATTDEF
  5
C5
330
B1
100
AcDbEntity
  8
AM_6
100
AcDbText
 10
6.24497228884823
 20
-6.750001119686827
 30
0.0
 40
0.5
  1
1-9/64
100
AcDbAttributeDefinition
  3

  2
X
 70
     8
280
     0
  0
ATTDEF
  5
C6
330
B1
100
AcDbEntity
  8
AM_6
100
AcDbText
 10
6.24497228884823
 20
-7.250001119686827
 30
0.0
 40
0.5
  1
1-3/16
100
AcDbAttributeDefinition
  3

  2
Y
 70
     8
280
     0
  0
ATTDEF
  5
C7
330
B1
100
AcDbEntity
  8
AM_6
100
AcDbText
 10
6.24497228884823
 20
-7.750001119686827
 30
0.0
 40
0.5
  1
baldor
100
AcDbAttributeDefinition
  3

  2
COMPANY
 70
     8
280
     0
  0
LINE
  5
C8
330
B1
100
AcDbEntity
  8
AM_9
100
AcDbLine
 10
-0.05
 20
0.9325470882311387
 30
0.0
 11
-0.05
 21
0.9691042573675438
 31
0.0
  0
LINE
  5
C9
330
B1
100
AcDbEntity
  8
AM_9
100
AcDbLine
 10
0.05
 20
0.9325470882311387
 30
0.0
 11
0.05
 21
0.9691042573675438
 31
0.0
  0
ARC
  5
CA
330
B1
100
AcDbEntity
  8
AM_9
100
AcDbCircle
 10
0.0
 20
0.0
 30
0.0
 40
0.9703932510317137
100
AcDbArc
 50
92.95350168605006
 51
87.04649831394995
  0
CIRCLE
  5
CB
330
B1
100
AcDbEntity
  8
AM_9
100
AcDbCircle
 10
0.0
 20
0.0
 30
0.0
 40
1.021825396825397
  0
CIRCLE
  5
CC
330
B1
100
AcDbEntity
  8
AM_9
100
AcDbCircle
 10
0.0
 20
0.0
 30
0.0
 40
1.111111111111111
  0
LINE
  5
CD
330
B1
100
AcDbEntity
  8
AM_9
100
AcDbLine
 10
-1.22745
 20
-0.0724499999999999
 30
0.0
 11
-0.9600500000000001
 21
-0.0724499999999999
 31
0.0
  0
LINE
  5
CE
330
B1
100
AcDbEntity
  8
AM_9
100
AcDbLine
 10
-0.9600500000000001
 20
0.0724499999999999
 30
0.0
 11
-1.22745
 21
0.0724499999999999
 31
0.0
  0
LINE
  5
CF
330
B1
100
AcDbEntity
  8
AM_9
100
AcDbLine
 10
-0.9600500000000001
 20
-0.0724499999999999
 30
0.0
 11
-0.9375
 21
-0.0949999999999999
 31
0.0
  0
LINE
  5
D0
330
B1
100
AcDbEntity
  8
AM_9
100
AcDbLine
 10
-0.9375
 20
0.0949999999999999
 30
0.0
 11
-0.9600500000000001
 21
0.0724499999999999
 31
0.0
  0
LINE
  5
D1
330
B1
100
AcDbEntity
  8
AM_9
100
AcDbLine
 10
-0.9375
 20
0.0949999999999999
 30
0.0
 11
-0.9375
 21
-0.0949999999999999
 31
0.0
  0
LINE
  5
D2
330
B1
100
AcDbEntity
  8
AM_9
100
AcDbLine
 10
-0.9600500000000001
 20
0.0724499999999999
 30
0.0
 11
-0.9600500000000001
 21
-0.0724499999999999
 31
0.0
  0
LINE
  5
D3
330
B1
100
AcDbEntity
  8
AM_9
100
AcDbLine
 10
-1.22745
 20
0.0724499999999999
 30
0.0
 11
-1.246118088000141
 21
0.0911180880001409
 31
0.0
  0
LINE
  5
D4
330
B1
100
AcDbEntity
  8
AM_9
100
AcDbLine
 10
-1.246563630599836
 20
-0.0915636305998354
 30
0.0
 11
-1.22745
 21
-0.0724499999999999
 31
0.0
  0
LINE
  5
D5
330
B1
100
AcDbEntity
  8
AM_9
100
AcDbLine
 10
-1.22745
 20
0.0724499999999999
 30
0.0
 11
-1.22745
 21
-0.0724499999999999
 31
0.0
  0
LWPOLYLINE
  5
D6
330
B1
100
AcDbEntity
  8
AM_9
100
AcDbPolyline
 90
        5
 70
     0
 43
0.0
 10
-1.249122763680908
 20
0.0468222303417346
 10
-1.248262193428351
 20
0.0658900330660257
 10
-1.247242349271058
 20
0.0829850720600503
 10
-1.246669427977033
 20
0.0911884715707996
 10
-1.246636571329678
 20
0.0916365594257212
  0
LINE
  5
D7
330
B1
100
AcDbEntity
  8
AM_9
100
AcDbLine
 10
-1.248158666700349
 20
-0.0678228777095616
 30
0.0
 11
-1.249127516627428
 21
-0.0466952589049096
 31
0.0
  0
LINE
  5
D8
330
B1
100
AcDbEntity
  8
AM_9
100
AcDbLine
 10
-1.246636570588963
 20
-0.0916365695025187
 30
0.0
 11
-1.248158666700349
 21
-0.0678228777095616
 31
0.0
  0
LINE
  5
DA
330
B1
100
AcDbEntity
  8
AM_5
100
AcDbLine
 10
-1.24638477205075
 20
-0.0949999999999999
 30
0.0
 11
-0.9375
 21
-0.0949999999999999
 31
0.0
  0
LINE
  5
DB
330
B1
100
AcDbEntity
  8
AM_5
100
AcDbLine
 10
-1.24638477205075
 20
0.0949999999999999
 30
0.0
 11
-0.9375
 21
0.0949999999999999
 31
0.0
  0
LWPOLYLINE
  5
DC
330
B1
100
AcDbEntity
  8
AM_4
100
AcDbPolyline
 90
        6
 70
     0
 43
0.0
 10
-1.249127516627428
 20
-0.0466952589049096
 10
-1.249188006090033
 20
-0.0450480348162464
 10
-1.249899180460773
 20
-0.0158757262349503
 10
-1.249919466833609
 20
0.0141889545205633
 10
-1.24928733899257
 20
0.0422036092397744
 10
-1.249122763680908
 20
0.0468222303417346
  0
LINE
  5
DD
330
B1
100
AcDbEntity
  8
AM_4
100
AcDbLine
 10
-0.05
 20
0.7483314773547886
 30
0.0
 11
-0.0499999999999999
 21
0.9325396825396826
 31
0.0
  0
LINE
  5
DE
330
B1
100
AcDbEntity
  8
AM_4
100
AcDbLine
 10
0.05
 20
0.7483314773547886
 30
0.0
 11
0.05
 21
0.9325396825396826
 31
0.0
  0
LINE
  5
DF
330
B1
100
AcDbEntity
  8
AM_4
100
AcDbLine
 10
-0.7194809896479722
 20
1.022177629150225
 30
0.0
 11
-0.6803280727236456
 21
0.9543627877727678
 31
0.0
  0
LINE
  5
E0
330
B1
100
AcDbEntity
  8
AM_4
100
AcDbLine
 10
-0.5254912992002576
 20
-1.134177629150225
 30
0.0
 11
-0.4863383822759307
 21
-1.066362787772768
 31
0.0
  0
LINE
  5
E1
330
B1
100
AcDbEntity
  8
AM_4
100
AcDbLine
 10
-0.4863383822759316
 20
1.066362787772768
 30
0.0
 11
-0.5254912992002584
 21
1.134177629150225
 31
0.0
  0
LINE
  5
E2
330
B1
100
AcDbEntity
  8
AM_4
100
AcDbLine
 10
-0.0499999999999999
 20
0.9325396825396826
 30
0.0
 11
0.05
 21
0.9325396825396826
 31
0.0
  0
LINE
  5
E3
330
B1
100
AcDbEntity
  8
AM_4
100
AcDbLine
 10
-0.6803280727236456
 20
0.9543627877727678
 30
0.0
 11
-0.4863383822759316
 21
1.066362787772768
 31
0.0
  0
LINE
  5
E4
330
B1
100
AcDbEntity
  8
AM_4
100
AcDbLine
 10
-0.4863383822759307
 20
-1.066362787772768
 30
0.0
 11
-0.6803280727236451
 21
-0.9543627877727682
 31
0.0
  0
LINE
  5
E5
330
B1
100
AcDbEntity
  8
AM_4
100
AcDbLine
 10
1.166666454999577
 20
-0.112
 30
0.0
 11
1.24497228884823
 21
-0.112
 31
0.0
  0
LINE
  5
E6
330
B1
100
AcDbEntity
  8
AM_4
100
AcDbLine
 10
-0.6803280727236451
 20
-0.9543627877727682
 30
0.0
 11
-0.7194809896479719
 21
-1.022177629150225
 31
0.0
  0
LINE
  5
E7
330
B1
100
AcDbEntity
  8
AM_4
100
AcDbLine
 10
1.166666454999577
 20
0.112
 30
0.0
 11
1.166666454999577
 21
-0.112
 31
0.0
  0
LINE
  5
E8
330
B1
100
AcDbEntity
  8
AM_4
100
AcDbLine
 10
1.24497228884823
 20
0.112
 30
0.0
 11
1.166666454999577
 21
0.112
 31
0.0
  0
ARC
  5
E9
330
B1
100
AcDbEntity
  8
AM_4
100
AcDbCircle
 10
-0.0000000000000004
 20
0.0000000000000004
 30
0.0
 40
1.25
100
AcDbArc
 50
245.1405958091279
 51
354.8594041908721
  0
ARC
  5
EA
330
B1
100
AcDbEntity
  8
AM_4
100
AcDbCircle
 10
0.0
 20
-0.0000000000000004
 30
0.0
 40
1.215356
100
AcDbArc
 50
245.2875412346413
 51
354.7124587653587
  0
ARC
  5
EB
330
B1
100
AcDbEntity
  8
AM_4
100
AcDbCircle
 10
-0.0000000000000001
 20
0.0000000000000001
 30
0.0
 40
1.25
100
AcDbArc
 50
125.1405958091279
 51
177.8639977494386
  0
LWPOLYLINE
  5
EC
330
B1
100
AcDbEntity
  8
AM_4
100
AcDbPolyline
 90
        5
 70
     0
 43
0.0
 10
-1.249131463919283
 20
0.0465895465407063
 10
-1.245009762241118
 20
0.0247596267653328
 10
-1.243402444457721
 20
0.0014840695178617
 10
-1.244731343963961
 20
-0.0225248810153389
 10
-1.249131463919283
 20
-0.0465895465407057
  0
ARC
  5
ED
330
B1
100
AcDbEntity
  8
AM_4
100
AcDbCircle
 10
0.0000000000000013
 20
0.0000000000000005
 30
0.0
 40
1.250000000000001
100
AcDbArc
 50
182.1360022505615
 51
234.8594041908721
  0
ARC
  5
EE
330
B1
100
AcDbEntity
  8
AM_4
100
AcDbCircle
 10
0.0000000000000006
 20
0.0000000000000001
 30
0.0
 40
1.215356000000001
100
AcDbArc
 50
125.2875412346413
 51
234.7124587653588
  0
ARC
  5
EF
330
B1
100
AcDbEntity
  8
AM_4
100
AcDbCircle
 10
-0.0000000000000001
 20
-0.0000000000000001
 30
0.0
 40
1.25
100
AcDbArc
 50
5.140595809127942
 51
114.8594041908721
  0
ARC
  5
F0
330
B1
100
AcDbEntity
  8
AM_4
100
AcDbCircle
 10
-0.0000000000000001
 20
-0.0000000000000001
 30
0.0
 40
1.215356
100
AcDbArc
 50
5.287541234641199
 51
114.7124587653588
  0
ARC
  5
F1
330
B1
100
AcDbEntity
  8
AM_4
100
AcDbCircle
 10
0.0
 20
0.0
 30
0.0
 40
0.9325396825396824
100
AcDbArc
 50
93.07350284042364
 51
86.92649715957637
  0
ARC
  5
F2
330
B1
100
AcDbEntity
  8
AM_4
100
AcDbCircle
 10
0.0
 20
0.0000000000000001
 30
0.0
 40
0.7500000000000001
100
AcDbArc
 50
93.82255372927435
 51
86.17744627072565
  0
ENDBLK
  5
B4
330
B1
100
AcDbEntity
  8
0
100
AcDbBlockEnd
  0
BLOCK
  5
F5
330
F3
100
AcDbEntity
  8
0
100
AcDbBlockBegin
  2
4_129461I_0_in_129285_0
 70
     2
 10
0.0
 20
0.0
 30
0.0
  3
4_129461I_0_in_129285_0
  1

  0
ATTDEF
  5
F7
330
F3
100
AcDbEntity
  8
AM_6
100
AcDbText
 10
7.3125
 20
2.0
 30
0.0
 40
0.5
  1
TB-GT-I
100
AcDbAttributeDefinition
  3

  2
NN
 70
     8
280
     0
  0
ATTDEF
  5
F8
330
F3
100
AcDbEntity
  8
AM_6
100
AcDbText
 10
7.3125
 20
1.5
 30
0.0
 40
0.5
  1
GT Normal Duty Tapped Base Pillow Blocks
100
AcDbAttributeDefinition
  3

  2
NT
 70
     8
280
     0
  0
ATTDEF
  5
F9
330
F3
100
AcDbEntity
  8
AM_6
100
AcDbText
 10
7.3125
 20
1.0
 30
0.0
 40
0.5
  1
129461I
100
AcDbAttributeDefinition
  3

  2
NB
 70
     8
280
     0
  0
ATTDEF
  5
FA
330
F3
100
AcDbEntity
  8
AM_6
100
AcDbText
 10
7.3125
 20
0.5000000000000004
 30
0.0
 40
0.5
  1
$PN.$LUBE.I
100
AcDbAttributeDefinition
  3

  2
NBSYN
 70
     8
280
     0
  0
ATTDEF
  5
FB
330
F3
100
AcDbEntity
  8
AM_6
100
AcDbText
 10
7.3125
 20
0.0000000000000004
 30
0.0
 40
0.5
  1
129461
100
AcDbAttributeDefinition
  3

  2
LINA
 70
     8
280
     0
  0
ATTDEF
  5
FC
330
F3
100
AcDbEntity
  8
AM_6
100
AcDbText
 10
7.3125
 20
-0.4999999999999996
 30
0.0
 40
0.5
  1
208
100
AcDbAttributeDefinition
  3

  2
SERIES
 70
     8
280
     0
  0
ATTDEF
  5
FD
330
F3
100
AcDbEntity
  8
AM_6
100
AcDbText
 10
7.3125
 20
-0.9999999999999996
 30
0.0
 40
0.5
  1
129461
100
AcDbAttributeDefinition
  3

  2
PN
 70
     8
280
     0
  0
ATTDEF
  5
FE
330
F3
100
AcDbEntity
  8
AM_6
100
AcDbText
 10
7.3125
 20
-1.5
 30
0.0
 40
0.5
  1
TB-GT-08
100
AcDbAttributeDefinition
  3

  2
DESCRIPTION
 70
     8
280
     0
  0
ATTDEF
  5
FF
330
F3
100
AcDbEntity
  8
AM_6
100
AcDbText
 10
7.3125
 20
-2.0
 30
0.0
 40
0.5
  1
1-27/32
100
AcDbAttributeDefinition
  3

  2
A
 70
     8
280
     0
  0
ATTDEF
  5
100
330
F3
100
AcDbEntity
  8
AM_6
100
AcDbText
 10
7.3125
 20
-2.5
 30
0.0
 40
0.5
  1
4-5/8
100
AcDbAttributeDefinition
  3

  2
B
 70
     8
280
     0
  0
ATTDEF
  5
101
330
F3
100
AcDbEntity
  8
AM_6
100
AcDbText
 10
7.3125
 20
-3.0
 30
0.0
 40
0.5
  1
1-7/8
100
AcDbAttributeDefinition
  3

  2
C
 70
     8
280
     0
  0
ATTDEF
  5
102
330
F3
100
AcDbEntity
  8
AM_6
100
AcDbText
 10
7.3125
 20
-3.5
 30
0.0
 40
0.5
  1
3-1/2
100
AcDbAttributeDefinition
  3

  2
D
 70
     8
280
     0
  0
ATTDEF
  5
103
330
F3
100
AcDbEntity
  8
AM_6
100
AcDbText
 10
7.3125
 20
-4.0
 30
0.0
 40
0.5
  1
3-15/16
100
AcDbAttributeDefinition
  3

  2
J
 70
     8
280
     0
  0
ATTDEF
  5
104
330
F3
100
AcDbEntity
  8
AM_6
100
AcDbText
 10
7.3125
 20
-4.5
 30
0.0
 40
0.5
  1
2-1/2
100
AcDbAttributeDefinition
  3

  2
L
 70
     8
280
     0
  0
ATTDEF
  5
105
330
F3
100
AcDbEntity
  8
AM_6
100
AcDbText
 10
7.3125
 20
-5.0
 30
0.0
 40
0.5
  1
1-15/16
100
AcDbAttributeDefinition
  3

  2
M
 70
     8
280
     0
  0
ATTDEF
  5
106
330
F3
100
AcDbEntity
  8
AM_6
100
AcDbText
 10
7.3125
 20
-5.5
 30
0.0
 40
0.5
  1
3/4
100
AcDbAttributeDefinition
  3

  2
N
 70
     8
280
     0
  0
ATTDEF
  5
107
330
F3
100
AcDbEntity
  8
AM_6
100
AcDbText
 10
7.3125
 20
-6.0
 30
0.0
 40
0.5
  1
1/2-13
100
AcDbAttributeDefinition
  3

  2
R
 70
     8
280
     0
  0
ATTDEF
  5
108
330
F3
100
AcDbEntity
  8
AM_6
100
AcDbText
 10
7.3125
 20
-6.5
 30
0.0
 40
0.5
  1
1-3/16
100
AcDbAttributeDefinition
  3

  2
S
 70
     8
280
     0
  0
ATTDEF
  5
109
330
F3
100
AcDbEntity
  8
AM_6
100
AcDbText
 10
7.3125
 20
-7.0
 30
0.0
 40
0.5
  1
1-9/64
100
AcDbAttributeDefinition
  3

  2
Z
 70
     8
280
     0
  0
ATTDEF
  5
10A
330
F3
100
AcDbEntity
  8
AM_6
100
AcDbText
 10
7.3125
 20
-7.5
 30
0.0
 40
0.5
  1
baldor
100
AcDbAttributeDefinition
  3

  2
COMPANY
 70
     8
280
     0
  0
LINE
  5
10B
330
F3
100
AcDbEntity
  8
AM_9
100
AcDbLine
 10
1.75
 20
-0.9132057393146624
 30
0.0
 11
1.53385
 21
-1.037999999999993
 31
0.0
  0
LINE
  5
10C
330
F3
100
AcDbEntity
  8
AM_9
100
AcDbLine
 10
1.96615
 20
-1.037999999999993
 30
0.0
 11
1.75
 21
-0.9132057393146624
 31
0.0
  0
LINE
  5
10D
330
F3
100
AcDbEntity
  8
AM_9
100
AcDbLine
 10
-1.75
 20
-0.9132057393146624
 30
0.0
 11
-1.96615
 21
-1.038
 31
0.0
  0
LINE
  5
10E
330
F3
100
AcDbEntity
  8
AM_9
100
AcDbLine
 10
-1.53385
 20
-1.038
 30
0.0
 11
-1.75
 21
-0.9132057393146624
 31
0.0
  0
LINE
  5
10F
330
F3
100
AcDbEntity
  8
AM_9
100
AcDbLine
 10
1.53385
 20
-1.037999999999993
 30
0.0
 11
1.96615
 21
-1.037999999999993
 31
0.0
  0
LINE
  5
110
330
F3
100
AcDbEntity
  8
AM_9
100
AcDbLine
 10
1.96615
 20
-1.904150000000003
 30
0.0
 11
1.96615
 21
-1.037999999999993
 31
0.0
  0
LINE
  5
111
330
F3
100
AcDbEntity
  8
AM_9
100
AcDbLine
 10
1.53385
 20
-1.037999999999993
 30
0.0
 11
1.53385
 21
-1.904150000000003
 31
0.0
  0
LINE
  5
112
330
F3
100
AcDbEntity
  8
AM_9
100
AcDbLine
 10
-1.96615
 20
-1.038
 30
0.0
 11
-1.96615
 21
-1.90415
 31
0.0
  0
LINE
  5
113
330
F3
100
AcDbEntity
  8
AM_9
100
AcDbLine
 10
-1.53385
 20
-1.90415
 30
0.0
 11
-1.53385
 21
-1.038
 31
0.0
  0
LINE
  5
114
330
F3
100
AcDbEntity
  8
AM_9
100
AcDbLine
 10
-1.53385
 20
-1.038
 30
0.0
 11
-1.96615
 21
-1.038
 31
0.0
  0
LINE
  5
115
330
F3
100
AcDbEntity
  8
AM_9
100
AcDbLine
 10
-1.96615
 20
-1.90415
 30
0.0
 11
-2.0
 21
-1.938
 31
0.0
  0
LINE
  5
116
330
F3
100
AcDbEntity
  8
AM_9
100
AcDbLine
 10
-1.5
 20
-1.938
 30
0.0
 11
-1.53385
 21
-1.90415
 31
0.0
  0
LINE
  5
117
330
F3
100
AcDbEntity
  8
AM_9
100
AcDbLine
 10
-1.53385
 20
-1.90415
 30
0.0
 11
-1.96615
 21
-1.90415
 31
0.0
  0
LINE
  5
118
330
F3
100
AcDbEntity
  8
AM_9
100
AcDbLine
 10
1.53385
 20
-1.904150000000003
 30
0.0
 11
1.96615
 21
-1.904150000000003
 31
0.0
  0
LINE
  5
119
330
F3
100
AcDbEntity
  8
AM_9
100
AcDbLine
 10
1.53385
 20
-1.904150000000003
 30
0.0
 11
1.5
 21
-1.938000000000005
 31
0.0
  0
LINE
  5
11A
330
F3
100
AcDbEntity
  8
AM_9
100
AcDbLine
 10
2.0
 20
-1.938000000000005
 30
0.0
 11
1.96615
 21
-1.904150000000003
 31
0.0
  0
LINE
  5
11B
330
F3
100
AcDbEntity
  8
AM_5
100
AcDbLine
 10
-1.5
 20
-1.938
 30
0.0
 11
-1.5
 21
-1.188
 31
0.0
  0
LINE
  5
11C
330
F3
100
AcDbEntity
  8
AM_5
100
AcDbLine
 10
-1.5
 20
-1.188
 30
0.0
 11
-2.0
 21
-1.188
 31
0.0
  0
LINE
  5
11D
330
F3
100
AcDbEntity
  8
AM_5
100
AcDbLine
 10
-1.5
 20
-1.188
 30
0.0
 11
-1.53385
 21
-1.129370080163794
 31
0.0
  0
LINE
  5
11E
330
F3
100
AcDbEntity
  8
AM_5
100
AcDbLine
 10
-2.0
 20
-1.938
 30
0.0
 11
-2.0
 21
-1.188
 31
0.0
  0
LINE
  5
11F
330
F3
100
AcDbEntity
  8
AM_5
100
AcDbLine
 10
-2.0
 20
-1.188
 30
0.0
 11
-1.96615
 21
-1.129370080163794
 31
0.0
  0
LINE
  5
120
330
F3
100
AcDbEntity
  8
AM_5
100
AcDbLine
 10
1.5
 20
-1.938
 30
0.0
 11
1.5
 21
-1.188000000000005
 31
0.0
  0
LINE
  5
121
330
F3
100
AcDbEntity
  8
AM_5
100
AcDbLine
 10
1.5
 20
-1.188000000000005
 30
0.0
 11
2.0
 21
-1.188000000000005
 31
0.0
  0
LINE
  5
122
330
F3
100
AcDbEntity
  8
AM_5
100
AcDbLine
 10
1.5
 20
-1.188000000000005
 30
0.0
 11
1.53385
 21
-1.129370080163811
 31
0.0
  0
LINE
  5
123
330
F3
100
AcDbEntity
  8
AM_5
100
AcDbLine
 10
2.0
 20
-1.938
 30
0.0
 11
2.0
 21
-1.188000000000005
 31
0.0
  0
LINE
  5
124
330
F3
100
AcDbEntity
  8
AM_5
100
AcDbLine
 10
2.0
 20
-1.188000000000005
 30
0.0
 11
1.96615
 21
-1.129370080163811
 31
0.0
  0
LINE
  5
125
330
F3
100
AcDbEntity
  8
AM_7
100
AcDbLine
 10
1.3681998203963
 20
1.368199820396299
 30
0.0
 11
1.768763995358997
 21
1.768763995358998
 31
0.0
  0
LINE
  5
126
330
F3
100
AcDbEntity
  8
AM_7
100
AcDbLine
 10
-1.75
 20
-0.8619660262803955
 30
0.0
 11
-1.75
 21
-1.989239713034267
 31
0.0
  0
LINE
  5
127
330
F3
100
AcDbEntity
  8
AM_7
100
AcDbLine
 10
1.75
 20
-0.8619660262803953
 30
0.0
 11
1.75
 21
-1.989239713034272
 31
0.0
  0
LINE
  5
128
330
F3
100
AcDbEntity
  8
AM_4
100
AcDbLine
 10
1.767587191846955
 20
1.687947880723308
 30
0.0
 11
1.687947885519719
 21
1.767587187050544
 31
0.0
  0
ARC
  5
129
330
F3
100
AcDbEntity
  8
AM_4
100
AcDbCircle
 10
1.67402848373565
 20
1.753667794859296
 30
0.0
 40
0.0196850000000016
100
AcDbArc
 50
45.00000000000276
 51
110.1794241970938
  0
ARC
  5
12A
330
F3
100
AcDbEntity
  8
AM_4
100
AcDbCircle
 10
1.753667794859297
 20
1.67402848373565
 30
0.0
 40
0.0196850000000003
100
AcDbArc
 50
339.8205758029056
 51
45.00000000000092
  0
LINE
  5
12B
330
F3
100
AcDbEntity
  8
AM_4
100
AcDbLine
 10
1.435459351016193
 20
1.546814809760163
 30
0.0
 11
1.409551789653944
 21
1.520907248397914
 31
0.0
  0
LINE
  5
12C
330
F3
100
AcDbEntity
  8
AM_4
100
AcDbLine
 10
1.531516373833653
 20
1.420160915089684
 30
0.0
 11
1.546814809760163
 21
1.435459351016193
 31
0.0
  0
LINE
  5
12D
330
F3
100
AcDbEntity
  8
AM_4
100
AcDbLine
 10
1.772144469799157
 20
1.66723792351084
 30
0.0
 11
1.66723792351084
 21
1.772144469799157
 31
0.0
  0
LINE
  5
12E
330
F3
100
AcDbEntity
  8
AM_4
100
AcDbLine
 10
1.66723792351084
 20
1.772144469799157
 30
0.0
 11
1.611986296703474
 21
1.751838354084321
 31
0.0
  0
LINE
  5
12F
330
F3
100
AcDbEntity
  8
AM_4
100
AcDbLine
 10
1.751838354084321
 20
1.611986296703475
 30
0.0
 11
1.772144469799157
 21
1.66723792351084
 31
0.0
  0
LINE
  5
130
330
F3
100
AcDbEntity
  8
AM_4
100
AcDbLine
 10
1.751838354084321
 20
1.611986296703475
 30
0.0
 11
1.611986296703474
 21
1.751838354084321
 31
0.0
  0
ARC
  5
131
330
F3
100
AcDbEntity
  8
AM_4
100
AcDbCircle
 10
1.618776856928285
 20
1.733361679144462
 30
0.0
 40
0.0196849999999998
100
AcDbArc
 50
110.1794241970978
 51
179.6971414337868
  0
ARC
  5
132
330
F3
100
AcDbEntity
  8
AM_4
100
AcDbCircle
 10
1.733361679144462
 20
1.618776856928286
 30
0.0
 40
0.0196850000000003
100
AcDbArc
 50
270.3028585662147
 51
339.8205758029008
  0
LINE
  5
133
330
F3
100
AcDbEntity
  8
AM_4
100
AcDbLine
 10
1.73346573119095
 20
1.599092131932197
 30
0.0
 11
1.599092131932197
 21
1.73346573119095
 31
0.0
  0
ARC
  5
134
330
F3
100
AcDbEntity
  8
AM_4
100
AcDbCircle
 10
1.542748704092929
 20
1.733763544758907
 30
0.0
 40
0.0563442149080108
100
AcDbArc
 50
251.149678039792
 51
359.697155422135
  0
ARC
  5
135
330
F3
100
AcDbEntity
  8
AM_4
100
AcDbCircle
 10
1.733763544758907
 20
1.542748704092929
 30
0.0
 40
0.0563442149080111
100
AcDbArc
 50
90.30284457786405
 51
198.8503219602078
  0
LINE
  5
136
330
F3
100
AcDbEntity
  8
AM_4
100
AcDbLine
 10
1.680441303684384
 20
1.524544057422624
 30
0.0
 11
1.524544057422624
 21
1.680441303684385
 31
0.0
  0
LINE
  5
137
330
F3
100
AcDbEntity
  8
AM_4
100
AcDbLine
 10
1.524544057422624
 20
1.680441303684385
 30
0.0
 11
1.510624660434967
 21
1.666521906696727
 31
0.0
  0
LINE
  5
138
330
F3
100
AcDbEntity
  8
AM_4
100
AcDbLine
 10
1.666521906696727
 20
1.510624660434967
 30
0.0
 11
1.680441303684384
 21
1.524544057422624
 31
0.0
  0
LINE
  5
139
330
F3
100
AcDbEntity
  8
AM_4
100
AcDbLine
 10
1.602492256289435
 20
1.379781904486921
 30
0.0
 11
1.379781904486921
 21
1.602492256289435
 31
0.0
  0
LWPOLYLINE
  5
13A
330
F3
100
AcDbEntity
  8
AM_4
100
AcDbPolyline
 90
        5
 70
     0
 43
0.0
 10
1.389727629787713
 20
1.612438688697009
 10
1.411329910832085
 20
1.575716449738563
 10
1.43946730905305
 20
1.542915281086073
 10
1.46832670562947
 20
1.519969202521705
 10
1.501083159242361
 20
1.501083159242361
  0
LINE
  5
13B
330
F3
100
AcDbEntity
  8
AM_4
100
AcDbLine
 10
1.379781755870965
 20
1.602492814780261
 30
0.0
 11
1.477217549173764
 21
1.69992860808306
 31
0.0
  0
LINE
  5
13C
330
F3
100
AcDbEntity
  8
AM_4
100
AcDbLine
 10
1.578627204711664
 20
1.578627204711664
 30
0.0
 11
1.501083159242361
 21
1.501083159242361
 31
0.0
  0
LWPOLYLINE
  5
13D
330
F3
100
AcDbEntity
  8
AM_4
100
AcDbPolyline
 90
        5
 70
     0
 43
0.0
 10
1.501083159242361
 20
1.501083159242361
 10
1.522685440286733
 20
1.464360920283915
 10
1.550822838507698
 20
1.431559751631425
 10
1.579682235084118
 20
1.408613673067057
 10
1.612438688697009
 20
1.389727629787713
  0
LWPOLYLINE
  5
13E
330
F3
100
AcDbEntity
  8
AM_4
100
AcDbPolyline
 90
        5
 70
     0
 43
0.0
 10
1.689982734166312
 20
1.467271675257015
 10
1.66838045312194
 20
1.503993914215462
 10
1.640243054900975
 20
1.536795082867952
 10
1.611383658324556
 20
1.55974116143232
 10
1.578627204711664
 20
1.578627204711664
  0
LWPOLYLINE
  5
13F
330
F3
100
AcDbEntity
  8
AM_4
100
AcDbPolyline
 90
        5
 70
     0
 43
0.0
 10
1.578627204711664
 20
1.578627204711664
 10
1.557024923667292
 20
1.61534944367011
 10
1.528887525446327
 20
1.6481506123226
 10
1.500028128869908
 20
1.671096690886968
 10
1.467271675257016
 20
1.689982734166312
  0
LINE
  5
140
330
F3
100
AcDbEntity
  8
AM_4
100
AcDbLine
 10
1.699928459467104
 20
1.477218107664589
 30
0.0
 11
1.477218107664589
 21
1.699928459467104
 31
0.0
  0
LINE
  5
141
330
F3
100
AcDbEntity
  8
AM_4
100
AcDbLine
 10
1.69992860808306
 20
1.477217549173763
 30
0.0
 11
1.602492814780262
 21
1.379781755870965
 31
0.0
  0
LINE
  5
142
330
F3
100
AcDbEntity
  8
AM_4
100
AcDbLine
 10
-0.1515134676439996
 20
1.712793939397
 30
0.0
 11
-0.1637571750430001
 21
1.715707326797
 31
0.0
  0
LINE
  5
143
330
F3
100
AcDbEntity
  8
AM_4
100
AcDbLine
 10
-0.127026446547
 20
1.712793939397
 30
0.0
 11
-0.1515134676439996
 21
1.712793939397
 31
0.0
  0
LINE
  5
144
330
F3
100
AcDbEntity
  8
AM_4
100
AcDbLine
 10
-0.18212214559
 20
1.7856303
 30
0.0
 11
-0.1790615140160002
 21
1.7972841
 31
0.0
  0
LINE
  5
145
330
F3
100
AcDbEntity
  8
AM_4
100
AcDbLine
 10
-0.18212214559
 20
1.741928522058801
 30
0.0
 11
-0.18212214559
 21
1.7856303
 31
0.0
  0
LINE
  5
146
330
F3
100
AcDbEntity
  8
AM_4
100
AcDbLine
 10
-0.1790615140159998
 20
1.7302746968681
 30
0.0
 11
-0.18212214559
 21
1.741928522058801
 31
0.0
  0
LINE
  5
147
330
F3
100
AcDbEntity
  8
AM_4
100
AcDbLine
 10
-0.172939463466
 20
1.721534495298001
 30
0.0
 11
-0.1790615140159998
 21
1.7302746968681
 31
0.0
  0
LINE
  5
148
330
F3
100
AcDbEntity
  8
AM_4
100
AcDbLine
 10
-0.1637571750430001
 20
1.715707326797
 30
0.0
 11
-0.172939463466
 21
1.721534495298001
 31
0.0
  0
LINE
  5
149
330
F3
100
AcDbEntity
  8
AM_4
100
AcDbLine
 10
-0.1147831328490002
 20
1.715707326797
 30
0.0
 11
-0.127026446547
 21
1.712793939397
 31
0.0
  0
LINE
  5
14A
330
F3
100
AcDbEntity
  8
AM_4
100
AcDbLine
 10
-0.1056004507250001
 20
1.721534495298
 30
0.0
 11
-0.1147831328490002
 21
1.715707326797
 31
0.0
  0
LINE
  5
14B
330
F3
100
AcDbEntity
  8
AM_4
100
AcDbLine
 10
-0.0994784001749998
 20
1.7302746968681
 30
0.0
 11
-0.1056004507250001
 21
1.721534495298
 31
0.0
  0
LINE
  5
14C
330
F3
100
AcDbEntity
  8
AM_4
100
AcDbLine
 10
-0.096417768601
 20
1.741928522058801
 30
0.0
 11
-0.0994784001749998
 21
1.7302746968681
 31
0.0
  0
LINE
  5
14D
330
F3
100
AcDbEntity
  8
AM_4
100
AcDbLine
 10
-0.096417768601
 20
1.7856303
 30
0.0
 11
-0.096417768601
 21
1.741928522058801
 31
0.0
  0
LINE
  5
14E
330
F3
100
AcDbEntity
  8
AM_4
100
AcDbLine
 10
-0.0994784001750001
 20
1.7972841
 30
0.0
 11
-0.096417768601
 21
1.7856303
 31
0.0
  0
LINE
  5
14F
330
F3
100
AcDbEntity
  8
AM_4
100
AcDbLine
 10
-0.1056004507250001
 20
1.8060243
 30
0.0
 11
-0.0994784001750001
 21
1.7972841
 31
0.0
  0
LINE
  5
150
330
F3
100
AcDbEntity
  8
AM_4
100
AcDbLine
 10
-0.1147831328489999
 20
1.8118514
 30
0.0
 11
-0.1056004507250001
 21
1.8060243
 31
0.0
  0
LINE
  5
151
330
F3
100
AcDbEntity
  8
AM_4
100
AcDbLine
 10
-0.1270264465469998
 20
1.814764800000001
 30
0.0
 11
-0.1147831328489999
 21
1.8118514
 31
0.0
  0
LINE
  5
152
330
F3
100
AcDbEntity
  8
AM_4
100
AcDbLine
 10
-0.151513467644
 20
1.814764800000001
 30
0.0
 11
-0.1270264465469998
 21
1.814764800000001
 31
0.0
  0
LINE
  5
153
330
F3
100
AcDbEntity
  8
AM_4
100
AcDbLine
 10
-0.1637571750429996
 20
1.811851400000001
 30
0.0
 11
-0.151513467644
 21
1.814764800000001
 31
0.0
  0
LINE
  5
154
330
F3
100
AcDbEntity
  8
AM_4
100
AcDbLine
 10
-0.1729394634659998
 20
1.806024300000001
 30
0.0
 11
-0.1637571750429996
 21
1.811851400000001
 31
0.0
  0
LINE
  5
155
330
F3
100
AcDbEntity
  8
AM_4
100
AcDbLine
 10
-0.1790615140160002
 20
1.7972841
 30
0.0
 11
-0.1729394634659998
 21
1.806024300000001
 31
0.0
  0
LINE
  5
156
330
F3
100
AcDbEntity
  8
AM_4
100
AcDbLine
 10
-0.3290446658729999
 20
1.712793939397
 30
0.0
 11
-0.3290446658729999
 21
1.814764800000001
 31
0.0
  0
LINE
  5
157
330
F3
100
AcDbEntity
  8
AM_4
100
AcDbLine
 10
-0.273948573129
 20
1.712793939397
 30
0.0
 11
-0.3290446658729999
 21
1.712793939397
 31
0.0
  0
LINE
  5
158
330
F3
100
AcDbEntity
  8
AM_4
100
AcDbLine
 10
-0.2617052594310004
 20
1.715707326797
 30
0.0
 11
-0.273948573129
 21
1.712793939397
 31
0.0
  0
LINE
  5
159
330
F3
100
AcDbEntity
  8
AM_4
100
AcDbLine
 10
-0.2525225773070001
 20
1.721534495298
 30
0.0
 11
-0.2617052594310004
 21
1.715707326797
 31
0.0
  0
LINE
  5
15A
330
F3
100
AcDbEntity
  8
AM_4
100
AcDbLine
 10
-0.2464009204580002
 20
1.7302746968681
 30
0.0
 11
-0.2525225773070001
 21
1.721534495298
 31
0.0
  0
LINE
  5
15B
330
F3
100
AcDbEntity
  8
AM_4
100
AcDbLine
 10
-0.2433398951829999
 20
1.7419285220588
 30
0.0
 11
-0.2464009204580002
 21
1.7302746968681
 31
0.0
  0
LINE
  5
15C
330
F3
100
AcDbEntity
  8
AM_4
100
AcDbLine
 10
-0.2433398951829999
 20
1.7856303
 30
0.0
 11
-0.2433398951829999
 21
1.7419285220588
 31
0.0
  0
LINE
  5
15D
330
F3
100
AcDbEntity
  8
AM_4
100
AcDbLine
 10
-0.2464009204579998
 20
1.797284100000001
 30
0.0
 11
-0.2433398951829999
 21
1.7856303
 31
0.0
  0
LINE
  5
15E
330
F3
100
AcDbEntity
  8
AM_4
100
AcDbLine
 10
-0.2525225773069999
 20
1.806024300000001
 30
0.0
 11
-0.2464009204579998
 21
1.797284100000001
 31
0.0
  0
LINE
  5
15F
330
F3
100
AcDbEntity
  8
AM_4
100
AcDbLine
 10
-0.261705259431
 20
1.8118514
 30
0.0
 11
-0.2525225773069999
 21
1.806024300000001
 31
0.0
  0
LINE
  5
160
330
F3
100
AcDbEntity
  8
AM_4
100
AcDbLine
 10
-0.2739485731289998
 20
1.814764800000001
 30
0.0
 11
-0.261705259431
 21
1.8118514
 31
0.0
  0
LINE
  5
161
330
F3
100
AcDbEntity
  8
AM_4
100
AcDbLine
 10
-0.3290446658729999
 20
1.814764800000001
 30
0.0
 11
-0.2739485731289998
 21
1.814764800000001
 31
0.0
  0
LINE
  5
162
330
F3
100
AcDbEntity
  8
AM_4
100
AcDbLine
 10
-0.0352000977482
 20
1.712793939397
 30
0.0
 11
-0.0352000977482
 21
1.814764800000001
 31
0.0
  0
LINE
  5
163
330
F3
100
AcDbEntity
  8
AM_4
100
AcDbLine
 10
0.0198956999999999
 20
1.712793939397
 30
0.0
 11
-0.0352000977482
 21
1.712793939397
 31
0.0
  0
LINE
  5
164
330
F3
100
AcDbEntity
  8
AM_4
100
AcDbLine
 10
0.0321392000000002
 20
1.715707326797
 30
0.0
 11
0.0198956999999999
 21
1.712793939397
 31
0.0
  0
LINE
  5
165
330
F3
100
AcDbEntity
  8
AM_4
100
AcDbLine
 10
0.0413216999999997
 20
1.721534495298
 30
0.0
 11
0.0321392000000002
 21
1.715707326797
 31
0.0
  0
LINE
  5
166
330
F3
100
AcDbEntity
  8
AM_4
100
AcDbLine
 10
0.0474437
 20
1.7302746968681
 30
0.0
 11
0.0413216999999997
 21
1.721534495298
 31
0.0
  0
LINE
  5
167
330
F3
100
AcDbEntity
  8
AM_4
100
AcDbLine
 10
0.0505043
 20
1.7419285220588
 30
0.0
 11
0.0474437
 21
1.7302746968681
 31
0.0
  0
LINE
  5
168
330
F3
100
AcDbEntity
  8
AM_4
100
AcDbLine
 10
0.0505043
 20
1.7856303
 30
0.0
 11
0.0505043
 21
1.7419285220588
 31
0.0
  0
LINE
  5
169
330
F3
100
AcDbEntity
  8
AM_4
100
AcDbLine
 10
0.0474437
 20
1.7972841
 30
0.0
 11
0.0505043
 21
1.7856303
 31
0.0
  0
LINE
  5
16A
330
F3
100
AcDbEntity
  8
AM_4
100
AcDbLine
 10
0.0413216999999999
 20
1.806024300000001
 30
0.0
 11
0.0474437
 21
1.7972841
 31
0.0
  0
LINE
  5
16B
330
F3
100
AcDbEntity
  8
AM_4
100
AcDbLine
 10
0.0321392000000002
 20
1.8118514
 30
0.0
 11
0.0413216999999999
 21
1.806024300000001
 31
0.0
  0
LINE
  5
16C
330
F3
100
AcDbEntity
  8
AM_4
100
AcDbLine
 10
0.0198957000000003
 20
1.8147648
 30
0.0
 11
0.0321392000000002
 21
1.8118514
 31
0.0
  0
LINE
  5
16D
330
F3
100
AcDbEntity
  8
AM_4
100
AcDbLine
 10
-0.0352000977482
 20
1.814764800000001
 30
0.0
 11
0.0198957000000003
 21
1.8147648
 31
0.0
  0
LINE
  5
16E
330
F3
100
AcDbEntity
  8
AM_4
100
AcDbLine
 10
0.3474089999999999
 20
1.695313221296
 30
0.0
 11
0.237218
 21
1.695313221296
 31
0.0
  0
LINE
  5
16F
330
F3
100
AcDbEntity
  8
AM_4
100
AcDbLine
 10
0.237218
 20
1.695313221296
 30
0.0
 11
0.237218
 21
1.832245500000001
 31
0.0
  0
LINE
  5
170
330
F3
100
AcDbEntity
  8
AM_4
100
AcDbLine
 10
0.237218
 20
1.832245500000001
 30
0.0
 11
0.3474089999999999
 21
1.832245500000001
 31
0.0
  0
LINE
  5
171
330
F3
100
AcDbEntity
  8
AM_4
100
AcDbLine
 10
0.3474089999999999
 20
1.832245500000001
 30
0.0
 11
0.3474089999999999
 21
1.814764800000001
 31
0.0
  0
LINE
  5
172
330
F3
100
AcDbEntity
  8
AM_4
100
AcDbLine
 10
0.3474089999999999
 20
1.814764800000001
 30
0.0
 11
0.255583
 21
1.814764800000001
 31
0.0
  0
LINE
  5
173
330
F3
100
AcDbEntity
  8
AM_4
100
AcDbLine
 10
0.255583
 20
1.814764800000001
 30
0.0
 11
0.2555829999999999
 21
1.7768899
 31
0.0
  0
LINE
  5
174
330
F3
100
AcDbEntity
  8
AM_4
100
AcDbLine
 10
0.2555829999999999
 20
1.7768899
 30
0.0
 11
0.335166
 21
1.7768899
 31
0.0
  0
LINE
  5
175
330
F3
100
AcDbEntity
  8
AM_4
100
AcDbLine
 10
0.335166
 20
1.7768899
 30
0.0
 11
0.3351660000000001
 21
1.7594092401598
 31
0.0
  0
LINE
  5
176
330
F3
100
AcDbEntity
  8
AM_4
100
AcDbLine
 10
0.3351660000000001
 20
1.7594092401598
 30
0.0
 11
0.255583
 21
1.7594092401598
 31
0.0
  0
LINE
  5
177
330
F3
100
AcDbEntity
  8
AM_4
100
AcDbLine
 10
0.255583
 20
1.7594092401598
 30
0.0
 11
0.2555829999999999
 21
1.712793939397
 31
0.0
  0
LINE
  5
178
330
F3
100
AcDbEntity
  8
AM_4
100
AcDbLine
 10
0.2555829999999999
 20
1.712793939397
 30
0.0
 11
0.347409
 21
1.712793939397
 31
0.0
  0
LINE
  5
179
330
F3
100
AcDbEntity
  8
AM_4
100
AcDbLine
 10
0.347409
 20
1.712793939397
 30
0.0
 11
0.3474089999999999
 21
1.695313221296
 31
0.0
  0
LINE
  5
17A
330
F3
100
AcDbEntity
  8
AM_4
100
AcDbLine
 10
0.0933566999999999
 20
1.741928522058801
 30
0.0
 11
0.0933567
 21
1.7856303
 31
0.0
  0
LINE
  5
17B
330
F3
100
AcDbEntity
  8
AM_4
100
AcDbLine
 10
0.0933567
 20
1.7856303
 30
0.0
 11
0.0964177000000001
 21
1.800197500000001
 31
0.0
  0
LINE
  5
17C
330
F3
100
AcDbEntity
  8
AM_4
100
AcDbLine
 10
0.0964177000000001
 20
1.800197500000001
 30
0.0
 11
0.1025390000000001
 21
1.811851400000001
 31
0.0
  0
LINE
  5
17D
330
F3
100
AcDbEntity
  8
AM_4
100
AcDbLine
 10
0.1025390000000001
 20
1.811851400000001
 30
0.0
 11
0.1147829999999999
 21
1.823505
 31
0.0
  0
LINE
  5
17E
330
F3
100
AcDbEntity
  8
AM_4
100
AcDbLine
 10
0.1147829999999999
 20
1.823505
 30
0.0
 11
0.1270260000000002
 21
1.8293322
 31
0.0
  0
LINE
  5
17F
330
F3
100
AcDbEntity
  8
AM_4
100
AcDbLine
 10
0.1270260000000002
 20
1.8293322
 30
0.0
 11
0.1423309999999998
 21
1.832245500000001
 31
0.0
  0
LINE
  5
180
330
F3
100
AcDbEntity
  8
AM_4
100
AcDbLine
 10
0.1423309999999998
 20
1.832245500000001
 30
0.0
 11
0.169879
 21
1.832245500000001
 31
0.0
  0
LINE
  5
181
330
F3
100
AcDbEntity
  8
AM_4
100
AcDbLine
 10
0.169879
 20
1.832245500000001
 30
0.0
 11
0.1851830000000002
 21
1.8293322
 31
0.0
  0
LINE
  5
182
330
F3
100
AcDbEntity
  8
AM_4
100
AcDbLine
 10
0.1851830000000002
 20
1.8293322
 30
0.0
 11
0.1974269999999997
 21
1.823505
 31
0.0
  0
LINE
  5
183
330
F3
100
AcDbEntity
  8
AM_4
100
AcDbLine
 10
0.1974269999999997
 20
1.823505
 30
0.0
 11
0.2096700000000001
 21
1.811851400000001
 31
0.0
  0
LINE
  5
184
330
F3
100
AcDbEntity
  8
AM_4
100
AcDbLine
 10
0.2096700000000001
 20
1.811851400000001
 30
0.0
 11
0.212731
 21
1.7972841
 31
0.0
  0
LINE
  5
185
330
F3
100
AcDbEntity
  8
AM_4
100
AcDbLine
 10
0.212731
 20
1.7972841
 30
0.0
 11
0.194366
 21
1.7972841
 31
0.0
  0
LINE
  5
186
330
F3
100
AcDbEntity
  8
AM_4
100
AcDbLine
 10
0.194366
 20
1.7972841
 30
0.0
 11
0.1913049999999999
 21
1.8060243
 31
0.0
  0
LINE
  5
187
330
F3
100
AcDbEntity
  8
AM_4
100
AcDbLine
 10
0.1913049999999999
 20
1.8060243
 30
0.0
 11
0.182122
 21
1.8118514
 31
0.0
  0
LINE
  5
188
330
F3
100
AcDbEntity
  8
AM_4
100
AcDbLine
 10
0.182122
 20
1.8118514
 30
0.0
 11
0.1698789999999999
 21
1.814764800000001
 31
0.0
  0
LINE
  5
189
330
F3
100
AcDbEntity
  8
AM_4
100
AcDbLine
 10
0.1698789999999999
 20
1.814764800000001
 30
0.0
 11
0.142331
 21
1.814764800000001
 31
0.0
  0
LINE
  5
18A
330
F3
100
AcDbEntity
  8
AM_4
100
AcDbLine
 10
0.142331
 20
1.814764800000001
 30
0.0
 11
0.1300870000000003
 21
1.811851400000001
 31
0.0
  0
LINE
  5
18B
330
F3
100
AcDbEntity
  8
AM_4
100
AcDbLine
 10
0.1300870000000003
 20
1.811851400000001
 30
0.0
 11
0.1209049999999998
 21
1.8060243
 31
0.0
  0
LINE
  5
18C
330
F3
100
AcDbEntity
  8
AM_4
100
AcDbLine
 10
0.1209049999999998
 20
1.8060243
 30
0.0
 11
0.1147829999999999
 21
1.7972841
 31
0.0
  0
LINE
  5
18D
330
F3
100
AcDbEntity
  8
AM_4
100
AcDbLine
 10
0.1147829999999999
 20
1.7972841
 30
0.0
 11
0.1117220000000001
 21
1.7856303
 31
0.0
  0
LINE
  5
18E
330
F3
100
AcDbEntity
  8
AM_4
100
AcDbLine
 10
0.1117220000000001
 20
1.7856303
 30
0.0
 11
0.1117220000000001
 21
1.741928522058801
 31
0.0
  0
LINE
  5
18F
330
F3
100
AcDbEntity
  8
AM_4
100
AcDbLine
 10
0.1117220000000001
 20
1.741928522058801
 30
0.0
 11
0.1147829999999999
 21
1.7302746968681
 31
0.0
  0
LINE
  5
190
330
F3
100
AcDbEntity
  8
AM_4
100
AcDbLine
 10
0.1147829999999999
 20
1.7302746968681
 30
0.0
 11
0.1209049999999999
 21
1.721534495298
 31
0.0
  0
LINE
  5
191
330
F3
100
AcDbEntity
  8
AM_4
100
AcDbLine
 10
0.1209049999999999
 20
1.721534495298
 30
0.0
 11
0.1300869999999998
 21
1.715707326797
 31
0.0
  0
LINE
  5
192
330
F3
100
AcDbEntity
  8
AM_4
100
AcDbLine
 10
0.1300869999999998
 20
1.715707326797
 30
0.0
 11
0.1423310000000003
 21
1.712793939397
 31
0.0
  0
LINE
  5
193
330
F3
100
AcDbEntity
  8
AM_4
100
AcDbLine
 10
0.1423310000000003
 20
1.712793939397
 30
0.0
 11
0.169879
 21
1.712793939397
 31
0.0
  0
LINE
  5
194
330
F3
100
AcDbEntity
  8
AM_4
100
AcDbLine
 10
0.169879
 20
1.712793939397
 30
0.0
 11
0.1821219999999999
 21
1.715707326797
 31
0.0
  0
LINE
  5
195
330
F3
100
AcDbEntity
  8
AM_4
100
AcDbLine
 10
0.1821219999999999
 20
1.715707326797
 30
0.0
 11
0.1913050000000001
 21
1.721534495298001
 31
0.0
  0
LINE
  5
196
330
F3
100
AcDbEntity
  8
AM_4
100
AcDbLine
 10
0.1913050000000001
 20
1.721534495298001
 30
0.0
 11
0.1943660000000001
 21
1.7302746968681
 31
0.0
  0
LINE
  5
197
330
F3
100
AcDbEntity
  8
AM_4
100
AcDbLine
 10
0.1943660000000001
 20
1.7302746968681
 30
0.0
 11
0.194366
 21
1.7535823078794
 31
0.0
  0
LINE
  5
198
330
F3
100
AcDbEntity
  8
AM_4
100
AcDbLine
 10
0.194366
 20
1.7535823078794
 30
0.0
 11
0.166818
 21
1.7535823078794
 31
0.0
  0
LINE
  5
199
330
F3
100
AcDbEntity
  8
AM_4
100
AcDbLine
 10
0.166818
 20
1.7535823078794
 30
0.0
 11
0.166818
 21
1.77106302
 31
0.0
  0
LINE
  5
19A
330
F3
100
AcDbEntity
  8
AM_4
100
AcDbLine
 10
0.166818
 20
1.77106302
 30
0.0
 11
0.212731
 21
1.77106302
 31
0.0
  0
LINE
  5
19B
330
F3
100
AcDbEntity
  8
AM_4
100
AcDbLine
 10
0.212731
 20
1.77106302
 30
0.0
 11
0.212731
 21
1.727361270098
 31
0.0
  0
LINE
  5
19C
330
F3
100
AcDbEntity
  8
AM_4
100
AcDbLine
 10
0.212731
 20
1.727361270098
 30
0.0
 11
0.20967
 21
1.715707326797
 31
0.0
  0
LINE
  5
19D
330
F3
100
AcDbEntity
  8
AM_4
100
AcDbLine
 10
0.20967
 20
1.715707326797
 30
0.0
 11
0.197427
 21
1.704053777197001
 31
0.0
  0
LINE
  5
19E
330
F3
100
AcDbEntity
  8
AM_4
100
AcDbLine
 10
0.197427
 20
1.704053777197001
 30
0.0
 11
0.185183
 21
1.698226608696001
 31
0.0
  0
LINE
  5
19F
330
F3
100
AcDbEntity
  8
AM_4
100
AcDbLine
 10
0.185183
 20
1.698226608696001
 30
0.0
 11
0.1698789999999999
 21
1.695313221296
 31
0.0
  0
LINE
  5
1A0
330
F3
100
AcDbEntity
  8
AM_4
100
AcDbLine
 10
0.1698789999999999
 20
1.695313221296
 30
0.0
 11
0.142331
 21
1.695313221296
 31
0.0
  0
LINE
  5
1A1
330
F3
100
AcDbEntity
  8
AM_4
100
AcDbLine
 10
0.142331
 20
1.695313221296
 30
0.0
 11
0.1270259999999997
 21
1.698226608696001
 31
0.0
  0
LINE
  5
1A2
330
F3
100
AcDbEntity
  8
AM_4
100
AcDbLine
 10
0.1270259999999997
 20
1.698226608696001
 30
0.0
 11
0.1147829999999997
 21
1.704053777197001
 31
0.0
  0
LINE
  5
1A3
330
F3
100
AcDbEntity
  8
AM_4
100
AcDbLine
 10
0.1147829999999997
 20
1.704053777197001
 30
0.0
 11
0.1025389999999999
 21
1.715707326797
 31
0.0
  0
LINE
  5
1A4
330
F3
100
AcDbEntity
  8
AM_4
100
AcDbLine
 10
0.1025389999999999
 20
1.715707326797
 30
0.0
 11
0.0964177000000001
 21
1.727361270098
 31
0.0
  0
LINE
  5
1A5
330
F3
100
AcDbEntity
  8
AM_4
100
AcDbLine
 10
0.0964177000000001
 20
1.727361270098
 30
0.0
 11
0.0933566999999999
 21
1.741928522058801
 31
0.0
  0
LINE
  5
1A6
330
F3
100
AcDbEntity
  8
AM_4
100
AcDbLine
 10
0.0198956999999999
 20
1.695313221296
 30
0.0
 11
-0.053565383256
 21
1.695313221296
 31
0.0
  0
LINE
  5
1A7
330
F3
100
AcDbEntity
  8
AM_4
100
AcDbLine
 10
-0.053565383256
 20
1.695313221296
 30
0.0
 11
-0.053565383256
 21
1.832245500000001
 31
0.0
  0
LINE
  5
1A8
330
F3
100
AcDbEntity
  8
AM_4
100
AcDbLine
 10
-0.053565383256
 20
1.832245500000001
 30
0.0
 11
0.0198956999999999
 21
1.832245500000001
 31
0.0
  0
LINE
  5
1A9
330
F3
100
AcDbEntity
  8
AM_4
100
AcDbLine
 10
0.0198956999999999
 20
1.832245500000001
 30
0.0
 11
0.0352001
 21
1.8293322
 31
0.0
  0
LINE
  5
1AA
330
F3
100
AcDbEntity
  8
AM_4
100
AcDbLine
 10
0.0352001
 20
1.8293322
 30
0.0
 11
0.0474437000000002
 21
1.823505
 31
0.0
  0
LINE
  5
1AB
330
F3
100
AcDbEntity
  8
AM_4
100
AcDbLine
 10
0.0474437000000002
 20
1.823505
 30
0.0
 11
0.059687
 21
1.811851400000001
 31
0.0
  0
LINE
  5
1AC
330
F3
100
AcDbEntity
  8
AM_4
100
AcDbLine
 10
0.059687
 20
1.811851400000001
 30
0.0
 11
0.0658091
 21
1.800197500000001
 31
0.0
  0
LINE
  5
1AD
330
F3
100
AcDbEntity
  8
AM_4
100
AcDbLine
 10
0.0658091
 20
1.800197500000001
 30
0.0
 11
0.0688696999999998
 21
1.7856303
 31
0.0
  0
LINE
  5
1AE
330
F3
100
AcDbEntity
  8
AM_4
100
AcDbLine
 10
0.0688696999999998
 20
1.7856303
 30
0.0
 11
0.0688697
 21
1.741928522058801
 31
0.0
  0
LINE
  5
1AF
330
F3
100
AcDbEntity
  8
AM_4
100
AcDbLine
 10
0.0688697
 20
1.741928522058801
 30
0.0
 11
0.0658091
 21
1.727361270098
 31
0.0
  0
LINE
  5
1B0
330
F3
100
AcDbEntity
  8
AM_4
100
AcDbLine
 10
0.0658091
 20
1.727361270098
 30
0.0
 11
0.0596870000000002
 21
1.715707326797
 31
0.0
  0
LINE
  5
1B1
330
F3
100
AcDbEntity
  8
AM_4
100
AcDbLine
 10
0.0596870000000002
 20
1.715707326797
 30
0.0
 11
0.0474437000000002
 21
1.704053777197
 31
0.0
  0
LINE
  5
1B2
330
F3
100
AcDbEntity
  8
AM_4
100
AcDbLine
 10
0.0474437000000002
 20
1.704053777197
 30
0.0
 11
0.0352000999999997
 21
1.698226608696001
 31
0.0
  0
LINE
  5
1B3
330
F3
100
AcDbEntity
  8
AM_4
100
AcDbLine
 10
0.0352000999999997
 20
1.698226608696001
 30
0.0
 11
0.0198956999999999
 21
1.695313221296
 31
0.0
  0
LINE
  5
1B4
330
F3
100
AcDbEntity
  8
AM_4
100
AcDbLine
 10
-0.200487509838
 20
1.741928522058801
 30
0.0
 11
-0.200487509838
 21
1.7856303
 31
0.0
  0
LINE
  5
1B5
330
F3
100
AcDbEntity
  8
AM_4
100
AcDbLine
 10
-0.200487509838
 20
1.7856303
 30
0.0
 11
-0.1974268782639999
 21
1.8001975
 31
0.0
  0
LINE
  5
1B6
330
F3
100
AcDbEntity
  8
AM_4
100
AcDbLine
 10
-0.1974268782639999
 20
1.8001975
 30
0.0
 11
-0.1913048277139999
 21
1.8118514
 31
0.0
  0
LINE
  5
1B7
330
F3
100
AcDbEntity
  8
AM_4
100
AcDbLine
 10
-0.1913048277139999
 20
1.8118514
 30
0.0
 11
-0.1790615140159999
 21
1.823505
 31
0.0
  0
LINE
  5
1B8
330
F3
100
AcDbEntity
  8
AM_4
100
AcDbLine
 10
-0.1790615140159999
 20
1.823505
 30
0.0
 11
-0.1668178066170004
 21
1.8293322
 31
0.0
  0
LINE
  5
1B9
330
F3
100
AcDbEntity
  8
AM_4
100
AcDbLine
 10
-0.1668178066170004
 20
1.8293322
 30
0.0
 11
-0.1515134676440004
 21
1.832245500000001
 31
0.0
  0
LINE
  5
1BA
330
F3
100
AcDbEntity
  8
AM_4
100
AcDbLine
 10
-0.1515134676440004
 20
1.832245500000001
 30
0.0
 11
-0.127026446547
 21
1.832245500000001
 31
0.0
  0
LINE
  5
1BB
330
F3
100
AcDbEntity
  8
AM_4
100
AcDbLine
 10
-0.127026446547
 20
1.832245500000001
 30
0.0
 11
-0.1117221075740003
 21
1.8293322
 31
0.0
  0
LINE
  5
1BC
330
F3
100
AcDbEntity
  8
AM_4
100
AcDbLine
 10
-0.1117221075740003
 20
1.8293322
 30
0.0
 11
-0.099478400175
 21
1.823505
 31
0.0
  0
LINE
  5
1BD
330
F3
100
AcDbEntity
  8
AM_4
100
AcDbLine
 10
-0.099478400175
 20
1.823505
 30
0.0
 11
-0.0872350864769999
 21
1.8118514
 31
0.0
  0
LINE
  5
1BE
330
F3
100
AcDbEntity
  8
AM_4
100
AcDbLine
 10
-0.0872350864769999
 20
1.8118514
 30
0.0
 11
-0.081113429628
 21
1.800197500000001
 31
0.0
  0
LINE
  5
1BF
330
F3
100
AcDbEntity
  8
AM_4
100
AcDbLine
 10
-0.081113429628
 20
1.800197500000001
 30
0.0
 11
-0.0780524043529999
 21
1.7856303
 31
0.0
  0
LINE
  5
1C0
330
F3
100
AcDbEntity
  8
AM_4
100
AcDbLine
 10
-0.0780524043529999
 20
1.7856303
 30
0.0
 11
-0.078052404353
 21
1.741928522058801
 31
0.0
  0
LINE
  5
1C1
330
F3
100
AcDbEntity
  8
AM_4
100
AcDbLine
 10
-0.078052404353
 20
1.741928522058801
 30
0.0
 11
-0.0811134296280001
 21
1.727361270098
 31
0.0
  0
LINE
  5
1C2
330
F3
100
AcDbEntity
  8
AM_4
100
AcDbLine
 10
-0.0811134296280001
 20
1.727361270098
 30
0.0
 11
-0.0872350864770001
 21
1.715707326797
 31
0.0
  0
LINE
  5
1C3
330
F3
100
AcDbEntity
  8
AM_4
100
AcDbLine
 10
-0.0872350864770001
 20
1.715707326797
 30
0.0
 11
-0.0994784001749996
 21
1.704053777197001
 31
0.0
  0
LINE
  5
1C4
330
F3
100
AcDbEntity
  8
AM_4
100
AcDbLine
 10
-0.0994784001749996
 20
1.704053777197001
 30
0.0
 11
-0.1117221075740003
 21
1.698226608696001
 31
0.0
  0
LINE
  5
1C5
330
F3
100
AcDbEntity
  8
AM_4
100
AcDbLine
 10
-0.1117221075740003
 20
1.698226608696001
 30
0.0
 11
-0.1270264465470001
 21
1.695313221296
 31
0.0
  0
LINE
  5
1C6
330
F3
100
AcDbEntity
  8
AM_4
100
AcDbLine
 10
-0.1270264465470001
 20
1.695313221296
 30
0.0
 11
-0.151513467644
 21
1.695313221296
 31
0.0
  0
LINE
  5
1C7
330
F3
100
AcDbEntity
  8
AM_4
100
AcDbLine
 10
-0.151513467644
 20
1.695313221296
 30
0.0
 11
-0.1668178066170003
 21
1.698226608696001
 31
0.0
  0
LINE
  5
1C8
330
F3
100
AcDbEntity
  8
AM_4
100
AcDbLine
 10
-0.1668178066170003
 20
1.698226608696001
 30
0.0
 11
-0.1790615140159999
 21
1.704053777197
 31
0.0
  0
LINE
  5
1C9
330
F3
100
AcDbEntity
  8
AM_4
100
AcDbLine
 10
-0.1790615140159999
 20
1.704053777197
 30
0.0
 11
-0.1913048277139998
 21
1.715707326797
 31
0.0
  0
LINE
  5
1CA
330
F3
100
AcDbEntity
  8
AM_4
100
AcDbLine
 10
-0.1913048277139998
 20
1.715707326797
 30
0.0
 11
-0.1974268782639999
 21
1.727361270098
 31
0.0
  0
LINE
  5
1CB
330
F3
100
AcDbEntity
  8
AM_4
100
AcDbLine
 10
-0.1974268782639999
 20
1.727361270098
 30
0.0
 11
-0.200487509838
 21
1.741928522058801
 31
0.0
  0
LINE
  5
1CC
330
F3
100
AcDbEntity
  8
AM_4
100
AcDbLine
 10
-0.3474096364199999
 20
1.695313221296
 30
0.0
 11
-0.3474096364199999
 21
1.832245500000001
 31
0.0
  0
LINE
  5
1CD
330
F3
100
AcDbEntity
  8
AM_4
100
AcDbLine
 10
-0.3474096364199999
 20
1.832245500000001
 30
0.0
 11
-0.2739485731290003
 21
1.832245500000001
 31
0.0
  0
LINE
  5
1CE
330
F3
100
AcDbEntity
  8
AM_4
100
AcDbLine
 10
-0.2739485731290003
 20
1.832245500000001
 30
0.0
 11
-0.258644234156
 21
1.8293322
 31
0.0
  0
LINE
  5
1CF
330
F3
100
AcDbEntity
  8
AM_4
100
AcDbLine
 10
-0.258644234156
 20
1.8293322
 30
0.0
 11
-0.2464009204580001
 21
1.823505
 31
0.0
  0
LINE
  5
1D0
330
F3
100
AcDbEntity
  8
AM_4
100
AcDbLine
 10
-0.2464009204580001
 20
1.823505
 30
0.0
 11
-0.2341572130589998
 21
1.8118514
 31
0.0
  0
LINE
  5
1D1
330
F3
100
AcDbEntity
  8
AM_4
100
AcDbLine
 10
-0.2341572130589998
 20
1.8118514
 30
0.0
 11
-0.22803555621
 21
1.800197500000001
 31
0.0
  0
LINE
  5
1D2
330
F3
100
AcDbEntity
  8
AM_4
100
AcDbLine
 10
-0.22803555621
 20
1.800197500000001
 30
0.0
 11
-0.2249745309350001
 21
1.7856303
 31
0.0
  0
LINE
  5
1D3
330
F3
100
AcDbEntity
  8
AM_4
100
AcDbLine
 10
-0.2249745309350001
 20
1.7856303
 30
0.0
 11
-0.2249745309349999
 21
1.741928522058801
 31
0.0
  0
LINE
  5
1D4
330
F3
100
AcDbEntity
  8
AM_4
100
AcDbLine
 10
-0.2249745309349999
 20
1.741928522058801
 30
0.0
 11
-0.22803555621
 21
1.727361270098
 31
0.0
  0
LINE
  5
1D5
330
F3
100
AcDbEntity
  8
AM_4
100
AcDbLine
 10
-0.22803555621
 20
1.727361270098
 30
0.0
 11
-0.2341572130589999
 21
1.715707326797
 31
0.0
  0
LINE
  5
1D6
330
F3
100
AcDbEntity
  8
AM_4
100
AcDbLine
 10
-0.2341572130589999
 20
1.715707326797
 30
0.0
 11
-0.2464009204579998
 21
1.704053777197
 31
0.0
  0
LINE
  5
1D7
330
F3
100
AcDbEntity
  8
AM_4
100
AcDbLine
 10
-0.2464009204579998
 20
1.704053777197
 30
0.0
 11
-0.2586442341559998
 21
1.698226608696001
 31
0.0
  0
LINE
  5
1D8
330
F3
100
AcDbEntity
  8
AM_4
100
AcDbLine
 10
-0.2586442341559998
 20
1.698226608696001
 30
0.0
 11
-0.2739485731290004
 21
1.695313221296
 31
0.0
  0
LINE
  5
1D9
330
F3
100
AcDbEntity
  8
AM_4
100
AcDbLine
 10
-0.2739485731290004
 20
1.695313221296
 30
0.0
 11
-0.3474096364199999
 21
1.695313221296
 31
0.0
  0
LWPOLYLINE
  5
1DA
330
F3
100
AcDbEntity
  8
AM_4
100
AcDbPolyline
 90
       73
 70
     0
 43
0.0
 10
0.0
 20
1.5748
 10
0.1372528636790121
 20
1.568807410554881
 10
0.2734611501898819
 20
1.550875249443625
 10
0.4075882322274497
 20
1.521139991240025
 10
0.5386133217092631
 20
1.479827939213648
 10
0.6655392385892536
 20
1.427253503025316
 10
0.7873999999999999
 20
1.363816805879734
 10
0.9032681719656274
 20
1.290000639346304
 10
1.012261927734362
 20
1.206366789023766
 10
1.113551759012575
 20
1.113551759012575
 10
1.206366789023767
 20
1.012261927734362
 10
1.290000639346304
 20
0.9032681719656274
 10
1.363816805879734
 20
0.7874000000000001
 10
1.427253503025316
 20
0.6655392385892537
 10
1.479827939213649
 20
0.5386133217092636
 10
1.521139991240025
 20
0.4075882322274503
 10
1.550875249443625
 20
0.2734611501898827
 10
1.568807410554881
 20
0.137252863679013
 10
1.5748
 20
0.0000000000000011
 10
1.568807410554881
 20
-0.1372528636790108
 10
1.550875249443626
 20
-0.2734611501898804
 10
1.521139991240025
 20
-0.4075882322274481
 10
1.479827939213649
 20
-0.5386133217092614
 10
1.427253503025317
 20
-0.6655392385892519
 10
1.363816805879735
 20
-0.7873999999999983
 10
1.290000639346305
 20
-0.9032681719656256
 10
1.206366789023768
 20
-1.012261927734361
 10
1.113551759012577
 20
-1.113551759012573
 10
1.012261927734364
 20
-1.206366789023765
 10
0.9032681719656294
 20
-1.290000639346303
 10
0.7874000000000023
 20
-1.363816805879732
 10
0.6655392385892561
 20
-1.427253503025315
 10
0.5386133217092661
 20
-1.479827939213648
 10
0.4075882322274528
 20
-1.521139991240024
 10
0.2734611501898853
 20
-1.550875249443625
 10
0.1372528636790156
 20
-1.56880741055488
 10
0.0000000000000037
 20
-1.5748
 10
-0.1372528636790083
 20
-1.568807410554881
 10
-0.273461150189878
 20
-1.550875249443626
 10
-0.4075882322274457
 20
-1.521139991240026
 10
-0.5386133217092591
 20
-1.47982793921365
 10
-0.6655392385892495
 20
-1.427253503025318
 10
-0.7873999999999961
 20
-1.363816805879736
 10
-0.9032681719656235
 20
-1.290000639346307
 10
-1.012261927734359
 20
-1.206366789023769
 10
-1.113551759012572
 20
-1.113551759012579
 10
-1.206366789023764
 20
-1.012261927734366
 10
-1.290000639346302
 20
-0.9032681719656311
 10
-1.363816805879732
 20
-0.7874000000000041
 10
-1.427253503025314
 20
-0.665539238589258
 10
-1.479827939213647
 20
-0.538613321709268
 10
-1.521139991240023
 20
-0.4075882322274548
 10
-1.550875249443625
 20
-0.2734611501898873
 10
-1.56880741055488
 20
-0.1372528636790178
 10
-1.5748
 20
-0.0000000000000059
 10
-1.568807410554881
 20
0.137252863679006
 10
-1.550875249443626
 20
0.2734611501898758
 10
-1.521139991240027
 20
0.4075882322274435
 10
-1.479827939213651
 20
0.5386133217092569
 10
-1.427253503025319
 20
0.6655392385892472
 10
-1.363816805879738
 20
0.7873999999999939
 10
-1.290000639346308
 20
0.9032681719656216
 10
-1.206366789023771
 20
1.012261927734357
 10
-1.11355175901258
 20
1.11355175901257
 10
-1.012261927734368
 20
1.206366789023762
 10
-0.9032681719656336
 20
1.2900006393463
 10
-0.7874000000000069
 20
1.36381680587973
 10
-0.6655392385892608
 20
1.427253503025313
 10
-0.5386133217092709
 20
1.479827939213646
 10
-0.4075882322274577
 20
1.521139991240022
 10
-0.2734611501898903
 20
1.550875249443624
 10
-0.1372528636790207
 20
1.56880741055488
 10
-0.0000000000000088
 20
1.5748
  0
LWPOLYLINE
  5
1DB
330
F3
100
AcDbEntity
  8
AM_4
100
AcDbPolyline
 90
       37
 70
     0
 43
0.0
 10
-2.3125
 20
-0.3125
 10
-2.303700239337162
 20
-0.1109523448960407
 10
-2.277367928840732
 20
0.089061410854776
 10
-2.233703473293471
 20
0.2860190417995785
 10
-2.173039185567414
 20
0.4784215814406081
 10
-2.095836757522255
 20
0.6648047302753664
 10
-2.002683746251516
 20
0.8437499999999988
 10
-1.894289102418296
 20
1.013895509061793
 10
-1.771477774712638
 20
1.173946347400121
 10
-1.635184431493893
 20
1.32268443149389
 10
-1.486446347400125
 20
1.458977774712635
 10
-1.326395509061797
 20
1.581789102418292
 10
-1.156250000000003
 20
1.690183746251513
 10
-0.977304730275371
 20
1.783336757522252
 10
-0.7909215814406126
 20
1.860539185567412
 10
-0.5985190417995832
 20
1.92120347329347
 10
-0.4015614108547806
 20
1.964867928840731
 10
-0.2015476551039639
 20
1.991200239337162
 10
-0.0000000000000047
 20
2.0
 10
0.2015476551039547
 20
1.991200239337163
 10
0.4015614108547714
 20
1.964867928840732
 10
0.5985190417995742
 20
1.921203473293472
 10
0.7909215814406038
 20
1.860539185567416
 10
0.9773047302753626
 20
1.783336757522256
 10
1.156249999999995
 20
1.690183746251518
 10
1.326395509061789
 20
1.581789102418298
 10
1.486446347400117
 20
1.458977774712641
 10
1.635184431493887
 20
1.322684431493896
 10
1.771477774712633
 20
1.173946347400128
 10
1.89428910241829
 20
1.0138955090618
 10
2.002683746251511
 20
0.8437500000000068
 10
2.095836757522251
 20
0.6648047302753749
 10
2.173039185567411
 20
0.4784215814406169
 10
2.233703473293469
 20
0.2860190417995875
 10
2.27736792884073
 20
0.0890614108547851
 10
2.303700239337161
 20
-0.1109523448960315
 10
2.3125
 20
-0.3124999999999907
  0
LINE
  5
1DC
330
F3
100
AcDbEntity
  8
AM_4
100
AcDbLine
 10
-1.08125
 20
-1.863
 30
0.0
 11
-1.15625
 21
-1.938
 31
0.0
  0
LINE
  5
1DD
330
F3
100
AcDbEntity
  8
AM_4
100
AcDbLine
 10
1.08125
 20
-1.863
 30
0.0
 11
-1.08125
 21
-1.863
 31
0.0
  0
LINE
  5
1DE
330
F3
100
AcDbEntity
  8
AM_4
100
AcDbLine
 10
1.15625
 20
-1.938
 30
0.0
 11
1.08125
 21
-1.863
 31
0.0
  0
LINE
  5
1DF
330
F3
100
AcDbEntity
  8
AM_4
100
AcDbLine
 10
-1.15625
 20
-1.133064375532607
 30
0.0
 11
-2.3125
 21
-1.133064375532607
 31
0.0
  0
LINE
  5
1E0
330
F3
100
AcDbEntity
  8
AM_4
100
AcDbLine
 10
2.3125
 20
-1.133064375532607
 30
0.0
 11
1.15625
 21
-1.133064375532607
 31
0.0
  0
LINE
  5
1E1
330
F3
100
AcDbEntity
  8
AM_4
100
AcDbLine
 10
-1.15625
 20
-1.188
 30
0.0
 11
-2.3125
 21
-1.188
 31
0.0
  0
LINE
  5
1E2
330
F3
100
AcDbEntity
  8
AM_4
100
AcDbLine
 10
-2.3125
 20
-1.938
 30
0.0
 11
-1.15625
 21
-1.938
 31
0.0
  0
LINE
  5
1E3
330
F3
100
AcDbEntity
  8
AM_4
100
AcDbLine
 10
-1.15625
 20
-1.938
 30
0.0
 11
-1.15625
 21
-1.133064375532607
 31
0.0
  0
LINE
  5
1E4
330
F3
100
AcDbEntity
  8
AM_4
100
AcDbLine
 10
-2.3125
 20
-1.2470551
 30
0.0
 11
-1.15625
 21
-1.2470551
 31
0.0
  0
LINE
  5
1E5
330
F3
100
AcDbEntity
  8
AM_4
100
AcDbLine
 10
-2.3125
 20
-0.3124999999999992
 30
0.0
 11
-2.3125
 21
-1.938
 31
0.0
  0
LINE
  5
1E6
330
F3
100
AcDbEntity
  8
AM_4
100
AcDbLine
 10
1.15625
 20
-1.938
 30
0.0
 11
1.15625
 21
-1.133064375532607
 31
0.0
  0
LINE
  5
1E7
330
F3
100
AcDbEntity
  8
AM_4
100
AcDbLine
 10
1.15625
 20
-1.938
 30
0.0
 11
2.3125
 21
-1.938
 31
0.0
  0
LINE
  5
1E8
330
F3
100
AcDbEntity
  8
AM_4
100
AcDbLine
 10
2.3125
 20
-1.938
 30
0.0
 11
2.3125
 21
-0.3124999999999997
 31
0.0
  0
LINE
  5
1E9
330
F3
100
AcDbEntity
  8
AM_4
100
AcDbLine
 10
2.3125
 20
-1.188
 30
0.0
 11
1.15625
 21
-1.188
 31
0.0
  0
LINE
  5
1EA
330
F3
100
AcDbEntity
  8
AM_4
100
AcDbLine
 10
2.3125
 20
-1.2470551
 30
0.0
 11
1.15625
 21
-1.2470551
 31
0.0
  0
ENDBLK
  5
F6
330
F3
100
AcDbEntity
  8
0
100
AcDbBlockEnd
  0
ENDSEC
  0
SECTION
  2
ENTITIES
  0
INSERT
  5
6F
330
1F
100
AcDbEntity
  8
0
100
AcDbBlockReference
  2
1_129285_0
 10
0.0
 20
0.0
 30
0.0
  0
POINT
  5
1EC
330
1F
100
AcDbEntity
  8
ConnectionPoints
100
AcDbPoint
 10
0.0
 20
0.0
 30
0.0
  0
POINT
  5
1ED
330
1F
100
AcDbEntity
  8
ConnectionPoints
100
AcDbPoint
 10
0.0
 20
0.0
 30
-0.65625
  0
POINT
  5
1EE
330
1F
100
AcDbEntity
  8
ConnectionPoints
100
AcDbPoint
 10
0.0
 20
0.0
 30
0.0
  0
POINT
  5
1EF
330
1F
100
AcDbEntity
  8
ConnectionPoints
100
AcDbPoint
 10
0.0
 20
0.0
 30
0.0
  0
ENDSEC
  0
SECTION
  2
OBJECTS
  0
DICTIONARY
  5
C
330
0
100
AcDbDictionary
281
     1
  3
ACAD_DETAILVIEWSTYLE
350
1F7
  3
ACAD_GROUP
350
D
  3
ACAD_LAYOUT
350
1A
  3
ACAD_MATERIAL
350
43
  3
ACAD_MLEADERSTYLE
350
6B
  3
ACAD_MLINESTYLE
350
17
  3
ACAD_PLOTSETTINGS
350
19
  3
ACAD_PLOTSTYLENAME
350
E
  3
ACAD_SCALELIST
350
47
  3
ACAD_SECTIONVIEWSTYLE
350
1F8
  3
ACAD_TABLESTYLE
350
69
  3
ACAD_VISUALSTYLE
350
2A
  3
ACDB_RECOMPOSE_DATA
350
1F4
  3
AcDbVariableDictionary
350
1F0
  0
SUN
  5
6D
330
29
100
AcDbSun
 90
        1
290
     0
 63
     7
421
 16777215
 40
1.0
291
     1
 91
  2455826
 92
 54000000
292
     0
 70
     2
 71
   256
280
     1
  0
DICTIONARY
  5
1F7
102
{ACAD_REACTORS
330
C
102
}
330
C
100
AcDbDictionary
281
     1
  0
DICTIONARY
  5
D
102
{ACAD_REACTORS
330
C
102
}
330
C
100
AcDbDictionary
281
     1
  0
DICTIONARY
  5
1A
102
{ACAD_REACTORS
330
C
102
}
330
C
100
AcDbDictionary
281
     1
  3
Layout1
350
1E
  3
Layout2
350
26
  3
Model
350
22
  0
DICTIONARY
  5
43
102
{ACAD_REACTORS
330
C
102
}
330
C
100
AcDbDictionary
281
     1
  3
ByBlock
350
45
  3
ByLayer
350
44
  3
Global
350
46
  0
DICTIONARY
  5
6B
102
{ACAD_REACTORS
330
C
102
}
330
C
100
AcDbDictionary
281
     1
  3
Standard
350
6C
  0
DICTIONARY
  5
17
102
{ACAD_REACTORS
330
C
102
}
330
C
100
AcDbDictionary
281
     1
  3
Standard
350
18
  0
DICTIONARY
  5
19
102
{ACAD_REACTORS
330
C
102
}
330
C
100
AcDbDictionary
281
     1
  0
ACDBDICTIONARYWDFLT
  5
E
102
{ACAD_REACTORS
330
C
102
}
330
C
100
AcDbDictionary
281
     1
  3
Normal
350
F
100
AcDbDictionaryWithDefault
340
F
  0
DICTIONARY
  5
47
102
{ACAD_REACTORS
330
C
102
}
330
C
100
AcDbDictionary
281
     1
  3
A0
350
48
  3
A1
350
49
  3
A2
350
4A
  3
A3
350
4B
  3
A4
350
4C
  3
A5
350
4D
  3
A6
350
4E
  3
A7
350
4F
  3
A8
350
50
  3
A9
350
51
  3
B0
350
52
  3
B1
350
53
  3
B2
350
54
  3
B3
350
55
  3
B4
350
56
  3
B5
350
57
  3
B6
350
58
  3
B7
350
59
  3
B8
350
5A
  3
B9
350
5B
  3
C0
350
5C
  3
C1
350
5D
  3
C2
350
5E
  3
C3
350
5F
  3
C4
350
60
  3
C5
350
61
  3
C6
350
62
  3
C7
350
63
  3
C8
350
64
  3
C9
350
65
  3
D0
350
66
  3
D1
350
67
  3
D2
350
68
  0
DICTIONARY
  5
1F8
102
{ACAD_REACTORS
330
C
102
}
330
C
100
AcDbDictionary
281
     1
  0
DICTIONARY
  5
69
102
{ACAD_REACTORS
330
C
102
}
330
C
100
AcDbDictionary
281
     1
  3
Standard
350
6A
  0
DICTIONARY
  5
2A
102
{ACAD_REACTORS
330
C
102
}
330
C
100
AcDbDictionary
281
     1
  3
2dWireframe
350
2F
  3
Basic
350
32
  3
Brighten
350
36
  3
ColorChange
350
3A
  3
Conceptual
350
34
  3
Dim
350
35
  3
EdgeColorOff
350
3D
  3
Facepattern
350
39
  3
Flat
350
2B
  3
FlatWithEdges
350
2C
  3
Gouraud
350
2D
  3
GouraudWithEdges
350
2E
  3
Hidden
350
31
  3
JitterOff
350
3B
  3
Linepattern
350
38
  3
OverhangOff
350
3C
  3
Realistic
350
33
  3
Shaded
350
42
  3
Shaded with edges
350
41
  3
Shades of Gray
350
3E
  3
Sketchy
350
3F
  3
Thicken
350
37
  3
Wireframe
350
30
  3
X-Ray
350
40
  0
XRECORD
  5
1F4
102
{ACAD_REACTORS
330
C
102
}
330
C
100
AcDbXrecord
280
     1
 90
        1
330
6A
  0
DICTIONARY
  5
1F0
102
{ACAD_REACTORS
330
C
102
}
330
C
100
AcDbDictionary
281
     1
  3
CANNOSCALE
350
1F1
  3
CMLEADERSTYLE
350
1F6
  3
CTABLESTYLE
350
1F5
  0
LAYOUT
  5
1E
102
{ACAD_REACTORS
330
1A
102
}
330
1A
100
AcDbPlotSettings
  1

  2
none_device
  4

  6

 40
0.0
 41
0.0
 42
0.0
 43
0.0
 44
0.0
 45
0.0
 46
0.0
 47
0.0
 48
0.0
 49
0.0
140
0.0
141
0.0
142
1.0
143
1.0
 70
   688
 72
     0
 73
     0
 74
     5
  7

 75
    16
 76
     0
 77
     2
 78
   300
147
1.0
148
0.0
149
0.0
100
AcDbLayout
  1
Layout1
 70
     1
 71
     1
 10
0.0
 20
0.0
 11
12.0
 21
9.0
 12
0.0
 22
0.0
 32
0.0
 14
1.000000000000000E+20
 24
1.000000000000000E+20
 34
1.000000000000000E+20
 15
-1.000000000000000E+20
 25
-1.000000000000000E+20
 35
-1.000000000000000E+20
146
0.0
 13
0.0
 23
0.0
 33
0.0
 16
1.0
 26
0.0
 36
0.0
 17
0.0
 27
1.0
 37
0.0
 76
     0
330
1B
  0
LAYOUT
  5
26
102
{ACAD_REACTORS
330
1A
102
}
330
1A
100
AcDbPlotSettings
  1

  2
none_device
  4

  6

 40
0.0
 41
0.0
 42
0.0
 43
0.0
 44
0.0
 45
0.0
 46
0.0
 47
0.0
 48
0.0
 49
0.0
140
0.0
141
0.0
142
1.0
143
1.0
 70
   688
 72
     0
 73
     0
 74
     5
  7

 75
    16
 76
     0
 77
     2
 78
   300
147
1.0
148
0.0
149
0.0
100
AcDbLayout
  1
Layout2
 70
     1
 71
     2
 10
0.0
 20
0.0
 11
0.0
 21
0.0
 12
0.0
 22
0.0
 32
0.0
 14
0.0
 24
0.0
 34
0.0
 15
0.0
 25
0.0
 35
0.0
146
0.0
 13
0.0
 23
0.0
 33
0.0
 16
1.0
 26
0.0
 36
0.0
 17
0.0
 27
1.0
 37
0.0
 76
     0
330
23
  0
LAYOUT
  5
22
102
{ACAD_REACTORS
330
1A
102
}
330
1A
100
AcDbPlotSettings
  1

  2
none_device
  4
Letter_(8.50_x_11.00_Inches)
  6

 40
6.35
 41
6.35
 42
6.35000508
 43
6.35000508
 44
215.9
 45
279.4
 46
0.0
 47
0.0
 48
0.0
 49
0.0
140
0.0
141
0.0
142
1.0
143
1.0
 70
  1712
 72
     0
 73
     0
 74
     0
  7

 75
     0
 76
     0
 77
     2
 78
   300
147
1.0
148
0.0
149
0.0
100
AcDbLayout
  1
Model
 70
     1
 71
     0
 10
0.0
 20
0.0
 11
12.0
 21
9.0
 12
0.0
 22
0.0
 32
0.0
 14
1.000000000000000E+20
 24
1.000000000000000E+20
 34
1.000000000000000E+20
 15
-1.000000000000000E+20
 25
-1.000000000000000E+20
 35
-1.000000000000000E+20
146
0.0
 13
0.0
 23
0.0
 33
0.0
 16
1.0
 26
0.0
 36
0.0
 17
0.0
 27
1.0
 37
0.0
 76
     0
330
1F
331
29
  0
MATERIAL
  5
45
102
{ACAD_REACTORS
330
43
102
}
330
43
100
AcDbMaterial
  1
ByBlock
 72
     1
 94
      127
  0
MATERIAL
  5
44
102
{ACAD_REACTORS
330
43
102
}
330
43
100
AcDbMaterial
  1
ByLayer
 72
     1
 94
      127
  0
MATERIAL
  5
46
102
{ACAD_REACTORS
330
43
102
}
330
43
100
AcDbMaterial
  1
Global
 72
     1
 94
      127
  0
MLEADERSTYLE
  5
6C
102
{ACAD_REACTORS
330
6B
102
}
330
6B
100
AcDbMLeaderStyle
179
     2
170
     2
171
     1
172
     0
 90
        2
 40
0.0
 41
0.0
173
     1
 91
-1056964608
340
14
 92
       -2
290
     1
 42
0.09
291
     1
 43
0.36
  3
Standard
341
0
 44
0.18
300

342
11
174
     1
178
     6
175
     1
176
     0
 93
-1056964608
 45
0.18
292
     0
297
     0
 46
0.18
343
0
 94
-1056964608
 47
1.0
 49
1.0
140
1.0
293
     1
141
0.0
294
     1
177
     0
142
1.0
295
     0
296
     0
143
0.125
271
     0
272
     9
273
     9
298
     0
  0
MLINESTYLE
  5
18
102
{ACAD_REACTORS
330
17
102
}
330
17
100
AcDbMlineStyle
  2
Standard
 70
     0
  3

 62
   256
 51
90.0
 52
90.0
 71
     2
 49
0.5
 62
   256
  6
BYLAYER
 49
-0.5
 62
   256
  6
BYLAYER
  0
ACDBPLACEHOLDER
  5
F
102
{ACAD_REACTORS
330
E
102
}
330
E
  0
SCALE
  5
48
102
{ACAD_REACTORS
330
47
102
}
330
47
100
AcDbScale
 70
     0
300
1:1
140
1.0
141
1.0
290
     1
  0
SCALE
  5
49
102
{ACAD_REACTORS
330
47
102
}
330
47
100
AcDbScale
 70
     0
300
1:2
140
1.0
141
2.0
290
     0
  0
SCALE
  5
4A
102
{ACAD_REACTORS
330
47
102
}
330
47
100
AcDbScale
 70
     0
300
1:4
140
1.0
141
4.0
290
     0
  0
SCALE
  5
4B
102
{ACAD_REACTORS
330
47
102
}
330
47
100
AcDbScale
 70
     0
300
1:5
140
1.0
141
5.0
290
     0
  0
SCALE
  5
4C
102
{ACAD_REACTORS
330
47
102
}
330
47
100
AcDbScale
 70
     0
300
1:8
140
1.0
141
8.0
290
     0
  0
SCALE
  5
4D
102
{ACAD_REACTORS
330
47
102
}
330
47
100
AcDbScale
 70
     0
300
1:10
140
1.0
141
10.0
290
     0
  0
SCALE
  5
4E
102
{ACAD_REACTORS
330
47
102
}
330
47
100
AcDbScale
 70
     0
300
1:16
140
1.0
141
16.0
290
     0
  0
SCALE
  5
4F
102
{ACAD_REACTORS
330
47
102
}
330
47
100
AcDbScale
 70
     0
300
1:20
140
1.0
141
20.0
290
     0
  0
SCALE
  5
50
102
{ACAD_REACTORS
330
47
102
}
330
47
100
AcDbScale
 70
     0
300
1:30
140
1.0
141
30.0
290
     0
  0
SCALE
  5
51
102
{ACAD_REACTORS
330
47
102
}
330
47
100
AcDbScale
 70
     0
300
1:40
140
1.0
141
40.0
290
     0
  0
SCALE
  5
52
102
{ACAD_REACTORS
330
47
102
}
330
47
100
AcDbScale
 70
     0
300
1:50
140
1.0
141
50.0
290
     0
  0
SCALE
  5
53
102
{ACAD_REACTORS
330
47
102
}
330
47
100
AcDbScale
 70
     0
300
1:100
140
1.0
141
100.0
290
     0
  0
SCALE
  5
54
102
{ACAD_REACTORS
330
47
102
}
330
47
100
AcDbScale
 70
     0
300
2:1
140
2.0
141
1.0
290
     0
  0
SCALE
  5
55
102
{ACAD_REACTORS
330
47
102
}
330
47
100
AcDbScale
 70
     0
300
4:1
140
4.0
141
1.0
290
     0
  0
SCALE
  5
56
102
{ACAD_REACTORS
330
47
102
}
330
47
100
AcDbScale
 70
     0
300
8:1
140
8.0
141
1.0
290
     0
  0
SCALE
  5
57
102
{ACAD_REACTORS
330
47
102
}
330
47
100
AcDbScale
 70
     0
300
10:1
140
10.0
141
1.0
290
     0
  0
SCALE
  5
58
102
{ACAD_REACTORS
330
47
102
}
330
47
100
AcDbScale
 70
     0
300
100:1
140
100.0
141
1.0
290
     0
  0
SCALE
  5
59
102
{ACAD_REACTORS
330
47
102
}
330
47
100
AcDbScale
 70
     0
300
1/128" = 1'-0"
140
0.0078125
141
12.0
290
     0
  0
SCALE
  5
5A
102
{ACAD_REACTORS
330
47
102
}
330
47
100
AcDbScale
 70
     0
300
1/64" = 1'-0"
140
0.015625
141
12.0
290
     0
  0
SCALE
  5
5B
102
{ACAD_REACTORS
330
47
102
}
330
47
100
AcDbScale
 70
     0
300
1/32" = 1'-0"
140
0.03125
141
12.0
290
     0
  0
SCALE
  5
5C
102
{ACAD_REACTORS
330
47
102
}
330
47
100
AcDbScale
 70
     0
300
1/16" = 1'-0"
140
0.0625
141
12.0
290
     0
  0
SCALE
  5
5D
102
{ACAD_REACTORS
330
47
102
}
330
47
100
AcDbScale
 70
     0
300
3/32" = 1'-0"
140
0.09375
141
12.0
290
     0
  0
SCALE
  5
5E
102
{ACAD_REACTORS
330
47
102
}
330
47
100
AcDbScale
 70
     0
300
1/8" = 1'-0"
140
0.125
141
12.0
290
     0
  0
SCALE
  5
5F
102
{ACAD_REACTORS
330
47
102
}
330
47
100
AcDbScale
 70
     0
300
3/16" = 1'-0"
140
0.1875
141
12.0
290
     0
  0
SCALE
  5
60
102
{ACAD_REACTORS
330
47
102
}
330
47
100
AcDbScale
 70
     0
300
1/4" = 1'-0"
140
0.25
141
12.0
290
     0
  0
SCALE
  5
61
102
{ACAD_REACTORS
330
47
102
}
330
47
100
AcDbScale
 70
     0
300
3/8" = 1'-0"
140
0.375
141
12.0
290
     0
  0
SCALE
  5
62
102
{ACAD_REACTORS
330
47
102
}
330
47
100
AcDbScale
 70
     0
300
1/2" = 1'-0"
140
0.5
141
12.0
290
     0
  0
SCALE
  5
63
102
{ACAD_REACTORS
330
47
102
}
330
47
100
AcDbScale
 70
     0
300
3/4" = 1'-0"
140
0.75
141
12.0
290
     0
  0
SCALE
  5
64
102
{ACAD_REACTORS
330
47
102
}
330
47
100
AcDbScale
 70
     0
300
1" = 1'-0"
140
1.0
141
12.0
290
     0
  0
SCALE
  5
65
102
{ACAD_REACTORS
330
47
102
}
330
47
100
AcDbScale
 70
     0
300
1-1/2" = 1'-0"
140
1.5
141
12.0
290
     0
  0
SCALE
  5
66
102
{ACAD_REACTORS
330
47
102
}
330
47
100
AcDbScale
 70
     0
300
3" = 1'-0"
140
3.0
141
12.0
290
     0
  0
SCALE
  5
67
102
{ACAD_REACTORS
330
47
102
}
330
47
100
AcDbScale
 70
     0
300
6" = 1'-0"
140
6.0
141
12.0
290
     0
  0
SCALE
  5
68
102
{ACAD_REACTORS
330
47
102
}
330
47
100
AcDbScale
 70
     0
300
1'-0" = 1'-0"
140
12.0
141
12.0
290
     0
  0
TABLESTYLE
  5
6A
102
{ACAD_REACTORS
330
69
102
}
102
{ACAD_XDICTIONARY
360
1F2
102
}
330
69
100
AcDbTableStyle
  3
Standard
 70
     0
 71
     0
 40
0.06
 41
0.06
280
     0
281
     0
  7
Standard
140
0.18
170
     2
 62
     0
 63
   257
283
     0
 90
        4
 91
        0
  1

274
    -2
284
     1
 64
     0
275
    -2
285
     1
 65
     0
276
    -2
286
     1
 66
     0
277
    -2
287
     1
 67
     0
278
    -2
288
     1
 68
     0
279
    -2
289
     1
 69
     0
  7
Standard
140
0.25
170
     5
 62
     0
 63
   257
283
     0
 90
        4
 91
        0
  1

274
    -2
284
     1
 64
     0
275
    -2
285
     1
 65
     0
276
    -2
286
     1
 66
     0
277
    -2
287
     1
 67
     0
278
    -2
288
     1
 68
     0
279
    -2
289
     1
 69
     0
  7
Standard
140
0.18
170
     5
 62
     0
 63
   257
283
     0
 90
        4
 91
        0
  1

274
    -2
284
     1
 64
     0
275
    -2
285
     1
 65
     0
276
    -2
286
     1
 66
     0
277
    -2
287
     1
 67
     0
278
    -2
288
     1
 68
     0
279
    -2
289
     1
 69
     0
  0
VISUALSTYLE
  5
2F
102
{ACAD_REACTORS
330
2A
102
}
330
2A
100
AcDbVisualStyle
  2
2dWireframe
 70
     4
177
     3
291
     0
 70
    58
 90
        0
176
     1
 90
        2
176
     1
 90
        0
176
     1
 90
        0
176
     1
 40
0.6
176
     1
 40
30.0
176
     1
 62
     7
420
 16777215
176
     1
 90
        1
176
     1
 90
        4
176
     1
 62
     7
176
     1
 62
   257
176
     1
 90
        1
176
     1
 90
        1
176
     1
 40
1.0
176
     1
 90
        0
176
     1
 62
   257
176
     1
 40
1.0
176
     1
 90
        1
176
     1
 90
        6
176
     1
 90
        2
176
     1
 62
     7
176
     1
 90
        5
176
     1
 90
        0
176
     1
 90
        0
176
     1
290
     0
176
     1
 90
        1
176
     1
 40
0.0
176
     1
 90
        0
176
     1
290
     1
176
     1
290
     1
176
     1
290
     0
176
     1
290
     0
176
     1
290
     0
176
     1
290
     0
176
     1
290
     0
176
     1
290
     0
176
     1
290
     0
176
     1
 90
       50
176
     1
 40
0.0
176
     1
 40
1.0
176
     1
 90
        0
176
     1
 62
    18
420
        0
176
     1
 90
       50
176
     1
 90
        3
176
     1
 62
     5
420
      255
176
     1
290
     0
176
     1
 90
       50
176
     1
 90
       50
176
     1
 90
       50
176
     1
290
     0
176
     1
 90
       50
176
     1
 62
   256
176
     0
 40
1.0
176
     0
 90
        2
176
     1
  1
strokes_ogs.tif
176
     1
290
     0
176
     1
 40
1.0
176
     1
 40
1.0
176
     1
  0
VISUALSTYLE
  5
32
102
{ACAD_REACTORS
330
2A
102
}
330
2A
100
AcDbVisualStyle
  2
Basic
 70
     7
177
     3
291
     1
 70
    58
 90
        1
176
     1
 90
        0
176
     1
 90
        1
176
     1
 90
        0
176
     1
 40
0.6
176
     1
 40
30.0
176
     1
 62
     7
420
 16777215
176
     1
 90
        0
176
     1
 90
        4
176
     1
 62
     7
176
     1
 62
   257
176
     1
 90
        1
176
     1
 90
        1
176
     1
 40
1.0
176
     1
 90
        8
176
     1
 62
     7
176
     1
 40
1.0
176
     1
 90
        1
176
     1
 90
        6
176
     1
 90
        2
176
     1
 62
     7
176
     1
 90
        5
176
     1
 90
        0
176
     1
 90
        0
176
     1
290
     0
176
     1
 90
        1
176
     1
 40
0.0
176
     1
 90
        0
176
     1
290
     0
176
     1
290
     1
176
     1
290
     1
176
     1
290
     0
176
     1
290
     0
176
     1
290
     0
176
     1
290
     0
176
     1
290
     0
176
     1
290
     0
176
     1
 90
       50
176
     1
 40
0.0
176
     1
 40
1.0
176
     1
 90
        0
176
     1
 62
    18
420
        0
176
     1
 90
       50
176
     1
 90
        3
176
     1
 62
     5
420
      255
176
     1
290
     0
176
     1
 90
       50
176
     1
 90
       50
176
     1
 90
       50
176
     1
290
     0
176
     1
 90
       50
176
     1
 62
   256
176
     0
 40
1.0
176
     0
 90
        2
176
     1
  1
strokes_ogs.tif
176
     1
290
     0
176
     1
 40
1.0
176
     1
 40
1.0
176
     1
  0
VISUALSTYLE
  5
36
102
{ACAD_REACTORS
330
2A
102
}
330
2A
100
AcDbVisualStyle
  2
Brighten
 70
    12
177
     3
291
     1
 70
    58
 90
        2
176
     1
 90
        2
176
     1
 90
        0
176
     1
 90
        0
176
     1
 40
0.6
176
     1
 40
30.0
176
     1
 62
     7
420
 16777215
176
     1
 90
        1
176
     1
 90
        4
176
     1
 62
     7
176
     1
 62
   257
176
     1
 90
        1
176
     1
 90
        1
176
     1
 40
1.0
176
     1
 90
        8
176
     1
 62
     7
176
     1
 40
1.0
176
     1
 90
        1
176
     1
 90
        6
176
     1
 90
        2
176
     1
 62
     7
176
     1
 90
        5
176
     1
 90
        0
176
     1
 90
        0
176
     1
290
     0
176
     1
 90
        1
176
     1
 40
50.0
176
     1
 90
        0
176
     1
290
     0
176
     1
290
     1
176
     1
290
     1
176
     1
290
     0
176
     1
290
     0
176
     1
290
     0
176
     1
290
     0
176
     1
290
     0
176
     1
290
     0
176
     1
 90
       50
176
     1
 40
0.0
176
     1
 40
1.0
176
     1
 90
        0
176
     1
 62
    18
420
        0
176
     1
 90
       50
176
     1
 90
        3
176
     1
 62
     5
420
      255
176
     1
290
     0
176
     1
 90
       50
176
     1
 90
       50
176
     1
 90
       50
176
     1
290
     0
176
     1
 90
       50
176
     1
 62
   256
176
     0
 40
1.0
176
     0
 90
        2
176
     1
  1
strokes_ogs.tif
176
     1
290
     0
176
     1
 40
1.0
176
     1
 40
1.0
176
     1
  0
VISUALSTYLE
  5
3A
102
{ACAD_REACTORS
330
2A
102
}
330
2A
100
AcDbVisualStyle
  2
ColorChange
 70
    16
177
     3
291
     1
 70
    58
 90
        2
176
     1
 90
        2
176
     1
 90
        3
176
     1
 90
        0
176
     1
 40
0.6
176
     1
 40
30.0
176
     1
 62
     8
420
  8421504
176
     1
 90
        1
176
     1
 90
        4
176
     1
 62
     7
176
     1
 62
   257
176
     1
 90
        1
176
     1
 90
        1
176
     1
 40
1.0
176
     1
 90
        8
176
     1
 62
     8
420
  8421504
176
     1
 40
1.0
176
     1
 90
        1
176
     1
 90
        6
176
     1
 90
        2
176
     1
 62
     7
176
     1
 90
        5
176
     1
 90
        0
176
     1
 90
        0
176
     1
290
     0
176
     1
 90
        1
176
     1
 40
0.0
176
     1
 90
        0
176
     1
290
     0
176
     1
290
     1
176
     1
290
     1
176
     1
290
     0
176
     1
290
     0
176
     1
290
     0
176
     1
290
     0
176
     1
290
     0
176
     1
290
     0
176
     1
 90
       50
176
     1
 40
0.0
176
     1
 40
1.0
176
     1
 90
        0
176
     1
 62
    18
420
        0
176
     1
 90
       50
176
     1
 90
        3
176
     1
 62
     5
420
      255
176
     1
290
     0
176
     1
 90
       50
176
     1
 90
       50
176
     1
 90
       50
176
     1
290
     0
176
     1
 90
       50
176
     1
 62
   256
176
     0
 40
1.0
176
     0
 90
        2
176
     1
  1
strokes_ogs.tif
176
     1
290
     0
176
     1
 40
1.0
176
     1
 40
1.0
176
     1
  0
VISUALSTYLE
  5
34
102
{ACAD_REACTORS
330
2A
102
}
330
2A
100
AcDbVisualStyle
  2
Conceptual
 70
     9
177
     3
291
     0
 70
    58
 90
        3
176
     1
 90
        2
176
     1
 90
        0
176
     1
 90
        0
176
     1
 40
0.6
176
     1
 40
30.0
176
     1
 62
     7
420
 16777215
176
     1
 90
        2
176
     1
 90
        2
176
     1
 62
     7
176
     1
 62
   257
176
     1
 90
        1
176
     1
 90
        1
176
     1
 40
179.0
176
     1
 90
        8
176
     1
 62
     7
176
     1
 40
1.0
176
     1
 90
        1
176
     1
 90
        6
176
     1
 90
        2
176
     1
 62
     7
176
     1
 90
        3
176
     1
 90
        0
176
     1
 90
        0
176
     1
290
     0
176
     1
 90
        1
176
     1
 40
0.0
176
     1
 90
        0
176
     1
290
     0
176
     1
290
     1
176
     1
290
     1
176
     1
290
     0
176
     1
290
     0
176
     1
290
     0
176
     1
290
     0
176
     1
290
     0
176
     1
290
     0
176
     1
 90
       50
176
     1
 40
0.0
176
     1
 40
1.0
176
     1
 90
        0
176
     1
 62
    18
420
        0
176
     1
 90
       50
176
     1
 90
        3
176
     1
 62
     5
420
      255
176
     1
290
     0
176
     1
 90
       50
176
     1
 90
       50
176
     1
 90
       50
176
     1
290
     0
176
     1
 90
       50
176
     1
 62
   256
176
     0
 40
1.0
176
     0
 90
        2
176
     1
  1
strokes_ogs.tif
176
     1
290
     0
176
     1
 40
1.0
176
     1
 40
1.0
176
     1
  0
VISUALSTYLE
  5
35
102
{ACAD_REACTORS
330
2A
102
}
330
2A
100
AcDbVisualStyle
  2
Dim
 70
    11
177
     3
291
     1
 70
    58
 90
        2
176
     1
 90
        2
176
     1
 90
        0
176
     1
 90
        0
176
     1
 40
0.6
176
     1
 40
30.0
176
     1
 62
     7
420
 16777215
176
     1
 90
        1
176
     1
 90
        4
176
     1
 62
     7
176
     1
 62
   257
176
     1
 90
        1
176
     1
 90
        1
176
     1
 40
1.0
176
     1
 90
        8
176
     1
 62
     7
176
     1
 40
1.0
176
     1
 90
        1
176
     1
 90
        6
176
     1
 90
        2
176
     1
 62
     7
176
     1
 90
        5
176
     1
 90
        0
176
     1
 90
        0
176
     1
290
     0
176
     1
 90
        1
176
     1
 40
-50.0
176
     1
 90
        0
176
     1
290
     0
176
     1
290
     1
176
     1
290
     1
176
     1
290
     0
176
     1
290
     0
176
     1
290
     0
176
     1
290
     0
176
     1
290
     0
176
     1
290
     0
176
     1
 90
       50
176
     1
 40
0.0
176
     1
 40
1.0
176
     1
 90
        0
176
     1
 62
    18
420
        0
176
     1
 90
       50
176
     1
 90
        3
176
     1
 62
     5
420
      255
176
     1
290
     0
176
     1
 90
       50
176
     1
 90
       50
176
     1
 90
       50
176
     1
290
     0
176
     1
 90
       50
176
     1
 62
   256
176
     0
 40
1.0
176
     0
 90
        2
176
     1
  1
strokes_ogs.tif
176
     1
290
     0
176
     1
 40
1.0
176
     1
 40
1.0
176
     1
  0
VISUALSTYLE
  5
3D
102
{ACAD_REACTORS
330
2A
102
}
330
2A
100
AcDbVisualStyle
  2
EdgeColorOff
 70
    22
177
     3
291
     1
 70
    58
 90
        2
176
     0
 90
        2
176
     0
 90
        0
176
     0
 90
        0
176
     0
 40
0.6
176
     0
 40
30.0
176
     0
 62
     7
420
 16777215
176
     0
 90
        1
176
     0
 90
        4
176
     0
 62
     7
176
     0
 62
   257
176
     0
 90
        1
176
     0
 90
        1
176
     0
 40
1.0
176
     0
 90
        8
176
     2
 62
     7
176
     0
 40
1.0
176
     0
 90
        1
176
     0
 90
        6
176
     0
 90
        2
176
     0
 62
     7
176
     0
 90
        5
176
     0
 90
        0
176
     0
 90
        0
176
     0
290
     0
176
     0
 90
        1
176
     0
 40
0.0
176
     0
 90
        0
176
     0
290
     0
176
     0
290
     1
176
     0
290
     1
176
     0
290
     0
176
     0
290
     0
176
     0
290
     0
176
     0
290
     0
176
     0
290
     0
176
     0
290
     0
176
     0
 90
       50
176
     0
 40
0.0
176
     0
 40
1.0
176
     0
 90
        0
176
     0
 62
    18
420
        0
176
     0
 90
       50
176
     0
 90
        3
176
     0
 62
     5
420
      255
176
     0
290
     0
176
     0
 90
       50
176
     0
 90
       50
176
     0
 90
       50
176
     0
290
     0
176
     0
 90
       50
176
     0
 62
   256
176
     0
 40
1.0
176
     0
 90
        2
176
     0
  1
strokes_ogs.tif
176
     0
290
     0
176
     0
 40
1.0
176
     0
 40
1.0
176
     0
  0
VISUALSTYLE
  5
39
102
{ACAD_REACTORS
330
2A
102
}
330
2A
100
AcDbVisualStyle
  2
Facepattern
 70
    15
177
     3
291
     1
 70
    58
 90
        2
176
     1
 90
        2
176
     1
 90
        0
176
     1
 90
        0
176
     1
 40
0.6
176
     1
 40
30.0
176
     1
 62
     7
420
 16777215
176
     1
 90
        1
176
     1
 90
        4
176
     1
 62
     7
176
     1
 62
   257
176
     1
 90
        1
176
     1
 90
        1
176
     1
 40
1.0
176
     1
 90
        8
176
     1
 62
     7
176
     1
 40
1.0
176
     1
 90
        1
176
     1
 90
        6
176
     1
 90
        2
176
     1
 62
     7
176
     1
 90
        5
176
     1
 90
        0
176
     1
 90
        0
176
     1
290
     0
176
     1
 90
        1
176
     1
 40
0.0
176
     1
 90
        0
176
     1
290
     0
176
     1
290
     1
176
     1
290
     1
176
     1
290
     0
176
     1
290
     0
176
     1
290
     0
176
     1
290
     0
176
     1
290
     0
176
     1
290
     0
176
     1
 90
       50
176
     1
 40
0.0
176
     1
 40
1.0
176
     1
 90
        0
176
     1
 62
    18
420
        0
176
     1
 90
       50
176
     1
 90
        3
176
     1
 62
     5
420
      255
176
     1
290
     0
176
     1
 90
       50
176
     1
 90
       50
176
     1
 90
       50
176
     1
290
     0
176
     1
 90
       50
176
     1
 62
   256
176
     0
 40
1.0
176
     0
 90
        2
176
     1
  1
strokes_ogs.tif
176
     1
290
     0
176
     1
 40
1.0
176
     1
 40
1.0
176
     1
  0
VISUALSTYLE
  5
2B
102
{ACAD_REACTORS
330
2A
102
}
330
2A
100
AcDbVisualStyle
  2
Flat
 70
     0
177
     3
291
     1
 70
    58
 90
        2
176
     1
 90
        1
176
     1
 90
        1
176
     1
 90
        2
176
     1
 40
0.6
176
     1
 40
30.0
176
     1
 62
     7
420
 16777215
176
     1
 90
        0
176
     1
 90
        0
176
     1
 62
     7
176
     1
 62
   257
176
     1
 90
        1
176
     1
 90
        1
176
     1
 40
1.0
176
     1
 90
        8
176
     1
 62
     7
176
     1
 40
1.0
176
     1
 90
        1
176
     1
 90
        6
176
     1
 90
        2
176
     1
 62
     7
176
     1
 90
        5
176
     1
 90
        0
176
     1
 90
        0
176
     1
290
     0
176
     1
 90
       13
176
     1
 40
0.0
176
     1
 90
        0
176
     1
290
     0
176
     1
290
     1
176
     1
290
     1
176
     1
290
     0
176
     1
290
     0
176
     1
290
     0
176
     1
290
     0
176
     1
290
     0
176
     1
290
     0
176
     1
 90
       50
176
     1
 40
0.0
176
     1
 40
1.0
176
     1
 90
        0
176
     1
 62
    18
420
        0
176
     1
 90
       50
176
     1
 90
        3
176
     1
 62
     5
420
      255
176
     1
290
     0
176
     1
 90
       50
176
     1
 90
       50
176
     1
 90
       50
176
     1
290
     0
176
     1
 90
       50
176
     1
 62
   256
176
     0
 40
1.0
176
     0
 90
        2
176
     1
  1
strokes_ogs.tif
176
     1
290
     0
176
     1
 40
1.0
176
     1
 40
1.0
176
     1
  0
VISUALSTYLE
  5
2C
102
{ACAD_REACTORS
330
2A
102
}
330
2A
100
AcDbVisualStyle
  2
FlatWithEdges
 70
     1
177
     3
291
     1
 70
    58
 90
        2
176
     1
 90
        1
176
     1
 90
        1
176
     1
 90
        2
176
     1
 40
0.6
176
     1
 40
30.0
176
     1
 62
     7
420
 16777215
176
     1
 90
        1
176
     1
 90
        0
176
     1
 62
     7
176
     1
 62
   257
176
     1
 90
        1
176
     1
 90
        1
176
     1
 40
1.0
176
     1
 90
        0
176
     1
 62
   257
176
     1
 40
1.0
176
     1
 90
        1
176
     1
 90
        6
176
     1
 90
        2
176
     1
 62
     7
176
     1
 90
        5
176
     1
 90
        0
176
     1
 90
        0
176
     1
290
     0
176
     1
 90
       13
176
     1
 40
0.0
176
     1
 90
        0
176
     1
290
     0
176
     1
290
     1
176
     1
290
     1
176
     1
290
     0
176
     1
290
     0
176
     1
290
     0
176
     1
290
     0
176
     1
290
     0
176
     1
290
     0
176
     1
 90
       50
176
     1
 40
0.0
176
     1
 40
1.0
176
     1
 90
        0
176
     1
 62
    18
420
        0
176
     1
 90
       50
176
     1
 90
        3
176
     1
 62
     5
420
      255
176
     1
290
     0
176
     1
 90
       50
176
     1
 90
       50
176
     1
 90
       50
176
     1
290
     0
176
     1
 90
       50
176
     1
 62
   256
176
     0
 40
1.0
176
     0
 90
        2
176
     1
  1
strokes_ogs.tif
176
     1
290
     0
176
     1
 40
1.0
176
     1
 40
1.0
176
     1
  0
VISUALSTYLE
  5
2D
102
{ACAD_REACTORS
330
2A
102
}
330
2A
100
AcDbVisualStyle
  2
Gouraud
 70
     2
177
     3
291
     1
 70
    58
 90
        2
176
     1
 90
        2
176
     1
 90
        1
176
     1
 90
        2
176
     1
 40
0.6
176
     1
 40
30.0
176
     1
 62
     7
420
 16777215
176
     1
 90
        0
176
     1
 90
        0
176
     1
 62
     7
176
     1
 62
   257
176
     1
 90
        1
176
     1
 90
        1
176
     1
 40
1.0
176
     1
 90
        0
176
     1
 62
     7
176
     1
 40
1.0
176
     1
 90
        1
176
     1
 90
        6
176
     1
 90
        2
176
     1
 62
     7
176
     1
 90
        5
176
     1
 90
        0
176
     1
 90
        0
176
     1
290
     0
176
     1
 90
       13
176
     1
 40
0.0
176
     1
 90
        0
176
     1
290
     0
176
     1
290
     1
176
     1
290
     1
176
     1
290
     0
176
     1
290
     0
176
     1
290
     0
176
     1
290
     0
176
     1
290
     0
176
     1
290
     0
176
     1
 90
       50
176
     1
 40
0.0
176
     1
 40
1.0
176
     1
 90
        0
176
     1
 62
    18
420
        0
176
     1
 90
       50
176
     1
 90
        3
176
     1
 62
     5
420
      255
176
     1
290
     0
176
     1
 90
       50
176
     1
 90
       50
176
     1
 90
       50
176
     1
290
     0
176
     1
 90
       50
176
     1
 62
   256
176
     0
 40
1.0
176
     0
 90
        2
176
     1
  1
strokes_ogs.tif
176
     1
290
     0
176
     1
 40
1.0
176
     1
 40
1.0
176
     1
  0
VISUALSTYLE
  5
2E
102
{ACAD_REACTORS
330
2A
102
}
330
2A
100
AcDbVisualStyle
  2
GouraudWithEdges
 70
     3
177
     3
291
     1
 70
    58
 90
        2
176
     1
 90
        2
176
     1
 90
        1
176
     1
 90
        2
176
     1
 40
0.6
176
     1
 40
30.0
176
     1
 62
     7
420
 16777215
176
     1
 90
        1
176
     1
 90
        0
176
     1
 62
     7
176
     1
 62
   257
176
     1
 90
        1
176
     1
 90
        1
176
     1
 40
1.0
176
     1
 90
        0
176
     1
 62
   257
176
     1
 40
1.0
176
     1
 90
        1
176
     1
 90
        6
176
     1
 90
        2
176
     1
 62
     7
176
     1
 90
        5
176
     1
 90
        0
176
     1
 90
        0
176
     1
290
     0
176
     1
 90
       13
176
     1
 40
0.0
176
     1
 90
        0
176
     1
290
     0
176
     1
290
     1
176
     1
290
     1
176
     1
290
     0
176
     1
290
     0
176
     1
290
     0
176
     1
290
     0
176
     1
290
     0
176
     1
290
     0
176
     1
 90
       50
176
     1
 40
0.0
176
     1
 40
1.0
176
     1
 90
        0
176
     1
 62
    18
420
        0
176
     1
 90
       50
176
     1
 90
        3
176
     1
 62
     5
420
      255
176
     1
290
     0
176
     1
 90
       50
176
     1
 90
       50
176
     1
 90
       50
176
     1
290
     0
176
     1
 90
       50
176
     1
 62
   256
176
     0
 40
1.0
176
     0
 90
        2
176
     1
  1
strokes_ogs.tif
176
     1
290
     0
176
     1
 40
1.0
176
     1
 40
1.0
176
     1
  0
VISUALSTYLE
  5
31
102
{ACAD_REACTORS
330
2A
102
}
330
2A
100
AcDbVisualStyle
  2
Hidden
 70
     6
177
     3
291
     0
 70
    58
 90
        1
176
     1
 90
        2
176
     1
 90
        2
176
     1
 90
        0
176
     1
 40
0.6
176
     1
 40
30.0
176
     1
 62
     7
420
 16777215
176
     1
 90
        2
176
     1
 90
        2
176
     1
 62
     7
176
     1
 62
   257
176
     1
 90
        2
176
     1
 90
        1
176
     1
 40
40.0
176
     1
 90
        0
176
     1
 62
   257
176
     1
 40
1.0
176
     1
 90
        1
176
     1
 90
        6
176
     1
 90
        2
176
     1
 62
     7
176
     1
 90
        3
176
     1
 90
        0
176
     1
 90
        0
176
     1
290
     0
176
     1
 90
        1
176
     1
 40
0.0
176
     1
 90
        0
176
     1
290
     0
176
     1
290
     1
176
     1
290
     1
176
     1
290
     0
176
     1
290
     0
176
     1
290
     0
176
     1
290
     0
176
     1
290
     0
176
     1
290
     0
176
     1
 90
       50
176
     1
 40
0.0
176
     1
 40
1.0
176
     1
 90
        0
176
     1
 62
    18
420
        0
176
     1
 90
       50
176
     1
 90
        3
176
     1
 62
     5
420
      255
176
     1
290
     0
176
     1
 90
       50
176
     1
 90
       50
176
     1
 90
       50
176
     1
290
     0
176
     1
 90
       50
176
     1
 62
   256
176
     0
 40
1.0
176
     0
 90
        2
176
     1
  1
strokes_ogs.tif
176
     1
290
     0
176
     1
 40
1.0
176
     1
 40
1.0
176
     1
  0
VISUALSTYLE
  5
3B
102
{ACAD_REACTORS
330
2A
102
}
330
2A
100
AcDbVisualStyle
  2
JitterOff
 70
    20
177
     3
291
     1
 70
    58
 90
        2
176
     0
 90
        2
176
     0
 90
        0
176
     0
 90
        0
176
     0
 40
0.6
176
     0
 40
30.0
176
     0
 62
     7
420
 16777215
176
     0
 90
        1
176
     0
 90
        4
176
     0
 62
     7
176
     0
 62
   257
176
     0
 90
        1
176
     0
 90
        1
176
     0
 40
1.0
176
     0
 90
       10
176
     2
 62
     7
176
     0
 40
1.0
176
     0
 90
        1
176
     0
 90
        6
176
     0
 90
        2
176
     0
 62
     7
176
     0
 90
        5
176
     0
 90
        0
176
     0
 90
        0
176
     0
290
     0
176
     0
 90
        1
176
     0
 40
0.0
176
     0
 90
        0
176
     0
290
     0
176
     0
290
     1
176
     0
290
     1
176
     0
290
     0
176
     0
290
     0
176
     0
290
     0
176
     0
290
     0
176
     0
290
     0
176
     0
290
     0
176
     0
 90
       50
176
     0
 40
0.0
176
     0
 40
1.0
176
     0
 90
        0
176
     0
 62
    18
420
        0
176
     0
 90
       50
176
     0
 90
        3
176
     0
 62
     5
420
      255
176
     0
290
     0
176
     0
 90
       50
176
     0
 90
       50
176
     0
 90
       50
176
     0
290
     0
176
     0
 90
       50
176
     0
 62
   256
176
     0
 40
1.0
176
     0
 90
        2
176
     0
  1
strokes_ogs.tif
176
     0
290
     0
176
     0
 40
1.0
176
     0
 40
1.0
176
     0
  0
VISUALSTYLE
  5
38
102
{ACAD_REACTORS
330
2A
102
}
330
2A
100
AcDbVisualStyle
  2
Linepattern
 70
    14
177
     3
291
     1
 70
    58
 90
        2
176
     1
 90
        2
176
     1
 90
        0
176
     1
 90
        0
176
     1
 40
0.6
176
     1
 40
30.0
176
     1
 62
     7
420
 16777215
176
     1
 90
        1
176
     1
 90
        4
176
     1
 62
     7
176
     1
 62
   257
176
     1
 90
        7
176
     1
 90
        7
176
     1
 40
1.0
176
     1
 90
        8
176
     1
 62
     7
176
     1
 40
1.0
176
     1
 90
        1
176
     1
 90
        6
176
     1
 90
        2
176
     1
 62
     7
176
     1
 90
        5
176
     1
 90
        0
176
     1
 90
        0
176
     1
290
     0
176
     1
 90
        1
176
     1
 40
0.0
176
     1
 90
        0
176
     1
290
     0
176
     1
290
     1
176
     1
290
     1
176
     1
290
     0
176
     1
290
     0
176
     1
290
     0
176
     1
290
     0
176
     1
290
     0
176
     1
290
     0
176
     1
 90
       50
176
     1
 40
0.0
176
     1
 40
1.0
176
     1
 90
        0
176
     1
 62
    18
420
        0
176
     1
 90
       50
176
     1
 90
        3
176
     1
 62
     5
420
      255
176
     1
290
     0
176
     1
 90
       50
176
     1
 90
       50
176
     1
 90
       50
176
     1
290
     0
176
     1
 90
       50
176
     1
 62
   256
176
     0
 40
1.0
176
     0
 90
        2
176
     1
  1
strokes_ogs.tif
176
     1
290
     0
176
     1
 40
1.0
176
     1
 40
1.0
176
     1
  0
VISUALSTYLE
  5
3C
102
{ACAD_REACTORS
330
2A
102
}
330
2A
100
AcDbVisualStyle
  2
OverhangOff
 70
    21
177
     3
291
     1
 70
    58
 90
        2
176
     0
 90
        2
176
     0
 90
        0
176
     0
 90
        0
176
     0
 40
0.6
176
     0
 40
30.0
176
     0
 62
     7
420
 16777215
176
     0
 90
        1
176
     0
 90
        4
176
     0
 62
     7
176
     0
 62
   257
176
     0
 90
        1
176
     0
 90
        1
176
     0
 40
1.0
176
     0
 90
        9
176
     2
 62
     7
176
     0
 40
1.0
176
     0
 90
        1
176
     0
 90
        6
176
     0
 90
        2
176
     0
 62
     7
176
     0
 90
        5
176
     0
 90
        0
176
     0
 90
        0
176
     0
290
     0
176
     0
 90
        1
176
     0
 40
0.0
176
     0
 90
        0
176
     0
290
     0
176
     0
290
     1
176
     0
290
     1
176
     0
290
     0
176
     0
290
     0
176
     0
290
     0
176
     0
290
     0
176
     0
290
     0
176
     0
290
     0
176
     0
 90
       50
176
     0
 40
0.0
176
     0
 40
1.0
176
     0
 90
        0
176
     0
 62
    18
420
        0
176
     0
 90
       50
176
     0
 90
        3
176
     0
 62
     5
420
      255
176
     0
290
     0
176
     0
 90
       50
176
     0
 90
       50
176
     0
 90
       50
176
     0
290
     0
176
     0
 90
       50
176
     0
 62
   256
176
     0
 40
1.0
176
     0
 90
        2
176
     0
  1
strokes_ogs.tif
176
     0
290
     0
176
     0
 40
1.0
176
     0
 40
1.0
176
     0
  0
VISUALSTYLE
  5
33
102
{ACAD_REACTORS
330
2A
102
}
330
2A
100
AcDbVisualStyle
  2
Realistic
 70
     8
177
     3
291
     0
 70
    58
 90
        2
176
     1
 90
        3
176
     1
 90
        0
176
     1
 90
        2
176
     1
 40
0.6
176
     1
 40
30.0
176
     1
 62
     7
420
 16777215
176
     1
 90
        0
176
     1
 90
        0
176
     1
 62
     7
176
     1
 62
   257
176
     1
 90
        1
176
     1
 90
        1
176
     1
 40
1.0
176
     1
 90
        8
176
     1
 62
   257
176
     1
 40
1.0
176
     1
 90
        1
176
     1
 90
        6
176
     1
 90
        2
176
     1
 62
     7
176
     1
 90
        3
176
     1
 90
        0
176
     1
 90
        0
176
     1
290
     0
176
     1
 90
       13
176
     1
 40
0.0
176
     1
 90
        0
176
     1
290
     0
176
     1
290
     1
176
     1
290
     1
176
     1
290
     0
176
     1
290
     0
176
     1
290
     0
176
     1
290
     0
176
     1
290
     0
176
     1
290
     0
176
     1
 90
       50
176
     1
 40
0.0
176
     1
 40
1.0
176
     1
 90
        0
176
     1
 62
    18
420
        0
176
     1
 90
       50
176
     1
 90
        3
176
     1
 62
     5
420
      255
176
     1
290
     0
176
     1
 90
       50
176
     1
 90
       50
176
     1
 90
       50
176
     1
290
     0
176
     1
 90
       50
176
     1
 62
   256
176
     0
 40
1.0
176
     0
 90
        2
176
     1
  1
strokes_ogs.tif
176
     1
290
     0
176
     1
 40
1.0
176
     1
 40
1.0
176
     1
  0
VISUALSTYLE
  5
42
102
{ACAD_REACTORS
330
2A
102
}
330
2A
100
AcDbVisualStyle
  2
Shaded
 70
    27
177
     3
291
     0
 70
    58
 90
        2
176
     1
 90
        2
176
     1
 90
        1
176
     1
 90
        2
176
     1
 40
0.6
176
     1
 40
30.0
176
     1
 62
     7
420
 16777215
176
     1
 90
        0
176
     1
 90
        4
176
     1
 62
     7
176
     1
 62
   257
176
     1
 90
        1
176
     1
 90
        1
176
     1
 40
1.0
176
     1
 90
        8
176
     1
 62
   257
176
     1
 40
1.0
176
     1
 90
        1
176
     1
 90
        6
176
     1
 90
        2
176
     1
 62
     8
420
  7895160
176
     1
 90
        3
176
     1
 90
        0
176
     1
 90
        0
176
     1
290
     0
176
     1
 90
        5
176
     1
 40
0.0
176
     1
 90
        0
176
     1
290
     0
176
     1
290
     1
176
     1
290
     1
176
     1
290
     0
176
     1
290
     0
176
     1
290
     0
176
     1
290
     0
176
     1
290
     0
176
     1
290
     0
176
     1
 90
       50
176
     1
 40
0.0
176
     1
 40
1.0
176
     1
 90
        0
176
     1
 62
    18
420
        0
176
     1
 90
       50
176
     1
 90
        3
176
     1
 62
     5
420
      255
176
     1
290
     0
176
     1
 90
       50
176
     1
 90
       50
176
     1
 90
       50
176
     1
290
     0
176
     1
 90
       50
176
     1
 62
   256
176
     0
 40
1.0
176
     0
 90
        2
176
     1
  1
strokes_ogs.tif
176
     1
290
     0
176
     1
 40
1.0
176
     1
 40
1.0
176
     1
  0
VISUALSTYLE
  5
41
102
{ACAD_REACTORS
330
2A
102
}
330
2A
100
AcDbVisualStyle
  2
Shaded with edges
 70
    26
177
     3
291
     0
 70
    58
 90
        2
176
     1
 90
        2
176
     1
 90
        1
176
     1
 90
        2
176
     1
 40
0.6
176
     1
 40
30.0
176
     1
 62
     7
420
 16777215
176
     1
 90
        1
176
     1
 90
       10
176
     1
 62
     7
176
     1
 62
   257
176
     1
 90
        2
176
     1
 90
        1
176
     1
 40
1.0
176
     1
 90
        8
176
     1
 62
   257
176
     1
 40
1.0
176
     1
 90
        1
176
     1
 90
        6
176
     1
 90
        2
176
     1
 62
     7
176
     1
 90
        3
176
     1
 90
        0
176
     1
 90
        0
176
     1
290
     0
176
     1
 90
        5
176
     1
 40
0.0
176
     1
 90
        0
176
     1
290
     0
176
     1
290
     1
176
     1
290
     1
176
     1
290
     0
176
     1
290
     0
176
     1
290
     0
176
     1
290
     0
176
     1
290
     0
176
     1
290
     0
176
     1
 90
       50
176
     1
 40
0.0
176
     1
 40
1.0
176
     1
 90
        0
176
     1
 62
    18
420
        0
176
     1
 90
       50
176
     1
 90
        3
176
     1
 62
     5
420
      255
176
     1
290
     0
176
     1
 90
       50
176
     1
 90
       50
176
     1
 90
       50
176
     1
290
     0
176
     1
 90
       50
176
     1
 62
   256
176
     0
 40
1.0
176
     0
 90
        2
176
     1
  1
strokes_ogs.tif
176
     1
290
     0
176
     1
 40
1.0
176
     1
 40
1.0
176
     1
  0
VISUALSTYLE
  5
3E
102
{ACAD_REACTORS
330
2A
102
}
330
2A
100
AcDbVisualStyle
  2
Shades of Gray
 70
    23
177
     3
291
     0
 70
    58
 90
        2
176
     1
 90
        2
176
     1
 90
        3
176
     1
 90
        0
176
     1
 40
0.6
176
     1
 40
30.0
176
     1
 62
     7
420
 16777215
176
     1
 90
        2
176
     1
 90
        2
176
     1
 62
     7
176
     1
 62
     7
176
     1
 90
        1
176
     1
 90
        1
176
     1
 40
40.0
176
     1
 90
        8
176
     1
 62
     7
176
     1
 40
1.0
176
     1
 90
        1
176
     1
 90
        6
176
     1
 90
        2
176
     1
 62
     7
176
     1
 90
        3
176
     1
 90
        0
176
     1
 90
        0
176
     1
290
     0
176
     1
 90
        1
176
     1
 40
0.0
176
     1
 90
        0
176
     1
290
     0
176
     1
290
     1
176
     1
290
     1
176
     1
290
     0
176
     1
290
     0
176
     1
290
     0
176
     1
290
     0
176
     1
290
     0
176
     1
290
     0
176
     1
 90
       50
176
     1
 40
0.0
176
     1
 40
1.0
176
     1
 90
        0
176
     1
 62
    18
420
        0
176
     1
 90
       50
176
     1
 90
        3
176
     1
 62
     5
420
      255
176
     1
290
     0
176
     1
 90
       50
176
     1
 90
       50
176
     1
 90
       50
176
     1
290
     0
176
     1
 90
       50
176
     1
 62
   256
176
     0
 40
1.0
176
     0
 90
        2
176
     1
  1
strokes_ogs.tif
176
     1
290
     0
176
     1
 40
1.0
176
     1
 40
1.0
176
     1
  0
VISUALSTYLE
  5
3F
102
{ACAD_REACTORS
330
2A
102
}
330
2A
100
AcDbVisualStyle
  2
Sketchy
 70
    24
177
     3
291
     0
 70
    58
 90
        1
176
     1
 90
        2
176
     1
 90
        2
176
     1
 90
        0
176
     1
 40
0.6
176
     1
 40
30.0
176
     1
 62
     7
420
 16777215
176
     1
 90
        2
176
     1
 90
        2
176
     1
 62
     7
176
     1
 62
     7
176
     1
 90
        1
176
     1
 90
        1
176
     1
 40
40.0
176
     1
 90
       11
176
     1
 62
     7
176
     1
 40
1.0
176
     1
 90
        1
176
     1
 90
        6
176
     1
 90
        2
176
     1
 62
     7
176
     1
 90
        6
176
     1
 90
        0
176
     1
 90
        0
176
     1
290
     0
176
     1
 90
        1
176
     1
 40
0.0
176
     1
 90
        0
176
     1
290
     0
176
     1
290
     1
176
     1
290
     1
176
     1
290
     0
176
     1
290
     0
176
     1
290
     0
176
     1
290
     0
176
     1
290
     0
176
     1
290
     0
176
     1
 90
       50
176
     1
 40
0.0
176
     1
 40
1.0
176
     1
 90
        0
176
     1
 62
    18
420
        0
176
     1
 90
       50
176
     1
 90
        3
176
     1
 62
     5
420
      255
176
     1
290
     0
176
     1
 90
       50
176
     1
 90
       50
176
     1
 90
       50
176
     1
290
     0
176
     1
 90
       50
176
     1
 62
   256
176
     0
 40
1.0
176
     0
 90
        2
176
     1
  1
strokes_ogs.tif
176
     1
290
     0
176
     1
 40
1.0
176
     1
 40
1.0
176
     1
  0
VISUALSTYLE
  5
37
102
{ACAD_REACTORS
330
2A
102
}
330
2A
100
AcDbVisualStyle
  2
Thicken
 70
    13
177
     3
291
     1
 70
    58
 90
        2
176
     1
 90
        2
176
     1
 90
        0
176
     1
 90
        0
176
     1
 40
0.6
176
     1
 40
30.0
176
     1
 62
     7
420
 16777215
176
     1
 90
        1
176
     1
 90
        4
176
     1
 62
     7
176
     1
 62
   257
176
     1
 90
        1
176
     1
 90
        1
176
     1
 40
1.0
176
     1
 90
       12
176
     1
 62
     7
176
     1
 40
1.0
176
     1
 90
        1
176
     1
 90
        6
176
     1
 90
        2
176
     1
 62
     7
176
     1
 90
        5
176
     1
 90
        0
176
     1
 90
        0
176
     1
290
     0
176
     1
 90
        1
176
     1
 40
0.0
176
     1
 90
        0
176
     1
290
     0
176
     1
290
     1
176
     1
290
     1
176
     1
290
     0
176
     1
290
     0
176
     1
290
     0
176
     1
290
     0
176
     1
290
     0
176
     1
290
     0
176
     1
 90
       50
176
     1
 40
0.0
176
     1
 40
1.0
176
     1
 90
        0
176
     1
 62
    18
420
        0
176
     1
 90
       50
176
     1
 90
        3
176
     1
 62
     5
420
      255
176
     1
290
     0
176
     1
 90
       50
176
     1
 90
       50
176
     1
 90
       50
176
     1
290
     0
176
     1
 90
       50
176
     1
 62
   256
176
     0
 40
1.0
176
     0
 90
        2
176
     1
  1
strokes_ogs.tif
176
     1
290
     0
176
     1
 40
1.0
176
     1
 40
1.0
176
     1
  0
VISUALSTYLE
  5
30
102
{ACAD_REACTORS
330
2A
102
}
330
2A
100
AcDbVisualStyle
  2
Wireframe
 70
     5
177
     3
291
     0
 70
    58
 90
        0
176
     1
 90
        2
176
     1
 90
        0
176
     1
 90
        0
176
     1
 40
0.6
176
     1
 40
30.0
176
     1
 62
     7
420
 16777215
176
     1
 90
        1
176
     1
 90
        4
176
     1
 62
     7
176
     1
 62
   257
176
     1
 90
        1
176
     1
 90
        1
176
     1
 40
1.0
176
     1
 90
        0
176
     1
 62
   257
176
     1
 40
1.0
176
     1
 90
        1
176
     1
 90
        6
176
     1
 90
        2
176
     1
 62
     7
176
     1
 90
        3
176
     1
 90
        0
176
     1
 90
        0
176
     1
290
     0
176
     1
 90
        1
176
     1
 40
0.0
176
     1
 90
        0
176
     1
290
     0
176
     1
290
     1
176
     1
290
     1
176
     1
290
     0
176
     1
290
     0
176
     1
290
     0
176
     1
290
     0
176
     1
290
     0
176
     1
290
     0
176
     1
 90
       50
176
     1
 40
0.0
176
     1
 40
1.0
176
     1
 90
        0
176
     1
 62
    18
420
        0
176
     1
 90
       50
176
     1
 90
        3
176
     1
 62
     5
420
      255
176
     1
290
     0
176
     1
 90
       50
176
     1
 90
       50
176
     1
 90
       50
176
     1
290
     0
176
     1
 90
       50
176
     1
 62
   256
176
     0
 40
1.0
176
     0
 90
        2
176
     1
  1
strokes_ogs.tif
176
     1
290
     0
176
     1
 40
1.0
176
     1
 40
1.0
176
     1
  0
VISUALSTYLE
  5
40
102
{ACAD_REACTORS
330
2A
102
}
330
2A
100
AcDbVisualStyle
  2
X-Ray
 70
    25
177
     3
291
     0
 70
    58
 90
        2
176
     1
 90
        2
176
     1
 90
        1
176
     1
 90
        1
176
     1
 40
0.5
176
     1
 40
30.0
176
     1
 62
     7
420
 16777215
176
     1
 90
        1
176
     1
 90
        0
176
     1
 62
     7
176
     1
 62
   257
176
     1
 90
        1
176
     1
 90
        1
176
     1
 40
1.0
176
     1
 90
        8
176
     1
 62
     7
176
     1
 40
1.0
176
     1
 90
        1
176
     1
 90
        6
176
     1
 90
        2
176
     1
 62
     7
176
     1
 90
        3
176
     1
 90
        0
176
     1
 90
        0
176
     1
290
     0
176
     1
 90
       13
176
     1
 40
0.0
176
     1
 90
        0
176
     1
290
     0
176
     1
290
     1
176
     1
290
     1
176
     1
290
     0
176
     1
290
     0
176
     1
290
     0
176
     1
290
     0
176
     1
290
     0
176
     1
290
     0
176
     1
 90
       50
176
     1
 40
0.0
176
     1
 40
1.0
176
     1
 90
        0
176
     1
 62
    18
420
        0
176
     1
 90
       50
176
     1
 90
        3
176
     1
 62
     5
420
      255
176
     1
290
     0
176
     1
 90
       50
176
     1
 90
       50
176
     1
 90
       50
176
     1
290
     0
176
     1
 90
       50
176
     1
 62
   256
176
     0
 40
1.0
176
     0
 90
        2
176
     1
  1
strokes_ogs.tif
176
     1
290
     0
176
     1
 40
1.0
176
     1
 40
1.0
176
     1
  0
DICTIONARYVAR
  5
1F1
102
{ACAD_REACTORS
330
1F0
102
}
330
1F0
100
DictionaryVariables
280
     0
  1
1:1
  0
DICTIONARYVAR
  5
1F6
102
{ACAD_REACTORS
330
1F0
102
}
330
1F0
100
DictionaryVariables
280
     0
  1
Standard
  0
DICTIONARYVAR
  5
1F5
102
{ACAD_REACTORS
330
1F0
102
}
330
1F0
100
DictionaryVariables
280
     0
  1
Standard
  0
DICTIONARY
  5
1F2
330
6A
100
AcDbDictionary
280
     1
281
     1
  3
ACAD_ROUNDTRIP_2008_TABLESTYLE_CELLSTYLEMAP
360
1F3
  0
CELLSTYLEMAP
  5
1F3
102
{ACAD_REACTORS
330
1F2
102
}
330
1F2
100
AcDbCellStyleMap
 90
        3
300
CELLSTYLE
  1
TABLEFORMAT_BEGIN
 90
        5
170
     1
 91
        0
 92
    32768
 62
   257
 93
        1
300
CONTENTFORMAT
  1
CONTENTFORMAT_BEGIN
 90
        0
 91
        0
 92
        4
 93
        0
300

 40
0.0
140
1.0
 94
        5
 62
     0
340
11
144
0.25
309
CONTENTFORMAT_END
171
     1
301
MARGIN
  1
CELLMARGIN_BEGIN
 40
0.06
 40
0.06
 40
0.06
 40
0.06
 40
0.06
 40
0.06
309
CELLMARGIN_END
 94
        6
 95
        1
302
GRIDFORMAT
  1
GRIDFORMAT_BEGIN
 90
        0
 91
        1
 62
     0
 92
       -2
340
14
 93
        0
 40
0.045
309
GRIDFORMAT_END
 95
        2
302
GRIDFORMAT
  1
GRIDFORMAT_BEGIN
 90
        0
 91
        1
 62
     0
 92
       -2
340
14
 93
        0
 40
0.045
309
GRIDFORMAT_END
 95
        4
302
GRIDFORMAT
  1
GRIDFORMAT_BEGIN
 90
        0
 91
        1
 62
     0
 92
       -2
340
14
 93
        0
 40
0.045
309
GRIDFORMAT_END
 95
        8
302
GRIDFORMAT
  1
GRIDFORMAT_BEGIN
 90
        0
 91
        1
 62
     0
 92
       -2
340
14
 93
        0
 40
0.045
309
GRIDFORMAT_END
 95
       16
302
GRIDFORMAT
  1
GRIDFORMAT_BEGIN
 90
        0
 91
        1
 62
     0
 92
       -2
340
14
 93
        0
 40
0.045
309
GRIDFORMAT_END
 95
       32
302
GRIDFORMAT
  1
GRIDFORMAT_BEGIN
 90
        0
 91
        1
 62
     0
 92
       -2
340
14
 93
        0
 40
0.045
309
GRIDFORMAT_END
309
TABLEFORMAT_END
  1
CELLSTYLE_BEGIN
 90
        1
 91
        1
300
_TITLE
309
CELLSTYLE_END
300
CELLSTYLE
  1
TABLEFORMAT_BEGIN
 90
        5
170
     1
 91
        0
 92
        0
 62
   257
 93
        1
300
CONTENTFORMAT
  1
CONTENTFORMAT_BEGIN
 90
        0
 91
        0
 92
        4
 93
        0
300

 40
0.0
140
1.0
 94
        5
 62
     0
340
11
144
0.18
309
CONTENTFORMAT_END
171
     1
301
MARGIN
  1
CELLMARGIN_BEGIN
 40
0.06
 40
0.06
 40
0.06
 40
0.06
 40
0.06
 40
0.06
309
CELLMARGIN_END
 94
        6
 95
        1
302
GRIDFORMAT
  1
GRIDFORMAT_BEGIN
 90
        0
 91
        1
 62
     0
 92
       -2
340
14
 93
        0
 40
0.045
309
GRIDFORMAT_END
 95
        2
302
GRIDFORMAT
  1
GRIDFORMAT_BEGIN
 90
        0
 91
        1
 62
     0
 92
       -2
340
14
 93
        0
 40
0.045
309
GRIDFORMAT_END
 95
        4
302
GRIDFORMAT
  1
GRIDFORMAT_BEGIN
 90
        0
 91
        1
 62
     0
 92
       -2
340
14
 93
        0
 40
0.045
309
GRIDFORMAT_END
 95
        8
302
GRIDFORMAT
  1
GRIDFORMAT_BEGIN
 90
        0
 91
        1
 62
     0
 92
       -2
340
14
 93
        0
 40
0.045
309
GRIDFORMAT_END
 95
       16
302
GRIDFORMAT
  1
GRIDFORMAT_BEGIN
 90
        0
 91
        1
 62
     0
 92
       -2
340
14
 93
        0
 40
0.045
309
GRIDFORMAT_END
 95
       32
302
GRIDFORMAT
  1
GRIDFORMAT_BEGIN
 90
        0
 91
        1
 62
     0
 92
       -2
340
14
 93
        0
 40
0.045
309
GRIDFORMAT_END
309
TABLEFORMAT_END
  1
CELLSTYLE_BEGIN
 90
        2
 91
        1
300
_HEADER
309
CELLSTYLE_END
300
CELLSTYLE
  1
TABLEFORMAT_BEGIN
 90
        5
170
     1
 91
        0
 92
        0
 62
   257
 93
        1
300
CONTENTFORMAT
  1
CONTENTFORMAT_BEGIN
 90
        0
 91
        0
 92
        4
 93
        0
300

 40
0.0
140
1.0
 94
        2
 62
     0
340
11
144
0.18
309
CONTENTFORMAT_END
171
     1
301
MARGIN
  1
CELLMARGIN_BEGIN
 40
0.06
 40
0.06
 40
0.06
 40
0.06
 40
0.06
 40
0.06
309
CELLMARGIN_END
 94
        6
 95
        1
302
GRIDFORMAT
  1
GRIDFORMAT_BEGIN
 90
        0
 91
        1
 62
     0
 92
       -2
340
14
 93
        0
 40
0.045
309
GRIDFORMAT_END
 95
        2
302
GRIDFORMAT
  1
GRIDFORMAT_BEGIN
 90
        0
 91
        1
 62
     0
 92
       -2
340
14
 93
        0
 40
0.045
309
GRIDFORMAT_END
 95
        4
302
GRIDFORMAT
  1
GRIDFORMAT_BEGIN
 90
        0
 91
        1
 62
     0
 92
       -2
340
14
 93
        0
 40
0.045
309
GRIDFORMAT_END
 95
        8
302
GRIDFORMAT
  1
GRIDFORMAT_BEGIN
 90
        0
 91
        1
 62
     0
 92
       -2
340
14
 93
        0
 40
0.045
309
GRIDFORMAT_END
 95
       16
302
GRIDFORMAT
  1
GRIDFORMAT_BEGIN
 90
        0
 91
        1
 62
     0
 92
       -2
340
14
 93
        0
 40
0.045
309
GRIDFORMAT_END
 95
       32
302
GRIDFORMAT
  1
GRIDFORMAT_BEGIN
 90
        0
 91
        1
 62
     0
 92
       -2
340
14
 93
        0
 40
0.045
309
GRIDFORMAT_END
309
TABLEFORMAT_END
  1
CELLSTYLE_BEGIN
 90
        3
 91
        2
300
_DATA
309
CELLSTYLE_END
  0
ENDSEC
  0
EOF