0
SECTION
  2
HEADER
  9
$ACADVER
  1
AC1027
  9
$ACADMAINTVER
 70
     8
  9
$DWGCODEPAGE
  3
ANSI_1252
  9
$REQUIREDVERSIONS
160
                 0
  9
$COMMENTS
  1
File was created by Cadenas
  9
$CUSTOMPROPERTYTAG
  1
NN
  9
$CUSTOMPROPERTY
  1
Grip Tight Tapped Base Inch Bore
  9
$CUSTOMPROPERTYTAG
  1
NT
  9
$CUSTOMPROPERTY
  1
GT Normal Duty Tapped Base Pillow Blocks
  9
$CUSTOMPROPERTYTAG
  1
NB
  9
$CUSTOMPROPERTY
  1
129284
  9
$CUSTOMPROPERTYTAG
  1
NBSYN
  9
$CUSTOMPROPERTY
  1
$PN.$LUBE.
  9
$CUSTOMPROPERTYTAG
  1
LINA
  9
$CUSTOMPROPERTY
  1
129284
  9
$CUSTOMPROPERTYTAG
  1
SERIES
  9
$CUSTOMPROPERTY
  1
207
  9
$CUSTOMPROPERTYTAG
  1
SS
  9
$CUSTOMPROPERTY
  1
1-7/16
  9
$CUSTOMPROPERTYTAG
  1
PN
  9
$CUSTOMPROPERTY
  1
129284
  9
$CUSTOMPROPERTYTAG
  1
DESCRIPTION
  9
$CUSTOMPROPERTY
  1
TB-GT-107
  9
$CUSTOMPROPERTYTAG
  1
A
  9
$CUSTOMPROPERTY
  1
1-5/8
  9
$CUSTOMPROPERTYTAG
  1
B
  9
$CUSTOMPROPERTY
  1
4-1/4
  9
$CUSTOMPROPERTYTAG
  1
C
  9
$CUSTOMPROPERTY
  1
1-7/8
  9
$CUSTOMPROPERTYTAG
  1
D
  9
$CUSTOMPROPERTY
  1
3-1/4
  9
$CUSTOMPROPERTYTAG
  1
J
  9
$CUSTOMPROPERTY
  1
3-3/4
  9
$CUSTOMPROPERTYTAG
  1
L
  9
$CUSTOMPROPERTY
  1
2-19/64
  9
$CUSTOMPROPERTYTAG
  1
M
  9
$CUSTOMPROPERTY
  1
1-7/8
  9
$CUSTOMPROPERTYTAG
  1
N
  9
$CUSTOMPROPERTY
  1
3/4
  9
$CUSTOMPROPERTYTAG
  1
R
  9
$CUSTOMPROPERTY
  1
1/2-13
  9
$CUSTOMPROPERTYTAG
  1
S
  9
$CUSTOMPROPERTY
  1
1-1/16
  9
$CUSTOMPROPERTYTAG
  1
Z
  9
$CUSTOMPROPERTY
  1
1-3/64
  9
$CUSTOMPROPERTYTAG
  1
COMPANY
  9
$CUSTOMPROPERTY
  1
baldor
  9
$INSBASE
 10
0.0
 20
0.0
 30
0.0
  9
$EXTMIN
 10
1.000000000000000E+20
 20
1.000000000000000E+20
 30
1.000000000000000E+20
  9
$EXTMAX
 10
-1.000000000000000E+20
 20
-1.000000000000000E+20
 30
-1.000000000000000E+20
  9
$LIMMIN
 10
0.0
 20
0.0
  9
$LIMMAX
 10
12.0
 20
9.0
  9
$ORTHOMODE
 70
     0
  9
$REGENMODE
 70
     1
  9
$FILLMODE
 70
     1
  9
$QTEXTMODE
 70
     0
  9
$MIRRTEXT
 70
     1
  9
$LTSCALE
 40
1.0
  9
$ATTMODE
 70
     1
  9
$TEXTSIZE
 40
0.2
  9
$TRACEWID
 40
0.05
  9
$TEXTSTYLE
  7
Standard
  9
$CLAYER
  8
0
  9
$CELTYPE
  6
ByLayer
  9
$CECOLOR
 62
   256
  9
$CELTSCALE
 40
1.0
  9
$DISPSILH
 70
     0
  9
$DIMSCALE
 40
1.0
  9
$DIMASZ
 40
0.18
  9
$DIMEXO
 40
0.0625
  9
$DIMDLI
 40
0.38
  9
$DIMRND
 40
0.0
  9
$DIMDLE
 40
0.0
  9
$DIMEXE
 40
0.18
  9
$DIMTP
 40
0.0
  9
$DIMTM
 40
0.0
  9
$DIMTXT
 40
0.18
  9
$DIMCEN
 40
0.09
  9
$DIMTSZ
 40
0.0
  9
$DIMTOL
 70
     0
  9
$DIMLIM
 70
     0
  9
$DIMTIH
 70
     1
  9
$DIMTOH
 70
     1
  9
$DIMSE1
 70
     0
  9
$DIMSE2
 70
     0
  9
$DIMTAD
 70
     0
  9
$DIMZIN
 70
     0
  9
$DIMBLK
  1

  9
$DIMASO
 70
     1
  9
$DIMSHO
 70
     1
  9
$DIMPOST
  1

  9
$DIMAPOST
  1

  9
$DIMALT
 70
     0
  9
$DIMALTD
 70
     2
  9
$DIMALTF
 40
25.4
  9
$DIMLFAC
 40
1.0
  9
$DIMTOFL
 70
     0
  9
$DIMTVP
 40
0.0
  9
$DIMTIX
 70
     0
  9
$DIMSOXD
 70
     0
  9
$DIMSAH
 70
     0
  9
$DIMBLK1
  1

  9
$DIMBLK2
  1

  9
$DIMSTYLE
  2
Standard
  9
$DIMCLRD
 70
     0
  9
$DIMCLRE
 70
     0
  9
$DIMCLRT
 70
     0
  9
$DIMTFAC
 40
1.0
  9
$DIMGAP
 40
0.09
  9
$DIMJUST
 70
     0
  9
$DIMSD1
 70
     0
  9
$DIMSD2
 70
     0
  9
$DIMTOLJ
 70
     1
  9
$DIMTZIN
 70
     0
  9
$DIMALTZ
 70
     0
  9
$DIMALTTZ
 70
     0
  9
$DIMUPT
 70
     0
  9
$DIMDEC
 70
     4
  9
$DIMTDEC
 70
     4
  9
$DIMALTU
 70
     2
  9
$DIMALTTD
 70
     2
  9
$DIMTXSTY
  7
Standard
  9
$DIMAUNIT
 70
     0
  9
$DIMADEC
 70
     0
  9
$DIMALTRND
 40
0.0
  9
$DIMAZIN
 70
     0
  9
$DIMDSEP
 70
    46
  9
$DIMATFIT
 70
     3
  9
$DIMFRAC
 70
     0
  9
$DIMLDRBLK
  1

  9
$DIMLUNIT
 70
     2
  9
$DIMLWD
 70
    -2
  9
$DIMLWE
 70
    -2
  9
$DIMTMOVE
 70
     0
  9
$DIMFXL
 40
1.0
  9
$DIMFXLON
 70
     0
  9
$DIMJOGANG
 40
0.7853981633974483
  9
$DIMTFILL
 70
     0
  9
$DIMTFILLCLR
 70
     0
  9
$DIMARCSYM
 70
     0
  9
$DIMLTYPE
  6

  9
$DIMLTEX1
  6

  9
$DIMLTEX2
  6

  9
$DIMTXTDIRECTION
 70
     0
  9
$LUNITS
 70
     2
  9
$LUPREC
 70
     4
  9
$SKETCHINC
 40
0.1
  9
$FILLETRAD
 40
0.5
  9
$AUNITS
 70
     0
  9
$AUPREC
 70
     0
  9
$MENU
  1
.
  9
$ELEVATION
 40
0.0
  9
$PELEVATION
 40
0.0
  9
$THICKNESS
 40
0.0
  9
$LIMCHECK
 70
     0
  9
$CHAMFERA
 40
0.0
  9
$CHAMFERB
 40
0.0
  9
$CHAMFERC
 40
0.0
  9
$CHAMFERD
 40
0.0
  9
$SKPOLY
 70
     0
  9
$TDCREATE
 40
2458168.994217129
  9
$TDUCREATE
 40
2458168.952550463
  9
$TDUPDATE
 40
2458168.994217303
  9
$TDUUPDATE
 40
2458168.952550637
  9
$TDINDWG
 40
0.0000000116
  9
$TDUSRTIMER
 40
0.0000000116
  9
$USRTIMER
 70
     1
  9
$ANGBASE
 50
0.0
  9
$ANGDIR
 70
     0
  9
$PDMODE
 70
     0
  9
$PDSIZE
 40
0.0
  9
$PLINEWID
 40
0.0
  9
$SPLFRAME
 70
     0
  9
$SPLINETYPE
 70
     6
  9
$SPLINESEGS
 70
     8
  9
$HANDSEED
  5
1BB
  9
$SURFTAB1
 70
     6
  9
$SURFTAB2
 70
     6
  9
$SURFTYPE
 70
     6
  9
$SURFU
 70
     6
  9
$SURFV
 70
     6
  9
$UCSBASE
  2

  9
$UCSNAME
  2

  9
$UCSORG
 10
0.0
 20
0.0
 30
0.0
  9
$UCSXDIR
 10
1.0
 20
0.0
 30
0.0
  9
$UCSYDIR
 10
0.0
 20
1.0
 30
0.0
  9
$UCSORTHOREF
  2

  9
$UCSORTHOVIEW
 70
     0
  9
$UCSORGTOP
 10
0.0
 20
0.0
 30
0.0
  9
$UCSORGBOTTOM
 10
0.0
 20
0.0
 30
0.0
  9
$UCSORGLEFT
 10
0.0
 20
0.0
 30
0.0
  9
$UCSORGRIGHT
 10
0.0
 20
0.0
 30
0.0
  9
$UCSORGFRONT
 10
0.0
 20
0.0
 30
0.0
  9
$UCSORGBACK
 10
0.0
 20
0.0
 30
0.0
  9
$PUCSBASE
  2

  9
$PUCSNAME
  2

  9
$PUCSORG
 10
0.0
 20
0.0
 30
0.0
  9
$PUCSXDIR
 10
1.0
 20
0.0
 30
0.0
  9
$PUCSYDIR
 10
0.0
 20
1.0
 30
0.0
  9
$PUCSORTHOREF
  2

  9
$PUCSORTHOVIEW
 70
     0
  9
$PUCSORGTOP
 10
0.0
 20
0.0
 30
0.0
  9
$PUCSORGBOTTOM
 10
0.0
 20
0.0
 30
0.0
  9
$PUCSORGLEFT
 10
0.0
 20
0.0
 30
0.0
  9
$PUCSORGRIGHT
 10
0.0
 20
0.0
 30
0.0
  9
$PUCSORGFRONT
 10
0.0
 20
0.0
 30
0.0
  9
$PUCSORGBACK
 10
0.0
 20
0.0
 30
0.0
  9
$USERI1
 70
     0
  9
$USERI2
 70
     0
  9
$USERI3
 70
     0
  9
$USERI4
 70
     0
  9
$USERI5
 70
     0
  9
$USERR1
 40
0.0
  9
$USERR2
 40
0.0
  9
$USERR3
 40
0.0
  9
$USERR4
 40
0.0
  9
$USERR5
 40
0.0
  9
$WORLDVIEW
 70
     1
  9
$SHADEDGE
 70
     3
  9
$SHADEDIF
 70
    70
  9
$TILEMODE
 70
     1
  9
$MAXACTVP
 70
    64
  9
$PINSBASE
 10
0.0
 20
0.0
 30
0.0
  9
$PLIMCHECK
 70
     0
  9
$PEXTMIN
 10
1.000000000000000E+20
 20
1.000000000000000E+20
 30
1.000000000000000E+20
  9
$PEXTMAX
 10
-1.000000000000000E+20
 20
-1.000000000000000E+20
 30
-1.000000000000000E+20
  9
$PLIMMIN
 10
0.0
 20
0.0
  9
$PLIMMAX
 10
12.0
 20
9.0
  9
$UNITMODE
 70
     0
  9
$VISRETAIN
 70
     1
  9
$PLINEGEN
 70
     0
  9
$PSLTSCALE
 70
     1
  9
$TREEDEPTH
 70
  3020
  9
$CMLSTYLE
  2
Standard
  9
$CMLJUST
 70
     0
  9
$CMLSCALE
 40
1.0
  9
$PROXYGRAPHICS
 70
     1
  9
$MEASUREMENT
 70
     0
  9
$CELWEIGHT
370
    -1
  9
$ENDCAPS
280
     0
  9
$JOINSTYLE
280
     0
  9
$LWDISPLAY
290
     0
  9
$INSUNITS
 70
     1
  9
$HYPERLINKBASE
  1

  9
$STYLESHEET
  1

  9
$XEDIT
290
     1
  9
$CEPSNTYPE
380
     0
  9
$PSTYLEMODE
290
     1
  9
$FINGERPRINTGUID
  2
{A0719BA3-4CB2-4370-B438-3FC4F4E2DE20}
  9
$VERSIONGUID
  2
{FAEB1C32-E019-11D5-929B-00C0DF256EC4}
  9
$EXTNAMES
290
     1
  9
$PSVPSCALE
 40
0.0
  9
$OLESTARTUP
290
     0
  9
$SORTENTS
280
   127
  9
$INDEXCTL
280
     0
  9
$HIDETEXT
280
     1
  9
$XCLIPFRAME
280
     2
  9
$HALOGAP
280
     0
  9
$OBSCOLOR
 70
   257
  9
$OBSLTYPE
280
     0
  9
$INTERSECTIONDISPLAY
280
     0
  9
$INTERSECTIONCOLOR
 70
   257
  9
$DIMASSOC
280
     2
  9
$PROJECTNAME
  1

  9
$CAMERADISPLAY
290
     0
  9
$LENSLENGTH
 40
50.0
  9
$CAMERAHEIGHT
 40
0.0
  9
$STEPSPERSEC
 40
2.0
  9
$STEPSIZE
 40
6.0
  9
$3DDWFPREC
 40
2.0
  9
$PSOLWIDTH
 40
0.25
  9
$PSOLHEIGHT
 40
4.0
  9
$LOFTANG1
 40
1.570796326794897
  9
$LOFTANG2
 40
1.570796326794897
  9
$LOFTMAG1
 40
0.0
  9
$LOFTMAG2
 40
0.0
  9
$LOFTPARAM
 70
     7
  9
$LOFTNORMALS
280
     1
  9
$LATITUDE
 40
37.795
  9
$LONGITUDE
 40
-122.394
  9
$NORTHDIRECTION
 40
0.0
  9
$TIMEZONE
 70
 -8000
  9
$LIGHTGLYPHDISPLAY
280
     1
  9
$TILEMODELIGHTSYNCH
280
     1
  9
$CMATERIAL
347
44
  9
$SOLIDHIST
280
     0
  9
$SHOWHIST
280
     1
  9
$DWFFRAME
280
     2
  9
$DGNFRAME
280
     2
  9
$REALWORLDSCALE
290
     1
  9
$INTERFERECOLOR
 62
   256
  9
$CSHADOW
280
     0
  9
$SHADOWPLANELOCATION
 40
0.0
  0
ENDSEC
  0
SECTION
  2
CLASSES
  0
CLASS
  1
ACDBDICTIONARYWDFLT
  2
AcDbDictionaryWithDefault
  3
ObjectDBX Classes
 90
        0
 91
        4
280
     0
281
     0
  0
CLASS
  1
VISUALSTYLE
  2
AcDbVisualStyle
  3
ObjectDBX Classes
 90
     4095
 91
        4
280
     0
281
     0
  0
CLASS
  1
MATERIAL
  2
AcDbMaterial
  3
ObjectDBX Classes
 90
     1153
 91
        4
280
     0
281
     0
  0
CLASS
  1
SCALE
  2
AcDbScale
  3
ObjectDBX Classes
 90
     1153
 91
        4
280
     0
281
     0
  0
CLASS
  1
TABLESTYLE
  2
AcDbTableStyle
  3
ObjectDBX Classes
 90
     4095
 91
        4
280
     0
281
     0
  0
CLASS
  1
MLEADERSTYLE
  2
AcDbMLeaderStyle
  3
ACDB_MLEADERSTYLE_CLASS
 90
     4095
 91
        4
280
     0
281
     0
  0
CLASS
  1
SUN
  2
AcDbSun
  3
SCENEOE
 90
     1153
 91
        4
280
     0
281
     0
  0
CLASS
  1
DICTIONARYVAR
  2
AcDbDictionaryVar
  3
ObjectDBX Classes
 90
        0
 91
        4
280
     0
281
     0
  0
CLASS
  1
CELLSTYLEMAP
  2
AcDbCellStyleMap
  3
ObjectDBX Classes
 90
     1152
 91
        4
280
     0
281
     0
  0
ENDSEC
  0
SECTION
  2
TABLES
  0
TABLE
  2
VPORT
  5
8
330
0
100
AcDbSymbolTable
 70
     1
  0
VPORT
  5
29
330
8
100
AcDbSymbolTableRecord
100
AcDbViewportTableRecord
  2
*Active
 70
     0
 10
0.0
 20
0.0
 11
1.0
 21
1.0
 12
-0.0562500000000004
 22
-0.0256198565171335
 13
0.0
 23
0.0
 14
0.5
 24
0.5
 15
0.5
 25
0.5
 16
0.0
 26
0.0
 36
1.0
 17
0.0
 27
0.0
 37
0.0
 40
3.877264507294953
 41
0.5721817523220203
 42
50.0
 43
0.0
 44
0.0
 50
0.0
 51
0.0
 71
     0
 72
   100
 73
     1
 74
     3
 75
     0
 76
     0
 77
     0
 78
     0
281
     0
 65
     1
110
0.0
120
0.0
130
0.0
111
1.0
121
0.0
131
0.0
112
0.0
122
1.0
132
0.0
 79
     0
146
0.0
348
2F
 60
     3
 61
     5
292
     1
282
     1
141
0.0
142
0.0
 63
   250
361
6D
  0
ENDTAB
  0
TABLE
  2
LTYPE
  5
5
330
0
100
AcDbSymbolTable
 70
     3
  0
LTYPE
  5
14
330
5
100
AcDbSymbolTableRecord
100
AcDbLinetypeTableRecord
  2
ByBlock
 70
     0
  3

 72
    65
 73
     0
 40
0.0
  0
LTYPE
  5
15
330
5
100
AcDbSymbolTableRecord
100
AcDbLinetypeTableRecord
  2
ByLayer
 70
     0
  3

 72
    65
 73
     0
 40
0.0
  0
LTYPE
  5
16
330
5
100
AcDbSymbolTableRecord
100
AcDbLinetypeTableRecord
  2
Continuous
 70
     0
  3
Solid line
 72
    65
 73
     0
 40
0.0
  0
LTYPE
  5
9E
330
5
100
AcDbSymbolTableRecord
100
AcDbLinetypeTableRecord
  2
Dashed
 70
     0
  3

 72
    65
 73
     2
 40
2.0
 49
1.0
 74
     0
 49
-1.0
 74
     0
  0
LTYPE
  5
111
330
5
100
AcDbSymbolTableRecord
100
AcDbLinetypeTableRecord
  2
Center
 70
     0
  3

 72
    65
 73
     4
 40
1.5
 49
0.45
 74
     0
 49
-0.5
 74
     0
 49
0.05
 74
     0
 49
-0.5
 74
     0
  0
ENDTAB
  0
TABLE
  2
LAYER
  5
2
330
0
100
AcDbSymbolTable
 70
     7
  0
LAYER
  5
10
330
2
100
AcDbSymbolTableRecord
100
AcDbLayerTableRecord
  2
0
 70
     0
 62
     7
  6
Continuous
370
    -3
390
F
347
46
348
0
  0
LAYER
  5
72
330
2
100
AcDbSymbolTableRecord
100
AcDbLayerTableRecord
  2
AM_6
 70
     0
 62
    -2
  6
Continuous
370
    35
390
F
347
46
348
0
  0
LAYER
  5
9F
330
2
100
AcDbSymbolTableRecord
100
AcDbLayerTableRecord
  2
AM_9
 70
     0
 62
     6
  6
Dashed
370
    25
390
F
347
46
348
0
  0
LAYER
  5
112
330
2
100
AcDbSymbolTableRecord
100
AcDbLayerTableRecord
  2
AM_7
 70
     0
 62
     7
  6
Center
370
    25
390
F
347
46
348
0
  0
LAYER
  5
114
330
2
100
AcDbSymbolTableRecord
100
AcDbLayerTableRecord
  2
AM_4
 70
     0
 62
     7
  6
Continuous
370
    50
390
F
347
46
348
0
  0
LAYER
  5
121
330
2
100
AcDbSymbolTableRecord
100
AcDbLayerTableRecord
  2
AM_5
 70
     0
 62
     3
  6
Continuous
370
    25
390
F
347
46
348
0
  0
LAYER
  5
1AD
330
2
100
AcDbSymbolTableRecord
100
AcDbLayerTableRecord
  2
ConnectionPoints
 70
     0
 62
     7
  6
Continuous
370
    50
390
F
347
46
348
0
  0
ENDTAB
  0
TABLE
  2
STYLE
  5
3
330
0
100
AcDbSymbolTable
 70
     1
  0
STYLE
  5
11
330
3
100
AcDbSymbolTableRecord
100
AcDbTextStyleTableRecord
  2
Standard
 70
     0
 40
0.0
 41
1.0
 50
0.0
 71
     0
 42
0.2
  3
txt
  4

  0
ENDTAB
  0
TABLE
  2
VIEW
  5
6
330
0
100
AcDbSymbolTable
 70
     0
  0
ENDTAB
  0
TABLE
  2
UCS
  5
7
330
0
100
AcDbSymbolTable
 70
     0
  0
ENDTAB
  0
TABLE
  2
APPID
  5
9
330
0
100
AcDbSymbolTable
 70
     1
  0
APPID
  5
12
330
9
100
AcDbSymbolTableRecord
100
AcDbRegAppTableRecord
  2
ACAD
 70
     0
  0
ENDTAB
  0
TABLE
  2
DIMSTYLE
  5
A
330
0
100
AcDbSymbolTable
 70
     1
100
AcDbDimStyleTable
  0
DIMSTYLE
105
27
330
A
100
AcDbSymbolTableRecord
100
AcDbDimStyleTableRecord
  2
Standard
 70
     0
178
     0
340
11
  0
ENDTAB
  0
TABLE
  2
BLOCK_RECORD
  5
1
330
0
100
AcDbSymbolTable
 70
     5
  0
BLOCK_RECORD
  5
1F
330
1
100
AcDbSymbolTableRecord
100
AcDbBlockTableRecord
  2
*Model_Space
340
22
 70
     0
280
     1
281
     0
  0
BLOCK_RECORD
  5
1B
330
1
100
AcDbSymbolTableRecord
100
AcDbBlockTableRecord
  2
*Paper_Space
340
1E
 70
     0
280
     1
281
     0
  0
BLOCK_RECORD
  5
23
330
1
100
AcDbSymbolTableRecord
100
AcDbBlockTableRecord
  2
*Paper_Space0
340
26
 70
     0
280
     1
281
     0
  0
BLOCK_RECORD
  5
6E
330
1
100
AcDbSymbolTableRecord
100
AcDbBlockTableRecord
  2
1_129284_2
340
0
102
{BLKREFS
331
6F
102
}
 70
     0
280
     1
281
     0
  0
BLOCK_RECORD
  5
88
330
1
100
AcDbSymbolTableRecord
100
AcDbBlockTableRecord
  2
2_129520I_0_in_129284_2
340
0
102
{BLKREFS
331
89
102
}
 70
     0
280
     1
281
     0
  0
BLOCK_RECORD
  5
CD
330
1
100
AcDbSymbolTableRecord
100
AcDbBlockTableRecord
  2
3_129913_0_in_129284_2
340
0
102
{BLKREFS
331
CE
102
}
 70
     0
280
     1
281
     0
  0
BLOCK_RECORD
  5
123
330
1
100
AcDbSymbolTableRecord
100
AcDbBlockTableRecord
  2
4_129460I_0_in_129284_2
340
0
102
{BLKREFS
331
124
102
}
 70
     0
280
     1
281
     0
  0
ENDTAB
  0
ENDSEC
  0
SECTION
  2
BLOCKS
  0
BLOCK
  5
20
330
1F
100
AcDbEntity
  8
0
100
AcDbBlockBegin
  2
*Model_Space
 70
     0
 10
0.0
 20
0.0
 30
0.0
  3
*Model_Space
  1

  0
ENDBLK
  5
21
330
1F
100
AcDbEntity
  8
0
100
AcDbBlockEnd
  0
BLOCK
  5
1C
330
1B
100
AcDbEntity
 67
     1
  8
0
100
AcDbBlockBegin
  2
*Paper_Space
 70
     0
 10
0.0
 20
0.0
 30
0.0
  3
*Paper_Space
  1

  0
ENDBLK
  5
1D
330
1B
100
AcDbEntity
 67
     1
  8
0
100
AcDbBlockEnd
  0
BLOCK
  5
24
330
23
100
AcDbEntity
  8
0
100
AcDbBlockBegin
  2
*Paper_Space0
 70
     0
 10
0.0
 20
0.0
 30
0.0
  3
*Paper_Space0
  1

  0
ENDBLK
  5
25
330
23
100
AcDbEntity
  8
0
100
AcDbBlockEnd
  0
BLOCK
  5
70
330
6E
100
AcDbEntity
  8
0
100
AcDbBlockBegin
  2
1_129284_2
 70
     2
 10
0.0
 20
0.0
 30
0.0
  3
1_129284_2
  1

  0
ATTDEF
  5
73
330
6E
100
AcDbEntity
  8
AM_6
100
AcDbText
 10
6.03125
 20
1.875
 30
0.0
 40
0.5
  1
Grip Tight Tapped Base Inch Bore
100
AcDbAttributeDefinition
  3

  2
NN
 70
     8
280
     0
  0
ATTDEF
  5
74
330
6E
100
AcDbEntity
  8
AM_6
100
AcDbText
 10
6.03125
 20
1.375
 30
0.0
 40
0.5
  1
GT Normal Duty Tapped Base Pillow Blocks
100
AcDbAttributeDefinition
  3

  2
NT
 70
     8
280
     0
  0
ATTDEF
  5
75
330
6E
100
AcDbEntity
  8
AM_6
100
AcDbText
 10
6.03125
 20
0.875
 30
0.0
 40
0.5
  1
129284
100
AcDbAttributeDefinition
  3

  2
NB
 70
     8
280
     0
  0
ATTDEF
  5
76
330
6E
100
AcDbEntity
  8
AM_6
100
AcDbText
 10
6.03125
 20
0.375
 30
0.0
 40
0.5
  1
$PN.$LUBE.
100
AcDbAttributeDefinition
  3

  2
NBSYN
 70
     8
280
     0
  0
ATTDEF
  5
77
330
6E
100
AcDbEntity
  8
AM_6
100
AcDbText
 10
6.03125
 20
-0.125
 30
0.0
 40
0.5
  1
129284
100
AcDbAttributeDefinition
  3

  2
LINA
 70
     8
280
     0
  0
ATTDEF
  5
78
330
6E
100
AcDbEntity
  8
AM_6
100
AcDbText
 10
6.03125
 20
-0.625
 30
0.0
 40
0.5
  1
207
100
AcDbAttributeDefinition
  3

  2
SERIES
 70
     8
280
     0
  0
ATTDEF
  5
79
330
6E
100
AcDbEntity
  8
AM_6
100
AcDbText
 10
6.03125
 20
-1.125
 30
0.0
 40
0.5
  1
1-7/16
100
AcDbAttributeDefinition
  3

  2
SS
 70
     8
280
     0
  0
ATTDEF
  5
7A
330
6E
100
AcDbEntity
  8
AM_6
100
AcDbText
 10
6.03125
 20
-1.625
 30
0.0
 40
0.5
  1
129284
100
AcDbAttributeDefinition
  3

  2
PN
 70
     8
280
     0
  0
ATTDEF
  5
7B
330
6E
100
AcDbEntity
  8
AM_6
100
AcDbText
 10
6.03125
 20
-2.125
 30
0.0
 40
0.5
  1
TB-GT-107
100
AcDbAttributeDefinition
  3

  2
DESCRIPTION
 70
     8
280
     0
  0
ATTDEF
  5
7C
330
6E
100
AcDbEntity
  8
AM_6
100
AcDbText
 10
6.03125
 20
-2.625
 30
0.0
 40
0.5
  1
1-5/8
100
AcDbAttributeDefinition
  3

  2
A
 70
     8
280
     0
  0
ATTDEF
  5
7D
330
6E
100
AcDbEntity
  8
AM_6
100
AcDbText
 10
6.03125
 20
-3.125
 30
0.0
 40
0.5
  1
4-1/4
100
AcDbAttributeDefinition
  3

  2
B
 70
     8
280
     0
  0
ATTDEF
  5
7E
330
6E
100
AcDbEntity
  8
AM_6
100
AcDbText
 10
6.03125
 20
-3.625
 30
0.0
 40
0.5
  1
1-7/8
100
AcDbAttributeDefinition
  3

  2
C
 70
     8
280
     0
  0
ATTDEF
  5
7F
330
6E
100
AcDbEntity
  8
AM_6
100
AcDbText
 10
6.03125
 20
-4.125
 30
0.0
 40
0.5
  1
3-1/4
100
AcDbAttributeDefinition
  3

  2
D
 70
     8
280
     0
  0
ATTDEF
  5
80
330
6E
100
AcDbEntity
  8
AM_6
100
AcDbText
 10
6.03125
 20
-4.625
 30
0.0
 40
0.5
  1
3-3/4
100
AcDbAttributeDefinition
  3

  2
J
 70
     8
280
     0
  0
ATTDEF
  5
81
330
6E
100
AcDbEntity
  8
AM_6
100
AcDbText
 10
6.03125
 20
-5.125
 30
0.0
 40
0.5
  1
2-19/64
100
AcDbAttributeDefinition
  3

  2
L
 70
     8
280
     0
  0
ATTDEF
  5
82
330
6E
100
AcDbEntity
  8
AM_6
100
AcDbText
 10
6.03125
 20
-5.625
 30
0.0
 40
0.5
  1
1-7/8
100
AcDbAttributeDefinition
  3

  2
M
 70
     8
280
     0
  0
ATTDEF
  5
83
330
6E
100
AcDbEntity
  8
AM_6
100
AcDbText
 10
6.03125
 20
-6.125
 30
0.0
 40
0.5
  1
3/4
100
AcDbAttributeDefinition
  3

  2
N
 70
     8
280
     0
  0
ATTDEF
  5
84
330
6E
100
AcDbEntity
  8
AM_6
100
AcDbText
 10
6.03125
 20
-6.625
 30
0.0
 40
0.5
  1
1/2-13
100
AcDbAttributeDefinition
  3

  2
R
 70
     8
280
     0
  0
ATTDEF
  5
85
330
6E
100
AcDbEntity
  8
AM_6
100
AcDbText
 10
6.03125
 20
-7.125
 30
0.0
 40
0.5
  1
1-1/16
100
AcDbAttributeDefinition
  3

  2
S
 70
     8
280
     0
  0
ATTDEF
  5
86
330
6E
100
AcDbEntity
  8
AM_6
100
AcDbText
 10
6.03125
 20
-7.625
 30
0.0
 40
0.5
  1
1-3/64
100
AcDbAttributeDefinition
  3

  2
Z
 70
     8
280
     0
  0
ATTDEF
  5
87
330
6E
100
AcDbEntity
  8
AM_6
100
AcDbText
 10
6.03125
 20
-8.125
 30
0.0
 40
0.5
  1
baldor
100
AcDbAttributeDefinition
  3

  2
COMPANY
 70
     8
280
     0
  0
INSERT
  5
89
330
6E
100
AcDbEntity
  8
0
100
AcDbBlockReference
  2
2_129520I_0_in_129284_2
 10
0.0
 20
0.0
 30
0.0
  0
INSERT
  5
CE
330
6E
100
AcDbEntity
  8
0
100
AcDbBlockReference
  2
3_129913_0_in_129284_2
 10
0.0
 20
0.0
 30
0.0
  0
INSERT
  5
124
330
6E
100
AcDbEntity
  8
0
100
AcDbBlockReference
  2
4_129460I_0_in_129284_2
 10
0.0
 20
0.0
 30
0.0
  0
ENDBLK
  5
71
330
6E
100
AcDbEntity
  8
0
100
AcDbBlockEnd
  0
BLOCK
  5
8A
330
88
100
AcDbEntity
  8
0
100
AcDbBlockBegin
  2
2_129520I_0_in_129284_2
 70
     2
 10
0.0
 20
0.0
 30
0.0
  3
2_129520I_0_in_129284_2
  1

  0
ATTDEF
  5
8C
330
88
100
AcDbEntity
  8
AM_6
100
AcDbText
 10
5.486
 20
1.417280758096088
 30
0.0
 40
0.5
  1
INS-GT B
100
AcDbAttributeDefinition
  3

  2
NN
 70
     8
280
     0
  0
ATTDEF
  5
8D
330
88
100
AcDbEntity
  8
AM_6
100
AcDbText
 10
5.486
 20
0.9172807580960882
 30
0.0
 40
0.5
  1
GT Normal Duty Bearing Inserts
100
AcDbAttributeDefinition
  3

  2
NT
 70
     8
280
     0
  0
ATTDEF
  5
8E
330
88
100
AcDbEntity
  8
AM_6
100
AcDbText
 10
5.486
 20
0.4172807580960882
 30
0.0
 40
0.5
  1
129520I
100
AcDbAttributeDefinition
  3

  2
NB
 70
     8
280
     0
  0
ATTDEF
  5
8F
330
88
100
AcDbEntity
  8
AM_6
100
AcDbText
 10
5.486
 20
-0.0827192419039118
 30
0.0
 40
0.5
  1
$PN.I
100
AcDbAttributeDefinition
  3

  2
NBSYN
 70
     8
280
     0
  0
ATTDEF
  5
90
330
88
100
AcDbEntity
  8
AM_6
100
AcDbText
 10
5.486
 20
-0.5827192419039118
 30
0.0
 40
0.5
  1
129520
100
AcDbAttributeDefinition
  3

  2
LINA
 70
     8
280
     0
  0
ATTDEF
  5
91
330
88
100
AcDbEntity
  8
AM_6
100
AcDbText
 10
5.486
 20
-1.082719241903912
 30
0.0
 40
0.5
  1
207
100
AcDbAttributeDefinition
  3

  2
SERIES
 70
     8
280
     0
  0
ATTDEF
  5
92
330
88
100
AcDbEntity
  8
AM_6
100
AcDbText
 10
5.486
 20
-1.582719241903912
 30
0.0
 40
0.5
  1
129520
100
AcDbAttributeDefinition
  3

  2
PN
 70
     8
280
     0
  0
ATTDEF
  5
93
330
88
100
AcDbEntity
  8
AM_6
100
AcDbText
 10
5.486
 20
-2.082719241903912
 30
0.0
 40
0.5
  1
INS-GT-07
100
AcDbAttributeDefinition
  3

  2
DESCRIPTION
 70
     8
280
     0
  0
ATTDEF
  5
94
330
88
100
AcDbEntity
  8
AM_6
100
AcDbText
 10
5.486
 20
-2.582719241903912
 30
0.0
 40
0.5
  1
1.62
100
AcDbAttributeDefinition
  3

  2
A
 70
     8
280
     0
  0
ATTDEF
  5
95
330
88
100
AcDbEntity
  8
AM_6
100
AcDbText
 10
5.486
 20
-3.082719241903912
 30
0.0
 40
0.5
  1
0.75
100
AcDbAttributeDefinition
  3

  2
C
 70
     8
280
     0
  0
ATTDEF
  5
96
330
88
100
AcDbEntity
  8
AM_6
100
AcDbText
 10
5.486
 20
-3.582719241903912
 30
0.0
 40
0.5
  1
2.8346
100
AcDbAttributeDefinition
  3

  2
D
 70
     8
280
     0
  0
ATTDEF
  5
97
330
88
100
AcDbEntity
  8
AM_6
100
AcDbText
 10
5.486
 20
-4.082719241903912
 30
0.0
 40
0.5
  1
0.20
100
AcDbAttributeDefinition
  3

  2
J
 70
     8
280
     0
  0
ATTDEF
  5
98
330
88
100
AcDbEntity
  8
AM_6
100
AcDbText
 10
5.486
 20
-4.582719241903912
 30
0.0
 40
0.5
  1
2.38
100
AcDbAttributeDefinition
  3

  2
L
 70
     8
280
     0
  0
ATTDEF
  5
99
330
88
100
AcDbEntity
  8
AM_6
100
AcDbText
 10
5.486
 20
-5.082719241903912
 30
0.0
 40
0.5
  1
#10 - 32 x 1/4
100
AcDbAttributeDefinition
  3

  2
N
 70
     8
280
     0
  0
ATTDEF
  5
9A
330
88
100
AcDbEntity
  8
AM_6
100
AcDbText
 10
5.486
 20
-5.582719241903912
 30
0.0
 40
0.5
  1
0.54000
100
AcDbAttributeDefinition
  3

  2
W
 70
     8
280
     0
  0
ATTDEF
  5
9B
330
88
100
AcDbEntity
  8
AM_6
100
AcDbText
 10
5.486
 20
-6.082719241903912
 30
0.0
 40
0.5
  1
1.14
100
AcDbAttributeDefinition
  3

  2
X
 70
     8
280
     0
  0
ATTDEF
  5
9C
330
88
100
AcDbEntity
  8
AM_6
100
AcDbText
 10
5.486
 20
-6.582719241903912
 30
0.0
 40
0.5
  1
1.08
100
AcDbAttributeDefinition
  3

  2
Y
 70
     8
280
     0
  0
ATTDEF
  5
9D
330
88
100
AcDbEntity
  8
AM_6
100
AcDbText
 10
5.486
 20
-7.082719241903912
 30
0.0
 40
0.5
  1
baldor
100
AcDbAttributeDefinition
  3

  2
COMPANY
 70
     8
280
     0
  0
LINE
  5
A0
330
88
100
AcDbEntity
  8
AM_9
100
AcDbLine
 10
-0.8549992760985518
 20
-0.8877777097777777
 30
0.0
 11
-0.427499276098552
 21
-0.8877777097777777
 31
0.0
  0
LINE
  5
A1
330
88
100
AcDbEntity
  8
AM_9
100
AcDbLine
 10
-0.427499276098552
 20
0.8877777097777777
 30
0.0
 11
-0.8549992760985518
 21
0.8877777097777777
 31
0.0
  0
LINE
  5
A2
330
88
100
AcDbEntity
  8
AM_9
100
AcDbLine
 10
-0.427499276098552
 20
0.8877777097777777
 30
0.0
 11
-0.427499276098552
 21
-0.8877777097777777
 31
0.0
  0
LINE
  5
A3
330
88
100
AcDbEntity
  8
AM_9
100
AcDbLine
 10
-0.427499276098552
 20
-0.8877777097777777
 30
0.0
 11
0.486
 21
-0.9196778074292936
 31
0.0
  0
LINE
  5
A4
330
88
100
AcDbEntity
  8
AM_9
100
AcDbLine
 10
0.486
 20
0.9196778074292936
 30
0.0
 11
-0.427499276098552
 21
0.8877777097777777
 31
0.0
  0
LINE
  5
A5
330
88
100
AcDbEntity
  8
AM_9
100
AcDbLine
 10
-0.712499276098552
 20
-0.9727777437777777
 30
0.0
 11
-0.569999276098552
 21
-0.9727777437777777
 31
0.0
  0
LINE
  5
A6
330
88
100
AcDbEntity
  8
AM_9
100
AcDbLine
 10
-0.569999276098552
 20
0.9727777437777777
 30
0.0
 11
-0.712499276098552
 21
0.9727777437777777
 31
0.0
  0
LINE
  5
A7
330
88
100
AcDbEntity
  8
AM_9
100
AcDbLine
 10
-0.712499276098552
 20
1.057777777777778
 30
0.0
 11
-0.712499276098552
 21
-1.057777777777778
 31
0.0
  0
LINE
  5
A8
330
88
100
AcDbEntity
  8
AM_9
100
AcDbLine
 10
-0.8249992760985518
 20
-1.057777777777778
 30
0.0
 11
-0.712499276098552
 21
-1.057777777777778
 31
0.0
  0
LINE
  5
A9
330
88
100
AcDbEntity
  8
AM_9
100
AcDbLine
 10
-0.712499276098552
 20
1.057777777777778
 30
0.0
 11
-0.8249992760985518
 21
1.057777777777778
 31
0.0
  0
LINE
  5
AA
330
88
100
AcDbEntity
  8
AM_9
100
AcDbLine
 10
-0.8549992760985518
 20
1.027777777777778
 30
0.0
 11
-0.8549992760985518
 21
-1.027777777777778
 31
0.0
  0
LINE
  5
AB
330
88
100
AcDbEntity
  8
AM_9
100
AcDbLine
 10
-0.8249992760985518
 20
1.057777777777778
 30
0.0
 11
-0.8249992760985518
 21
-1.057777777777778
 31
0.0
  0
LINE
  5
AC
330
88
100
AcDbEntity
  8
AM_9
100
AcDbLine
 10
-0.8549992760985518
 20
-1.027777777777778
 30
0.0
 11
-0.8249992760985518
 21
-1.057777777777778
 31
0.0
  0
LINE
  5
AD
330
88
100
AcDbEntity
  8
AM_9
100
AcDbLine
 10
-0.8249992760985518
 20
1.057777777777778
 30
0.0
 11
-0.8549992760985518
 21
1.027777777777778
 31
0.0
  0
LINE
  5
AE
330
88
100
AcDbEntity
  8
AM_9
100
AcDbLine
 10
0.4860000000000001
 20
1.027777777777778
 30
0.0
 11
0.4860000000000001
 21
-1.027777777777778
 31
0.0
  0
LINE
  5
AF
330
88
100
AcDbEntity
  8
AM_9
100
AcDbLine
 10
0.4860000000000001
 20
1.027777777777778
 30
0.0
 11
0.4560000000000001
 21
1.057777777777778
 31
0.0
  0
LINE
  5
B0
330
88
100
AcDbEntity
  8
AM_9
100
AcDbLine
 10
0.4560000000000001
 20
-1.057777777777778
 30
0.0
 11
0.4860000000000001
 21
-1.027777777777778
 31
0.0
  0
LINE
  5
B1
330
88
100
AcDbEntity
  8
AM_9
100
AcDbLine
 10
0.4560000000000001
 20
1.057777777777778
 30
0.0
 11
0.4560000000000001
 21
-1.057777777777778
 31
0.0
  0
LINE
  5
B2
330
88
100
AcDbEntity
  8
AM_9
100
AcDbLine
 10
0.3749999999999999
 20
-1.057777777777778
 30
0.0
 11
0.4560000000000001
 21
-1.057777777777778
 31
0.0
  0
LINE
  5
B3
330
88
100
AcDbEntity
  8
AM_9
100
AcDbLine
 10
0.4560000000000001
 20
1.057777777777778
 30
0.0
 11
0.3749999999999999
 21
1.057777777777778
 31
0.0
  0
LINE
  5
B4
330
88
100
AcDbEntity
  8
AM_9
100
AcDbLine
 10
-0.569999276098552
 20
1.057777777777778
 30
0.0
 11
-0.569999276098552
 21
-1.057777777777778
 31
0.0
  0
LINE
  5
B5
330
88
100
AcDbEntity
  8
AM_9
100
AcDbLine
 10
-0.569999276098552
 20
-1.057777777777778
 30
0.0
 11
-0.3749999999999999
 21
-1.057777777777778
 31
0.0
  0
LINE
  5
B6
330
88
100
AcDbEntity
  8
AM_9
100
AcDbLine
 10
-0.3749999999999999
 20
1.057777777777778
 30
0.0
 11
-0.569999276098552
 21
1.057777777777778
 31
0.0
  0
LINE
  5
B7
330
88
100
AcDbEntity
  8
AM_9
100
AcDbLine
 10
-0.24
 20
-1.3423
 30
0.0
 11
-0.1600000000000001
 21
-1.3423
 31
0.0
  0
LINE
  5
B8
330
88
100
AcDbEntity
  8
AM_9
100
AcDbLine
 10
-0.1600000000000001
 20
1.3423
 30
0.0
 11
-0.24
 21
1.3423
 31
0.0
  0
LINE
  5
B9
330
88
100
AcDbEntity
  8
AM_9
100
AcDbLine
 10
-0.3749999999999998
 20
1.322072697916912
 30
0.0
 11
-0.3749999999999998
 21
-1.322072697912744
 31
0.0
  0
ARC
  5
BA
330
88
100
AcDbEntity
  8
AM_9
100
AcDbCircle
 10
-0.3450000000000006
 20
-1.322072697916912
 30
0.0
 40
0.0299999999999992
100
AcDbArc
 50
180.0
 51
248.5875329531176
  0
ARC
  5
BB
330
88
100
AcDbEntity
  8
AM_9
100
AcDbCircle
 10
-0.3450000000000007
 20
1.322072697916912
 30
0.0
 40
0.0299999999999993
100
AcDbArc
 50
111.4124670468824
 51
179.9999991462263
  0
LINE
  5
BC
330
88
100
AcDbEntity
  8
AM_9
100
AcDbLine
 10
0.3749999999999999
 20
1.322072697916912
 30
0.0
 11
0.3749999999999999
 21
-1.322072697912744
 31
0.0
  0
ARC
  5
BD
330
88
100
AcDbEntity
  8
AM_9
100
AcDbCircle
 10
0.3449999999999999
 20
-1.322072697916912
 30
0.0
 40
0.0300000000000001
100
AcDbArc
 50
291.4124582878264
 51
0.0
  0
ARC
  5
BE
330
88
100
AcDbEntity
  8
AM_9
100
AcDbCircle
 10
0.3449999999999999
 20
1.322072697916912
 30
0.0
 40
0.0300000000000001
100
AcDbArc
 50
0.0
 51
68.58754171217362
  0
LINE
  5
BF
330
88
100
AcDbEntity
  8
AM_9
100
AcDbLine
 10
-0.3559523809523806
 20
1.350001989914274
 30
0.0
 11
-0.3559523809523806
 21
-1.350001989914274
 31
0.0
  0
ARC
  5
C0
330
88
100
AcDbEntity
  8
AM_9
100
AcDbCircle
 10
0.000000000000011
 20
-0.4422999999999446
 30
0.0
 40
0.9750000000000565
100
AcDbArc
 50
248.5875329531165
 51
255.178178846678
  0
ARC
  5
C1
330
88
100
AcDbEntity
  8
AM_9
100
AcDbCircle
 10
0.0000000000000177
 20
0.442299999999926
 30
0.0
 40
0.9750000000000763
100
AcDbArc
 50
104.8218211533221
 51
111.4124670468834
  0
LINE
  5
C2
330
88
100
AcDbEntity
  8
AM_9
100
AcDbLine
 10
-0.2494186061526567
 20
1.384857880930857
 30
0.0
 11
-0.2494186061526567
 21
-1.384857880930857
 31
0.0
  0
LINE
  5
C3
330
88
100
AcDbEntity
  8
AM_9
100
AcDbLine
 10
-0.24
 20
1.377607436087194
 30
0.0
 11
-0.24
 21
-1.377607436085048
 31
0.0
  0
ARC
  5
C4
330
88
100
AcDbEntity
  8
AM_9
100
AcDbCircle
 10
-0.2475000000000001
 20
-1.377607436087194
 30
0.0
 40
0.0075000000000001
100
AcDbArc
 50
255.1781670725741
 51
0.0
  0
ARC
  5
C5
330
88
100
AcDbEntity
  8
AM_9
100
AcDbCircle
 10
-0.2475000000000001
 20
1.377607436087194
 30
0.0
 40
0.0075
100
AcDbArc
 50
0.0
 51
104.8218329274259
  0
LINE
  5
C6
330
88
100
AcDbEntity
  8
AM_9
100
AcDbLine
 10
-0.1599999999999998
 20
1.397705672999711
 30
0.0
 11
-0.1599999999999998
 21
-1.397705672999076
 31
0.0
  0
ARC
  5
C7
330
88
100
AcDbEntity
  8
AM_9
100
AcDbCircle
 10
-0.152500000000001
 20
-1.397705672999711
 30
0.0
 40
0.0074999999999988
100
AcDbArc
 50
180.0
 51
260.9311755030693
  0
ARC
  5
C8
330
88
100
AcDbEntity
  8
AM_9
100
AcDbCircle
 10
-0.152500000000001
 20
1.397705672999711
 30
0.0
 40
0.0074999999999988
100
AcDbArc
 50
99.06882449693069
 51
180.0
  0
LINE
  5
C9
330
88
100
AcDbEntity
  8
AM_9
100
AcDbLine
 10
-0.1536821558277481
 20
1.405111920875586
 30
0.0
 11
-0.1536821558277481
 21
-1.405111920875586
 31
0.0
  0
LINE
  5
CA
330
88
100
AcDbEntity
  8
AM_9
100
AcDbLine
 10
0.3559523766827071
 20
1.350001991588612
 30
0.0
 11
0.3559523766827071
 21
-1.350001991588612
 31
0.0
  0
ARC
  5
CB
330
88
100
AcDbEntity
  8
AM_9
100
AcDbCircle
 10
0.0000000000000006
 20
-0.442299999999999
 30
0.0
 40
0.9750000000000012
100
AcDbArc
 50
260.9310625422615
 51
291.4124667773745
  0
ARC
  5
CC
330
88
100
AcDbEntity
  8
AM_9
100
AcDbCircle
 10
-0.0000000000000014
 20
0.4422999999999807
 30
0.0
 40
0.9750000000000191
100
AcDbArc
 50
68.5875332226258
 51
99.06893745773827
  0
ENDBLK
  5
8B
330
88
100
AcDbEntity
  8
0
100
AcDbBlockEnd
  0
BLOCK
  5
CF
330
CD
100
AcDbEntity
  8
0
100
AcDbBlockBegin
  2
3_129913_0_in_129284_2
 70
     2
 10
0.0
 20
0.0
 30
0.0
  3
3_129913_0_in_129284_2
  1

  0
ATTDEF
  5
D1
330
CD
100
AcDbEntity
  8
AM_6
100
AcDbText
 10
5.5625
 20
1.1484375
 30
0.0
 40
0.5
  1
Grip Tight Normal Duty Adapter and Nut Inch Bore
100
AcDbAttributeDefinition
  3

  2
NN
 70
     8
280
     0
  0
ATTDEF
  5
D2
330
CD
100
AcDbEntity
  8
AM_6
100
AcDbText
 10
5.5625
 20
0.6484375
 30
0.0
 40
0.5
  1
GT and GTM Adapter & Lock Nut Assemblies
100
AcDbAttributeDefinition
  3

  2
NT
 70
     8
280
     0
  0
ATTDEF
  5
D3
330
CD
100
AcDbEntity
  8
AM_6
100
AcDbText
 10
5.5625
 20
0.1484375
 30
0.0
 40
0.5
  1
129913
100
AcDbAttributeDefinition
  3

  2
NB
 70
     8
280
     0
  0
ATTDEF
  5
D4
330
CD
100
AcDbEntity
  8
AM_6
100
AcDbText
 10
5.5625
 20
-0.3515625
 30
0.0
 40
0.5
  1
$PN.
100
AcDbAttributeDefinition
  3

  2
NBSYN
 70
     8
280
     0
  0
ATTDEF
  5
D5
330
CD
100
AcDbEntity
  8
AM_6
100
AcDbText
 10
5.5625
 20
-0.8515625
 30
0.0
 40
0.5
  1
129913
100
AcDbAttributeDefinition
  3

  2
LINA
 70
     8
280
     0
  0
ATTDEF
  5
D6
330
CD
100
AcDbEntity
  8
AM_6
100
AcDbText
 10
5.5625
 20
-1.3515625
 30
0.0
 40
0.5
  1
207
100
AcDbAttributeDefinition
  3

  2
SERIES
 70
     8
280
     0
  0
ATTDEF
  5
D7
330
CD
100
AcDbEntity
  8
AM_6
100
AcDbText
 10
5.5625
 20
-1.8515625
 30
0.0
 40
0.5
  1
1-7/16
100
AcDbAttributeDefinition
  3

  2
SS
 70
     8
280
     0
  0
ATTDEF
  5
D8
330
CD
100
AcDbEntity
  8
AM_6
100
AcDbText
 10
5.5625
 20
-2.3515625
 30
0.0
 40
0.5
  1
129913
100
AcDbAttributeDefinition
  3

  2
PN
 70
     8
280
     0
  0
ATTDEF
  5
D9
330
CD
100
AcDbEntity
  8
AM_6
100
AcDbText
 10
5.5625
 20
-2.8515625
 30
0.0
 40
0.5
  1
AN-GT-07-107
100
AcDbAttributeDefinition
  3

  2
DESCRIPTION
 70
     8
280
     0
  0
ATTDEF
  5
DA
330
CD
100
AcDbEntity
  8
AM_6
100
AcDbText
 10
5.5625
 20
-3.3515625
 30
0.0
 40
0.5
  1
1-5/8
100
AcDbAttributeDefinition
  3

  2
A
 70
     8
280
     0
  0
ATTDEF
  5
DB
330
CD
100
AcDbEntity
  8
AM_6
100
AcDbText
 10
5.5625
 20
-3.8515625
 30
0.0
 40
0.5
  1
0.7480
100
AcDbAttributeDefinition
  3

  2
C
 70
     8
280
     0
  0
ATTDEF
  5
DC
330
CD
100
AcDbEntity
  8
AM_6
100
AcDbText
 10
5.5625
 20
-4.3515625
 30
0.0
 40
0.5
  1
2.8346
100
AcDbAttributeDefinition
  3

  2
D
 70
     8
280
     0
  0
ATTDEF
  5
DD
330
CD
100
AcDbEntity
  8
AM_6
100
AcDbText
 10
5.5625
 20
-4.8515625
 30
0.0
 40
0.5
  1
0.202
100
AcDbAttributeDefinition
  3

  2
J
 70
     8
280
     0
  0
ATTDEF
  5
DE
330
CD
100
AcDbEntity
  8
AM_6
100
AcDbText
 10
5.5625
 20
-5.3515625
 30
0.0
 40
0.5
  1
2-19/64
100
AcDbAttributeDefinition
  3

  2
L
 70
     8
280
     0
  0
ATTDEF
  5
DF
330
CD
100
AcDbEntity
  8
AM_6
100
AcDbText
 10
5.5625
 20
-5.8515625
 30
0.0
 40
0.5
  1
10 - 32 x 1/4
100
AcDbAttributeDefinition
  3

  2
N
 70
     8
280
     0
  0
ATTDEF
  5
E0
330
CD
100
AcDbEntity
  8
AM_6
100
AcDbText
 10
5.5625
 20
-6.3515625
 30
0.0
 40
0.5
  1
9/16
100
AcDbAttributeDefinition
  3

  2
W
 70
     8
280
     0
  0
ATTDEF
  5
E1
330
CD
100
AcDbEntity
  8
AM_6
100
AcDbText
 10
5.5625
 20
-6.8515625
 30
0.0
 40
0.5
  1
1-3/64
100
AcDbAttributeDefinition
  3

  2
X
 70
     8
280
     0
  0
ATTDEF
  5
E2
330
CD
100
AcDbEntity
  8
AM_6
100
AcDbText
 10
5.5625
 20
-7.3515625
 30
0.0
 40
0.5
  1
1-1/16
100
AcDbAttributeDefinition
  3

  2
Y
 70
     8
280
     0
  0
ATTDEF
  5
E3
330
CD
100
AcDbEntity
  8
AM_6
100
AcDbText
 10
5.5625
 20
-7.8515625
 30
0.0
 40
0.5
  1
baldor
100
AcDbAttributeDefinition
  3

  2
COMPANY
 70
     8
280
     0
  0
LWPOLYLINE
  5
E4
330
CD
100
AcDbEntity
  8
AM_9
100
AcDbPolyline
 90
        6
 70
     0
 43
0.0
 10
-1.016955
 20
0.0494406735935924
 10
-1.022162047232826
 20
0.0276490989623733
 10
-1.02446230538222
 20
0.0043007204488114
 10
-1.023554222102198
 20
-0.0176995504781212
 10
-1.019616713405897
 20
-0.0398391566671438
 10
-1.016955
 20
-0.0494406735935925
  0
LWPOLYLINE
  5
E5
330
CD
100
AcDbEntity
  8
AM_9
100
AcDbPolyline
 90
       15
 70
     0
 43
0.0
 10
-0.8486378400107057
 20
0.0333272073787852
 10
-0.8522264758042469
 20
0.0410532064343758
 10
-0.8602202129677053
 20
0.0536543328362847
 10
-0.8701408660299718
 20
0.0648026138139567
 10
-0.8821389378183203
 20
0.0745034579168657
 10
-0.8955437213293599
 20
0.082152876857327
 10
-0.9105646029984064
 20
0.0877153816000789
 10
-0.9262934908490617
 20
0.090768306853826
 10
-0.9427253644505792
 20
0.0911898535765808
 10
-0.959000096137097
 20
0.0888926205192373
 10
-0.9718143757433114
 20
0.0850239603487829
 10
-0.9839763717556953
 20
0.0794414917073965
 10
-0.9954776384129489
 20
0.0720386433505323
 10
-1.005796692482337
 20
0.0630654283959347
 10
-1.016955
 20
0.0494406735935924
  0
LWPOLYLINE
  5
E6
330
CD
100
AcDbEntity
  8
AM_9
100
AcDbPolyline
 90
       14
 70
     0
 43
0.0
 10
-1.016955
 20
-0.0494406735935925
 10
-1.007681198914976
 20
-0.0610992276423012
 10
-0.9966700687263388
 20
-0.0711358319336741
 10
-0.9835738517392322
 20
-0.0796511143016762
 10
-0.9692727940884496
 20
-0.0859492878839269
 10
-0.953598494527258
 20
-0.0899587605402313
 10
-0.9374769790972427
 20
-0.0913595088217311
 10
-0.9210204887843542
 20
-0.0900338043115061
 10
-0.9050166138425
 20
-0.0859916447934983
 10
-0.8899220863435066
 20
-0.0792828850791451
 10
-0.8761938754799482
 20
-0.0701076453411919
 10
-0.8645006734187427
 20
-0.0589044185326829
 10
-0.8549255645228084
 20
-0.0458472119474867
 10
-0.8493476846969084
 20
-0.0350178923136097
  0
CIRCLE
  5
E7
330
CD
100
AcDbEntity
  8
AM_9
100
AcDbCircle
 10
-0.9370834916603167
 20
0.0
 30
0.0
 40
0.0724499999999999
  0
LINE
  5
E8
330
CD
100
AcDbEntity
  8
AM_9
100
AcDbLine
 10
-1.016955
 20
0.0494406735935924
 30
0.0
 11
-1.016955
 21
0.101
 31
0.0
  0
LINE
  5
E9
330
CD
100
AcDbEntity
  8
AM_9
100
AcDbLine
 10
-1.016955
 20
-0.101
 30
0.0
 11
-1.016955
 21
-0.0494406735935925
 31
0.0
  0
LINE
  5
EA
330
CD
100
AcDbEntity
  8
AM_9
100
AcDbLine
 10
-0.5234375000000001
 20
0.87777081126623
 30
0.0
 11
-1.046875
 21
0.87777081126623
 31
0.0
  0
LINE
  5
EB
330
CD
100
AcDbEntity
  8
AM_9
100
AcDbLine
 10
-0.5234375
 20
0.9142073641030667
 30
0.0
 11
-0.5533575
 21
0.9402223468533891
 31
0.0
  0
LINE
  5
EC
330
CD
100
AcDbEntity
  8
AM_9
100
AcDbLine
 10
-0.5533575
 20
0.9402223468533891
 30
0.0
 11
-1.016955
 21
0.9402223468533891
 31
0.0
  0
LINE
  5
ED
330
CD
100
AcDbEntity
  8
AM_9
100
AcDbLine
 10
-1.016955
 20
0.9402223468533891
 30
0.0
 11
-1.046875
 21
0.9142073641030669
 31
0.0
  0
LINE
  5
EE
330
CD
100
AcDbEntity
  8
AM_9
100
AcDbLine
 10
-0.5234375000000001
 20
-0.8777708112662306
 30
0.0
 11
-1.046875
 21
-0.8777708112662306
 31
0.0
  0
LINE
  5
EF
330
CD
100
AcDbEntity
  8
AM_9
100
AcDbLine
 10
-1.046875
 20
-0.9142073641030672
 30
0.0
 11
-1.016955
 21
-0.9402223468533897
 31
0.0
  0
LINE
  5
F0
330
CD
100
AcDbEntity
  8
AM_9
100
AcDbLine
 10
-1.016955
 20
-0.9402223468533897
 30
0.0
 11
-0.5533575
 21
-0.9402223468533895
 31
0.0
  0
LINE
  5
F1
330
CD
100
AcDbEntity
  8
AM_9
100
AcDbLine
 10
-0.5533575
 20
-0.9402223468533895
 30
0.0
 11
-0.5234375000000001
 21
-0.9142073641030672
 31
0.0
  0
LINE
  5
F2
330
CD
100
AcDbEntity
  8
AM_9
100
AcDbLine
 10
-0.5234375
 20
0.9787708112662303
 30
0.0
 11
-1.046875
 21
0.9787708112662303
 31
0.0
  0
LINE
  5
F3
330
CD
100
AcDbEntity
  8
AM_9
100
AcDbLine
 10
-0.5234375
 20
-0.9787708112662304
 30
0.0
 11
-1.046875
 21
-0.9787708112662304
 31
0.0
  0
LINE
  5
F4
330
CD
100
AcDbEntity
  8
AM_9
100
AcDbLine
 10
-0.78515625
 20
0.8567708333333333
 30
0.0
 11
-1.046875
 21
0.8567708333333333
 31
0.0
  0
LINE
  5
F5
330
CD
100
AcDbEntity
  8
AM_9
100
AcDbLine
 10
0.5625
 20
0.7170087604067331
 30
0.0
 11
-1.0625
 21
0.7170087604067331
 31
0.0
  0
LINE
  5
F6
330
CD
100
AcDbEntity
  8
AM_9
100
AcDbLine
 10
-1.0625
 20
-0.71875
 30
0.0
 11
0.5625000000000001
 21
-0.71875
 31
0.0
  0
LINE
  5
F7
330
CD
100
AcDbEntity
  8
AM_9
100
AcDbLine
 10
-0.78515625
 20
0.8553106224353201
 30
0.0
 11
-0.3925781249999992
 21
0.85531062243532
 31
0.0
  0
LINE
  5
F8
330
CD
100
AcDbEntity
  8
AM_9
100
AcDbLine
 10
-0.78515625
 20
-0.8567708333333334
 30
0.0
 11
-0.3925781249999991
 21
-0.8567708333333334
 31
0.0
  0
LINE
  5
F9
330
CD
100
AcDbEntity
  8
AM_9
100
AcDbLine
 10
0.5625
 20
0.8887174864181436
 30
0.0
 11
0.5625
 21
-0.8901228963830687
 31
0.0
  0
LINE
  5
FA
330
CD
100
AcDbEntity
  8
AM_9
100
AcDbLine
 10
-0.3925781249999992
 20
0.85531062243532
 30
0.0
 11
0.5625
 21
0.8887174864181436
 31
0.0
  0
LINE
  5
FB
330
CD
100
AcDbEntity
  8
AM_9
100
AcDbLine
 10
-0.3925781249999992
 20
0.85531062243532
 30
0.0
 11
-0.3925781249999991
 21
-0.8567708333333333
 31
0.0
  0
LINE
  5
FC
330
CD
100
AcDbEntity
  8
AM_9
100
AcDbLine
 10
-0.3925781249999991
 20
-0.8567708333333333
 30
0.0
 11
0.5625
 21
-0.8901228963830687
 31
0.0
  0
LINE
  5
FD
330
CD
100
AcDbEntity
  8
AM_9
100
AcDbLine
 10
-0.654296875
 20
-0.9388020833333331
 30
0.0
 11
-0.5234374999999999
 21
-0.9388020833333331
 31
0.0
  0
LINE
  5
FE
330
CD
100
AcDbEntity
  8
AM_9
100
AcDbLine
 10
-0.5234374999999999
 20
0.9388020833333331
 30
0.0
 11
-0.654296875
 21
0.9388020833333331
 31
0.0
  0
LINE
  5
FF
330
CD
100
AcDbEntity
  8
AM_9
100
AcDbLine
 10
-0.654296875
 20
1.020833333333333
 30
0.0
 11
-0.654296875
 21
-1.020833333333333
 31
0.0
  0
LINE
  5
100
330
CD
100
AcDbEntity
  8
AM_9
100
AcDbLine
 10
-0.78515625
 20
1.020833333333333
 30
0.0
 11
-0.78515625
 21
-1.020833333333333
 31
0.0
  0
LINE
  5
101
330
CD
100
AcDbEntity
  8
AM_9
100
AcDbLine
 10
-0.78515625
 20
-1.020833333333333
 30
0.0
 11
-0.654296875
 21
-1.020833333333333
 31
0.0
  0
LINE
  5
102
330
CD
100
AcDbEntity
  8
AM_9
100
AcDbLine
 10
-0.654296875
 20
1.020833333333333
 30
0.0
 11
-0.78515625
 21
1.020833333333333
 31
0.0
  0
LINE
  5
103
330
CD
100
AcDbEntity
  8
AM_9
100
AcDbLine
 10
-0.6962623356122124
 20
-0.101
 30
0.0
 11
-0.5234374999999999
 21
-0.101
 31
0.0
  0
LINE
  5
104
330
CD
100
AcDbEntity
  8
AM_9
100
AcDbLine
 10
-0.5533575
 20
-1.041222346853389
 30
0.0
 11
-1.016955
 21
-1.041222346853389
 31
0.0
  0
LINE
  5
105
330
CD
100
AcDbEntity
  8
AM_9
100
AcDbLine
 10
-0.9255500101925256
 20
-1.1484375
 30
0.0
 11
-0.5533575
 21
-1.1484375
 31
0.0
  0
LINE
  5
106
330
CD
100
AcDbEntity
  8
AM_9
100
AcDbLine
 10
-0.5234374999999999
 20
0.101
 30
0.0
 11
-0.6821371195996232
 21
0.101
 31
0.0
  0
LINE
  5
107
330
CD
100
AcDbEntity
  8
AM_9
100
AcDbLine
 10
-0.5533575
 20
1.041222346853389
 30
0.0
 11
-0.5234374999999999
 21
1.015207364103067
 31
0.0
  0
LINE
  5
108
330
CD
100
AcDbEntity
  8
AM_9
100
AcDbLine
 10
-0.5234374999999999
 20
1.1185175
 30
0.0
 11
-0.5533575
 21
1.1484375
 31
0.0
  0
LINE
  5
109
330
CD
100
AcDbEntity
  8
AM_9
100
AcDbLine
 10
-0.5234374999999999
 20
1.1185175
 30
0.0
 11
-0.5234374999999999
 21
-1.1185175
 31
0.0
  0
LINE
  5
10A
330
CD
100
AcDbEntity
  8
AM_9
100
AcDbLine
 10
-0.5234374999999999
 20
-1.015207364103067
 30
0.0
 11
-0.5533575
 21
-1.041222346853389
 31
0.0
  0
LINE
  5
10B
330
CD
100
AcDbEntity
  8
AM_9
100
AcDbLine
 10
-0.5533575
 20
-1.1484375
 30
0.0
 11
-0.5234374999999999
 21
-1.1185175
 31
0.0
  0
LINE
  5
10C
330
CD
100
AcDbEntity
  8
AM_9
100
AcDbLine
 10
-1.016955
 20
1.041222346853389
 30
0.0
 11
-0.5533575
 21
1.041222346853389
 31
0.0
  0
LINE
  5
10D
330
CD
100
AcDbEntity
  8
AM_9
100
AcDbLine
 10
-0.5533575
 20
1.1484375
 30
0.0
 11
-0.6088931545145426
 21
1.1484375
 31
0.0
  0
LINE
  5
10E
330
CD
100
AcDbEntity
  8
AM_9
100
AcDbLine
 10
-0.5533575
 20
1.1484375
 30
0.0
 11
-0.5533575
 21
-1.1484375
 31
0.0
  0
LINE
  5
10F
330
CD
100
AcDbEntity
  8
AM_9
100
AcDbLine
 10
-1.016955
 20
-1.041222346853389
 30
0.0
 11
-1.046875
 21
-1.015207364103067
 31
0.0
  0
LINE
  5
110
330
CD
100
AcDbEntity
  8
AM_9
100
AcDbLine
 10
-1.046875
 20
1.015207364103067
 30
0.0
 11
-1.016955
 21
1.041222346853389
 31
0.0
  0
LINE
  5
113
330
CD
100
AcDbEntity
  8
AM_7
100
AcDbLine
 10
-0.9370834916603167
 20
-0.0997500000000001
 30
0.0
 11
-0.9370834916603167
 21
0.0997500000000001
 31
0.0
  0
LINE
  5
115
330
CD
100
AcDbEntity
  8
AM_4
100
AcDbLine
 10
-1.0625
 20
0.8553106224353197
 30
0.0
 11
-1.0625
 21
-0.8567708333333331
 31
0.0
  0
LINE
  5
116
330
CD
100
AcDbEntity
  8
AM_4
100
AcDbLine
 10
-1.0625
 20
0.8553106224353197
 30
0.0
 11
-1.046875
 21
0.8553106224353195
 31
0.0
  0
LINE
  5
117
330
CD
100
AcDbEntity
  8
AM_4
100
AcDbLine
 10
-1.0625
 20
-0.8567708333333331
 30
0.0
 11
-1.046875
 21
-0.8567708333333331
 31
0.0
  0
LINE
  5
118
330
CD
100
AcDbEntity
  8
AM_4
100
AcDbLine
 10
-1.046875
 20
-0.101
 30
0.0
 11
-0.6962623356122124
 21
-0.101
 31
0.0
  0
LINE
  5
119
330
CD
100
AcDbEntity
  8
AM_4
100
AcDbLine
 10
-1.016955
 20
-1.1484375
 30
0.0
 11
-0.9255500101925256
 21
-1.1484375
 31
0.0
  0
LINE
  5
11A
330
CD
100
AcDbEntity
  8
AM_4
100
AcDbLine
 10
-0.6821371195996232
 20
0.101
 30
0.0
 11
-1.046875
 21
0.101
 31
0.0
  0
LINE
  5
11B
330
CD
100
AcDbEntity
  8
AM_4
100
AcDbLine
 10
-0.6088931545145426
 20
1.1484375
 30
0.0
 11
-1.016955
 21
1.1484375
 31
0.0
  0
LINE
  5
11C
330
CD
100
AcDbEntity
  8
AM_4
100
AcDbLine
 10
-1.016955
 20
-0.101
 30
0.0
 11
-1.016955
 21
-1.1484375
 31
0.0
  0
LINE
  5
11D
330
CD
100
AcDbEntity
  8
AM_4
100
AcDbLine
 10
-1.046875
 20
1.1185175
 30
0.0
 11
-1.046875
 21
-1.1185175
 31
0.0
  0
LINE
  5
11E
330
CD
100
AcDbEntity
  8
AM_4
100
AcDbLine
 10
-1.046875
 20
-1.1185175
 30
0.0
 11
-1.016955
 21
-1.1484375
 31
0.0
  0
LINE
  5
11F
330
CD
100
AcDbEntity
  8
AM_4
100
AcDbLine
 10
-1.016955
 20
1.1484375
 30
0.0
 11
-1.046875
 21
1.1185175
 31
0.0
  0
LINE
  5
120
330
CD
100
AcDbEntity
  8
AM_4
100
AcDbLine
 10
-1.016955
 20
1.1484375
 30
0.0
 11
-1.016955
 21
0.101
 31
0.0
  0
ARC
  5
122
330
CD
100
AcDbEntity
  8
AM_5
100
AcDbCircle
 10
-0.9370834916603168
 20
0.0
 30
0.0
 40
0.0950000000000001
100
AcDbArc
 50
74.99999999999994
 51
15.00000000000002
  0
ENDBLK
  5
D0
330
CD
100
AcDbEntity
  8
0
100
AcDbBlockEnd
  0
BLOCK
  5
125
330
123
100
AcDbEntity
  8
0
100
AcDbBlockBegin
  2
4_129460I_0_in_129284_2
 70
     2
 10
0.0
 20
0.0
 30
0.0
  3
4_129460I_0_in_129284_2
  1

  0
ATTDEF
  5
127
330
123
100
AcDbEntity
  8
AM_6
100
AcDbText
 10
6.03125
 20
1.875
 30
0.0
 40
0.5
  1
TB-GT-I
100
AcDbAttributeDefinition
  3

  2
NN
 70
     8
280
     0
  0
ATTDEF
  5
128
330
123
100
AcDbEntity
  8
AM_6
100
AcDbText
 10
6.03125
 20
1.375
 30
0.0
 40
0.5
  1
GT Normal Duty Tapped Base Pillow Blocks
100
AcDbAttributeDefinition
  3

  2
NT
 70
     8
280
     0
  0
ATTDEF
  5
129
330
123
100
AcDbEntity
  8
AM_6
100
AcDbText
 10
6.03125
 20
0.875
 30
0.0
 40
0.5
  1
129460I
100
AcDbAttributeDefinition
  3

  2
NB
 70
     8
280
     0
  0
ATTDEF
  5
12A
330
123
100
AcDbEntity
  8
AM_6
100
AcDbText
 10
6.03125
 20
0.375
 30
0.0
 40
0.5
  1
$PN.$LUBE.I
100
AcDbAttributeDefinition
  3

  2
NBSYN
 70
     8
280
     0
  0
ATTDEF
  5
12B
330
123
100
AcDbEntity
  8
AM_6
100
AcDbText
 10
6.03125
 20
-0.125
 30
0.0
 40
0.5
  1
129460
100
AcDbAttributeDefinition
  3

  2
LINA
 70
     8
280
     0
  0
ATTDEF
  5
12C
330
123
100
AcDbEntity
  8
AM_6
100
AcDbText
 10
6.03125
 20
-0.625
 30
0.0
 40
0.5
  1
207
100
AcDbAttributeDefinition
  3

  2
SERIES
 70
     8
280
     0
  0
ATTDEF
  5
12D
330
123
100
AcDbEntity
  8
AM_6
100
AcDbText
 10
6.03125
 20
-1.125
 30
0.0
 40
0.5
  1
129460
100
AcDbAttributeDefinition
  3

  2
PN
 70
     8
280
     0
  0
ATTDEF
  5
12E
330
123
100
AcDbEntity
  8
AM_6
100
AcDbText
 10
6.03125
 20
-1.625
 30
0.0
 40
0.5
  1
TB-GT-07
100
AcDbAttributeDefinition
  3

  2
DESCRIPTION
 70
     8
280
     0
  0
ATTDEF
  5
12F
330
123
100
AcDbEntity
  8
AM_6
100
AcDbText
 10
6.03125
 20
-2.125
 30
0.0
 40
0.5
  1
1-5/8
100
AcDbAttributeDefinition
  3

  2
A
 70
     8
280
     0
  0
ATTDEF
  5
130
330
123
100
AcDbEntity
  8
AM_6
100
AcDbText
 10
6.03125
 20
-2.625
 30
0.0
 40
0.5
  1
4-1/4
100
AcDbAttributeDefinition
  3

  2
B
 70
     8
280
     0
  0
ATTDEF
  5
131
330
123
100
AcDbEntity
  8
AM_6
100
AcDbText
 10
6.03125
 20
-3.125
 30
0.0
 40
0.5
  1
1-7/8
100
AcDbAttributeDefinition
  3

  2
C
 70
     8
280
     0
  0
ATTDEF
  5
132
330
123
100
AcDbEntity
  8
AM_6
100
AcDbText
 10
6.03125
 20
-3.625
 30
0.0
 40
0.5
  1
3-1/4
100
AcDbAttributeDefinition
  3

  2
D
 70
     8
280
     0
  0
ATTDEF
  5
133
330
123
100
AcDbEntity
  8
AM_6
100
AcDbText
 10
6.03125
 20
-4.125
 30
0.0
 40
0.5
  1
3-3/4
100
AcDbAttributeDefinition
  3

  2
J
 70
     8
280
     0
  0
ATTDEF
  5
134
330
123
100
AcDbEntity
  8
AM_6
100
AcDbText
 10
6.03125
 20
-4.625
 30
0.0
 40
0.5
  1
2-19/64
100
AcDbAttributeDefinition
  3

  2
L
 70
     8
280
     0
  0
ATTDEF
  5
135
330
123
100
AcDbEntity
  8
AM_6
100
AcDbText
 10
6.03125
 20
-5.125
 30
0.0
 40
0.5
  1
1-7/8
100
AcDbAttributeDefinition
  3

  2
M
 70
     8
280
     0
  0
ATTDEF
  5
136
330
123
100
AcDbEntity
  8
AM_6
100
AcDbText
 10
6.03125
 20
-5.625
 30
0.0
 40
0.5
  1
3/4
100
AcDbAttributeDefinition
  3

  2
N
 70
     8
280
     0
  0
ATTDEF
  5
137
330
123
100
AcDbEntity
  8
AM_6
100
AcDbText
 10
6.03125
 20
-6.125
 30
0.0
 40
0.5
  1
1/2-13
100
AcDbAttributeDefinition
  3

  2
R
 70
     8
280
     0
  0
ATTDEF
  5
138
330
123
100
AcDbEntity
  8
AM_6
100
AcDbText
 10
6.03125
 20
-6.625
 30
0.0
 40
0.5
  1
1-1/16
100
AcDbAttributeDefinition
  3

  2
S
 70
     8
280
     0
  0
ATTDEF
  5
139
330
123
100
AcDbEntity
  8
AM_6
100
AcDbText
 10
6.03125
 20
-7.125
 30
0.0
 40
0.5
  1
1-3/64
100
AcDbAttributeDefinition
  3

  2
Z
 70
     8
280
     0
  0
ATTDEF
  5
13A
330
123
100
AcDbEntity
  8
AM_6
100
AcDbText
 10
6.03125
 20
-7.625
 30
0.0
 40
0.5
  1
baldor
100
AcDbAttributeDefinition
  3

  2
COMPANY
 70
     8
280
     0
  0
LINE
  5
13B
330
123
100
AcDbEntity
  8
AM_9
100
AcDbLine
 10
-0.386319
 20
1.6751975
 30
0.0
 11
-0.5720585070551792
 21
1.675197500000001
 31
0.0
  0
LINE
  5
13C
330
123
100
AcDbEntity
  8
AM_9
100
AcDbLine
 10
-0.386319
 20
1.6169285220588
 30
0.0
 11
-0.576133070917814
 21
1.6169285220588
 31
0.0
  0
LINE
  5
13D
330
123
100
AcDbEntity
  8
AM_9
100
AcDbLine
 10
-0.386319
 20
1.6606303
 30
0.0
 11
-0.5730771449101226
 21
1.660630300000001
 31
0.0
  0
LINE
  5
13E
330
123
100
AcDbEntity
  8
AM_9
100
AcDbLine
 10
-0.386319
 20
1.573226608696
 30
0.0
 11
-0.5791890063951061
 21
1.573226608696
 31
0.0
  0
LINE
  5
13F
330
123
100
AcDbEntity
  8
AM_9
100
AcDbLine
 10
-0.386319
 20
1.7043322
 30
0.0
 11
-0.5700212103672486
 21
1.7043322
 31
0.0
  0
LINE
  5
140
330
123
100
AcDbEntity
  8
AM_9
100
AcDbLine
 10
-0.386319
 20
1.596534495298
 30
0.0
 11
-0.5775591601918874
 21
1.596534495298
 31
0.0
  0
LINE
  5
141
330
123
100
AcDbEntity
  8
AM_9
100
AcDbLine
 10
-0.386319
 20
1.6052746968681
 30
0.0
 11
-0.5769479857603466
 21
1.6052746968681
 31
0.0
  0
LINE
  5
142
330
123
100
AcDbEntity
  8
AM_9
100
AcDbLine
 10
-0.386319
 20
1.6285823078794
 30
0.0
 11
-0.575318158828307
 21
1.6285823078794
 31
0.0
  0
LINE
  5
143
330
123
100
AcDbEntity
  8
AM_9
100
AcDbLine
 10
-0.386319
 20
1.6810243
 30
0.0
 11
-0.5716510575073467
 21
1.6810243
 31
0.0
  0
LINE
  5
144
330
123
100
AcDbEntity
  8
AM_9
100
AcDbLine
 10
-0.386319
 20
1.698505
 30
0.0
 11
-0.5704286878858057
 21
1.698505000000001
 31
0.0
  0
LINE
  5
145
330
123
100
AcDbEntity
  8
AM_9
100
AcDbLine
 10
-0.386319
 20
1.579053777197
 30
0.0
 11
-0.5787815310791735
 21
1.579053777197
 31
0.0
  0
LINE
  5
146
330
123
100
AcDbEntity
  8
AM_9
100
AcDbLine
 10
-0.386319
 20
1.6868514
 30
0.0
 11
-0.5712435869814706
 21
1.6868514
 31
0.0
  0
LINE
  5
147
330
123
100
AcDbEntity
  8
AM_9
100
AcDbLine
 10
-0.386319
 20
1.590707326797
 30
0.0
 11
-0.57796663550782
 21
1.590707326797
 31
0.0
  0
LINE
  5
148
330
123
100
AcDbEntity
  8
AM_9
100
AcDbLine
 10
-0.386319
 20
1.64606302
 30
0.0
 11
-0.5740957883592112
 21
1.64606302
 31
0.0
  0
LINE
  5
149
330
123
100
AcDbEntity
  8
AM_9
100
AcDbLine
 10
-0.386319
 20
1.6722841
 30
0.0
 11
-0.5722622318290954
 21
1.6722841
 31
0.0
  0
LINE
  5
14A
330
123
100
AcDbEntity
  8
AM_9
100
AcDbLine
 10
-0.386319
 20
1.602361270098
 30
0.0
 11
-0.5771517124062105
 21
1.602361270098
 31
0.0
  0
LINE
  5
14B
330
123
100
AcDbEntity
  8
AM_9
100
AcDbLine
 10
-0.386319
 20
1.6344092401598
 30
0.0
 11
-0.5749107000305278
 21
1.6344092401598
 31
0.0
  0
LINE
  5
14C
330
123
100
AcDbEntity
  8
AM_9
100
AcDbLine
 10
-0.386319
 20
1.6518899
 30
0.0
 11
-0.5736883332172337
 21
1.6518899
 31
0.0
  0
LINE
  5
14D
330
123
100
AcDbEntity
  8
AM_9
100
AcDbLine
 10
-0.386319
 20
1.570313221296
 30
0.0
 11
-0.386319
 21
1.7072455
 31
0.0
  0
LINE
  5
14E
330
123
100
AcDbEntity
  8
AM_9
100
AcDbLine
 10
-0.386319
 20
1.6897648
 30
0.0
 11
-0.5710398622075544
 21
1.6897648
 31
0.0
  0
LINE
  5
14F
330
123
100
AcDbEntity
  8
AM_9
100
AcDbLine
 10
-0.386319
 20
1.587793939397
 30
0.0
 11
-0.5781703594006584
 21
1.587793939397
 31
0.0
  0
LINE
  5
150
330
123
100
AcDbEntity
  8
AM_9
100
AcDbLine
 10
-0.386319
 20
1.7072455
 30
0.0
 11
-0.5698174925860136
 21
1.7072455
 31
0.0
  0
LINE
  5
151
330
123
100
AcDbEntity
  8
AM_9
100
AcDbLine
 10
-0.386319
 20
1.570313221296
 30
0.0
 11
-0.5793927302879445
 21
1.570313221296
 31
0.0
  0
LINE
  5
152
330
123
100
AcDbEntity
  8
AM_9
100
AcDbLine
 10
-0.8150679891042367
 20
-1.8
 30
0.0
 11
0.8150679891042367
 21
-1.8
 31
0.0
  0
LINE
  5
153
330
123
100
AcDbEntity
  8
AM_9
100
AcDbLine
 10
0.8203125
 20
-1.875
 30
0.0
 11
0.7640259179612362
 21
-1.070064375532607
 31
0.0
  0
LINE
  5
154
330
123
100
AcDbEntity
  8
AM_9
100
AcDbLine
 10
-0.7640259179612365
 20
-1.070064375532608
 30
0.0
 11
-0.8203125
 21
-1.875
 31
0.0
  0
LWPOLYLINE
  5
155
330
123
100
AcDbEntity
  8
AM_9
100
AcDbPolyline
 90
        3
 70
     0
 43
0.0
 10
-0.0365238262057497
 20
1.505140755650576
 10
-0.0487586048861114
 20
1.506445348449711
 10
-0.0909214090671168
 20
1.513380177147698
  0
LINE
  5
156
330
123
100
AcDbEntity
  8
AM_9
100
AcDbLine
 10
-0.0337912097783219
 20
1.5048976931451
 30
0.0
 11
-0.0365238262057497
 21
1.505140755650576
 31
0.0
  0
LWPOLYLINE
  5
157
330
123
100
AcDbEntity
  8
AM_9
100
AcDbPolyline
 90
        5
 70
     0
 43
0.0
 10
0.0363398414299346
 20
1.505123826341112
 10
0.0184870563376661
 20
1.503882967736083
 10
-0.0064626251340283
 20
1.503488415564823
 10
-0.0276849305747581
 20
1.504423449527636
 10
-0.0337912097783219
 20
1.5048976931451
  0
LWPOLYLINE
  5
158
330
123
100
AcDbEntity
  8
AM_9
100
AcDbPolyline
 90
        4
 70
     0
 43
0.0
 10
0.0909214090671169
 20
1.513380177147698
 10
0.0672781935618202
 20
1.509056184977339
 10
0.0432967219144129
 20
1.505819882596791
 10
0.0363398414299346
 20
1.505123826341112
  0
LINE
  5
159
330
123
100
AcDbEntity
  8
AM_9
100
AcDbLine
 10
0.090921409067117
 20
1.590924222617001
 30
0.0
 11
0.0909214090671169
 21
1.513380177147698
 31
0.0
  0
LINE
  5
15A
330
123
100
AcDbEntity
  8
AM_9
100
AcDbLine
 10
-0.0909214090671168
 20
1.590924222617001
 30
0.0
 11
-0.0909214090671168
 21
1.513380177147698
 31
0.0
  0
LINE
  5
15B
330
123
100
AcDbEntity
  8
AM_9
100
AcDbLine
 10
-0.7883069981734552
 20
-1.4173
 30
0.0
 11
0.7883069981734546
 21
-1.4173
 31
0.0
  0
LINE
  5
15C
330
123
100
AcDbEntity
  8
AM_9
100
AcDbLine
 10
0.5900924570383798
 20
1.4173
 30
0.0
 11
-0.5900924570383806
 21
1.4173
 31
0.0
  0
LINE
  5
15D
330
123
100
AcDbEntity
  8
AM_9
100
AcDbLine
 10
-0.0787401999999999
 20
1.392078568838868
 30
0.0
 11
-0.0787401999999999
 21
1.372392629454539
 31
0.0
  0
LINE
  5
15E
330
123
100
AcDbEntity
  8
AM_9
100
AcDbLine
 10
0.0787402
 20
1.372387247365995
 30
0.0
 11
0.0787402
 21
1.392078568838868
 31
0.0
  0
LWPOLYLINE
  5
15F
330
123
100
AcDbEntity
  8
AM_9
100
AcDbPolyline
 90
       20
 70
     0
 43
0.0
 10
0.0787401997355222
 20
1.372389386334996
 10
0.0782318618207028
 20
1.378169304999125
 10
0.0756081920780311
 20
1.386543072901358
 10
0.0708466864438369
 20
1.394464234022517
 10
0.0640341203073179
 20
1.401727286634787
 10
0.0553968858290762
 20
1.408130535886362
 10
0.045166729386941
 20
1.41348581113921
 10
0.0336427074360922
 20
1.417676359727979
 10
0.0212060644671638
 20
1.420562893802388
 10
0.0081636402068215
 20
1.42211370992294
 10
-0.0050340654749846
 20
1.422272562701187
 10
-0.0180893822900585
 20
1.421067870971925
 10
-0.0306010542774696
 20
1.418519204206538
 10
-0.0422550020334095
 20
1.41470887674756
 10
-0.0527490222315674
 20
1.409697605501205
 10
-0.0617662696529228
 20
1.403641300218859
 10
-0.0690776491935267
 20
1.396635255640672
 10
-0.0744427392892311
 20
1.388910735639629
 10
-0.0776933611000702
 20
1.380627603995315
 10
-0.0787401999328198
 20
1.372391460869569
  0
LWPOLYLINE
  5
160
330
123
100
AcDbEntity
  8
AM_9
100
AcDbPolyline
 90
       11
 70
     0
 43
0.0
 10
-0.0787401999328198
 20
1.372391460869569
 10
-0.0787384358998961
 20
1.372051936067794
 10
-0.0775142810721569
 20
1.363421256214229
 10
-0.0740833193572522
 20
1.354985022283723
 10
-0.068528210777739
 20
1.347019033950782
 10
-0.0610263078493484
 20
1.339731319007298
 10
-0.0517944431100906
 20
1.33337474527871
 10
-0.0410967050623645
 20
1.32810905113896
 10
-0.029240747524001
 20
1.324122466634182
 10
-0.0165594008762621
 20
1.32151139650093
 10
0.0000000000000001
 20
1.320324243576411
  0
LWPOLYLINE
  5
161
330
123
100
AcDbEntity
  8
AM_9
100
AcDbPolyline
 90
        8
 70
     0
 43
0.0
 10
-0.0909214090671168
 20
1.513380177147698
 10
-0.1027422972436636
 20
1.49457884332688
 10
-0.1147322946503925
 20
1.476657938189252
 10
-0.1271363197084209
 20
1.459529155122439
 10
-0.1396103603997986
 20
1.443856769536761
 10
-0.1502222661810514
 20
1.431794703207636
 10
-0.1607598570626932
 20
1.420910690972394
 10
-0.1818428181342336
 20
1.40202464769305
  0
LWPOLYLINE
  5
162
330
123
100
AcDbEntity
  8
AM_9
100
AcDbPolyline
 90
        8
 70
     0
 43
0.0
 10
0.1818428181342338
 20
1.40202464769305
 10
0.1700219299576869
 20
1.41217845821127
 10
0.158031932550958
 20
1.423626928737422
 10
0.1456279074929296
 20
1.436881677819475
 10
0.1331538668015519
 20
1.451764326958387
 10
0.1225419610202992
 20
1.465696014991821
 10
0.1120043701386575
 20
1.480623723534806
 10
0.0909214090671169
 20
1.513380177147698
  0
ELLIPSE
  5
163
330
123
100
AcDbEntity
  8
AM_9
100
AcDbEllipse
 10
0.0000000000000001
 20
1.392078568838867
 30
0.0
 11
0.1574800000000005
 21
0.0
 31
0.0
210
0.0
220
0.0
230
1.0
 40
0.7071067811865465
 41
0.0
 42
6.283185307179586
  0
ELLIPSE
  5
164
330
123
100
AcDbEntity
  8
AM_9
100
AcDbEllipse
 10
0.0000000000000001
 20
1.489514772016536
 30
0.0
 11
-0.1102360000000002
 21
1.350001645508078E-17
 31
0.0
210
0.0
220
0.0
230
1.0
 40
0.7071067811865475
 41
3.141592653589793
 42
6.283185307179586
  0
ELLIPSE
  5
165
330
123
100
AcDbEntity
  8
AM_9
100
AcDbEllipse
 10
0.000000000000907
 20
1.503434169003764
 30
0.0
 11
-0.1102360000010921
 21
1.350001645521451E-17
 31
0.0
210
0.0
220
0.0
230
1.0
 40
0.7071067811865467
 41
3.717427293032788
 42
5.705405428600195
  0
LINE
  5
166
330
123
100
AcDbEntity
  8
AM_9
100
AcDbLine
 10
0.090921409067117
 20
1.590924222617001
 30
0.0
 11
0.1003398669071484
 21
1.582919737960482
 31
0.0
  0
LINE
  5
167
330
123
100
AcDbEntity
  8
AM_9
100
AcDbLine
 10
0.0879842062656708
 20
1.591516454666384
 30
0.0
 11
0.090921409067117
 21
1.590924222617001
 31
0.0
  0
LWPOLYLINE
  5
168
330
123
100
AcDbEntity
  8
AM_9
100
AcDbPolyline
 90
        8
 70
     0
 43
0.0
 10
-0.0877553464371423
 20
1.591561979679509
 10
-0.0672781935618202
 20
1.595248214787361
 10
-0.0432967219144131
 20
1.598484517167908
 10
-0.0184870563376664
 20
1.600421432028616
 10
0.0064626251340278
 20
1.600815984199876
 10
0.0276849305747578
 20
1.599880950237064
 10
0.0487586048861112
 20
1.597859051314988
 10
0.0879842062656708
 20
1.591516454666384
  0
LINE
  5
169
330
123
100
AcDbEntity
  8
AM_9
100
AcDbLine
 10
-0.0909214090671168
 20
1.590924222617001
 30
0.0
 11
-0.0877553464371423
 21
1.591561979679509
 31
0.0
  0
LINE
  5
16A
330
123
100
AcDbEntity
  8
AM_9
100
AcDbLine
 10
-0.1002059706623021
 20
1.583038154822337
 30
0.0
 11
-0.0909214090671168
 21
1.590924222617001
 31
0.0
  0
ELLIPSE
  5
16B
330
123
100
AcDbEntity
  8
AM_9
100
AcDbEllipse
 10
-0.0000000000003845
 20
1.489514772016882
 30
0.0
 11
-0.1574799999993787
 21
1.928573779289643E-17
 31
0.0
210
0.0
220
0.0
230
1.0
 40
0.7071067811865479
 41
4.018835764494984
 42
5.406351190532594
  0
LWPOLYLINE
  5
16C
330
123
100
AcDbEntity
  8
AM_9
100
AcDbPolyline
 90
       42
 70
     0
 43
0.0
 10
-0.0605176822162594
 20
1.516006981627079
 10
-0.0652143015900697
 20
1.519322438713932
 10
-0.0699263604743988
 20
1.523390688045928
 10
-0.0734904764787255
 20
1.527279269682706
 10
-0.0759912244471538
 20
1.530827806398546
 10
-0.0775742523109386
 20
1.533931262355744
 10
-0.0784281270322972
 20
1.536594665298914
 10
-0.0787229502296656
 20
1.539070318388344
 10
-0.0782731583183695
 20
1.542428990607142
 10
-0.0772308806924361
 20
1.5452471809527
 10
-0.0754224188589715
 20
1.548471101188057
 10
-0.0727266669252221
 20
1.552034889071934
 10
-0.0686556457626247
 20
1.556195961488977
 10
-0.0634607749208369
 20
1.560381457802274
 10
-0.057154357471253
 20
1.564438291559407
 10
-0.0497889853070119
 20
1.568212754442783
 10
-0.0414730463204929
 20
1.571553028997034
 10
-0.0323403404470833
 20
1.574330685873868
 10
-0.0225525280545459
 20
1.576439170544752
 10
-0.0122962402736474
 20
1.577796596501027
 10
-0.0017760992421139
 20
1.57834910505562
 10
0.0087922578145573
 20
1.578073063822436
 10
0.0191865333802917
 20
1.576976822220951
 10
0.0291855883407758
 20
1.575102369225497
 10
0.0385853427102183
 20
1.572523709611612
 10
0.0472011751244562
 20
1.569345673474625
 10
0.0548762151400747
 20
1.565701593815509
 10
0.0614901881867304
 20
1.561749133991095
 10
0.0669683318168278
 20
1.557663452735056
 10
0.0712797910535649
 20
1.553636931322202
 10
0.0744650769580044
 20
1.54984930042919
 10
0.0766307505259365
 20
1.546446153454978
 10
0.0779403836458473
 20
1.543502869108458
 10
0.0785875575526018
 20
1.540953178206884
 10
0.078693759257285
 20
1.53837830294384
 10
0.0782088208167803
 20
1.535735789903068
 10
0.0770985291242863
 20
1.5328677583533
 10
0.0752133963533361
 20
1.529609523576267
 10
0.072430894267469
 20
1.526019183468666
 10
0.0682680952716277
 20
1.5218514124881
 10
0.062980349468981
 20
1.517670844312258
 10
0.0618086349329786
 20
1.516860326077366
  0
ELLIPSE
  5
16D
330
123
100
AcDbEntity
  8
AM_9
100
AcDbEllipse
 10
0.0000000000000001
 20
1.567220416070511
 30
0.0
 11
-0.09501647773244967
 21
1.415855862399032E-9
 31
0.0
210
0.0
220
0.0
230
1.0
 40
0.7071067811865469
 41
2.141236162749964
 42
7.328391025037689
  0
ELLIPSE
  5
16E
330
123
100
AcDbEntity
  8
AM_9
100
AcDbEllipse
 10
0.0
 20
1.582853813844587
 30
0.0
 11
-0.09889033813688718
 21
1.211057360659383E-17
 31
0.0
210
0.0
220
0.0
230
1.0
 40
0.7071067811865492
 41
3.630774516546722
 42
5.802371652415648
  0
ELLIPSE
  5
16F
330
123
100
AcDbEntity
  8
AM_9
100
AcDbEllipse
 10
0.0000000000001034
 20
1.620632685105788
 30
0.0
 11
-0.07418013027120965
 21
9.084445909697058E-18
 31
0.0
210
0.0
220
0.0
230
1.0
 40
0.7071067811861711
 41
3.647874301237284
 42
3.737488516567125
  0
LINE
  5
170
330
123
100
AcDbEntity
  8
AM_9
100
AcDbLine
 10
0.2161500000000002
 20
-1.841149999999998
 30
0.0
 11
0.2161500000000002
 21
-0.9750000000000028
 31
0.0
  0
LINE
  5
171
330
123
100
AcDbEntity
  8
AM_9
100
AcDbLine
 10
-0.21615
 20
-0.9750000000000028
 30
0.0
 11
-0.21615
 21
-1.841149999999998
 31
0.0
  0
LINE
  5
172
330
123
100
AcDbEntity
  8
AM_9
100
AcDbLine
 10
-0.21615
 20
-0.9750000000000028
 30
0.0
 11
0.2161500000000002
 21
-0.9750000000000028
 31
0.0
  0
LINE
  5
173
330
123
100
AcDbEntity
  8
AM_9
100
AcDbLine
 10
0.0000000000000001
 20
-0.8502057393146576
 30
0.0
 11
-0.21615
 21
-0.9750000000000028
 31
0.0
  0
LINE
  5
174
330
123
100
AcDbEntity
  8
AM_9
100
AcDbLine
 10
0.2161500000000002
 20
-0.9750000000000028
 30
0.0
 11
0.0000000000000001
 21
-0.8502057393146576
 31
0.0
  0
LINE
  5
175
330
123
100
AcDbEntity
  8
AM_9
100
AcDbLine
 10
-0.21615
 20
-1.841149999999998
 30
0.0
 11
0.2161500000000002
 21
-1.841149999999998
 31
0.0
  0
LINE
  5
176
330
123
100
AcDbEntity
  8
AM_9
100
AcDbLine
 10
-0.21615
 20
-1.841149999999998
 30
0.0
 11
-0.25
 21
-1.875
 31
0.0
  0
LINE
  5
177
330
123
100
AcDbEntity
  8
AM_9
100
AcDbLine
 10
0.2500000000000002
 20
-1.875
 30
0.0
 11
0.2161500000000002
 21
-1.841149999999998
 31
0.0
  0
LWPOLYLINE
  5
178
330
123
100
AcDbEntity
  8
AM_9
100
AcDbPolyline
 90
       11
 70
     0
 43
0.0
 10
0.0000000000000001
 20
1.320324243576411
 10
0.0132050575494421
 20
1.32108177384686
 10
0.0260378437436316
 20
1.32330858102607
 10
0.0381261886565
 20
1.326954829391797
 10
0.0491401329741125
 20
1.331885867337286
 10
0.0587520138114828
 20
1.337965673608028
 10
0.066709925873176
 20
1.344990283240575
 10
0.0727703000042618
 20
1.352764010235613
 10
0.0767842468667298
 20
1.361039134799894
 10
0.0786142367871592
 20
1.369595930035838
 10
0.0787401997355222
 20
1.372389386334996
  0
LINE
  5
179
330
123
100
AcDbEntity
  8
AM_5
100
AcDbLine
 10
0.2500000000000001
 20
-1.125
 30
0.0
 11
0.2161500000000001
 21
-1.066370080163794
 31
0.0
  0
LINE
  5
17A
330
123
100
AcDbEntity
  8
AM_5
100
AcDbLine
 10
0.2500000000000001
 20
-1.875
 30
0.0
 11
0.2500000000000001
 21
-1.125
 31
0.0
  0
LINE
  5
17B
330
123
100
AcDbEntity
  8
AM_5
100
AcDbLine
 10
0.2500000000000001
 20
-1.125
 30
0.0
 11
-0.2500000000000001
 21
-1.125
 31
0.0
  0
LINE
  5
17C
330
123
100
AcDbEntity
  8
AM_5
100
AcDbLine
 10
-0.2500000000000001
 20
-1.875
 30
0.0
 11
-0.2500000000000001
 21
-1.125
 31
0.0
  0
LINE
  5
17D
330
123
100
AcDbEntity
  8
AM_5
100
AcDbLine
 10
-0.2500000000000001
 20
-1.125
 30
0.0
 11
-0.2161499999999999
 21
-1.066370080163792
 31
0.0
  0
ELLIPSE
  5
17E
330
123
100
AcDbEntity
  8
AM_9
100
AcDbEllipse
 10
0.0000000000000001
 20
1.392078568838868
 30
0.0
 11
-0.0787402
 21
9.642893389422241E-18
 31
0.0
210
0.0
220
0.0
230
1.0
 40
0.7071067811865506
 41
0.0
 42
6.283185307179586
  0
LINE
  5
17F
330
123
100
AcDbEntity
  8
AM_7
100
AcDbLine
 10
1.03125
 20
0.0
 30
0.0
 11
-1.14375
 21
0.0
 31
0.0
  0
LINE
  5
180
330
123
100
AcDbEntity
  8
AM_7
100
AcDbLine
 10
-0.0000000000000001
 20
-0.7989660262803956
 30
0.0
 11
-0.0000000000000001
 21
-1.926239713034267
 31
0.0
  0
LINE
  5
181
330
123
100
AcDbEntity
  8
AM_4
100
AcDbLine
 10
-0.1102360000000002
 20
1.503434169004193
 30
0.0
 11
-0.1102360000000002
 21
1.489514772016536
 31
0.0
  0
LINE
  5
182
330
123
100
AcDbEntity
  8
AM_4
100
AcDbLine
 10
0.1102360000000004
 20
1.489514772016536
 30
0.0
 11
0.1102360000000004
 21
1.503434169004193
 31
0.0
  0
ELLIPSE
  5
183
330
123
100
AcDbEntity
  8
AM_4
100
AcDbEllipse
 10
-0.0000000000000002
 20
1.489514772016537
 30
0.0
 11
-0.1102360000000007
 21
1.350001645508085E-17
 31
0.0
210
0.0
220
0.0
230
1.0
 40
0.707106781186548
 41
0.0
 42
3.141592653589793
  0
ELLIPSE
  5
184
330
123
100
AcDbEntity
  8
AM_4
100
AcDbEllipse
 10
0.0000000000000001
 20
1.503434169004193
 30
0.0
 11
-0.1102360000000003
 21
1.350001645508080E-17
 31
0.0
210
0.0
220
0.0
230
1.0
 40
0.7071067811865483
 41
5.705405428600321
 42
10.00061260020327
  0
LINE
  5
185
330
123
100
AcDbEntity
  8
AM_4
100
AcDbLine
 10
-0.1818428181342336
 20
1.479568693162353
 30
0.0
 11
-0.1818428181342336
 21
1.40202464769305
 31
0.0
  0
LWPOLYLINE
  5
186
330
123
100
AcDbEntity
  8
AM_4
100
AcDbPolyline
 90
        8
 70
     0
 43
0.0
 10
-0.1818428181342336
 20
1.40202464769305
 10
-0.1700219299576866
 20
1.383223313872231
 10
-0.1580319325509576
 20
1.365302408734604
 10
-0.1456279074929294
 20
1.348173625667791
 10
-0.1331538668015518
 20
1.332501240082113
 10
-0.122541961020299
 20
1.320439173752988
 10
-0.1120043701386572
 20
1.309555161517746
 10
-0.0909214090671168
 20
1.290669118238402
  0
LWPOLYLINE
  5
187
330
123
100
AcDbEntity
  8
AM_4
100
AcDbPolyline
 90
        8
 70
     0
 43
0.0
 10
0.0909214090671169
 20
1.290669118238402
 10
0.1027422972436638
 20
1.300822928756622
 10
0.1147322946503928
 20
1.312271399282773
 10
0.1271363197084211
 20
1.325526148364827
 10
0.1396103603997988
 20
1.340408797503739
 10
0.1502222661810516
 20
1.354340485537173
 10
0.1607598570626933
 20
1.369268194080158
 10
0.1818428181342338
 20
1.40202464769305
  0
LINE
  5
188
330
123
100
AcDbEntity
  8
AM_4
100
AcDbLine
 10
0.1818428181342338
 20
1.479568693162353
 30
0.0
 11
0.1818428181342338
 21
1.40202464769305
 31
0.0
  0
LINE
  5
189
330
123
100
AcDbEntity
  8
AM_4
100
AcDbLine
 10
-0.0909214090671168
 20
1.368213163707704
 30
0.0
 11
-0.0909214090671168
 21
1.290669118238402
 31
0.0
  0
LWPOLYLINE
  5
18A
330
123
100
AcDbEntity
  8
AM_4
100
AcDbPolyline
 90
        8
 70
     0
 43
0.0
 10
-0.0909214090671168
 20
1.290669118238402
 10
-0.06727819356182
 20
1.286345126068043
 10
-0.0432967219144127
 20
1.283108823687495
 10
-0.0184870563376657
 20
1.281171908826787
 10
0.0064626251340287
 20
1.280777356655526
 10
0.0276849305747585
 20
1.28171239061834
 10
0.0487586048861117
 20
1.283734289540415
 10
0.0909214090671169
 20
1.290669118238402
  0
LINE
  5
18B
330
123
100
AcDbEntity
  8
AM_4
100
AcDbLine
 10
0.090921409067117
 20
1.368213163707704
 30
0.0
 11
0.0909214090671169
 21
1.290669118238402
 31
0.0
  0
LWPOLYLINE
  5
18C
330
123
100
AcDbEntity
  8
AM_4
100
AcDbPolyline
 90
        8
 70
     0
 43
0.0
 10
-0.0909214090671168
 20
1.368213163707704
 10
-0.1027422972436637
 20
1.387014497528523
 10
-0.1147322946503927
 20
1.404935402666151
 10
-0.127136319708421
 20
1.422064185732963
 10
-0.1396103603997987
 20
1.437736571318641
 10
-0.1502222661810516
 20
1.449798637647767
 10
-0.1607598570626932
 20
1.460682649883009
 10
-0.1818428181342336
 20
1.479568693162353
  0
LWPOLYLINE
  5
18D
330
123
100
AcDbEntity
  8
AM_4
100
AcDbPolyline
 90
        8
 70
     0
 43
0.0
 10
0.090921409067117
 20
1.368213163707704
 10
0.0672781935618202
 20
1.372537155878064
 10
0.0432967219144129
 20
1.375773458258611
 10
0.018487056337666
 20
1.377710373119319
 10
-0.0064626251340283
 20
1.378104925290579
 10
-0.0276849305747581
 20
1.377169891327766
 10
-0.0487586048861114
 20
1.375147992405691
 10
-0.0909214090671168
 20
1.368213163707704
  0
LWPOLYLINE
  5
18E
330
123
100
AcDbEntity
  8
AM_4
100
AcDbPolyline
 90
        8
 70
     0
 43
0.0
 10
0.1818428181342338
 20
1.479568693162353
 10
0.1700219299576869
 20
1.469414882644132
 10
0.158031932550958
 20
1.457966412117981
 10
0.1456279074929297
 20
1.444711663035927
 10
0.133153866801552
 20
1.429829013897015
 10
0.1225419610202992
 20
1.415897325863581
 10
0.1120043701386575
 20
1.400969617320596
 10
0.090921409067117
 20
1.368213163707704
  0
LWPOLYLINE
  5
18F
330
123
100
AcDbEntity
  8
AM_4
100
AcDbPolyline
 90
        8
 70
     0
 43
0.0
 10
0.1003398669071484
 20
1.582919737960482
 10
0.1027422972436638
 20
1.580770412098781
 10
0.1147322946503926
 20
1.56932194157263
 10
0.1271363197084208
 20
1.556067192490576
 10
0.1396103603997983
 20
1.541184543351664
 10
0.1502222661810512
 20
1.52725285531823
 10
0.160759857062693
 20
1.512325146775245
 10
0.1818428181342338
 20
1.479568693162353
  0
LWPOLYLINE
  5
190
330
123
100
AcDbEntity
  8
AM_4
100
AcDbPolyline
 90
        8
 70
     0
 43
0.0
 10
-0.1818428181342336
 20
1.479568693162353
 10
-0.1700219299576868
 20
1.498370026983171
 10
-0.1580319325509578
 20
1.516290932120799
 10
-0.1456279074929296
 20
1.533419715187612
 10
-0.133153866801552
 20
1.549092100773289
 10
-0.1225419610202991
 20
1.561154167102415
 10
-0.1120043701386574
 20
1.572038179337657
 10
-0.1002059706623021
 20
1.583038154822337
  0
ELLIPSE
  5
191
330
123
100
AcDbEntity
  8
AM_4
100
AcDbEllipse
 10
0.0
 20
1.489514772016536
 30
0.0
 11
-0.157480000000001
 21
1.928573779297263E-17
 31
0.0
210
0.0
220
0.0
230
1.0
 40
0.707106781186547
 41
5.406351190532482
 42
10.30202107167844
  0
LWPOLYLINE
  5
192
330
123
100
AcDbEntity
  8
AM_4
100
AcDbPolyline
 90
        3
 70
     0
 43
0.0
 10
0.0278658002818364
 20
1.502996605857047
 10
0.0217177474683687
 20
1.501814104261998
 10
0.0213763961710782
 20
1.501757705987824
  0
LINE
  5
193
330
123
100
AcDbEntity
  8
AM_4
100
AcDbLine
 10
-0.0236179409572417
 20
1.502145590576721
 30
0.0
 11
-0.0248348216709825
 21
1.502373671370964
 31
0.0
  0
LWPOLYLINE
  5
194
330
123
100
AcDbEntity
  8
AM_4
100
AcDbPolyline
 90
        4
 70
     0
 43
0.0
 10
0.0000000000000001
 20
1.500034407451629
 10
-0.0051703502536269
 20
1.500133747569998
 10
-0.0156443261665284
 20
1.500950637508377
 10
-0.0236179409572417
 20
1.502145590576721
  0
ELLIPSE
  5
195
330
123
100
AcDbEntity
  8
AM_4
100
AcDbEllipse
 10
-0.000000000000002
 20
1.567220416070527
 30
0.0
 11
-0.095016477732451
 21
1.163616253213019E-17
 31
0.0
210
0.0
220
0.0
230
1.0
 40
0.7071067811867078
 41
1.300937506170931
 42
1.868076399431238
  0
LWPOLYLINE
  5
196
330
123
100
AcDbEntity
  8
AM_4
100
AcDbPolyline
 90
        3
 70
     0
 43
0.0
 10
0.0918641675620847
 20
1.608846604685326
 10
0.0909325235331088
 20
1.610393082592168
 10
0.0872386339112364
 20
1.615784135258279
  0
LWPOLYLINE
  5
197
330
123
100
AcDbEntity
  8
AM_4
100
AcDbPolyline
 90
       18
 70
     0
 43
0.0
 10
0.0054897588157986
 20
1.5001456596341
 10
0.0066502097783244
 20
1.500198221103874
 10
0.0187044759323499
 20
1.50134808214182
 10
0.030519160263131
 20
1.503588899819904
 10
0.041928727935569
 20
1.50690464814056
 10
0.0527734794231892
 20
1.511270884633499
 10
0.0628925527775436
 20
1.516652469760842
 10
0.0721169481631449
 20
1.522994704963944
 10
0.080277906647836
 20
1.530217215101607
 10
0.0872151314454139
 20
1.538206189335802
 10
0.0927919166195495
 20
1.546811795982321
 10
0.0969133069338512
 20
1.555858145083329
 10
0.0995352428055491
 20
1.565163172399063
 10
0.1006587263410621
 20
1.574558117942723
 10
0.1003138570976158
 20
1.583897975916697
 10
0.0985443757113257
 20
1.59305671134714
 10
0.0954019836864309
 20
1.601917436700677
 10
0.0918641675620847
 20
1.608846604685326
  0
LWPOLYLINE
  5
198
330
123
100
AcDbEntity
  8
AM_4
100
AcDbPolyline
 90
       17
 70
     0
 43
0.0
 10
-0.0887642936298623
 20
1.613682467850257
 10
-0.0931526832336378
 20
1.606543644271448
 10
-0.0971624106240658
 20
1.597471620945952
 10
-0.0996713555125734
 20
1.588154245391897
 10
-0.1006833230275463
 20
1.578758720845889
 10
-0.1002298756481002
 20
1.569428145453169
 10
-0.0983556392400391
 20
1.5602885485196
 10
-0.0951121730065078
 20
1.551453760178843
 10
-0.0905448559625786
 20
1.543010453687764
 10
-0.0846968731305113
 20
1.535046409929799
 10
-0.0776214464553557
 20
1.527658664283721
 10
-0.0693961736196758
 20
1.520953830035196
 10
-0.0601315418954878
 20
1.515040093333012
 10
-0.0499687547064348
 20
1.5100154840651
 10
-0.0390694305088551
 20
1.505959116422975
 10
-0.0276065868267067
 20
1.502929167165138
 10
-0.0242489916335892
 20
1.502257108390219
  0
LINE
  5
199
330
123
100
AcDbEntity
  8
AM_4
100
AcDbLine
 10
-0.065769505531528
 20
1.644892362238843
 30
0.0
 11
-0.0887642936298623
 21
1.613682467850257
 31
0.0
  0
ELLIPSE
  5
19A
330
123
100
AcDbEntity
  8
AM_4
100
AcDbEllipse
 10
-0.0000000000000001
 20
1.582853813844587
 30
0.0
 11
-0.0988903381368872
 21
1.211057360659384E-17
 31
0.0
210
0.0
220
0.0
230
1.0
 40
0.7071067811865468
 41
5.802371652415645
 42
9.905591615533318
  0
LINE
  5
19B
330
123
100
AcDbEntity
  8
AM_4
100
AcDbLine
 10
0.0876780428575546
 20
1.615194653177362
 30
0.0
 11
0.0657695055315281
 21
1.644892362238843
 31
0.0
  0
ELLIPSE
  5
19C
330
123
100
AcDbEntity
  8
AM_4
100
AcDbEllipse
 10
0.0
 20
1.620632685105688
 30
0.0
 11
-0.07418013027133047
 21
9.084445909711854E-18
 31
0.0
210
0.0
220
0.0
230
1.0
 40
0.707106781186546
 41
5.793320124024882
 42
9.905591615533321
  0
ELLIPSE
  5
19D
330
123
100
AcDbEntity
  8
AM_4
100
AcDbEllipse
 10
0.0000000000000001
 20
1.628709024735821
 30
0.0
 11
0.05631349694455698
 21
0.0
 31
0.0
210
0.0
220
0.0
230
1.0
 40
0.7071067811865483
 41
0.0
 42
6.283185307179586
  0
LWPOLYLINE
  5
19E
330
123
100
AcDbEntity
  8
AM_4
100
AcDbPolyline
 90
       17
 70
     0
 43
0.0
 10
0.0647225099227654
 20
1.646267956715044
 10
0.0620540106572288
 20
1.649433149748246
 10
0.0555232691613218
 20
1.655689741680249
 10
0.0478970698246419
 20
1.661211829727708
 10
0.0393063132705279
 20
1.665879441909909
 10
0.0299249564371517
 20
1.669586097915612
 10
0.0199518664925656
 20
1.672252618312968
 10
0.0095959412238739
 20
1.673828776062515
 10
-0.00094954495225
 20
1.674289744276551
 10
-0.0114966552291798
 20
1.673624859880662
 10
-0.0218583951048525
 20
1.671834316643223
 10
-0.0318502973070281
 20
1.66892759664843
 10
-0.041287862893087
 20
1.664923107404076
 10
-0.0499774603507296
 20
1.659854439850859
 10
-0.0577054875466211
 20
1.653790666636422
 10
-0.0642603824495062
 20
1.646849078679139
 10
-0.0654127573932771
 20
1.645370725608542
  0
ELLIPSE
  5
19F
330
123
100
AcDbEntity
  8
AM_4
100
AcDbEllipse
 10
-0.0000000000003505
 20
1.620632685105555
 30
0.0
 11
-0.07418013027172794
 21
9.084445909760531E-18
 31
0.0
210
0.0
220
0.0
230
1.0
 40
0.7071067811865467
 41
3.62240630835379
 42
3.647874301237969
  0
LINE
  5
1A0
330
123
100
AcDbEntity
  8
AM_4
100
AcDbLine
 10
-0.5580869552118359
 20
1.875
 30
0.0
 11
-0.7640259179612362
 21
-1.070064375532607
 31
0.0
  0
LINE
  5
1A1
330
123
100
AcDbEntity
  8
AM_4
100
AcDbLine
 10
0.8784449000000003
 20
-1.125
 30
0.0
 11
0.8229371627057354
 21
-1.125
 31
0.0
  0
ARC
  5
1A2
330
123
100
AcDbEntity
  8
AM_4
100
AcDbCircle
 10
-0.8229371627057354
 20
-1.0659449
 30
0.0
 40
0.0590551000000001
100
AcDbArc
 50
270.0
 51
355.9999999999996
  0
ARC
  5
1A3
330
123
100
AcDbEntity
  8
AM_4
100
AcDbCircle
 10
0.8229371627057359
 20
-1.0659449
 30
0.0
 40
0.0590551000000006
100
AcDbArc
 50
184.0000000000006
 51
270.0
  0
ARC
  5
1A4
330
123
100
AcDbEntity
  8
AM_4
100
AcDbCircle
 10
-0.8784448999999995
 20
-1.184055100000001
 30
0.0
 40
0.0590551000000004
100
AcDbArc
 50
90.0
 51
180.0
  0
LINE
  5
1A5
330
123
100
AcDbEntity
  8
AM_4
100
AcDbLine
 10
-0.8229371627057354
 20
-1.125
 30
0.0
 11
-0.8784448999999998
 21
-1.125
 31
0.0
  0
LINE
  5
1A6
330
123
100
AcDbEntity
  8
AM_4
100
AcDbLine
 10
0.7640259179612364
 20
-1.070064375532607
 30
0.0
 11
0.5580869552118349
 21
1.875
 31
0.0
  0
ARC
  5
1A7
330
123
100
AcDbEntity
  8
AM_4
100
AcDbCircle
 10
0.8784449000000003
 20
-1.1840551
 30
0.0
 40
0.0590550999999999
100
AcDbArc
 50
0.0
 51
90.0
  0
LINE
  5
1A8
330
123
100
AcDbEntity
  8
AM_4
100
AcDbLine
 10
-0.9374999999999999
 20
-1.875
 30
0.0
 11
-0.9374999999999999
 21
-1.1840551
 31
0.0
  0
LINE
  5
1A9
330
123
100
AcDbEntity
  8
AM_4
100
AcDbLine
 10
-0.9374999999999999
 20
-1.875
 30
0.0
 11
0.9375000000000002
 21
-1.875
 31
0.0
  0
LINE
  5
1AA
330
123
100
AcDbEntity
  8
AM_4
100
AcDbLine
 10
0.9375000000000002
 20
-1.875
 30
0.0
 11
0.9375000000000002
 21
-1.1840551
 31
0.0
  0
LINE
  5
1AB
330
123
100
AcDbEntity
  8
AM_4
100
AcDbLine
 10
-0.7066814305917952
 20
-0.2499999999999993
 30
0.0
 11
0.7066814305917952
 21
-0.2500000000000001
 31
0.0
  0
LINE
  5
1AC
330
123
100
AcDbEntity
  8
AM_4
100
AcDbLine
 10
0.5580869552118347
 20
1.875
 30
0.0
 11
-0.5580869552118359
 21
1.875
 31
0.0
  0
ENDBLK
  5
126
330
123
100
AcDbEntity
  8
0
100
AcDbBlockEnd
  0
ENDSEC
  0
SECTION
  2
ENTITIES
  0
INSERT
  5
6F
330
1F
100
AcDbEntity
  8
0
100
AcDbBlockReference
  2
1_129284_2
 10
0.0
 20
0.0
 30
0.0
  0
POINT
  5
1AE
330
1F
100
AcDbEntity
  8
ConnectionPoints
100
AcDbPoint
 10
0.0
 20
0.0
 30
0.0
  0
POINT
  5
1AF
330
1F
100
AcDbEntity
  8
ConnectionPoints
100
AcDbPoint
 10
0.5625
 20
0.0
 30
0.0
  0
POINT
  5
1B0
330
1F
100
AcDbEntity
  8
ConnectionPoints
100
AcDbPoint
 10
0.0
 20
0.0
 30
0.0
  0
POINT
  5
1B1
330
1F
100
AcDbEntity
  8
ConnectionPoints
100
AcDbPoint
 10
0.0
 20
0.0
 30
0.0
  0
ENDSEC
  0
SECTION
  2
OBJECTS
  0
DICTIONARY
  5
C
330
0
100
AcDbDictionary
281
     1
  3
ACAD_DETAILVIEWSTYLE
350
1B9
  3
ACAD_GROUP
350
D
  3
ACAD_LAYOUT
350
1A
  3
ACAD_MATERIAL
350
43
  3
ACAD_MLEADERSTYLE
350
6B
  3
ACAD_MLINESTYLE
350
17
  3
ACAD_PLOTSETTINGS
350
19
  3
ACAD_PLOTSTYLENAME
350
E
  3
ACAD_SCALELIST
350
47
  3
ACAD_SECTIONVIEWSTYLE
350
1BA
  3
ACAD_TABLESTYLE
350
69
  3
ACAD_VISUALSTYLE
350
2A
  3
ACDB_RECOMPOSE_DATA
350
1B6
  3
AcDbVariableDictionary
350
1B2
  0
SUN
  5
6D
330
29
100
AcDbSun
 90
        1
290
     0
 63
     7
421
 16777215
 40
1.0
291
     1
 91
  2455826
 92
 54000000
292
     0
 70
     2
 71
   256
280
     1
  0
DICTIONARY
  5
1B9
102
{ACAD_REACTORS
330
C
102
}
330
C
100
AcDbDictionary
281
     1
  0
DICTIONARY
  5
D
102
{ACAD_REACTORS
330
C
102
}
330
C
100
AcDbDictionary
281
     1
  0
DICTIONARY
  5
1A
102
{ACAD_REACTORS
330
C
102
}
330
C
100
AcDbDictionary
281
     1
  3
Layout1
350
1E
  3
Layout2
350
26
  3
Model
350
22
  0
DICTIONARY
  5
43
102
{ACAD_REACTORS
330
C
102
}
330
C
100
AcDbDictionary
281
     1
  3
ByBlock
350
45
  3
ByLayer
350
44
  3
Global
350
46
  0
DICTIONARY
  5
6B
102
{ACAD_REACTORS
330
C
102
}
330
C
100
AcDbDictionary
281
     1
  3
Standard
350
6C
  0
DICTIONARY
  5
17
102
{ACAD_REACTORS
330
C
102
}
330
C
100
AcDbDictionary
281
     1
  3
Standard
350
18
  0
DICTIONARY
  5
19
102
{ACAD_REACTORS
330
C
102
}
330
C
100
AcDbDictionary
281
     1
  0
ACDBDICTIONARYWDFLT
  5
E
102
{ACAD_REACTORS
330
C
102
}
330
C
100
AcDbDictionary
281
     1
  3
Normal
350
F
100
AcDbDictionaryWithDefault
340
F
  0
DICTIONARY
  5
47
102
{ACAD_REACTORS
330
C
102
}
330
C
100
AcDbDictionary
281
     1
  3
A0
350
48
  3
A1
350
49
  3
A2
350
4A
  3
A3
350
4B
  3
A4
350
4C
  3
A5
350
4D
  3
A6
350
4E
  3
A7
350
4F
  3
A8
350
50
  3
A9
350
51
  3
B0
350
52
  3
B1
350
53
  3
B2
350
54
  3
B3
350
55
  3
B4
350
56
  3
B5
350
57
  3
B6
350
58
  3
B7
350
59
  3
B8
350
5A
  3
B9
350
5B
  3
C0
350
5C
  3
C1
350
5D
  3
C2
350
5E
  3
C3
350
5F
  3
C4
350
60
  3
C5
350
61
  3
C6
350
62
  3
C7
350
63
  3
C8
350
64
  3
C9
350
65
  3
D0
350
66
  3
D1
350
67
  3
D2
350
68
  0
DICTIONARY
  5
1BA
102
{ACAD_REACTORS
330
C
102
}
330
C
100
AcDbDictionary
281
     1
  0
DICTIONARY
  5
69
102
{ACAD_REACTORS
330
C
102
}
330
C
100
AcDbDictionary
281
     1
  3
Standard
350
6A
  0
DICTIONARY
  5
2A
102
{ACAD_REACTORS
330
C
102
}
330
C
100
AcDbDictionary
281
     1
  3
2dWireframe
350
2F
  3
Basic
350
32
  3
Brighten
350
36
  3
ColorChange
350
3A
  3
Conceptual
350
34
  3
Dim
350
35
  3
EdgeColorOff
350
3D
  3
Facepattern
350
39
  3
Flat
350
2B
  3
FlatWithEdges
350
2C
  3
Gouraud
350
2D
  3
GouraudWithEdges
350
2E
  3
Hidden
350
31
  3
JitterOff
350
3B
  3
Linepattern
350
38
  3
OverhangOff
350
3C
  3
Realistic
350
33
  3
Shaded
350
42
  3
Shaded with edges
350
41
  3
Shades of Gray
350
3E
  3
Sketchy
350
3F
  3
Thicken
350
37
  3
Wireframe
350
30
  3
X-Ray
350
40
  0
XRECORD
  5
1B6
102
{ACAD_REACTORS
330
C
102
}
330
C
100
AcDbXrecord
280
     1
 90
        1
330
6A
  0
DICTIONARY
  5
1B2
102
{ACAD_REACTORS
330
C
102
}
330
C
100
AcDbDictionary
281
     1
  3
CANNOSCALE
350
1B3
  3
CMLEADERSTYLE
350
1B8
  3
CTABLESTYLE
350
1B7
  0
LAYOUT
  5
1E
102
{ACAD_REACTORS
330
1A
102
}
330
1A
100
AcDbPlotSettings
  1

  2
none_device
  4

  6

 40
0.0
 41
0.0
 42
0.0
 43
0.0
 44
0.0
 45
0.0
 46
0.0
 47
0.0
 48
0.0
 49
0.0
140
0.0
141
0.0
142
1.0
143
1.0
 70
   688
 72
     0
 73
     0
 74
     5
  7

 75
    16
 76
     0
 77
     2
 78
   300
147
1.0
148
0.0
149
0.0
100
AcDbLayout
  1
Layout1
 70
     1
 71
     1
 10
0.0
 20
0.0
 11
12.0
 21
9.0
 12
0.0
 22
0.0
 32
0.0
 14
1.000000000000000E+20
 24
1.000000000000000E+20
 34
1.000000000000000E+20
 15
-1.000000000000000E+20
 25
-1.000000000000000E+20
 35
-1.000000000000000E+20
146
0.0
 13
0.0
 23
0.0
 33
0.0
 16
1.0
 26
0.0
 36
0.0
 17
0.0
 27
1.0
 37
0.0
 76
     0
330
1B
  0
LAYOUT
  5
26
102
{ACAD_REACTORS
330
1A
102
}
330
1A
100
AcDbPlotSettings
  1

  2
none_device
  4

  6

 40
0.0
 41
0.0
 42
0.0
 43
0.0
 44
0.0
 45
0.0
 46
0.0
 47
0.0
 48
0.0
 49
0.0
140
0.0
141
0.0
142
1.0
143
1.0
 70
   688
 72
     0
 73
     0
 74
     5
  7

 75
    16
 76
     0
 77
     2
 78
   300
147
1.0
148
0.0
149
0.0
100
AcDbLayout
  1
Layout2
 70
     1
 71
     2
 10
0.0
 20
0.0
 11
0.0
 21
0.0
 12
0.0
 22
0.0
 32
0.0
 14
0.0
 24
0.0
 34
0.0
 15
0.0
 25
0.0
 35
0.0
146
0.0
 13
0.0
 23
0.0
 33
0.0
 16
1.0
 26
0.0
 36
0.0
 17
0.0
 27
1.0
 37
0.0
 76
     0
330
23
  0
LAYOUT
  5
22
102
{ACAD_REACTORS
330
1A
102
}
330
1A
100
AcDbPlotSettings
  1

  2
none_device
  4
Letter_(8.50_x_11.00_Inches)
  6

 40
6.35
 41
6.35
 42
6.35000508
 43
6.35000508
 44
215.9
 45
279.4
 46
0.0
 47
0.0
 48
0.0
 49
0.0
140
0.0
141
0.0
142
1.0
143
1.0
 70
  1712
 72
     0
 73
     0
 74
     0
  7

 75
     0
 76
     0
 77
     2
 78
   300
147
1.0
148
0.0
149
0.0
100
AcDbLayout
  1
Model
 70
     1
 71
     0
 10
0.0
 20
0.0
 11
12.0
 21
9.0
 12
0.0
 22
0.0
 32
0.0
 14
1.000000000000000E+20
 24
1.000000000000000E+20
 34
1.000000000000000E+20
 15
-1.000000000000000E+20
 25
-1.000000000000000E+20
 35
-1.000000000000000E+20
146
0.0
 13
0.0
 23
0.0
 33
0.0
 16
1.0
 26
0.0
 36
0.0
 17
0.0
 27
1.0
 37
0.0
 76
     0
330
1F
331
29
  0
MATERIAL
  5
45
102
{ACAD_REACTORS
330
43
102
}
330
43
100
AcDbMaterial
  1
ByBlock
 72
     1
 94
      127
  0
MATERIAL
  5
44
102
{ACAD_REACTORS
330
43
102
}
330
43
100
AcDbMaterial
  1
ByLayer
 72
     1
 94
      127
  0
MATERIAL
  5
46
102
{ACAD_REACTORS
330
43
102
}
330
43
100
AcDbMaterial
  1
Global
 72
     1
 94
      127
  0
MLEADERSTYLE
  5
6C
102
{ACAD_REACTORS
330
6B
102
}
330
6B
100
AcDbMLeaderStyle
179
     2
170
     2
171
     1
172
     0
 90
        2
 40
0.0
 41
0.0
173
     1
 91
-1056964608
340
14
 92
       -2
290
     1
 42
0.09
291
     1
 43
0.36
  3
Standard
341
0
 44
0.18
300

342
11
174
     1
178
     6
175
     1
176
     0
 93
-1056964608
 45
0.18
292
     0
297
     0
 46
0.18
343
0
 94
-1056964608
 47
1.0
 49
1.0
140
1.0
293
     1
141
0.0
294
     1
177
     0
142
1.0
295
     0
296
     0
143
0.125
271
     0
272
     9
273
     9
298
     0
  0
MLINESTYLE
  5
18
102
{ACAD_REACTORS
330
17
102
}
330
17
100
AcDbMlineStyle
  2
Standard
 70
     0
  3

 62
   256
 51
90.0
 52
90.0
 71
     2
 49
0.5
 62
   256
  6
BYLAYER
 49
-0.5
 62
   256
  6
BYLAYER
  0
ACDBPLACEHOLDER
  5
F
102
{ACAD_REACTORS
330
E
102
}
330
E
  0
SCALE
  5
48
102
{ACAD_REACTORS
330
47
102
}
330
47
100
AcDbScale
 70
     0
300
1:1
140
1.0
141
1.0
290
     1
  0
SCALE
  5
49
102
{ACAD_REACTORS
330
47
102
}
330
47
100
AcDbScale
 70
     0
300
1:2
140
1.0
141
2.0
290
     0
  0
SCALE
  5
4A
102
{ACAD_REACTORS
330
47
102
}
330
47
100
AcDbScale
 70
     0
300
1:4
140
1.0
141
4.0
290
     0
  0
SCALE
  5
4B
102
{ACAD_REACTORS
330
47
102
}
330
47
100
AcDbScale
 70
     0
300
1:5
140
1.0
141
5.0
290
     0
  0
SCALE
  5
4C
102
{ACAD_REACTORS
330
47
102
}
330
47
100
AcDbScale
 70
     0
300
1:8
140
1.0
141
8.0
290
     0
  0
SCALE
  5
4D
102
{ACAD_REACTORS
330
47
102
}
330
47
100
AcDbScale
 70
     0
300
1:10
140
1.0
141
10.0
290
     0
  0
SCALE
  5
4E
102
{ACAD_REACTORS
330
47
102
}
330
47
100
AcDbScale
 70
     0
300
1:16
140
1.0
141
16.0
290
     0
  0
SCALE
  5
4F
102
{ACAD_REACTORS
330
47
102
}
330
47
100
AcDbScale
 70
     0
300
1:20
140
1.0
141
20.0
290
     0
  0
SCALE
  5
50
102
{ACAD_REACTORS
330
47
102
}
330
47
100
AcDbScale
 70
     0
300
1:30
140
1.0
141
30.0
290
     0
  0
SCALE
  5
51
102
{ACAD_REACTORS
330
47
102
}
330
47
100
AcDbScale
 70
     0
300
1:40
140
1.0
141
40.0
290
     0
  0
SCALE
  5
52
102
{ACAD_REACTORS
330
47
102
}
330
47
100
AcDbScale
 70
     0
300
1:50
140
1.0
141
50.0
290
     0
  0
SCALE
  5
53
102
{ACAD_REACTORS
330
47
102
}
330
47
100
AcDbScale
 70
     0
300
1:100
140
1.0
141
100.0
290
     0
  0
SCALE
  5
54
102
{ACAD_REACTORS
330
47
102
}
330
47
100
AcDbScale
 70
     0
300
2:1
140
2.0
141
1.0
290
     0
  0
SCALE
  5
55
102
{ACAD_REACTORS
330
47
102
}
330
47
100
AcDbScale
 70
     0
300
4:1
140
4.0
141
1.0
290
     0
  0
SCALE
  5
56
102
{ACAD_REACTORS
330
47
102
}
330
47
100
AcDbScale
 70
     0
300
8:1
140
8.0
141
1.0
290
     0
  0
SCALE
  5
57
102
{ACAD_REACTORS
330
47
102
}
330
47
100
AcDbScale
 70
     0
300
10:1
140
10.0
141
1.0
290
     0
  0
SCALE
  5
58
102
{ACAD_REACTORS
330
47
102
}
330
47
100
AcDbScale
 70
     0
300
100:1
140
100.0
141
1.0
290
     0
  0
SCALE
  5
59
102
{ACAD_REACTORS
330
47
102
}
330
47
100
AcDbScale
 70
     0
300
1/128" = 1'-0"
140
0.0078125
141
12.0
290
     0
  0
SCALE
  5
5A
102
{ACAD_REACTORS
330
47
102
}
330
47
100
AcDbScale
 70
     0
300
1/64" = 1'-0"
140
0.015625
141
12.0
290
     0
  0
SCALE
  5
5B
102
{ACAD_REACTORS
330
47
102
}
330
47
100
AcDbScale
 70
     0
300
1/32" = 1'-0"
140
0.03125
141
12.0
290
     0
  0
SCALE
  5
5C
102
{ACAD_REACTORS
330
47
102
}
330
47
100
AcDbScale
 70
     0
300
1/16" = 1'-0"
140
0.0625
141
12.0
290
     0
  0
SCALE
  5
5D
102
{ACAD_REACTORS
330
47
102
}
330
47
100
AcDbScale
 70
     0
300
3/32" = 1'-0"
140
0.09375
141
12.0
290
     0
  0
SCALE
  5
5E
102
{ACAD_REACTORS
330
47
102
}
330
47
100
AcDbScale
 70
     0
300
1/8" = 1'-0"
140
0.125
141
12.0
290
     0
  0
SCALE
  5
5F
102
{ACAD_REACTORS
330
47
102
}
330
47
100
AcDbScale
 70
     0
300
3/16" = 1'-0"
140
0.1875
141
12.0
290
     0
  0
SCALE
  5
60
102
{ACAD_REACTORS
330
47
102
}
330
47
100
AcDbScale
 70
     0
300
1/4" = 1'-0"
140
0.25
141
12.0
290
     0
  0
SCALE
  5
61
102
{ACAD_REACTORS
330
47
102
}
330
47
100
AcDbScale
 70
     0
300
3/8" = 1'-0"
140
0.375
141
12.0
290
     0
  0
SCALE
  5
62
102
{ACAD_REACTORS
330
47
102
}
330
47
100
AcDbScale
 70
     0
300
1/2" = 1'-0"
140
0.5
141
12.0
290
     0
  0
SCALE
  5
63
102
{ACAD_REACTORS
330
47
102
}
330
47
100
AcDbScale
 70
     0
300
3/4" = 1'-0"
140
0.75
141
12.0
290
     0
  0
SCALE
  5
64
102
{ACAD_REACTORS
330
47
102
}
330
47
100
AcDbScale
 70
     0
300
1" = 1'-0"
140
1.0
141
12.0
290
     0
  0
SCALE
  5
65
102
{ACAD_REACTORS
330
47
102
}
330
47
100
AcDbScale
 70
     0
300
1-1/2" = 1'-0"
140
1.5
141
12.0
290
     0
  0
SCALE
  5
66
102
{ACAD_REACTORS
330
47
102
}
330
47
100
AcDbScale
 70
     0
300
3" = 1'-0"
140
3.0
141
12.0
290
     0
  0
SCALE
  5
67
102
{ACAD_REACTORS
330
47
102
}
330
47
100
AcDbScale
 70
     0
300
6" = 1'-0"
140
6.0
141
12.0
290
     0
  0
SCALE
  5
68
102
{ACAD_REACTORS
330
47
102
}
330
47
100
AcDbScale
 70
     0
300
1'-0" = 1'-0"
140
12.0
141
12.0
290
     0
  0
TABLESTYLE
  5
6A
102
{ACAD_REACTORS
330
69
102
}
102
{ACAD_XDICTIONARY
360
1B4
102
}
330
69
100
AcDbTableStyle
  3
Standard
 70
     0
 71
     0
 40
0.06
 41
0.06
280
     0
281
     0
  7
Standard
140
0.18
170
     2
 62
     0
 63
   257
283
     0
 90
        4
 91
        0
  1

274
    -2
284
     1
 64
     0
275
    -2
285
     1
 65
     0
276
    -2
286
     1
 66
     0
277
    -2
287
     1
 67
     0
278
    -2
288
     1
 68
     0
279
    -2
289
     1
 69
     0
  7
Standard
140
0.25
170
     5
 62
     0
 63
   257
283
     0
 90
        4
 91
        0
  1

274
    -2
284
     1
 64
     0
275
    -2
285
     1
 65
     0
276
    -2
286
     1
 66
     0
277
    -2
287
     1
 67
     0
278
    -2
288
     1
 68
     0
279
    -2
289
     1
 69
     0
  7
Standard
140
0.18
170
     5
 62
     0
 63
   257
283
     0
 90
        4
 91
        0
  1

274
    -2
284
     1
 64
     0
275
    -2
285
     1
 65
     0
276
    -2
286
     1
 66
     0
277
    -2
287
     1
 67
     0
278
    -2
288
     1
 68
     0
279
    -2
289
     1
 69
     0
  0
VISUALSTYLE
  5
2F
102
{ACAD_REACTORS
330
2A
102
}
330
2A
100
AcDbVisualStyle
  2
2dWireframe
 70
     4
177
     3
291
     0
 70
    58
 90
        0
176
     1
 90
        2
176
     1
 90
        0
176
     1
 90
        0
176
     1
 40
0.6
176
     1
 40
30.0
176
     1
 62
     7
420
 16777215
176
     1
 90
        1
176
     1
 90
        4
176
     1
 62
     7
176
     1
 62
   257
176
     1
 90
        1
176
     1
 90
        1
176
     1
 40
1.0
176
     1
 90
        0
176
     1
 62
   257
176
     1
 40
1.0
176
     1
 90
        1
176
     1
 90
        6
176
     1
 90
        2
176
     1
 62
     7
176
     1
 90
        5
176
     1
 90
        0
176
     1
 90
        0
176
     1
290
     0
176
     1
 90
        1
176
     1
 40
0.0
176
     1
 90
        0
176
     1
290
     1
176
     1
290
     1
176
     1
290
     0
176
     1
290
     0
176
     1
290
     0
176
     1
290
     0
176
     1
290
     0
176
     1
290
     0
176
     1
290
     0
176
     1
 90
       50
176
     1
 40
0.0
176
     1
 40
1.0
176
     1
 90
        0
176
     1
 62
    18
420
        0
176
     1
 90
       50
176
     1
 90
        3
176
     1
 62
     5
420
      255
176
     1
290
     0
176
     1
 90
       50
176
     1
 90
       50
176
     1
 90
       50
176
     1
290
     0
176
     1
 90
       50
176
     1
 62
   256
176
     0
 40
1.0
176
     0
 90
        2
176
     1
  1
strokes_ogs.tif
176
     1
290
     0
176
     1
 40
1.0
176
     1
 40
1.0
176
     1
  0
VISUALSTYLE
  5
32
102
{ACAD_REACTORS
330
2A
102
}
330
2A
100
AcDbVisualStyle
  2
Basic
 70
     7
177
     3
291
     1
 70
    58
 90
        1
176
     1
 90
        0
176
     1
 90
        1
176
     1
 90
        0
176
     1
 40
0.6
176
     1
 40
30.0
176
     1
 62
     7
420
 16777215
176
     1
 90
        0
176
     1
 90
        4
176
     1
 62
     7
176
     1
 62
   257
176
     1
 90
        1
176
     1
 90
        1
176
     1
 40
1.0
176
     1
 90
        8
176
     1
 62
     7
176
     1
 40
1.0
176
     1
 90
        1
176
     1
 90
        6
176
     1
 90
        2
176
     1
 62
     7
176
     1
 90
        5
176
     1
 90
        0
176
     1
 90
        0
176
     1
290
     0
176
     1
 90
        1
176
     1
 40
0.0
176
     1
 90
        0
176
     1
290
     0
176
     1
290
     1
176
     1
290
     1
176
     1
290
     0
176
     1
290
     0
176
     1
290
     0
176
     1
290
     0
176
     1
290
     0
176
     1
290
     0
176
     1
 90
       50
176
     1
 40
0.0
176
     1
 40
1.0
176
     1
 90
        0
176
     1
 62
    18
420
        0
176
     1
 90
       50
176
     1
 90
        3
176
     1
 62
     5
420
      255
176
     1
290
     0
176
     1
 90
       50
176
     1
 90
       50
176
     1
 90
       50
176
     1
290
     0
176
     1
 90
       50
176
     1
 62
   256
176
     0
 40
1.0
176
     0
 90
        2
176
     1
  1
strokes_ogs.tif
176
     1
290
     0
176
     1
 40
1.0
176
     1
 40
1.0
176
     1
  0
VISUALSTYLE
  5
36
102
{ACAD_REACTORS
330
2A
102
}
330
2A
100
AcDbVisualStyle
  2
Brighten
 70
    12
177
     3
291
     1
 70
    58
 90
        2
176
     1
 90
        2
176
     1
 90
        0
176
     1
 90
        0
176
     1
 40
0.6
176
     1
 40
30.0
176
     1
 62
     7
420
 16777215
176
     1
 90
        1
176
     1
 90
        4
176
     1
 62
     7
176
     1
 62
   257
176
     1
 90
        1
176
     1
 90
        1
176
     1
 40
1.0
176
     1
 90
        8
176
     1
 62
     7
176
     1
 40
1.0
176
     1
 90
        1
176
     1
 90
        6
176
     1
 90
        2
176
     1
 62
     7
176
     1
 90
        5
176
     1
 90
        0
176
     1
 90
        0
176
     1
290
     0
176
     1
 90
        1
176
     1
 40
50.0
176
     1
 90
        0
176
     1
290
     0
176
     1
290
     1
176
     1
290
     1
176
     1
290
     0
176
     1
290
     0
176
     1
290
     0
176
     1
290
     0
176
     1
290
     0
176
     1
290
     0
176
     1
 90
       50
176
     1
 40
0.0
176
     1
 40
1.0
176
     1
 90
        0
176
     1
 62
    18
420
        0
176
     1
 90
       50
176
     1
 90
        3
176
     1
 62
     5
420
      255
176
     1
290
     0
176
     1
 90
       50
176
     1
 90
       50
176
     1
 90
       50
176
     1
290
     0
176
     1
 90
       50
176
     1
 62
   256
176
     0
 40
1.0
176
     0
 90
        2
176
     1
  1
strokes_ogs.tif
176
     1
290
     0
176
     1
 40
1.0
176
     1
 40
1.0
176
     1
  0
VISUALSTYLE
  5
3A
102
{ACAD_REACTORS
330
2A
102
}
330
2A
100
AcDbVisualStyle
  2
ColorChange
 70
    16
177
     3
291
     1
 70
    58
 90
        2
176
     1
 90
        2
176
     1
 90
        3
176
     1
 90
        0
176
     1
 40
0.6
176
     1
 40
30.0
176
     1
 62
     8
420
  8421504
176
     1
 90
        1
176
     1
 90
        4
176
     1
 62
     7
176
     1
 62
   257
176
     1
 90
        1
176
     1
 90
        1
176
     1
 40
1.0
176
     1
 90
        8
176
     1
 62
     8
420
  8421504
176
     1
 40
1.0
176
     1
 90
        1
176
     1
 90
        6
176
     1
 90
        2
176
     1
 62
     7
176
     1
 90
        5
176
     1
 90
        0
176
     1
 90
        0
176
     1
290
     0
176
     1
 90
        1
176
     1
 40
0.0
176
     1
 90
        0
176
     1
290
     0
176
     1
290
     1
176
     1
290
     1
176
     1
290
     0
176
     1
290
     0
176
     1
290
     0
176
     1
290
     0
176
     1
290
     0
176
     1
290
     0
176
     1
 90
       50
176
     1
 40
0.0
176
     1
 40
1.0
176
     1
 90
        0
176
     1
 62
    18
420
        0
176
     1
 90
       50
176
     1
 90
        3
176
     1
 62
     5
420
      255
176
     1
290
     0
176
     1
 90
       50
176
     1
 90
       50
176
     1
 90
       50
176
     1
290
     0
176
     1
 90
       50
176
     1
 62
   256
176
     0
 40
1.0
176
     0
 90
        2
176
     1
  1
strokes_ogs.tif
176
     1
290
     0
176
     1
 40
1.0
176
     1
 40
1.0
176
     1
  0
VISUALSTYLE
  5
34
102
{ACAD_REACTORS
330
2A
102
}
330
2A
100
AcDbVisualStyle
  2
Conceptual
 70
     9
177
     3
291
     0
 70
    58
 90
        3
176
     1
 90
        2
176
     1
 90
        0
176
     1
 90
        0
176
     1
 40
0.6
176
     1
 40
30.0
176
     1
 62
     7
420
 16777215
176
     1
 90
        2
176
     1
 90
        2
176
     1
 62
     7
176
     1
 62
   257
176
     1
 90
        1
176
     1
 90
        1
176
     1
 40
179.0
176
     1
 90
        8
176
     1
 62
     7
176
     1
 40
1.0
176
     1
 90
        1
176
     1
 90
        6
176
     1
 90
        2
176
     1
 62
     7
176
     1
 90
        3
176
     1
 90
        0
176
     1
 90
        0
176
     1
290
     0
176
     1
 90
        1
176
     1
 40
0.0
176
     1
 90
        0
176
     1
290
     0
176
     1
290
     1
176
     1
290
     1
176
     1
290
     0
176
     1
290
     0
176
     1
290
     0
176
     1
290
     0
176
     1
290
     0
176
     1
290
     0
176
     1
 90
       50
176
     1
 40
0.0
176
     1
 40
1.0
176
     1
 90
        0
176
     1
 62
    18
420
        0
176
     1
 90
       50
176
     1
 90
        3
176
     1
 62
     5
420
      255
176
     1
290
     0
176
     1
 90
       50
176
     1
 90
       50
176
     1
 90
       50
176
     1
290
     0
176
     1
 90
       50
176
     1
 62
   256
176
     0
 40
1.0
176
     0
 90
        2
176
     1
  1
strokes_ogs.tif
176
     1
290
     0
176
     1
 40
1.0
176
     1
 40
1.0
176
     1
  0
VISUALSTYLE
  5
35
102
{ACAD_REACTORS
330
2A
102
}
330
2A
100
AcDbVisualStyle
  2
Dim
 70
    11
177
     3
291
     1
 70
    58
 90
        2
176
     1
 90
        2
176
     1
 90
        0
176
     1
 90
        0
176
     1
 40
0.6
176
     1
 40
30.0
176
     1
 62
     7
420
 16777215
176
     1
 90
        1
176
     1
 90
        4
176
     1
 62
     7
176
     1
 62
   257
176
     1
 90
        1
176
     1
 90
        1
176
     1
 40
1.0
176
     1
 90
        8
176
     1
 62
     7
176
     1
 40
1.0
176
     1
 90
        1
176
     1
 90
        6
176
     1
 90
        2
176
     1
 62
     7
176
     1
 90
        5
176
     1
 90
        0
176
     1
 90
        0
176
     1
290
     0
176
     1
 90
        1
176
     1
 40
-50.0
176
     1
 90
        0
176
     1
290
     0
176
     1
290
     1
176
     1
290
     1
176
     1
290
     0
176
     1
290
     0
176
     1
290
     0
176
     1
290
     0
176
     1
290
     0
176
     1
290
     0
176
     1
 90
       50
176
     1
 40
0.0
176
     1
 40
1.0
176
     1
 90
        0
176
     1
 62
    18
420
        0
176
     1
 90
       50
176
     1
 90
        3
176
     1
 62
     5
420
      255
176
     1
290
     0
176
     1
 90
       50
176
     1
 90
       50
176
     1
 90
       50
176
     1
290
     0
176
     1
 90
       50
176
     1
 62
   256
176
     0
 40
1.0
176
     0
 90
        2
176
     1
  1
strokes_ogs.tif
176
     1
290
     0
176
     1
 40
1.0
176
     1
 40
1.0
176
     1
  0
VISUALSTYLE
  5
3D
102
{ACAD_REACTORS
330
2A
102
}
330
2A
100
AcDbVisualStyle
  2
EdgeColorOff
 70
    22
177
     3
291
     1
 70
    58
 90
        2
176
     0
 90
        2
176
     0
 90
        0
176
     0
 90
        0
176
     0
 40
0.6
176
     0
 40
30.0
176
     0
 62
     7
420
 16777215
176
     0
 90
        1
176
     0
 90
        4
176
     0
 62
     7
176
     0
 62
   257
176
     0
 90
        1
176
     0
 90
        1
176
     0
 40
1.0
176
     0
 90
        8
176
     2
 62
     7
176
     0
 40
1.0
176
     0
 90
        1
176
     0
 90
        6
176
     0
 90
        2
176
     0
 62
     7
176
     0
 90
        5
176
     0
 90
        0
176
     0
 90
        0
176
     0
290
     0
176
     0
 90
        1
176
     0
 40
0.0
176
     0
 90
        0
176
     0
290
     0
176
     0
290
     1
176
     0
290
     1
176
     0
290
     0
176
     0
290
     0
176
     0
290
     0
176
     0
290
     0
176
     0
290
     0
176
     0
290
     0
176
     0
 90
       50
176
     0
 40
0.0
176
     0
 40
1.0
176
     0
 90
        0
176
     0
 62
    18
420
        0
176
     0
 90
       50
176
     0
 90
        3
176
     0
 62
     5
420
      255
176
     0
290
     0
176
     0
 90
       50
176
     0
 90
       50
176
     0
 90
       50
176
     0
290
     0
176
     0
 90
       50
176
     0
 62
   256
176
     0
 40
1.0
176
     0
 90
        2
176
     0
  1
strokes_ogs.tif
176
     0
290
     0
176
     0
 40
1.0
176
     0
 40
1.0
176
     0
  0
VISUALSTYLE
  5
39
102
{ACAD_REACTORS
330
2A
102
}
330
2A
100
AcDbVisualStyle
  2
Facepattern
 70
    15
177
     3
291
     1
 70
    58
 90
        2
176
     1
 90
        2
176
     1
 90
        0
176
     1
 90
        0
176
     1
 40
0.6
176
     1
 40
30.0
176
     1
 62
     7
420
 16777215
176
     1
 90
        1
176
     1
 90
        4
176
     1
 62
     7
176
     1
 62
   257
176
     1
 90
        1
176
     1
 90
        1
176
     1
 40
1.0
176
     1
 90
        8
176
     1
 62
     7
176
     1
 40
1.0
176
     1
 90
        1
176
     1
 90
        6
176
     1
 90
        2
176
     1
 62
     7
176
     1
 90
        5
176
     1
 90
        0
176
     1
 90
        0
176
     1
290
     0
176
     1
 90
        1
176
     1
 40
0.0
176
     1
 90
        0
176
     1
290
     0
176
     1
290
     1
176
     1
290
     1
176
     1
290
     0
176
     1
290
     0
176
     1
290
     0
176
     1
290
     0
176
     1
290
     0
176
     1
290
     0
176
     1
 90
       50
176
     1
 40
0.0
176
     1
 40
1.0
176
     1
 90
        0
176
     1
 62
    18
420
        0
176
     1
 90
       50
176
     1
 90
        3
176
     1
 62
     5
420
      255
176
     1
290
     0
176
     1
 90
       50
176
     1
 90
       50
176
     1
 90
       50
176
     1
290
     0
176
     1
 90
       50
176
     1
 62
   256
176
     0
 40
1.0
176
     0
 90
        2
176
     1
  1
strokes_ogs.tif
176
     1
290
     0
176
     1
 40
1.0
176
     1
 40
1.0
176
     1
  0
VISUALSTYLE
  5
2B
102
{ACAD_REACTORS
330
2A
102
}
330
2A
100
AcDbVisualStyle
  2
Flat
 70
     0
177
     3
291
     1
 70
    58
 90
        2
176
     1
 90
        1
176
     1
 90
        1
176
     1
 90
        2
176
     1
 40
0.6
176
     1
 40
30.0
176
     1
 62
     7
420
 16777215
176
     1
 90
        0
176
     1
 90
        0
176
     1
 62
     7
176
     1
 62
   257
176
     1
 90
        1
176
     1
 90
        1
176
     1
 40
1.0
176
     1
 90
        8
176
     1
 62
     7
176
     1
 40
1.0
176
     1
 90
        1
176
     1
 90
        6
176
     1
 90
        2
176
     1
 62
     7
176
     1
 90
        5
176
     1
 90
        0
176
     1
 90
        0
176
     1
290
     0
176
     1
 90
       13
176
     1
 40
0.0
176
     1
 90
        0
176
     1
290
     0
176
     1
290
     1
176
     1
290
     1
176
     1
290
     0
176
     1
290
     0
176
     1
290
     0
176
     1
290
     0
176
     1
290
     0
176
     1
290
     0
176
     1
 90
       50
176
     1
 40
0.0
176
     1
 40
1.0
176
     1
 90
        0
176
     1
 62
    18
420
        0
176
     1
 90
       50
176
     1
 90
        3
176
     1
 62
     5
420
      255
176
     1
290
     0
176
     1
 90
       50
176
     1
 90
       50
176
     1
 90
       50
176
     1
290
     0
176
     1
 90
       50
176
     1
 62
   256
176
     0
 40
1.0
176
     0
 90
        2
176
     1
  1
strokes_ogs.tif
176
     1
290
     0
176
     1
 40
1.0
176
     1
 40
1.0
176
     1
  0
VISUALSTYLE
  5
2C
102
{ACAD_REACTORS
330
2A
102
}
330
2A
100
AcDbVisualStyle
  2
FlatWithEdges
 70
     1
177
     3
291
     1
 70
    58
 90
        2
176
     1
 90
        1
176
     1
 90
        1
176
     1
 90
        2
176
     1
 40
0.6
176
     1
 40
30.0
176
     1
 62
     7
420
 16777215
176
     1
 90
        1
176
     1
 90
        0
176
     1
 62
     7
176
     1
 62
   257
176
     1
 90
        1
176
     1
 90
        1
176
     1
 40
1.0
176
     1
 90
        0
176
     1
 62
   257
176
     1
 40
1.0
176
     1
 90
        1
176
     1
 90
        6
176
     1
 90
        2
176
     1
 62
     7
176
     1
 90
        5
176
     1
 90
        0
176
     1
 90
        0
176
     1
290
     0
176
     1
 90
       13
176
     1
 40
0.0
176
     1
 90
        0
176
     1
290
     0
176
     1
290
     1
176
     1
290
     1
176
     1
290
     0
176
     1
290
     0
176
     1
290
     0
176
     1
290
     0
176
     1
290
     0
176
     1
290
     0
176
     1
 90
       50
176
     1
 40
0.0
176
     1
 40
1.0
176
     1
 90
        0
176
     1
 62
    18
420
        0
176
     1
 90
       50
176
     1
 90
        3
176
     1
 62
     5
420
      255
176
     1
290
     0
176
     1
 90
       50
176
     1
 90
       50
176
     1
 90
       50
176
     1
290
     0
176
     1
 90
       50
176
     1
 62
   256
176
     0
 40
1.0
176
     0
 90
        2
176
     1
  1
strokes_ogs.tif
176
     1
290
     0
176
     1
 40
1.0
176
     1
 40
1.0
176
     1
  0
VISUALSTYLE
  5
2D
102
{ACAD_REACTORS
330
2A
102
}
330
2A
100
AcDbVisualStyle
  2
Gouraud
 70
     2
177
     3
291
     1
 70
    58
 90
        2
176
     1
 90
        2
176
     1
 90
        1
176
     1
 90
        2
176
     1
 40
0.6
176
     1
 40
30.0
176
     1
 62
     7
420
 16777215
176
     1
 90
        0
176
     1
 90
        0
176
     1
 62
     7
176
     1
 62
   257
176
     1
 90
        1
176
     1
 90
        1
176
     1
 40
1.0
176
     1
 90
        0
176
     1
 62
     7
176
     1
 40
1.0
176
     1
 90
        1
176
     1
 90
        6
176
     1
 90
        2
176
     1
 62
     7
176
     1
 90
        5
176
     1
 90
        0
176
     1
 90
        0
176
     1
290
     0
176
     1
 90
       13
176
     1
 40
0.0
176
     1
 90
        0
176
     1
290
     0
176
     1
290
     1
176
     1
290
     1
176
     1
290
     0
176
     1
290
     0
176
     1
290
     0
176
     1
290
     0
176
     1
290
     0
176
     1
290
     0
176
     1
 90
       50
176
     1
 40
0.0
176
     1
 40
1.0
176
     1
 90
        0
176
     1
 62
    18
420
        0
176
     1
 90
       50
176
     1
 90
        3
176
     1
 62
     5
420
      255
176
     1
290
     0
176
     1
 90
       50
176
     1
 90
       50
176
     1
 90
       50
176
     1
290
     0
176
     1
 90
       50
176
     1
 62
   256
176
     0
 40
1.0
176
     0
 90
        2
176
     1
  1
strokes_ogs.tif
176
     1
290
     0
176
     1
 40
1.0
176
     1
 40
1.0
176
     1
  0
VISUALSTYLE
  5
2E
102
{ACAD_REACTORS
330
2A
102
}
330
2A
100
AcDbVisualStyle
  2
GouraudWithEdges
 70
     3
177
     3
291
     1
 70
    58
 90
        2
176
     1
 90
        2
176
     1
 90
        1
176
     1
 90
        2
176
     1
 40
0.6
176
     1
 40
30.0
176
     1
 62
     7
420
 16777215
176
     1
 90
        1
176
     1
 90
        0
176
     1
 62
     7
176
     1
 62
   257
176
     1
 90
        1
176
     1
 90
        1
176
     1
 40
1.0
176
     1
 90
        0
176
     1
 62
   257
176
     1
 40
1.0
176
     1
 90
        1
176
     1
 90
        6
176
     1
 90
        2
176
     1
 62
     7
176
     1
 90
        5
176
     1
 90
        0
176
     1
 90
        0
176
     1
290
     0
176
     1
 90
       13
176
     1
 40
0.0
176
     1
 90
        0
176
     1
290
     0
176
     1
290
     1
176
     1
290
     1
176
     1
290
     0
176
     1
290
     0
176
     1
290
     0
176
     1
290
     0
176
     1
290
     0
176
     1
290
     0
176
     1
 90
       50
176
     1
 40
0.0
176
     1
 40
1.0
176
     1
 90
        0
176
     1
 62
    18
420
        0
176
     1
 90
       50
176
     1
 90
        3
176
     1
 62
     5
420
      255
176
     1
290
     0
176
     1
 90
       50
176
     1
 90
       50
176
     1
 90
       50
176
     1
290
     0
176
     1
 90
       50
176
     1
 62
   256
176
     0
 40
1.0
176
     0
 90
        2
176
     1
  1
strokes_ogs.tif
176
     1
290
     0
176
     1
 40
1.0
176
     1
 40
1.0
176
     1
  0
VISUALSTYLE
  5
31
102
{ACAD_REACTORS
330
2A
102
}
330
2A
100
AcDbVisualStyle
  2
Hidden
 70
     6
177
     3
291
     0
 70
    58
 90
        1
176
     1
 90
        2
176
     1
 90
        2
176
     1
 90
        0
176
     1
 40
0.6
176
     1
 40
30.0
176
     1
 62
     7
420
 16777215
176
     1
 90
        2
176
     1
 90
        2
176
     1
 62
     7
176
     1
 62
   257
176
     1
 90
        2
176
     1
 90
        1
176
     1
 40
40.0
176
     1
 90
        0
176
     1
 62
   257
176
     1
 40
1.0
176
     1
 90
        1
176
     1
 90
        6
176
     1
 90
        2
176
     1
 62
     7
176
     1
 90
        3
176
     1
 90
        0
176
     1
 90
        0
176
     1
290
     0
176
     1
 90
        1
176
     1
 40
0.0
176
     1
 90
        0
176
     1
290
     0
176
     1
290
     1
176
     1
290
     1
176
     1
290
     0
176
     1
290
     0
176
     1
290
     0
176
     1
290
     0
176
     1
290
     0
176
     1
290
     0
176
     1
 90
       50
176
     1
 40
0.0
176
     1
 40
1.0
176
     1
 90
        0
176
     1
 62
    18
420
        0
176
     1
 90
       50
176
     1
 90
        3
176
     1
 62
     5
420
      255
176
     1
290
     0
176
     1
 90
       50
176
     1
 90
       50
176
     1
 90
       50
176
     1
290
     0
176
     1
 90
       50
176
     1
 62
   256
176
     0
 40
1.0
176
     0
 90
        2
176
     1
  1
strokes_ogs.tif
176
     1
290
     0
176
     1
 40
1.0
176
     1
 40
1.0
176
     1
  0
VISUALSTYLE
  5
3B
102
{ACAD_REACTORS
330
2A
102
}
330
2A
100
AcDbVisualStyle
  2
JitterOff
 70
    20
177
     3
291
     1
 70
    58
 90
        2
176
     0
 90
        2
176
     0
 90
        0
176
     0
 90
        0
176
     0
 40
0.6
176
     0
 40
30.0
176
     0
 62
     7
420
 16777215
176
     0
 90
        1
176
     0
 90
        4
176
     0
 62
     7
176
     0
 62
   257
176
     0
 90
        1
176
     0
 90
        1
176
     0
 40
1.0
176
     0
 90
       10
176
     2
 62
     7
176
     0
 40
1.0
176
     0
 90
        1
176
     0
 90
        6
176
     0
 90
        2
176
     0
 62
     7
176
     0
 90
        5
176
     0
 90
        0
176
     0
 90
        0
176
     0
290
     0
176
     0
 90
        1
176
     0
 40
0.0
176
     0
 90
        0
176
     0
290
     0
176
     0
290
     1
176
     0
290
     1
176
     0
290
     0
176
     0
290
     0
176
     0
290
     0
176
     0
290
     0
176
     0
290
     0
176
     0
290
     0
176
     0
 90
       50
176
     0
 40
0.0
176
     0
 40
1.0
176
     0
 90
        0
176
     0
 62
    18
420
        0
176
     0
 90
       50
176
     0
 90
        3
176
     0
 62
     5
420
      255
176
     0
290
     0
176
     0
 90
       50
176
     0
 90
       50
176
     0
 90
       50
176
     0
290
     0
176
     0
 90
       50
176
     0
 62
   256
176
     0
 40
1.0
176
     0
 90
        2
176
     0
  1
strokes_ogs.tif
176
     0
290
     0
176
     0
 40
1.0
176
     0
 40
1.0
176
     0
  0
VISUALSTYLE
  5
38
102
{ACAD_REACTORS
330
2A
102
}
330
2A
100
AcDbVisualStyle
  2
Linepattern
 70
    14
177
     3
291
     1
 70
    58
 90
        2
176
     1
 90
        2
176
     1
 90
        0
176
     1
 90
        0
176
     1
 40
0.6
176
     1
 40
30.0
176
     1
 62
     7
420
 16777215
176
     1
 90
        1
176
     1
 90
        4
176
     1
 62
     7
176
     1
 62
   257
176
     1
 90
        7
176
     1
 90
        7
176
     1
 40
1.0
176
     1
 90
        8
176
     1
 62
     7
176
     1
 40
1.0
176
     1
 90
        1
176
     1
 90
        6
176
     1
 90
        2
176
     1
 62
     7
176
     1
 90
        5
176
     1
 90
        0
176
     1
 90
        0
176
     1
290
     0
176
     1
 90
        1
176
     1
 40
0.0
176
     1
 90
        0
176
     1
290
     0
176
     1
290
     1
176
     1
290
     1
176
     1
290
     0
176
     1
290
     0
176
     1
290
     0
176
     1
290
     0
176
     1
290
     0
176
     1
290
     0
176
     1
 90
       50
176
     1
 40
0.0
176
     1
 40
1.0
176
     1
 90
        0
176
     1
 62
    18
420
        0
176
     1
 90
       50
176
     1
 90
        3
176
     1
 62
     5
420
      255
176
     1
290
     0
176
     1
 90
       50
176
     1
 90
       50
176
     1
 90
       50
176
     1
290
     0
176
     1
 90
       50
176
     1
 62
   256
176
     0
 40
1.0
176
     0
 90
        2
176
     1
  1
strokes_ogs.tif
176
     1
290
     0
176
     1
 40
1.0
176
     1
 40
1.0
176
     1
  0
VISUALSTYLE
  5
3C
102
{ACAD_REACTORS
330
2A
102
}
330
2A
100
AcDbVisualStyle
  2
OverhangOff
 70
    21
177
     3
291
     1
 70
    58
 90
        2
176
     0
 90
        2
176
     0
 90
        0
176
     0
 90
        0
176
     0
 40
0.6
176
     0
 40
30.0
176
     0
 62
     7
420
 16777215
176
     0
 90
        1
176
     0
 90
        4
176
     0
 62
     7
176
     0
 62
   257
176
     0
 90
        1
176
     0
 90
        1
176
     0
 40
1.0
176
     0
 90
        9
176
     2
 62
     7
176
     0
 40
1.0
176
     0
 90
        1
176
     0
 90
        6
176
     0
 90
        2
176
     0
 62
     7
176
     0
 90
        5
176
     0
 90
        0
176
     0
 90
        0
176
     0
290
     0
176
     0
 90
        1
176
     0
 40
0.0
176
     0
 90
        0
176
     0
290
     0
176
     0
290
     1
176
     0
290
     1
176
     0
290
     0
176
     0
290
     0
176
     0
290
     0
176
     0
290
     0
176
     0
290
     0
176
     0
290
     0
176
     0
 90
       50
176
     0
 40
0.0
176
     0
 40
1.0
176
     0
 90
        0
176
     0
 62
    18
420
        0
176
     0
 90
       50
176
     0
 90
        3
176
     0
 62
     5
420
      255
176
     0
290
     0
176
     0
 90
       50
176
     0
 90
       50
176
     0
 90
       50
176
     0
290
     0
176
     0
 90
       50
176
     0
 62
   256
176
     0
 40
1.0
176
     0
 90
        2
176
     0
  1
strokes_ogs.tif
176
     0
290
     0
176
     0
 40
1.0
176
     0
 40
1.0
176
     0
  0
VISUALSTYLE
  5
33
102
{ACAD_REACTORS
330
2A
102
}
330
2A
100
AcDbVisualStyle
  2
Realistic
 70
     8
177
     3
291
     0
 70
    58
 90
        2
176
     1
 90
        3
176
     1
 90
        0
176
     1
 90
        2
176
     1
 40
0.6
176
     1
 40
30.0
176
     1
 62
     7
420
 16777215
176
     1
 90
        0
176
     1
 90
        0
176
     1
 62
     7
176
     1
 62
   257
176
     1
 90
        1
176
     1
 90
        1
176
     1
 40
1.0
176
     1
 90
        8
176
     1
 62
   257
176
     1
 40
1.0
176
     1
 90
        1
176
     1
 90
        6
176
     1
 90
        2
176
     1
 62
     7
176
     1
 90
        3
176
     1
 90
        0
176
     1
 90
        0
176
     1
290
     0
176
     1
 90
       13
176
     1
 40
0.0
176
     1
 90
        0
176
     1
290
     0
176
     1
290
     1
176
     1
290
     1
176
     1
290
     0
176
     1
290
     0
176
     1
290
     0
176
     1
290
     0
176
     1
290
     0
176
     1
290
     0
176
     1
 90
       50
176
     1
 40
0.0
176
     1
 40
1.0
176
     1
 90
        0
176
     1
 62
    18
420
        0
176
     1
 90
       50
176
     1
 90
        3
176
     1
 62
     5
420
      255
176
     1
290
     0
176
     1
 90
       50
176
     1
 90
       50
176
     1
 90
       50
176
     1
290
     0
176
     1
 90
       50
176
     1
 62
   256
176
     0
 40
1.0
176
     0
 90
        2
176
     1
  1
strokes_ogs.tif
176
     1
290
     0
176
     1
 40
1.0
176
     1
 40
1.0
176
     1
  0
VISUALSTYLE
  5
42
102
{ACAD_REACTORS
330
2A
102
}
330
2A
100
AcDbVisualStyle
  2
Shaded
 70
    27
177
     3
291
     0
 70
    58
 90
        2
176
     1
 90
        2
176
     1
 90
        1
176
     1
 90
        2
176
     1
 40
0.6
176
     1
 40
30.0
176
     1
 62
     7
420
 16777215
176
     1
 90
        0
176
     1
 90
        4
176
     1
 62
     7
176
     1
 62
   257
176
     1
 90
        1
176
     1
 90
        1
176
     1
 40
1.0
176
     1
 90
        8
176
     1
 62
   257
176
     1
 40
1.0
176
     1
 90
        1
176
     1
 90
        6
176
     1
 90
        2
176
     1
 62
     8
420
  7895160
176
     1
 90
        3
176
     1
 90
        0
176
     1
 90
        0
176
     1
290
     0
176
     1
 90
        5
176
     1
 40
0.0
176
     1
 90
        0
176
     1
290
     0
176
     1
290
     1
176
     1
290
     1
176
     1
290
     0
176
     1
290
     0
176
     1
290
     0
176
     1
290
     0
176
     1
290
     0
176
     1
290
     0
176
     1
 90
       50
176
     1
 40
0.0
176
     1
 40
1.0
176
     1
 90
        0
176
     1
 62
    18
420
        0
176
     1
 90
       50
176
     1
 90
        3
176
     1
 62
     5
420
      255
176
     1
290
     0
176
     1
 90
       50
176
     1
 90
       50
176
     1
 90
       50
176
     1
290
     0
176
     1
 90
       50
176
     1
 62
   256
176
     0
 40
1.0
176
     0
 90
        2
176
     1
  1
strokes_ogs.tif
176
     1
290
     0
176
     1
 40
1.0
176
     1
 40
1.0
176
     1
  0
VISUALSTYLE
  5
41
102
{ACAD_REACTORS
330
2A
102
}
330
2A
100
AcDbVisualStyle
  2
Shaded with edges
 70
    26
177
     3
291
     0
 70
    58
 90
        2
176
     1
 90
        2
176
     1
 90
        1
176
     1
 90
        2
176
     1
 40
0.6
176
     1
 40
30.0
176
     1
 62
     7
420
 16777215
176
     1
 90
        1
176
     1
 90
       10
176
     1
 62
     7
176
     1
 62
   257
176
     1
 90
        2
176
     1
 90
        1
176
     1
 40
1.0
176
     1
 90
        8
176
     1
 62
   257
176
     1
 40
1.0
176
     1
 90
        1
176
     1
 90
        6
176
     1
 90
        2
176
     1
 62
     7
176
     1
 90
        3
176
     1
 90
        0
176
     1
 90
        0
176
     1
290
     0
176
     1
 90
        5
176
     1
 40
0.0
176
     1
 90
        0
176
     1
290
     0
176
     1
290
     1
176
     1
290
     1
176
     1
290
     0
176
     1
290
     0
176
     1
290
     0
176
     1
290
     0
176
     1
290
     0
176
     1
290
     0
176
     1
 90
       50
176
     1
 40
0.0
176
     1
 40
1.0
176
     1
 90
        0
176
     1
 62
    18
420
        0
176
     1
 90
       50
176
     1
 90
        3
176
     1
 62
     5
420
      255
176
     1
290
     0
176
     1
 90
       50
176
     1
 90
       50
176
     1
 90
       50
176
     1
290
     0
176
     1
 90
       50
176
     1
 62
   256
176
     0
 40
1.0
176
     0
 90
        2
176
     1
  1
strokes_ogs.tif
176
     1
290
     0
176
     1
 40
1.0
176
     1
 40
1.0
176
     1
  0
VISUALSTYLE
  5
3E
102
{ACAD_REACTORS
330
2A
102
}
330
2A
100
AcDbVisualStyle
  2
Shades of Gray
 70
    23
177
     3
291
     0
 70
    58
 90
        2
176
     1
 90
        2
176
     1
 90
        3
176
     1
 90
        0
176
     1
 40
0.6
176
     1
 40
30.0
176
     1
 62
     7
420
 16777215
176
     1
 90
        2
176
     1
 90
        2
176
     1
 62
     7
176
     1
 62
     7
176
     1
 90
        1
176
     1
 90
        1
176
     1
 40
40.0
176
     1
 90
        8
176
     1
 62
     7
176
     1
 40
1.0
176
     1
 90
        1
176
     1
 90
        6
176
     1
 90
        2
176
     1
 62
     7
176
     1
 90
        3
176
     1
 90
        0
176
     1
 90
        0
176
     1
290
     0
176
     1
 90
        1
176
     1
 40
0.0
176
     1
 90
        0
176
     1
290
     0
176
     1
290
     1
176
     1
290
     1
176
     1
290
     0
176
     1
290
     0
176
     1
290
     0
176
     1
290
     0
176
     1
290
     0
176
     1
290
     0
176
     1
 90
       50
176
     1
 40
0.0
176
     1
 40
1.0
176
     1
 90
        0
176
     1
 62
    18
420
        0
176
     1
 90
       50
176
     1
 90
        3
176
     1
 62
     5
420
      255
176
     1
290
     0
176
     1
 90
       50
176
     1
 90
       50
176
     1
 90
       50
176
     1
290
     0
176
     1
 90
       50
176
     1
 62
   256
176
     0
 40
1.0
176
     0
 90
        2
176
     1
  1
strokes_ogs.tif
176
     1
290
     0
176
     1
 40
1.0
176
     1
 40
1.0
176
     1
  0
VISUALSTYLE
  5
3F
102
{ACAD_REACTORS
330
2A
102
}
330
2A
100
AcDbVisualStyle
  2
Sketchy
 70
    24
177
     3
291
     0
 70
    58
 90
        1
176
     1
 90
        2
176
     1
 90
        2
176
     1
 90
        0
176
     1
 40
0.6
176
     1
 40
30.0
176
     1
 62
     7
420
 16777215
176
     1
 90
        2
176
     1
 90
        2
176
     1
 62
     7
176
     1
 62
     7
176
     1
 90
        1
176
     1
 90
        1
176
     1
 40
40.0
176
     1
 90
       11
176
     1
 62
     7
176
     1
 40
1.0
176
     1
 90
        1
176
     1
 90
        6
176
     1
 90
        2
176
     1
 62
     7
176
     1
 90
        6
176
     1
 90
        0
176
     1
 90
        0
176
     1
290
     0
176
     1
 90
        1
176
     1
 40
0.0
176
     1
 90
        0
176
     1
290
     0
176
     1
290
     1
176
     1
290
     1
176
     1
290
     0
176
     1
290
     0
176
     1
290
     0
176
     1
290
     0
176
     1
290
     0
176
     1
290
     0
176
     1
 90
       50
176
     1
 40
0.0
176
     1
 40
1.0
176
     1
 90
        0
176
     1
 62
    18
420
        0
176
     1
 90
       50
176
     1
 90
        3
176
     1
 62
     5
420
      255
176
     1
290
     0
176
     1
 90
       50
176
     1
 90
       50
176
     1
 90
       50
176
     1
290
     0
176
     1
 90
       50
176
     1
 62
   256
176
     0
 40
1.0
176
     0
 90
        2
176
     1
  1
strokes_ogs.tif
176
     1
290
     0
176
     1
 40
1.0
176
     1
 40
1.0
176
     1
  0
VISUALSTYLE
  5
37
102
{ACAD_REACTORS
330
2A
102
}
330
2A
100
AcDbVisualStyle
  2
Thicken
 70
    13
177
     3
291
     1
 70
    58
 90
        2
176
     1
 90
        2
176
     1
 90
        0
176
     1
 90
        0
176
     1
 40
0.6
176
     1
 40
30.0
176
     1
 62
     7
420
 16777215
176
     1
 90
        1
176
     1
 90
        4
176
     1
 62
     7
176
     1
 62
   257
176
     1
 90
        1
176
     1
 90
        1
176
     1
 40
1.0
176
     1
 90
       12
176
     1
 62
     7
176
     1
 40
1.0
176
     1
 90
        1
176
     1
 90
        6
176
     1
 90
        2
176
     1
 62
     7
176
     1
 90
        5
176
     1
 90
        0
176
     1
 90
        0
176
     1
290
     0
176
     1
 90
        1
176
     1
 40
0.0
176
     1
 90
        0
176
     1
290
     0
176
     1
290
     1
176
     1
290
     1
176
     1
290
     0
176
     1
290
     0
176
     1
290
     0
176
     1
290
     0
176
     1
290
     0
176
     1
290
     0
176
     1
 90
       50
176
     1
 40
0.0
176
     1
 40
1.0
176
     1
 90
        0
176
     1
 62
    18
420
        0
176
     1
 90
       50
176
     1
 90
        3
176
     1
 62
     5
420
      255
176
     1
290
     0
176
     1
 90
       50
176
     1
 90
       50
176
     1
 90
       50
176
     1
290
     0
176
     1
 90
       50
176
     1
 62
   256
176
     0
 40
1.0
176
     0
 90
        2
176
     1
  1
strokes_ogs.tif
176
     1
290
     0
176
     1
 40
1.0
176
     1
 40
1.0
176
     1
  0
VISUALSTYLE
  5
30
102
{ACAD_REACTORS
330
2A
102
}
330
2A
100
AcDbVisualStyle
  2
Wireframe
 70
     5
177
     3
291
     0
 70
    58
 90
        0
176
     1
 90
        2
176
     1
 90
        0
176
     1
 90
        0
176
     1
 40
0.6
176
     1
 40
30.0
176
     1
 62
     7
420
 16777215
176
     1
 90
        1
176
     1
 90
        4
176
     1
 62
     7
176
     1
 62
   257
176
     1
 90
        1
176
     1
 90
        1
176
     1
 40
1.0
176
     1
 90
        0
176
     1
 62
   257
176
     1
 40
1.0
176
     1
 90
        1
176
     1
 90
        6
176
     1
 90
        2
176
     1
 62
     7
176
     1
 90
        3
176
     1
 90
        0
176
     1
 90
        0
176
     1
290
     0
176
     1
 90
        1
176
     1
 40
0.0
176
     1
 90
        0
176
     1
290
     0
176
     1
290
     1
176
     1
290
     1
176
     1
290
     0
176
     1
290
     0
176
     1
290
     0
176
     1
290
     0
176
     1
290
     0
176
     1
290
     0
176
     1
 90
       50
176
     1
 40
0.0
176
     1
 40
1.0
176
     1
 90
        0
176
     1
 62
    18
420
        0
176
     1
 90
       50
176
     1
 90
        3
176
     1
 62
     5
420
      255
176
     1
290
     0
176
     1
 90
       50
176
     1
 90
       50
176
     1
 90
       50
176
     1
290
     0
176
     1
 90
       50
176
     1
 62
   256
176
     0
 40
1.0
176
     0
 90
        2
176
     1
  1
strokes_ogs.tif
176
     1
290
     0
176
     1
 40
1.0
176
     1
 40
1.0
176
     1
  0
VISUALSTYLE
  5
40
102
{ACAD_REACTORS
330
2A
102
}
330
2A
100
AcDbVisualStyle
  2
X-Ray
 70
    25
177
     3
291
     0
 70
    58
 90
        2
176
     1
 90
        2
176
     1
 90
        1
176
     1
 90
        1
176
     1
 40
0.5
176
     1
 40
30.0
176
     1
 62
     7
420
 16777215
176
     1
 90
        1
176
     1
 90
        0
176
     1
 62
     7
176
     1
 62
   257
176
     1
 90
        1
176
     1
 90
        1
176
     1
 40
1.0
176
     1
 90
        8
176
     1
 62
     7
176
     1
 40
1.0
176
     1
 90
        1
176
     1
 90
        6
176
     1
 90
        2
176
     1
 62
     7
176
     1
 90
        3
176
     1
 90
        0
176
     1
 90
        0
176
     1
290
     0
176
     1
 90
       13
176
     1
 40
0.0
176
     1
 90
        0
176
     1
290
     0
176
     1
290
     1
176
     1
290
     1
176
     1
290
     0
176
     1
290
     0
176
     1
290
     0
176
     1
290
     0
176
     1
290
     0
176
     1
290
     0
176
     1
 90
       50
176
     1
 40
0.0
176
     1
 40
1.0
176
     1
 90
        0
176
     1
 62
    18
420
        0
176
     1
 90
       50
176
     1
 90
        3
176
     1
 62
     5
420
      255
176
     1
290
     0
176
     1
 90
       50
176
     1
 90
       50
176
     1
 90
       50
176
     1
290
     0
176
     1
 90
       50
176
     1
 62
   256
176
     0
 40
1.0
176
     0
 90
        2
176
     1
  1
strokes_ogs.tif
176
     1
290
     0
176
     1
 40
1.0
176
     1
 40
1.0
176
     1
  0
DICTIONARYVAR
  5
1B3
102
{ACAD_REACTORS
330
1B2
102
}
330
1B2
100
DictionaryVariables
280
     0
  1
1:1
  0
DICTIONARYVAR
  5
1B8
102
{ACAD_REACTORS
330
1B2
102
}
330
1B2
100
DictionaryVariables
280
     0
  1
Standard
  0
DICTIONARYVAR
  5
1B7
102
{ACAD_REACTORS
330
1B2
102
}
330
1B2
100
DictionaryVariables
280
     0
  1
Standard
  0
DICTIONARY
  5
1B4
330
6A
100
AcDbDictionary
280
     1
281
     1
  3
ACAD_ROUNDTRIP_2008_TABLESTYLE_CELLSTYLEMAP
360
1B5
  0
CELLSTYLEMAP
  5
1B5
102
{ACAD_REACTORS
330
1B4
102
}
330
1B4
100
AcDbCellStyleMap
 90
        3
300
CELLSTYLE
  1
TABLEFORMAT_BEGIN
 90
        5
170
     1
 91
        0
 92
    32768
 62
   257
 93
        1
300
CONTENTFORMAT
  1
CONTENTFORMAT_BEGIN
 90
        0
 91
        0
 92
        4
 93
        0
300

 40
0.0
140
1.0
 94
        5
 62
     0
340
11
144
0.25
309
CONTENTFORMAT_END
171
     1
301
MARGIN
  1
CELLMARGIN_BEGIN
 40
0.06
 40
0.06
 40
0.06
 40
0.06
 40
0.06
 40
0.06
309
CELLMARGIN_END
 94
        6
 95
        1
302
GRIDFORMAT
  1
GRIDFORMAT_BEGIN
 90
        0
 91
        1
 62
     0
 92
       -2
340
14
 93
        0
 40
0.045
309
GRIDFORMAT_END
 95
        2
302
GRIDFORMAT
  1
GRIDFORMAT_BEGIN
 90
        0
 91
        1
 62
     0
 92
       -2
340
14
 93
        0
 40
0.045
309
GRIDFORMAT_END
 95
        4
302
GRIDFORMAT
  1
GRIDFORMAT_BEGIN
 90
        0
 91
        1
 62
     0
 92
       -2
340
14
 93
        0
 40
0.045
309
GRIDFORMAT_END
 95
        8
302
GRIDFORMAT
  1
GRIDFORMAT_BEGIN
 90
        0
 91
        1
 62
     0
 92
       -2
340
14
 93
        0
 40
0.045
309
GRIDFORMAT_END
 95
       16
302
GRIDFORMAT
  1
GRIDFORMAT_BEGIN
 90
        0
 91
        1
 62
     0
 92
       -2
340
14
 93
        0
 40
0.045
309
GRIDFORMAT_END
 95
       32
302
GRIDFORMAT
  1
GRIDFORMAT_BEGIN
 90
        0
 91
        1
 62
     0
 92
       -2
340
14
 93
        0
 40
0.045
309
GRIDFORMAT_END
309
TABLEFORMAT_END
  1
CELLSTYLE_BEGIN
 90
        1
 91
        1
300
_TITLE
309
CELLSTYLE_END
300
CELLSTYLE
  1
TABLEFORMAT_BEGIN
 90
        5
170
     1
 91
        0
 92
        0
 62
   257
 93
        1
300
CONTENTFORMAT
  1
CONTENTFORMAT_BEGIN
 90
        0
 91
        0
 92
        4
 93
        0
300

 40
0.0
140
1.0
 94
        5
 62
     0
340
11
144
0.18
309
CONTENTFORMAT_END
171
     1
301
MARGIN
  1
CELLMARGIN_BEGIN
 40
0.06
 40
0.06
 40
0.06
 40
0.06
 40
0.06
 40
0.06
309
CELLMARGIN_END
 94
        6
 95
        1
302
GRIDFORMAT
  1
GRIDFORMAT_BEGIN
 90
        0
 91
        1
 62
     0
 92
       -2
340
14
 93
        0
 40
0.045
309
GRIDFORMAT_END
 95
        2
302
GRIDFORMAT
  1
GRIDFORMAT_BEGIN
 90
        0
 91
        1
 62
     0
 92
       -2
340
14
 93
        0
 40
0.045
309
GRIDFORMAT_END
 95
        4
302
GRIDFORMAT
  1
GRIDFORMAT_BEGIN
 90
        0
 91
        1
 62
     0
 92
       -2
340
14
 93
        0
 40
0.045
309
GRIDFORMAT_END
 95
        8
302
GRIDFORMAT
  1
GRIDFORMAT_BEGIN
 90
        0
 91
        1
 62
     0
 92
       -2
340
14
 93
        0
 40
0.045
309
GRIDFORMAT_END
 95
       16
302
GRIDFORMAT
  1
GRIDFORMAT_BEGIN
 90
        0
 91
        1
 62
     0
 92
       -2
340
14
 93
        0
 40
0.045
309
GRIDFORMAT_END
 95
       32
302
GRIDFORMAT
  1
GRIDFORMAT_BEGIN
 90
        0
 91
        1
 62
     0
 92
       -2
340
14
 93
        0
 40
0.045
309
GRIDFORMAT_END
309
TABLEFORMAT_END
  1
CELLSTYLE_BEGIN
 90
        2
 91
        1
300
_HEADER
309
CELLSTYLE_END
300
CELLSTYLE
  1
TABLEFORMAT_BEGIN
 90
        5
170
     1
 91
        0
 92
        0
 62
   257
 93
        1
300
CONTENTFORMAT
  1
CONTENTFORMAT_BEGIN
 90
        0
 91
        0
 92
        4
 93
        0
300

 40
0.0
140
1.0
 94
        2
 62
     0
340
11
144
0.18
309
CONTENTFORMAT_END
171
     1
301
MARGIN
  1
CELLMARGIN_BEGIN
 40
0.06
 40
0.06
 40
0.06
 40
0.06
 40
0.06
 40
0.06
309
CELLMARGIN_END
 94
        6
 95
        1
302
GRIDFORMAT
  1
GRIDFORMAT_BEGIN
 90
        0
 91
        1
 62
     0
 92
       -2
340
14
 93
        0
 40
0.045
309
GRIDFORMAT_END
 95
        2
302
GRIDFORMAT
  1
GRIDFORMAT_BEGIN
 90
        0
 91
        1
 62
     0
 92
       -2
340
14
 93
        0
 40
0.045
309
GRIDFORMAT_END
 95
        4
302
GRIDFORMAT
  1
GRIDFORMAT_BEGIN
 90
        0
 91
        1
 62
     0
 92
       -2
340
14
 93
        0
 40
0.045
309
GRIDFORMAT_END
 95
        8
302
GRIDFORMAT
  1
GRIDFORMAT_BEGIN
 90
        0
 91
        1
 62
     0
 92
       -2
340
14
 93
        0
 40
0.045
309
GRIDFORMAT_END
 95
       16
302
GRIDFORMAT
  1
GRIDFORMAT_BEGIN
 90
        0
 91
        1
 62
     0
 92
       -2
340
14
 93
        0
 40
0.045
309
GRIDFORMAT_END
 95
       32
302
GRIDFORMAT
  1
GRIDFORMAT_BEGIN
 90
        0
 91
        1
 62
     0
 92
       -2
340
14
 93
        0
 40
0.045
309
GRIDFORMAT_END
309
TABLEFORMAT_END
  1
CELLSTYLE_BEGIN
 90
        3
 91
        2
300
_DATA
309
CELLSTYLE_END
  0
ENDSEC
  0
EOF