0
SECTION
  2
HEADER
  9
$ACADVER
  1
AC1027
  9
$ACADMAINTVER
 70
     8
  9
$DWGCODEPAGE
  3
ANSI_1252
  9
$REQUIREDVERSIONS
160
                 0
  9
$COMMENTS
  1
File was created by Cadenas
  9
$CUSTOMPROPERTYTAG
  1
NN
  9
$CUSTOMPROPERTY
  1
Grip Tight Tapped Base Inch Bore
  9
$CUSTOMPROPERTYTAG
  1
NT
  9
$CUSTOMPROPERTY
  1
GT Normal Duty Tapped Base Pillow Blocks
  9
$CUSTOMPROPERTYTAG
  1
NB
  9
$CUSTOMPROPERTY
  1
129276
  9
$CUSTOMPROPERTYTAG
  1
NBSYN
  9
$CUSTOMPROPERTY
  1
$PN.$LUBE.
  9
$CUSTOMPROPERTYTAG
  1
LINA
  9
$CUSTOMPROPERTY
  1
129276
  9
$CUSTOMPROPERTYTAG
  1
SERIES
  9
$CUSTOMPROPERTY
  1
204
  9
$CUSTOMPROPERTYTAG
  1
SS
  9
$CUSTOMPROPERTY
  1
3/4
  9
$CUSTOMPROPERTYTAG
  1
PN
  9
$CUSTOMPROPERTY
  1
129276
  9
$CUSTOMPROPERTYTAG
  1
DESCRIPTION
  9
$CUSTOMPROPERTY
  1
TB-GT-012
  9
$CUSTOMPROPERTYTAG
  1
A
  9
$CUSTOMPROPERTY
  1
1-15/32
  9
$CUSTOMPROPERTYTAG
  1
B
  9
$CUSTOMPROPERTY
  1
2-7/8
  9
$CUSTOMPROPERTYTAG
  1
C
  9
$CUSTOMPROPERTY
  1
1-1/2
  9
$CUSTOMPROPERTYTAG
  1
D
  9
$CUSTOMPROPERTY
  1
2
  9
$CUSTOMPROPERTYTAG
  1
J
  9
$CUSTOMPROPERTY
  1
2-9/16
  9
$CUSTOMPROPERTYTAG
  1
L
  9
$CUSTOMPROPERTY
  1
1-1/2
  9
$CUSTOMPROPERTYTAG
  1
M
  9
$CUSTOMPROPERTY
  1
1-5/16
  9
$CUSTOMPROPERTYTAG
  1
N
  9
$CUSTOMPROPERTY
  1
1/2
  9
$CUSTOMPROPERTYTAG
  1
R
  9
$CUSTOMPROPERTY
  1
3/8-16
  9
$CUSTOMPROPERTYTAG
  1
S
  9
$CUSTOMPROPERTY
  1
63/64
  9
$CUSTOMPROPERTYTAG
  1
Z
  9
$CUSTOMPROPERTY
  1
63/64
  9
$CUSTOMPROPERTYTAG
  1
COMPANY
  9
$CUSTOMPROPERTY
  1
baldor
  9
$INSBASE
 10
0.0
 20
0.0
 30
0.0
  9
$EXTMIN
 10
1.000000000000000E+20
 20
1.000000000000000E+20
 30
1.000000000000000E+20
  9
$EXTMAX
 10
-1.000000000000000E+20
 20
-1.000000000000000E+20
 30
-1.000000000000000E+20
  9
$LIMMIN
 10
0.0
 20
0.0
  9
$LIMMAX
 10
12.0
 20
9.0
  9
$ORTHOMODE
 70
     0
  9
$REGENMODE
 70
     1
  9
$FILLMODE
 70
     1
  9
$QTEXTMODE
 70
     0
  9
$MIRRTEXT
 70
     1
  9
$LTSCALE
 40
1.0
  9
$ATTMODE
 70
     1
  9
$TEXTSIZE
 40
0.2
  9
$TRACEWID
 40
0.05
  9
$TEXTSTYLE
  7
Standard
  9
$CLAYER
  8
0
  9
$CELTYPE
  6
ByLayer
  9
$CECOLOR
 62
   256
  9
$CELTSCALE
 40
1.0
  9
$DISPSILH
 70
     0
  9
$DIMSCALE
 40
1.0
  9
$DIMASZ
 40
0.18
  9
$DIMEXO
 40
0.0625
  9
$DIMDLI
 40
0.38
  9
$DIMRND
 40
0.0
  9
$DIMDLE
 40
0.0
  9
$DIMEXE
 40
0.18
  9
$DIMTP
 40
0.0
  9
$DIMTM
 40
0.0
  9
$DIMTXT
 40
0.18
  9
$DIMCEN
 40
0.09
  9
$DIMTSZ
 40
0.0
  9
$DIMTOL
 70
     0
  9
$DIMLIM
 70
     0
  9
$DIMTIH
 70
     1
  9
$DIMTOH
 70
     1
  9
$DIMSE1
 70
     0
  9
$DIMSE2
 70
     0
  9
$DIMTAD
 70
     0
  9
$DIMZIN
 70
     0
  9
$DIMBLK
  1

  9
$DIMASO
 70
     1
  9
$DIMSHO
 70
     1
  9
$DIMPOST
  1

  9
$DIMAPOST
  1

  9
$DIMALT
 70
     0
  9
$DIMALTD
 70
     2
  9
$DIMALTF
 40
25.4
  9
$DIMLFAC
 40
1.0
  9
$DIMTOFL
 70
     0
  9
$DIMTVP
 40
0.0
  9
$DIMTIX
 70
     0
  9
$DIMSOXD
 70
     0
  9
$DIMSAH
 70
     0
  9
$DIMBLK1
  1

  9
$DIMBLK2
  1

  9
$DIMSTYLE
  2
Standard
  9
$DIMCLRD
 70
     0
  9
$DIMCLRE
 70
     0
  9
$DIMCLRT
 70
     0
  9
$DIMTFAC
 40
1.0
  9
$DIMGAP
 40
0.09
  9
$DIMJUST
 70
     0
  9
$DIMSD1
 70
     0
  9
$DIMSD2
 70
     0
  9
$DIMTOLJ
 70
     1
  9
$DIMTZIN
 70
     0
  9
$DIMALTZ
 70
     0
  9
$DIMALTTZ
 70
     0
  9
$DIMUPT
 70
     0
  9
$DIMDEC
 70
     4
  9
$DIMTDEC
 70
     4
  9
$DIMALTU
 70
     2
  9
$DIMALTTD
 70
     2
  9
$DIMTXSTY
  7
Standard
  9
$DIMAUNIT
 70
     0
  9
$DIMADEC
 70
     0
  9
$DIMALTRND
 40
0.0
  9
$DIMAZIN
 70
     0
  9
$DIMDSEP
 70
    46
  9
$DIMATFIT
 70
     3
  9
$DIMFRAC
 70
     0
  9
$DIMLDRBLK
  1

  9
$DIMLUNIT
 70
     2
  9
$DIMLWD
 70
    -2
  9
$DIMLWE
 70
    -2
  9
$DIMTMOVE
 70
     0
  9
$DIMFXL
 40
1.0
  9
$DIMFXLON
 70
     0
  9
$DIMJOGANG
 40
0.7853981633974483
  9
$DIMTFILL
 70
     0
  9
$DIMTFILLCLR
 70
     0
  9
$DIMARCSYM
 70
     0
  9
$DIMLTYPE
  6

  9
$DIMLTEX1
  6

  9
$DIMLTEX2
  6

  9
$DIMTXTDIRECTION
 70
     0
  9
$LUNITS
 70
     2
  9
$LUPREC
 70
     4
  9
$SKETCHINC
 40
0.1
  9
$FILLETRAD
 40
0.5
  9
$AUNITS
 70
     0
  9
$AUPREC
 70
     0
  9
$MENU
  1
.
  9
$ELEVATION
 40
0.0
  9
$PELEVATION
 40
0.0
  9
$THICKNESS
 40
0.0
  9
$LIMCHECK
 70
     0
  9
$CHAMFERA
 40
0.0
  9
$CHAMFERB
 40
0.0
  9
$CHAMFERC
 40
0.0
  9
$CHAMFERD
 40
0.0
  9
$SKPOLY
 70
     0
  9
$TDCREATE
 40
2458168.994270451
  9
$TDUCREATE
 40
2458168.952603785
  9
$TDUPDATE
 40
2458168.994270625
  9
$TDUUPDATE
 40
2458168.952603959
  9
$TDINDWG
 40
0.0000000116
  9
$TDUSRTIMER
 40
0.0000000116
  9
$USRTIMER
 70
     1
  9
$ANGBASE
 50
0.0
  9
$ANGDIR
 70
     0
  9
$PDMODE
 70
     0
  9
$PDSIZE
 40
0.0
  9
$PLINEWID
 40
0.0
  9
$SPLFRAME
 70
     0
  9
$SPLINETYPE
 70
     6
  9
$SPLINESEGS
 70
     8
  9
$HANDSEED
  5
2DF
  9
$SURFTAB1
 70
     6
  9
$SURFTAB2
 70
     6
  9
$SURFTYPE
 70
     6
  9
$SURFU
 70
     6
  9
$SURFV
 70
     6
  9
$UCSBASE
  2

  9
$UCSNAME
  2

  9
$UCSORG
 10
0.0
 20
0.0
 30
0.0
  9
$UCSXDIR
 10
1.0
 20
0.0
 30
0.0
  9
$UCSYDIR
 10
0.0
 20
1.0
 30
0.0
  9
$UCSORTHOREF
  2

  9
$UCSORTHOVIEW
 70
     0
  9
$UCSORGTOP
 10
0.0
 20
0.0
 30
0.0
  9
$UCSORGBOTTOM
 10
0.0
 20
0.0
 30
0.0
  9
$UCSORGLEFT
 10
0.0
 20
0.0
 30
0.0
  9
$UCSORGRIGHT
 10
0.0
 20
0.0
 30
0.0
  9
$UCSORGFRONT
 10
0.0
 20
0.0
 30
0.0
  9
$UCSORGBACK
 10
0.0
 20
0.0
 30
0.0
  9
$PUCSBASE
  2

  9
$PUCSNAME
  2

  9
$PUCSORG
 10
0.0
 20
0.0
 30
0.0
  9
$PUCSXDIR
 10
1.0
 20
0.0
 30
0.0
  9
$PUCSYDIR
 10
0.0
 20
1.0
 30
0.0
  9
$PUCSORTHOREF
  2

  9
$PUCSORTHOVIEW
 70
     0
  9
$PUCSORGTOP
 10
0.0
 20
0.0
 30
0.0
  9
$PUCSORGBOTTOM
 10
0.0
 20
0.0
 30
0.0
  9
$PUCSORGLEFT
 10
0.0
 20
0.0
 30
0.0
  9
$PUCSORGRIGHT
 10
0.0
 20
0.0
 30
0.0
  9
$PUCSORGFRONT
 10
0.0
 20
0.0
 30
0.0
  9
$PUCSORGBACK
 10
0.0
 20
0.0
 30
0.0
  9
$USERI1
 70
     0
  9
$USERI2
 70
     0
  9
$USERI3
 70
     0
  9
$USERI4
 70
     0
  9
$USERI5
 70
     0
  9
$USERR1
 40
0.0
  9
$USERR2
 40
0.0
  9
$USERR3
 40
0.0
  9
$USERR4
 40
0.0
  9
$USERR5
 40
0.0
  9
$WORLDVIEW
 70
     1
  9
$SHADEDGE
 70
     3
  9
$SHADEDIF
 70
    70
  9
$TILEMODE
 70
     1
  9
$MAXACTVP
 70
    64
  9
$PINSBASE
 10
0.0
 20
0.0
 30
0.0
  9
$PLIMCHECK
 70
     0
  9
$PEXTMIN
 10
1.000000000000000E+20
 20
1.000000000000000E+20
 30
1.000000000000000E+20
  9
$PEXTMAX
 10
-1.000000000000000E+20
 20
-1.000000000000000E+20
 30
-1.000000000000000E+20
  9
$PLIMMIN
 10
0.0
 20
0.0
  9
$PLIMMAX
 10
12.0
 20
9.0
  9
$UNITMODE
 70
     0
  9
$VISRETAIN
 70
     1
  9
$PLINEGEN
 70
     0
  9
$PSLTSCALE
 70
     1
  9
$TREEDEPTH
 70
  3020
  9
$CMLSTYLE
  2
Standard
  9
$CMLJUST
 70
     0
  9
$CMLSCALE
 40
1.0
  9
$PROXYGRAPHICS
 70
     1
  9
$MEASUREMENT
 70
     0
  9
$CELWEIGHT
370
    -1
  9
$ENDCAPS
280
     0
  9
$JOINSTYLE
280
     0
  9
$LWDISPLAY
290
     0
  9
$INSUNITS
 70
     1
  9
$HYPERLINKBASE
  1

  9
$STYLESHEET
  1

  9
$XEDIT
290
     1
  9
$CEPSNTYPE
380
     0
  9
$PSTYLEMODE
290
     1
  9
$FINGERPRINTGUID
  2
{2B3AFEC8-42FE-4553-AB38-BF9CA13E9ADE}
  9
$VERSIONGUID
  2
{FAEB1C32-E019-11D5-929B-00C0DF256EC4}
  9
$EXTNAMES
290
     1
  9
$PSVPSCALE
 40
0.0
  9
$OLESTARTUP
290
     0
  9
$SORTENTS
280
   127
  9
$INDEXCTL
280
     0
  9
$HIDETEXT
280
     1
  9
$XCLIPFRAME
280
     2
  9
$HALOGAP
280
     0
  9
$OBSCOLOR
 70
   257
  9
$OBSLTYPE
280
     0
  9
$INTERSECTIONDISPLAY
280
     0
  9
$INTERSECTIONCOLOR
 70
   257
  9
$DIMASSOC
280
     2
  9
$PROJECTNAME
  1

  9
$CAMERADISPLAY
290
     0
  9
$LENSLENGTH
 40
50.0
  9
$CAMERAHEIGHT
 40
0.0
  9
$STEPSPERSEC
 40
2.0
  9
$STEPSIZE
 40
6.0
  9
$3DDWFPREC
 40
2.0
  9
$PSOLWIDTH
 40
0.25
  9
$PSOLHEIGHT
 40
4.0
  9
$LOFTANG1
 40
1.570796326794897
  9
$LOFTANG2
 40
1.570796326794897
  9
$LOFTMAG1
 40
0.0
  9
$LOFTMAG2
 40
0.0
  9
$LOFTPARAM
 70
     7
  9
$LOFTNORMALS
280
     1
  9
$LATITUDE
 40
37.795
  9
$LONGITUDE
 40
-122.394
  9
$NORTHDIRECTION
 40
0.0
  9
$TIMEZONE
 70
 -8000
  9
$LIGHTGLYPHDISPLAY
280
     1
  9
$TILEMODELIGHTSYNCH
280
     1
  9
$CMATERIAL
347
44
  9
$SOLIDHIST
280
     0
  9
$SHOWHIST
280
     1
  9
$DWFFRAME
280
     2
  9
$DGNFRAME
280
     2
  9
$REALWORLDSCALE
290
     1
  9
$INTERFERECOLOR
 62
   256
  9
$CSHADOW
280
     0
  9
$SHADOWPLANELOCATION
 40
0.0
  0
ENDSEC
  0
SECTION
  2
CLASSES
  0
CLASS
  1
ACDBDICTIONARYWDFLT
  2
AcDbDictionaryWithDefault
  3
ObjectDBX Classes
 90
        0
 91
        4
280
     0
281
     0
  0
CLASS
  1
VISUALSTYLE
  2
AcDbVisualStyle
  3
ObjectDBX Classes
 90
     4095
 91
        4
280
     0
281
     0
  0
CLASS
  1
MATERIAL
  2
AcDbMaterial
  3
ObjectDBX Classes
 90
     1153
 91
        4
280
     0
281
     0
  0
CLASS
  1
SCALE
  2
AcDbScale
  3
ObjectDBX Classes
 90
     1153
 91
        4
280
     0
281
     0
  0
CLASS
  1
TABLESTYLE
  2
AcDbTableStyle
  3
ObjectDBX Classes
 90
     4095
 91
        4
280
     0
281
     0
  0
CLASS
  1
MLEADERSTYLE
  2
AcDbMLeaderStyle
  3
ACDB_MLEADERSTYLE_CLASS
 90
     4095
 91
        4
280
     0
281
     0
  0
CLASS
  1
SUN
  2
AcDbSun
  3
SCENEOE
 90
     1153
 91
        4
280
     0
281
     0
  0
CLASS
  1
DICTIONARYVAR
  2
AcDbDictionaryVar
  3
ObjectDBX Classes
 90
        0
 91
        4
280
     0
281
     0
  0
CLASS
  1
CELLSTYLEMAP
  2
AcDbCellStyleMap
  3
ObjectDBX Classes
 90
     1152
 91
        4
280
     0
281
     0
  0
ENDSEC
  0
SECTION
  2
TABLES
  0
TABLE
  2
VPORT
  5
8
330
0
100
AcDbSymbolTable
 70
     1
  0
VPORT
  5
29
330
8
100
AcDbSymbolTableRecord
100
AcDbViewportTableRecord
  2
*Active
 70
     0
 10
0.0
 20
0.0
 11
1.0
 21
1.0
 12
0.0
 22
-0.1164062499999998
 13
0.0
 23
0.0
 14
0.5
 24
0.5
 15
0.5
 25
0.5
 16
0.0
 26
0.0
 36
1.0
 17
0.0
 27
0.0
 37
0.0
 40
1.92046875
 41
1.526970954356847
 42
50.0
 43
0.0
 44
0.0
 50
0.0
 51
0.0
 71
     0
 72
   100
 73
     1
 74
     3
 75
     0
 76
     0
 77
     0
 78
     0
281
     0
 65
     1
110
0.0
120
0.0
130
0.0
111
1.0
121
0.0
131
0.0
112
0.0
122
1.0
132
0.0
 79
     0
146
0.0
348
2F
 60
     3
 61
     5
292
     1
282
     1
141
0.0
142
0.0
 63
   250
361
6D
  0
ENDTAB
  0
TABLE
  2
LTYPE
  5
5
330
0
100
AcDbSymbolTable
 70
     3
  0
LTYPE
  5
14
330
5
100
AcDbSymbolTableRecord
100
AcDbLinetypeTableRecord
  2
ByBlock
 70
     0
  3

 72
    65
 73
     0
 40
0.0
  0
LTYPE
  5
15
330
5
100
AcDbSymbolTableRecord
100
AcDbLinetypeTableRecord
  2
ByLayer
 70
     0
  3

 72
    65
 73
     0
 40
0.0
  0
LTYPE
  5
16
330
5
100
AcDbSymbolTableRecord
100
AcDbLinetypeTableRecord
  2
Continuous
 70
     0
  3
Solid line
 72
    65
 73
     0
 40
0.0
  0
LTYPE
  5
9E
330
5
100
AcDbSymbolTableRecord
100
AcDbLinetypeTableRecord
  2
Dashed
 70
     0
  3

 72
    65
 73
     2
 40
2.0
 49
1.0
 74
     0
 49
-1.0
 74
     0
  0
LTYPE
  5
10C
330
5
100
AcDbSymbolTableRecord
100
AcDbLinetypeTableRecord
  2
Center
 70
     0
  3

 72
    65
 73
     4
 40
1.5
 49
0.45
 74
     0
 49
-0.5
 74
     0
 49
0.05
 74
     0
 49
-0.5
 74
     0
  0
ENDTAB
  0
TABLE
  2
LAYER
  5
2
330
0
100
AcDbSymbolTable
 70
     7
  0
LAYER
  5
10
330
2
100
AcDbSymbolTableRecord
100
AcDbLayerTableRecord
  2
0
 70
     0
 62
     7
  6
Continuous
370
    -3
390
F
347
46
348
0
  0
LAYER
  5
72
330
2
100
AcDbSymbolTableRecord
100
AcDbLayerTableRecord
  2
AM_6
 70
     0
 62
    -2
  6
Continuous
370
    35
390
F
347
46
348
0
  0
LAYER
  5
9F
330
2
100
AcDbSymbolTableRecord
100
AcDbLayerTableRecord
  2
AM_9
 70
     0
 62
     6
  6
Dashed
370
    25
390
F
347
46
348
0
  0
LAYER
  5
10A
330
2
100
AcDbSymbolTableRecord
100
AcDbLayerTableRecord
  2
AM_5
 70
     0
 62
     3
  6
Continuous
370
    25
390
F
347
46
348
0
  0
LAYER
  5
10D
330
2
100
AcDbSymbolTableRecord
100
AcDbLayerTableRecord
  2
AM_7
 70
     0
 62
     7
  6
Center
370
    25
390
F
347
46
348
0
  0
LAYER
  5
10F
330
2
100
AcDbSymbolTableRecord
100
AcDbLayerTableRecord
  2
AM_4
 70
     0
 62
     7
  6
Continuous
370
    50
390
F
347
46
348
0
  0
LAYER
  5
2D1
330
2
100
AcDbSymbolTableRecord
100
AcDbLayerTableRecord
  2
ConnectionPoints
 70
     0
 62
     7
  6
Continuous
370
    50
390
F
347
46
348
0
  0
ENDTAB
  0
TABLE
  2
STYLE
  5
3
330
0
100
AcDbSymbolTable
 70
     1
  0
STYLE
  5
11
330
3
100
AcDbSymbolTableRecord
100
AcDbTextStyleTableRecord
  2
Standard
 70
     0
 40
0.0
 41
1.0
 50
0.0
 71
     0
 42
0.2
  3
txt
  4

  0
ENDTAB
  0
TABLE
  2
VIEW
  5
6
330
0
100
AcDbSymbolTable
 70
     0
  0
ENDTAB
  0
TABLE
  2
UCS
  5
7
330
0
100
AcDbSymbolTable
 70
     0
  0
ENDTAB
  0
TABLE
  2
APPID
  5
9
330
0
100
AcDbSymbolTable
 70
     1
  0
APPID
  5
12
330
9
100
AcDbSymbolTableRecord
100
AcDbRegAppTableRecord
  2
ACAD
 70
     0
  0
ENDTAB
  0
TABLE
  2
DIMSTYLE
  5
A
330
0
100
AcDbSymbolTable
 70
     1
100
AcDbDimStyleTable
  0
DIMSTYLE
105
27
330
A
100
AcDbSymbolTableRecord
100
AcDbDimStyleTableRecord
  2
Standard
 70
     0
178
     0
340
11
  0
ENDTAB
  0
TABLE
  2
BLOCK_RECORD
  5
1
330
0
100
AcDbSymbolTable
 70
     5
  0
BLOCK_RECORD
  5
1F
330
1
100
AcDbSymbolTableRecord
100
AcDbBlockTableRecord
  2
*Model_Space
340
22
 70
     0
280
     1
281
     0
  0
BLOCK_RECORD
  5
1B
330
1
100
AcDbSymbolTableRecord
100
AcDbBlockTableRecord
  2
*Paper_Space
340
1E
 70
     0
280
     1
281
     0
  0
BLOCK_RECORD
  5
23
330
1
100
AcDbSymbolTableRecord
100
AcDbBlockTableRecord
  2
*Paper_Space0
340
26
 70
     0
280
     1
281
     0
  0
BLOCK_RECORD
  5
6E
330
1
100
AcDbSymbolTableRecord
100
AcDbBlockTableRecord
  2
1_129276_4
340
0
102
{BLKREFS
331
6F
102
}
 70
     0
280
     1
281
     0
  0
BLOCK_RECORD
  5
88
330
1
100
AcDbSymbolTableRecord
100
AcDbBlockTableRecord
  2
2_129517I_0_in_129276_4
340
0
102
{BLKREFS
331
89
102
}
 70
     0
280
     1
281
     0
  0
BLOCK_RECORD
  5
CD
330
1
100
AcDbSymbolTableRecord
100
AcDbBlockTableRecord
  2
3_129904_0_in_129276_4
340
0
102
{BLKREFS
331
CE
102
}
 70
     0
280
     1
281
     0
  0
BLOCK_RECORD
  5
123
330
1
100
AcDbSymbolTableRecord
100
AcDbBlockTableRecord
  2
4_129457I_0_in_129276_4
340
0
102
{BLKREFS
331
124
102
}
 70
     0
280
     1
281
     0
  0
ENDTAB
  0
ENDSEC
  0
SECTION
  2
BLOCKS
  0
BLOCK
  5
20
330
1F
100
AcDbEntity
  8
0
100
AcDbBlockBegin
  2
*Model_Space
 70
     0
 10
0.0
 20
0.0
 30
0.0
  3
*Model_Space
  1

  0
ENDBLK
  5
21
330
1F
100
AcDbEntity
  8
0
100
AcDbBlockEnd
  0
BLOCK
  5
1C
330
1B
100
AcDbEntity
 67
     1
  8
0
100
AcDbBlockBegin
  2
*Paper_Space
 70
     0
 10
0.0
 20
0.0
 30
0.0
  3
*Paper_Space
  1

  0
ENDBLK
  5
1D
330
1B
100
AcDbEntity
 67
     1
  8
0
100
AcDbBlockEnd
  0
BLOCK
  5
24
330
23
100
AcDbEntity
  8
0
100
AcDbBlockBegin
  2
*Paper_Space0
 70
     0
 10
0.0
 20
0.0
 30
0.0
  3
*Paper_Space0
  1

  0
ENDBLK
  5
25
330
23
100
AcDbEntity
  8
0
100
AcDbBlockEnd
  0
BLOCK
  5
70
330
6E
100
AcDbEntity
  8
0
100
AcDbBlockBegin
  2
1_129276_4
 70
     2
 10
0.0
 20
0.0
 30
0.0
  3
1_129276_4
  1

  0
ATTDEF
  5
73
330
6E
100
AcDbEntity
  8
AM_6
100
AcDbText
 10
6.4375
 20
0.8249999999999998
 30
0.0
 40
0.5
  1
Grip Tight Tapped Base Inch Bore
100
AcDbAttributeDefinition
  3

  2
NN
 70
     8
280
     0
  0
ATTDEF
  5
74
330
6E
100
AcDbEntity
  8
AM_6
100
AcDbText
 10
6.4375
 20
0.3249999999999998
 30
0.0
 40
0.5
  1
GT Normal Duty Tapped Base Pillow Blocks
100
AcDbAttributeDefinition
  3

  2
NT
 70
     8
280
     0
  0
ATTDEF
  5
75
330
6E
100
AcDbEntity
  8
AM_6
100
AcDbText
 10
6.4375
 20
-0.1750000000000002
 30
0.0
 40
0.5
  1
129276
100
AcDbAttributeDefinition
  3

  2
NB
 70
     8
280
     0
  0
ATTDEF
  5
76
330
6E
100
AcDbEntity
  8
AM_6
100
AcDbText
 10
6.4375
 20
-0.6750000000000002
 30
0.0
 40
0.5
  1
$PN.$LUBE.
100
AcDbAttributeDefinition
  3

  2
NBSYN
 70
     8
280
     0
  0
ATTDEF
  5
77
330
6E
100
AcDbEntity
  8
AM_6
100
AcDbText
 10
6.4375
 20
-1.175
 30
0.0
 40
0.5
  1
129276
100
AcDbAttributeDefinition
  3

  2
LINA
 70
     8
280
     0
  0
ATTDEF
  5
78
330
6E
100
AcDbEntity
  8
AM_6
100
AcDbText
 10
6.4375
 20
-1.675
 30
0.0
 40
0.5
  1
204
100
AcDbAttributeDefinition
  3

  2
SERIES
 70
     8
280
     0
  0
ATTDEF
  5
79
330
6E
100
AcDbEntity
  8
AM_6
100
AcDbText
 10
6.4375
 20
-2.175
 30
0.0
 40
0.5
  1
3/4
100
AcDbAttributeDefinition
  3

  2
SS
 70
     8
280
     0
  0
ATTDEF
  5
7A
330
6E
100
AcDbEntity
  8
AM_6
100
AcDbText
 10
6.4375
 20
-2.675
 30
0.0
 40
0.5
  1
129276
100
AcDbAttributeDefinition
  3

  2
PN
 70
     8
280
     0
  0
ATTDEF
  5
7B
330
6E
100
AcDbEntity
  8
AM_6
100
AcDbText
 10
6.4375
 20
-3.175
 30
0.0
 40
0.5
  1
TB-GT-012
100
AcDbAttributeDefinition
  3

  2
DESCRIPTION
 70
     8
280
     0
  0
ATTDEF
  5
7C
330
6E
100
AcDbEntity
  8
AM_6
100
AcDbText
 10
6.4375
 20
-3.675
 30
0.0
 40
0.5
  1
1-15/32
100
AcDbAttributeDefinition
  3

  2
A
 70
     8
280
     0
  0
ATTDEF
  5
7D
330
6E
100
AcDbEntity
  8
AM_6
100
AcDbText
 10
6.4375
 20
-4.175000000000001
 30
0.0
 40
0.5
  1
2-7/8
100
AcDbAttributeDefinition
  3

  2
B
 70
     8
280
     0
  0
ATTDEF
  5
7E
330
6E
100
AcDbEntity
  8
AM_6
100
AcDbText
 10
6.4375
 20
-4.675000000000001
 30
0.0
 40
0.5
  1
1-1/2
100
AcDbAttributeDefinition
  3

  2
C
 70
     8
280
     0
  0
ATTDEF
  5
7F
330
6E
100
AcDbEntity
  8
AM_6
100
AcDbText
 10
6.4375
 20
-5.175000000000001
 30
0.0
 40
0.5
  1
2
100
AcDbAttributeDefinition
  3

  2
D
 70
     8
280
     0
  0
ATTDEF
  5
80
330
6E
100
AcDbEntity
  8
AM_6
100
AcDbText
 10
6.4375
 20
-5.675000000000001
 30
0.0
 40
0.5
  1
2-9/16
100
AcDbAttributeDefinition
  3

  2
J
 70
     8
280
     0
  0
ATTDEF
  5
81
330
6E
100
AcDbEntity
  8
AM_6
100
AcDbText
 10
6.4375
 20
-6.175000000000001
 30
0.0
 40
0.5
  1
1-1/2
100
AcDbAttributeDefinition
  3

  2
L
 70
     8
280
     0
  0
ATTDEF
  5
82
330
6E
100
AcDbEntity
  8
AM_6
100
AcDbText
 10
6.4375
 20
-6.675000000000001
 30
0.0
 40
0.5
  1
1-5/16
100
AcDbAttributeDefinition
  3

  2
M
 70
     8
280
     0
  0
ATTDEF
  5
83
330
6E
100
AcDbEntity
  8
AM_6
100
AcDbText
 10
6.4375
 20
-7.175000000000001
 30
0.0
 40
0.5
  1
1/2
100
AcDbAttributeDefinition
  3

  2
N
 70
     8
280
     0
  0
ATTDEF
  5
84
330
6E
100
AcDbEntity
  8
AM_6
100
AcDbText
 10
6.4375
 20
-7.675000000000001
 30
0.0
 40
0.5
  1
3/8-16
100
AcDbAttributeDefinition
  3

  2
R
 70
     8
280
     0
  0
ATTDEF
  5
85
330
6E
100
AcDbEntity
  8
AM_6
100
AcDbText
 10
6.4375
 20
-8.175
 30
0.0
 40
0.5
  1
63/64
100
AcDbAttributeDefinition
  3

  2
S
 70
     8
280
     0
  0
ATTDEF
  5
86
330
6E
100
AcDbEntity
  8
AM_6
100
AcDbText
 10
6.4375
 20
-8.675
 30
0.0
 40
0.5
  1
63/64
100
AcDbAttributeDefinition
  3

  2
Z
 70
     8
280
     0
  0
ATTDEF
  5
87
330
6E
100
AcDbEntity
  8
AM_6
100
AcDbText
 10
6.4375
 20
-9.175
 30
0.0
 40
0.5
  1
baldor
100
AcDbAttributeDefinition
  3

  2
COMPANY
 70
     8
280
     0
  0
INSERT
  5
89
330
6E
100
AcDbEntity
  8
0
100
AcDbBlockReference
  2
2_129517I_0_in_129276_4
 10
0.0
 20
0.0
 30
0.0
  0
INSERT
  5
CE
330
6E
100
AcDbEntity
  8
0
100
AcDbBlockReference
  2
3_129904_0_in_129276_4
 10
0.0
 20
0.0
 30
0.0
  0
INSERT
  5
124
330
6E
100
AcDbEntity
  8
0
100
AcDbBlockReference
  2
4_129457I_0_in_129276_4
 10
0.0
 20
0.0
 30
0.0
  0
ENDBLK
  5
71
330
6E
100
AcDbEntity
  8
0
100
AcDbBlockEnd
  0
BLOCK
  5
8A
330
88
100
AcDbEntity
  8
0
100
AcDbBlockBegin
  2
2_129517I_0_in_129276_4
 70
     2
 10
0.0
 20
0.0
 30
0.0
  3
2_129517I_0_in_129276_4
  1

  0
ATTDEF
  5
8C
330
88
100
AcDbEntity
  8
AM_6
100
AcDbText
 10
5.925197302728472
 20
0.414
 30
0.0
 40
0.5
  1
INS-GT B
100
AcDbAttributeDefinition
  3

  2
NN
 70
     8
280
     0
  0
ATTDEF
  5
8D
330
88
100
AcDbEntity
  8
AM_6
100
AcDbText
 10
5.925197302728472
 20
-0.086
 30
0.0
 40
0.5
  1
GT Normal Duty Bearing Inserts
100
AcDbAttributeDefinition
  3

  2
NT
 70
     8
280
     0
  0
ATTDEF
  5
8E
330
88
100
AcDbEntity
  8
AM_6
100
AcDbText
 10
5.925197302728472
 20
-0.586
 30
0.0
 40
0.5
  1
129517I
100
AcDbAttributeDefinition
  3

  2
NB
 70
     8
280
     0
  0
ATTDEF
  5
8F
330
88
100
AcDbEntity
  8
AM_6
100
AcDbText
 10
5.925197302728472
 20
-1.086
 30
0.0
 40
0.5
  1
$PN.I
100
AcDbAttributeDefinition
  3

  2
NBSYN
 70
     8
280
     0
  0
ATTDEF
  5
90
330
88
100
AcDbEntity
  8
AM_6
100
AcDbText
 10
5.925197302728472
 20
-1.586
 30
0.0
 40
0.5
  1
129517
100
AcDbAttributeDefinition
  3

  2
LINA
 70
     8
280
     0
  0
ATTDEF
  5
91
330
88
100
AcDbEntity
  8
AM_6
100
AcDbText
 10
5.925197302728472
 20
-2.086
 30
0.0
 40
0.5
  1
204
100
AcDbAttributeDefinition
  3

  2
SERIES
 70
     8
280
     0
  0
ATTDEF
  5
92
330
88
100
AcDbEntity
  8
AM_6
100
AcDbText
 10
5.925197302728472
 20
-2.586
 30
0.0
 40
0.5
  1
129517
100
AcDbAttributeDefinition
  3

  2
PN
 70
     8
280
     0
  0
ATTDEF
  5
93
330
88
100
AcDbEntity
  8
AM_6
100
AcDbText
 10
5.925197302728472
 20
-3.086
 30
0.0
 40
0.5
  1
INS-GT-04
100
AcDbAttributeDefinition
  3

  2
DESCRIPTION
 70
     8
280
     0
  0
ATTDEF
  5
94
330
88
100
AcDbEntity
  8
AM_6
100
AcDbText
 10
5.925197302728472
 20
-3.586
 30
0.0
 40
0.5
  1
1.48
100
AcDbAttributeDefinition
  3

  2
A
 70
     8
280
     0
  0
ATTDEF
  5
95
330
88
100
AcDbEntity
  8
AM_6
100
AcDbText
 10
5.925197302728472
 20
-4.086
 30
0.0
 40
0.5
  1
0.58
100
AcDbAttributeDefinition
  3

  2
C
 70
     8
280
     0
  0
ATTDEF
  5
96
330
88
100
AcDbEntity
  8
AM_6
100
AcDbText
 10
5.925197302728472
 20
-4.586
 30
0.0
 40
0.5
  1
1.8504
100
AcDbAttributeDefinition
  3

  2
D
 70
     8
280
     0
  0
ATTDEF
  5
97
330
88
100
AcDbEntity
  8
AM_6
100
AcDbText
 10
5.925197302728472
 20
-5.086
 30
0.0
 40
0.5
  1
0.15
100
AcDbAttributeDefinition
  3

  2
J
 70
     8
280
     0
  0
ATTDEF
  5
98
330
88
100
AcDbEntity
  8
AM_6
100
AcDbText
 10
5.925197302728472
 20
-5.586
 30
0.0
 40
0.5
  1
1.50
100
AcDbAttributeDefinition
  3

  2
L
 70
     8
280
     0
  0
ATTDEF
  5
99
330
88
100
AcDbEntity
  8
AM_6
100
AcDbText
 10
5.925197302728472
 20
-6.086
 30
0.0
 40
0.5
  1
#10 - 32 x 1/4
100
AcDbAttributeDefinition
  3

  2
N
 70
     8
280
     0
  0
ATTDEF
  5
9A
330
88
100
AcDbEntity
  8
AM_6
100
AcDbText
 10
5.925197302728472
 20
-6.586
 30
0.0
 40
0.5
  1
0.46000
100
AcDbAttributeDefinition
  3

  2
W
 70
     8
280
     0
  0
ATTDEF
  5
9B
330
88
100
AcDbEntity
  8
AM_6
100
AcDbText
 10
5.925197302728472
 20
-7.086
 30
0.0
 40
0.5
  1
1.03
100
AcDbAttributeDefinition
  3

  2
X
 70
     8
280
     0
  0
ATTDEF
  5
9C
330
88
100
AcDbEntity
  8
AM_6
100
AcDbText
 10
5.925197302728472
 20
-7.586
 30
0.0
 40
0.5
  1
1.02
100
AcDbAttributeDefinition
  3

  2
Y
 70
     8
280
     0
  0
ATTDEF
  5
9D
330
88
100
AcDbEntity
  8
AM_6
100
AcDbText
 10
5.925197302728472
 20
-8.086
 30
0.0
 40
0.5
  1
baldor
100
AcDbAttributeDefinition
  3

  2
COMPANY
 70
     8
280
     0
  0
LINE
  5
A0
330
88
100
AcDbEntity
  8
AM_9
100
AcDbLine
 10
0.5595237666666666
 20
-0.7724993459486921
 30
0.0
 11
0.5595237666666666
 21
-0.3862493459486921
 31
0.0
  0
LINE
  5
A1
330
88
100
AcDbEntity
  8
AM_9
100
AcDbLine
 10
-0.5595237666666666
 20
-0.3862493459486921
 30
0.0
 11
-0.5595237666666666
 21
-0.7724993459486921
 31
0.0
  0
LINE
  5
A2
330
88
100
AcDbEntity
  8
AM_9
100
AcDbLine
 10
-0.5595237666666666
 20
-0.3862493459486921
 30
0.0
 11
0.5595237666666666
 21
-0.3862493459486921
 31
0.0
  0
LINE
  5
A3
330
88
100
AcDbEntity
  8
AM_9
100
AcDbLine
 10
0.5595238095238096
 20
-0.3862481186806878
 30
0.0
 11
0.5874690896124627
 21
0.4139999999999999
 31
0.0
  0
LINE
  5
A4
330
88
100
AcDbEntity
  8
AM_9
100
AcDbLine
 10
-0.5874690896124627
 20
0.4139999999999999
 30
0.0
 11
-0.5595238095238096
 21
-0.3862481186806878
 31
0.0
  0
LINE
  5
A5
330
88
100
AcDbEntity
  8
AM_9
100
AcDbLine
 10
0.6130952166666666
 20
-0.643749345948692
 30
0.0
 11
0.6130952166666666
 21
-0.514999345948692
 31
0.0
  0
LINE
  5
A6
330
88
100
AcDbEntity
  8
AM_9
100
AcDbLine
 10
-0.6130952166666666
 20
-0.5159838641697566
 30
0.0
 11
-0.6130952166666666
 21
-0.643749345948692
 31
0.0
  0
LINE
  5
A7
330
88
100
AcDbEntity
  8
AM_9
100
AcDbLine
 10
-0.6434666666666665
 20
0.414
 30
0.0
 11
0.6434666666666665
 21
0.414
 31
0.0
  0
LINE
  5
A8
330
88
100
AcDbEntity
  8
AM_9
100
AcDbLine
 10
-0.6434666666666665
 20
0.414
 30
0.0
 11
-0.6666666666666666
 21
0.3908
 31
0.0
  0
LINE
  5
A9
330
88
100
AcDbEntity
  8
AM_9
100
AcDbLine
 10
0.6666666666666666
 20
0.3908
 30
0.0
 11
0.6434666666666665
 21
0.414
 31
0.0
  0
LINE
  5
AA
330
88
100
AcDbEntity
  8
AM_9
100
AcDbLine
 10
0.6434666666666665
 20
-0.7724993459486921
 30
0.0
 11
0.6666666666666666
 21
-0.7492993459486921
 31
0.0
  0
LINE
  5
AB
330
88
100
AcDbEntity
  8
AM_9
100
AcDbLine
 10
-0.6666666666666666
 20
-0.7492993459486921
 30
0.0
 11
-0.6434666666666665
 21
-0.7724993459486921
 31
0.0
  0
LINE
  5
AC
330
88
100
AcDbEntity
  8
AM_9
100
AcDbLine
 10
-0.6434666666666665
 20
-0.7724993459486921
 30
0.0
 11
0.6434666666666665
 21
-0.7724993459486921
 31
0.0
  0
LINE
  5
AD
330
88
100
AcDbEntity
  8
AM_9
100
AcDbLine
 10
0.6666666666666665
 20
-0.514999345948692
 30
0.0
 11
0.6666666666666665
 21
-0.2899999999999999
 31
0.0
  0
LINE
  5
AE
330
88
100
AcDbEntity
  8
AM_9
100
AcDbLine
 10
-0.6666666666666665
 20
-0.2899999999999999
 30
0.0
 11
-0.6666666666666665
 21
-0.514999345948692
 31
0.0
  0
LINE
  5
AF
330
88
100
AcDbEntity
  8
AM_9
100
AcDbLine
 10
-0.6666666666666665
 20
-0.514999345948692
 30
0.0
 11
0.6666666666666665
 21
-0.514999345948692
 31
0.0
  0
LINE
  5
B0
330
88
100
AcDbEntity
  8
AM_9
100
AcDbLine
 10
0.6666666666666666
 20
-0.7492993459486921
 30
0.0
 11
0.6666666666666666
 21
-0.643749345948692
 31
0.0
  0
LINE
  5
B1
330
88
100
AcDbEntity
  8
AM_9
100
AcDbLine
 10
-0.6666666666666666
 20
-0.643749345948692
 30
0.0
 11
-0.6666666666666666
 21
-0.7492993459486921
 31
0.0
  0
LINE
  5
B2
330
88
100
AcDbEntity
  8
AM_9
100
AcDbLine
 10
-0.6666666666666666
 20
-0.7492993459486921
 30
0.0
 11
0.6666666666666666
 21
-0.7492993459486921
 31
0.0
  0
LINE
  5
B3
330
88
100
AcDbEntity
  8
AM_9
100
AcDbLine
 10
-0.6666666666666666
 20
-0.643749345948692
 30
0.0
 11
0.6666666666666666
 21
-0.643749345948692
 31
0.0
  0
LINE
  5
B4
330
88
100
AcDbEntity
  8
AM_9
100
AcDbLine
 10
-0.6666666666666665
 20
0.3908
 30
0.0
 11
0.6666666666666665
 21
0.3908
 31
0.0
  0
LINE
  5
B5
330
88
100
AcDbEntity
  8
AM_9
100
AcDbLine
 10
0.6666666666666665
 20
0.29
 30
0.0
 11
0.6666666666666665
 21
0.3908
 31
0.0
  0
LINE
  5
B6
330
88
100
AcDbEntity
  8
AM_9
100
AcDbLine
 10
-0.6666666666666665
 20
0.3908
 30
0.0
 11
-0.6666666666666665
 21
0.29
 31
0.0
  0
LINE
  5
B7
330
88
100
AcDbEntity
  8
AM_9
100
AcDbLine
 10
0.8672
 20
-0.18
 30
0.0
 11
0.8672
 21
-0.12
 31
0.0
  0
LINE
  5
B8
330
88
100
AcDbEntity
  8
AM_9
100
AcDbLine
 10
-0.8672
 20
-0.12
 30
0.0
 11
-0.8672
 21
-0.18
 31
0.0
  0
LINE
  5
B9
330
88
100
AcDbEntity
  8
AM_9
100
AcDbLine
 10
-0.8515575530557445
 20
-0.29
 30
0.0
 11
0.8515575530557445
 21
-0.29
 31
0.0
  0
ARC
  5
BA
330
88
100
AcDbEntity
  8
AM_9
100
AcDbCircle
 10
0.8515575530557448
 20
-0.2668000000000007
 30
0.0
 40
0.0231999999999993
100
AcDbArc
 50
270.0
 51
338.5875329531167
  0
ARC
  5
BB
330
88
100
AcDbEntity
  8
AM_9
100
AcDbCircle
 10
-0.8515575530557445
 20
-0.2668000000000005
 30
0.0
 40
0.0231999999999996
100
AcDbArc
 50
201.4124670468835
 51
270.0
  0
LINE
  5
BC
330
88
100
AcDbEntity
  8
AM_9
100
AcDbLine
 10
-0.8515575530557441
 20
0.29
 30
0.0
 11
0.8515575530557441
 21
0.29
 31
0.0
  0
ARC
  5
BD
330
88
100
AcDbEntity
  8
AM_9
100
AcDbCircle
 10
0.851557553055744
 20
0.2667999999999996
 30
0.0
 40
0.0232000000000004
100
AcDbArc
 50
21.41246704688472
 51
90.0
  0
ARC
  5
BE
330
88
100
AcDbEntity
  8
AM_9
100
AcDbCircle
 10
-0.851557553055744
 20
0.2667999999999996
 30
0.0
 40
0.0232000000000003
100
AcDbArc
 50
90.0
 51
158.5875329531153
  0
ARC
  5
BF
330
88
100
AcDbEntity
  8
AM_9
100
AcDbCircle
 10
0.1712000000000018
 20
-0.0000000000000009
 30
0.0
 40
0.753999999999998
100
AcDbArc
 50
338.587532953116
 51
345.621327830502
  0
ARC
  5
C0
330
88
100
AcDbEntity
  8
AM_9
100
AcDbCircle
 10
-0.171200000000032
 20
-0.0000000000000103
 30
0.0
 40
0.7539999999999665
100
AcDbArc
 50
194.3786721694979
 51
201.4124670468842
  0
LINE
  5
C1
330
88
100
AcDbEntity
  8
AM_9
100
AcDbLine
 10
-0.8731562055337044
 20
-0.2752698412698414
 30
0.0
 11
0.8731562055337044
 21
-0.2752698412698414
 31
0.0
  0
LINE
  5
C2
330
88
100
AcDbEntity
  8
AM_9
100
AcDbLine
 10
-0.9015814525863005
 20
-0.1872403100775195
 30
0.0
 11
0.9015814525863005
 21
-0.1872403100775195
 31
0.0
  0
LINE
  5
C3
330
88
100
AcDbEntity
  8
AM_9
100
AcDbLine
 10
-0.895963133720252
 20
-0.18
 30
0.0
 11
0.895963133720252
 21
-0.18
 31
0.0
  0
ARC
  5
C4
330
88
100
AcDbEntity
  8
AM_9
100
AcDbCircle
 10
0.8959631337202519
 20
-0.1858000000000001
 30
0.0
 40
0.0058000000000001
100
AcDbArc
 50
345.6213278305023
 51
90.0
  0
ARC
  5
C5
330
88
100
AcDbEntity
  8
AM_9
100
AcDbCircle
 10
-0.8959631337202519
 20
-0.1858000000000001
 30
0.0
 40
0.0058
100
AcDbArc
 50
90.0
 51
194.3786721694978
  0
LINE
  5
C6
330
88
100
AcDbEntity
  8
AM_9
100
AcDbLine
 10
-0.9106332965183636
 20
-0.1200000000000001
 30
0.0
 11
0.9106332965183636
 21
-0.1200000000000001
 31
0.0
  0
ARC
  5
C7
330
88
100
AcDbEntity
  8
AM_9
100
AcDbCircle
 10
0.9106332965183634
 20
-0.1141999999999999
 30
0.0
 40
0.0058000000000002
100
AcDbArc
 50
270.0
 51
351.2203530087226
  0
ARC
  5
C8
330
88
100
AcDbEntity
  8
AM_9
100
AcDbCircle
 10
-0.9106332965183634
 20
-0.1141999999999999
 30
0.0
 40
0.0058000000000001
100
AcDbArc
 50
188.7796469912774
 51
270.0
  0
LINE
  5
C9
330
88
100
AcDbEntity
  8
AM_9
100
AcDbLine
 10
-0.8731562055337044
 20
0.2752698412698413
 30
0.0
 11
0.8731562055337044
 21
0.2752698412698413
 31
0.0
  0
ARC
  5
CA
330
88
100
AcDbEntity
  8
AM_9
100
AcDbCircle
 10
0.1711999999998564
 20
-0.0000000000000159
 30
0.0
 40
0.7540000000001394
100
AcDbArc
 50
351.2204562958469
 51
21.41246704688121
  0
ARC
  5
CB
330
88
100
AcDbEntity
  8
AM_9
100
AcDbCircle
 10
-0.1712000000000079
 20
0.0000000000000009
 30
0.0
 40
0.7539999999999922
100
AcDbArc
 50
158.5875329531158
 51
188.7795437041561
  0
LINE
  5
CC
330
88
100
AcDbEntity
  8
AM_9
100
AcDbLine
 10
-0.9163653359683859
 20
-0.1150852817310822
 30
0.0
 11
0.9163653359683859
 21
-0.1150852817310822
 31
0.0
  0
ENDBLK
  5
8B
330
88
100
AcDbEntity
  8
0
100
AcDbBlockEnd
  0
BLOCK
  5
CF
330
CD
100
AcDbEntity
  8
0
100
AcDbBlockBegin
  2
3_129904_0_in_129276_4
 70
     2
 10
0.0
 20
0.0
 30
0.0
  3
3_129904_0_in_129276_4
  1

  0
ATTDEF
  5
D1
330
CD
100
AcDbEntity
  8
AM_6
100
AcDbText
 10
5.746139397163827
 20
0.4843750000000001
 30
0.0
 40
0.5
  1
Grip Tight Normal Duty Adapter and Nut Inch Bore
100
AcDbAttributeDefinition
  3

  2
NN
 70
     8
280
     0
  0
ATTDEF
  5
D2
330
CD
100
AcDbEntity
  8
AM_6
100
AcDbText
 10
5.746139397163827
 20
-0.0156249999999999
 30
0.0
 40
0.5
  1
GT and GTM Adapter & Lock Nut Assemblies
100
AcDbAttributeDefinition
  3

  2
NT
 70
     8
280
     0
  0
ATTDEF
  5
D3
330
CD
100
AcDbEntity
  8
AM_6
100
AcDbText
 10
5.746139397163827
 20
-0.515625
 30
0.0
 40
0.5
  1
129904
100
AcDbAttributeDefinition
  3

  2
NB
 70
     8
280
     0
  0
ATTDEF
  5
D4
330
CD
100
AcDbEntity
  8
AM_6
100
AcDbText
 10
5.746139397163827
 20
-1.015625
 30
0.0
 40
0.5
  1
$PN.
100
AcDbAttributeDefinition
  3

  2
NBSYN
 70
     8
280
     0
  0
ATTDEF
  5
D5
330
CD
100
AcDbEntity
  8
AM_6
100
AcDbText
 10
5.746139397163827
 20
-1.515625
 30
0.0
 40
0.5
  1
129904
100
AcDbAttributeDefinition
  3

  2
LINA
 70
     8
280
     0
  0
ATTDEF
  5
D6
330
CD
100
AcDbEntity
  8
AM_6
100
AcDbText
 10
5.746139397163827
 20
-2.015625
 30
0.0
 40
0.5
  1
204
100
AcDbAttributeDefinition
  3

  2
SERIES
 70
     8
280
     0
  0
ATTDEF
  5
D7
330
CD
100
AcDbEntity
  8
AM_6
100
AcDbText
 10
5.746139397163827
 20
-2.515625
 30
0.0
 40
0.5
  1
3/4
100
AcDbAttributeDefinition
  3

  2
SS
 70
     8
280
     0
  0
ATTDEF
  5
D8
330
CD
100
AcDbEntity
  8
AM_6
100
AcDbText
 10
5.746139397163827
 20
-3.015625
 30
0.0
 40
0.5
  1
129904
100
AcDbAttributeDefinition
  3

  2
PN
 70
     8
280
     0
  0
ATTDEF
  5
D9
330
CD
100
AcDbEntity
  8
AM_6
100
AcDbText
 10
5.746139397163827
 20
-3.515625
 30
0.0
 40
0.5
  1
AN-GT-04-012
100
AcDbAttributeDefinition
  3

  2
DESCRIPTION
 70
     8
280
     0
  0
ATTDEF
  5
DA
330
CD
100
AcDbEntity
  8
AM_6
100
AcDbText
 10
5.746139397163827
 20
-4.015625
 30
0.0
 40
0.5
  1
1-15/32
100
AcDbAttributeDefinition
  3

  2
A
 70
     8
280
     0
  0
ATTDEF
  5
DB
330
CD
100
AcDbEntity
  8
AM_6
100
AcDbText
 10
5.746139397163827
 20
-4.515625
 30
0.0
 40
0.5
  1
0.5906
100
AcDbAttributeDefinition
  3

  2
C
 70
     8
280
     0
  0
ATTDEF
  5
DC
330
CD
100
AcDbEntity
  8
AM_6
100
AcDbText
 10
5.746139397163827
 20
-5.015625
 30
0.0
 40
0.5
  1
1.8504
100
AcDbAttributeDefinition
  3

  2
D
 70
     8
280
     0
  0
ATTDEF
  5
DD
330
CD
100
AcDbEntity
  8
AM_6
100
AcDbText
 10
5.746139397163827
 20
-5.515625
 30
0.0
 40
0.5
  1
0.152
100
AcDbAttributeDefinition
  3

  2
J
 70
     8
280
     0
  0
ATTDEF
  5
DE
330
CD
100
AcDbEntity
  8
AM_6
100
AcDbText
 10
5.746139397163827
 20
-6.015625
 30
0.0
 40
0.5
  1
1-1/2
100
AcDbAttributeDefinition
  3

  2
L
 70
     8
280
     0
  0
ATTDEF
  5
DF
330
CD
100
AcDbEntity
  8
AM_6
100
AcDbText
 10
5.746139397163827
 20
-6.515625
 30
0.0
 40
0.5
  1
10 - 32 x 1/4
100
AcDbAttributeDefinition
  3

  2
N
 70
     8
280
     0
  0
ATTDEF
  5
E0
330
CD
100
AcDbEntity
  8
AM_6
100
AcDbText
 10
5.746139397163827
 20
-7.015625
 30
0.0
 40
0.5
  1
31/64
100
AcDbAttributeDefinition
  3

  2
W
 70
     8
280
     0
  0
ATTDEF
  5
E1
330
CD
100
AcDbEntity
  8
AM_6
100
AcDbText
 10
5.746139397163827
 20
-7.515625
 30
0.0
 40
0.5
  1
63/64
100
AcDbAttributeDefinition
  3

  2
X
 70
     8
280
     0
  0
ATTDEF
  5
E2
330
CD
100
AcDbEntity
  8
AM_6
100
AcDbText
 10
5.746139397163827
 20
-8.015625
 30
0.0
 40
0.5
  1
63/64
100
AcDbAttributeDefinition
  3

  2
Y
 70
     8
280
     0
  0
ATTDEF
  5
E3
330
CD
100
AcDbEntity
  8
AM_6
100
AcDbText
 10
5.746139397163827
 20
-8.515625
 30
0.0
 40
0.5
  1
baldor
100
AcDbAttributeDefinition
  3

  2
COMPANY
 70
     8
280
     0
  0
LINE
  5
E4
330
CD
100
AcDbEntity
  8
AM_9
100
AcDbLine
 10
-0.72745
 20
-0.9337730416772501
 30
0.0
 11
-0.58505
 21
-0.9337730416772501
 31
0.0
  0
LINE
  5
E5
330
CD
100
AcDbEntity
  8
AM_9
100
AcDbLine
 10
-0.58505
 20
-0.7888730416772501
 30
0.0
 11
-0.72745
 21
-0.7888730416772501
 31
0.0
  0
LINE
  5
E6
330
CD
100
AcDbEntity
  8
AM_9
100
AcDbLine
 10
0.6999998729997459
 20
-0.4921874999999999
 30
0.0
 11
0.6999998729997459
 21
-0.9843749999999999
 31
0.0
  0
LINE
  5
E7
330
CD
100
AcDbEntity
  8
AM_9
100
AcDbLine
 10
-0.72745
 20
-0.7888730416772501
 30
0.0
 11
-0.7499999999999999
 21
-0.7663230416772502
 31
0.0
  0
LINE
  5
E8
330
CD
100
AcDbEntity
  8
AM_9
100
AcDbLine
 10
-0.7499999999999999
 20
-0.95632304167725
 30
0.0
 11
-0.72745
 21
-0.9337730416772501
 31
0.0
  0
LINE
  5
E9
330
CD
100
AcDbEntity
  8
AM_9
100
AcDbLine
 10
-0.72745
 20
-0.7888730416772501
 30
0.0
 11
-0.72745
 21
-0.9337730416772501
 31
0.0
  0
LINE
  5
EA
330
CD
100
AcDbEntity
  8
AM_9
100
AcDbLine
 10
-0.58505
 20
-0.9337730416772501
 30
0.0
 11
-0.5625
 21
-0.95632304167725
 31
0.0
  0
LINE
  5
EB
330
CD
100
AcDbEntity
  8
AM_9
100
AcDbLine
 10
-0.5625
 20
-0.7663230416772502
 30
0.0
 11
-0.58505
 21
-0.7888730416772501
 31
0.0
  0
LINE
  5
EC
330
CD
100
AcDbEntity
  8
AM_9
100
AcDbLine
 10
-0.5625
 20
-0.7663230416772502
 30
0.0
 11
-0.5625
 21
-0.95632304167725
 31
0.0
  0
LINE
  5
ED
330
CD
100
AcDbEntity
  8
AM_9
100
AcDbLine
 10
-0.58505
 20
-0.7888730416772501
 30
0.0
 11
-0.58505
 21
-0.9337730416772501
 31
0.0
  0
LINE
  5
EE
330
CD
100
AcDbEntity
  8
AM_9
100
AcDbLine
 10
0.3749999999999999
 20
-0.9843750000000001
 30
0.0
 11
0.3749999999999999
 21
0.4843750000000001
 31
0.0
  0
LINE
  5
EF
330
CD
100
AcDbEntity
  8
AM_9
100
AcDbLine
 10
-0.3749999999999999
 20
0.4843750000000001
 30
0.0
 11
-0.3749999999999999
 21
-0.9843750000000001
 31
0.0
  0
LINE
  5
F0
330
CD
100
AcDbEntity
  8
AM_9
100
AcDbLine
 10
0.5595238095238096
 20
-0.7382812500000002
 30
0.0
 11
0.5595238095238096
 21
-0.3691406249999996
 31
0.0
  0
LINE
  5
F1
330
CD
100
AcDbEntity
  8
AM_9
100
AcDbLine
 10
-0.5595238095238096
 20
-0.3691406249999996
 30
0.0
 11
-0.5595238095238096
 21
-0.7382812500000002
 31
0.0
  0
LINE
  5
F2
330
CD
100
AcDbEntity
  8
AM_9
100
AcDbLine
 10
0.05
 20
0.4843750000000001
 30
0.0
 11
0.05
 21
-0.9843749999999999
 31
0.0
  0
LINE
  5
F3
330
CD
100
AcDbEntity
  8
AM_9
100
AcDbLine
 10
-0.05
 20
0.4843750000000001
 30
0.0
 11
-0.05
 21
-0.9843749999999999
 31
0.0
  0
LINE
  5
F4
330
CD
100
AcDbEntity
  8
AM_9
100
AcDbLine
 10
0.5595238095238095
 20
-0.3691406249999996
 30
0.0
 11
0.5893292319220396
 21
0.484375
 31
0.0
  0
LINE
  5
F5
330
CD
100
AcDbEntity
  8
AM_9
100
AcDbLine
 10
-0.5893292319220396
 20
0.484375
 30
0.0
 11
-0.5595238095238095
 21
-0.3691406249999996
 31
0.0
  0
LINE
  5
F6
330
CD
100
AcDbEntity
  8
AM_9
100
AcDbLine
 10
-0.5595238095238095
 20
-0.3691406249999996
 30
0.0
 11
0.5595238095238095
 21
-0.3691406249999996
 31
0.0
  0
LINE
  5
F7
330
CD
100
AcDbEntity
  8
AM_9
100
AcDbLine
 10
-0.5893292319220396
 20
0.484375
 30
0.0
 11
0.5893292319220396
 21
0.484375
 31
0.0
  0
LINE
  5
F8
330
CD
100
AcDbEntity
  8
AM_9
100
AcDbLine
 10
-0.7263759999999999
 20
-0.4921874999999999
 30
0.0
 11
-0.7499999999999999
 21
-0.5158115
 31
0.0
  0
LINE
  5
F9
330
CD
100
AcDbEntity
  8
AM_9
100
AcDbLine
 10
-0.7499999999999999
 20
-0.5158115
 30
0.0
 11
-0.7499999999999999
 21
-0.5265531179242967
 31
0.0
  0
LINE
  5
FA
330
CD
100
AcDbEntity
  8
AM_9
100
AcDbLine
 10
-0.7499999999999999
 20
-0.5158115
 30
0.0
 11
-0.6102981101629024
 21
-0.5158115
 31
0.0
  0
LINE
  5
FB
330
CD
100
AcDbEntity
  8
AM_9
100
AcDbLine
 10
-0.7472775488589692
 20
-0.9279479698354762
 30
0.0
 11
-0.7467769201994581
 21
-0.9213128043362299
 31
0.0
  0
LINE
  5
FC
330
CD
100
AcDbEntity
  8
AM_9
100
AcDbLine
 10
-0.4270125089193514
 20
-0.4921874999999999
 30
0.0
 11
-0.4346312606396869
 21
-0.5073430835494369
 31
0.0
  0
LINE
  5
FD
330
CD
100
AcDbEntity
  8
AM_9
100
AcDbLine
 10
0.6130952380952381
 20
-0.6152343750000001
 30
0.0
 11
0.6130952380952381
 21
-0.4921874999999999
 31
0.0
  0
LINE
  5
FE
330
CD
100
AcDbEntity
  8
AM_9
100
AcDbLine
 10
-0.6130952380952381
 20
-0.4921874999999999
 30
0.0
 11
-0.6130952380952381
 21
-0.6152343750000001
 31
0.0
  0
LINE
  5
FF
330
CD
100
AcDbEntity
  8
AM_9
100
AcDbLine
 10
-0.2841820058122558
 20
-0.4921874999999999
 30
0.0
 11
-0.2841820058122558
 21
-0.9843749999999999
 31
0.0
  0
LINE
  5
100
330
CD
100
AcDbEntity
  8
AM_9
100
AcDbLine
 10
-0.4158178671874905
 20
-0.4921874999999999
 30
0.0
 11
-0.4158178671874905
 21
-0.5066420811606153
 31
0.0
  0
LINE
  5
101
330
CD
100
AcDbEntity
  8
AM_9
100
AcDbLine
 10
-0.6666666666666662
 20
-0.6152343750000001
 30
0.0
 11
0.6666666666666662
 21
-0.6152343750000001
 31
0.0
  0
LINE
  5
102
330
CD
100
AcDbEntity
  8
AM_9
100
AcDbLine
 10
-0.6666666666666662
 20
-0.7382812500000002
 30
0.0
 11
0.6666666666666662
 21
-0.7382812500000002
 31
0.0
  0
LINE
  5
103
330
CD
100
AcDbEntity
  8
AM_9
100
AcDbLine
 10
0.6666666666666662
 20
-0.7382812500000002
 30
0.0
 11
0.6666666666666662
 21
-0.6152343750000001
 31
0.0
  0
LINE
  5
104
330
CD
100
AcDbEntity
  8
AM_9
100
AcDbLine
 10
-0.6666666666666662
 20
-0.6152343750000001
 30
0.0
 11
-0.6666666666666662
 21
-0.7382812500000002
 31
0.0
  0
LINE
  5
105
330
CD
100
AcDbEntity
  8
AM_9
100
AcDbLine
 10
0.7461393971638274
 20
-0.5158115
 30
0.0
 11
0.7461393971638276
 21
-0.5261821644884022
 31
0.0
  0
LINE
  5
106
330
CD
100
AcDbEntity
  8
AM_9
100
AcDbLine
 10
0.7223891564634672
 20
-0.4921875000000001
 30
0.0
 11
0.7461393971638274
 21
-0.5158115
 31
0.0
  0
LINE
  5
107
330
CD
100
AcDbEntity
  8
AM_9
100
AcDbLine
 10
-0.7263759999999999
 20
-0.4921874999999999
 30
0.0
 11
0.7223891564634672
 21
-0.4921875000000001
 31
0.0
  0
LINE
  5
108
330
CD
100
AcDbEntity
  8
AM_9
100
AcDbLine
 10
-0.3009480516326672
 20
-0.5032700704630819
 30
0.0
 11
-0.2953766475441166
 21
-0.4921874999999999
 31
0.0
  0
LINE
  5
109
330
CD
100
AcDbEntity
  8
AM_9
100
AcDbLine
 10
0.6102981101629024
 20
-0.5158115
 30
0.0
 11
0.7461393971638274
 21
-0.5158115
 31
0.0
  0
LINE
  5
10B
330
CD
100
AcDbEntity
  8
AM_5
100
AcDbLine
 10
-0.7499999999999999
 20
-0.95632304167725
 30
0.0
 11
-0.5625
 21
-0.95632304167725
 31
0.0
  0
LINE
  5
10E
330
CD
100
AcDbEntity
  8
AM_7
100
AcDbLine
 10
-0.5531250000000001
 20
-0.86132304167725
 30
0.0
 11
-0.7593749999999999
 21
-0.86132304167725
 31
0.0
  0
LINE
  5
110
330
CD
100
AcDbEntity
  8
AM_4
100
AcDbLine
 10
-0.7499999999999999
 20
-0.9607510000000001
 30
0.0
 11
-0.7263759999999999
 21
-0.9843750000000001
 31
0.0
  0
LWPOLYLINE
  5
111
330
CD
100
AcDbEntity
  8
AM_4
100
AcDbPolyline
 90
        7
 70
     0
 43
0.0
 10
-0.7471638339037145
 20
-0.92649947126287
 10
-0.7479462746587645
 20
-0.9359061480007769
 10
-0.7486956930853401
 20
-0.9439312963935919
 10
-0.7493737494657841
 20
-0.9505834527038549
 10
-0.7498370845266041
 20
-0.9548630113846642
 10
-0.7499987337664696
 20
-0.9563117782123812
 10
-0.7499999999999934
 20
-0.9563230416771931
  0
LINE
  5
112
330
CD
100
AcDbEntity
  8
AM_4
100
AcDbLine
 10
-0.7499999999999999
 20
-0.5265531179242967
 30
0.0
 11
-0.7499999999999999
 21
-0.7663230416772502
 31
0.0
  0
LINE
  5
113
330
CD
100
AcDbEntity
  8
AM_4
100
AcDbLine
 10
-0.7499999999999999
 20
-0.9563230416772501
 30
0.0
 11
-0.7499999999999999
 21
-0.9607510000000001
 31
0.0
  0
LINE
  5
114
330
CD
100
AcDbEntity
  8
AM_4
100
AcDbLine
 10
-0.7499999999999999
 20
-0.9607510000000001
 30
0.0
 11
-0.4388876292695315
 21
-0.9607510000000001
 31
0.0
  0
LINE
  5
115
330
CD
100
AcDbEntity
  8
AM_4
100
AcDbLine
 10
-0.6102981101629024
 20
-0.5158115
 30
0.0
 11
-0.4388876292695315
 21
-0.5158114999999999
 31
0.0
  0
LWPOLYLINE
  5
116
330
CD
100
AcDbEntity
  8
AM_4
100
AcDbPolyline
 90
       16
 70
     0
 43
0.0
 10
-0.7499999999999873
 20
-0.7663230416773619
 10
-0.7499890176379512
 20
-0.7664207759015464
 10
-0.749785572221813
 20
-0.7682493664870622
 10
-0.7493301737554963
 20
-0.7724754700661786
 10
-0.7486921589334075
 20
-0.7787508339196177
 10
-0.7479075867801454
 20
-0.7871773874242125
 10
-0.7470559419911073
 20
-0.797550971614479
 10
-0.7462163940333905
 20
-0.8097542791882091
 10
-0.7454760416103974
 20
-0.8236342804798661
 10
-0.744927840945358
 20
-0.8388618575453671
 10
-0.7446500578035411
 20
-0.8549323100293411
 10
-0.7446891965115077
 20
-0.8716260204617956
 10
-0.745047757566378
 20
-0.8878703522269343
 10
-0.7457063781227194
 20
-0.9038159752668018
 10
-0.7463861751547347
 20
-0.9155794281356772
 10
-0.7471638339037145
 20
-0.92649947126287
  0
LINE
  5
117
330
CD
100
AcDbEntity
  8
AM_4
100
AcDbLine
 10
-0.4346312606396869
 20
-0.5073430835494369
 30
0.0
 11
-0.4388876292695315
 21
-0.5158114999999999
 31
0.0
  0
LINE
  5
118
330
CD
100
AcDbEntity
  8
AM_4
100
AcDbLine
 10
-0.4388876292695315
 20
-0.5158114999999999
 30
0.0
 11
-0.4388876292695315
 21
-0.9607510000000001
 31
0.0
  0
LINE
  5
119
330
CD
100
AcDbEntity
  8
AM_4
100
AcDbLine
 10
-0.4388876292695315
 20
-0.9607510000000001
 30
0.0
 11
-0.4270125089193514
 21
-0.9843750000000001
 31
0.0
  0
LINE
  5
11A
330
CD
100
AcDbEntity
  8
AM_4
100
AcDbLine
 10
-0.4158178671874905
 20
-0.5066420811606153
 30
0.0
 11
-0.4158178671874905
 21
-0.9843749999999999
 31
0.0
  0
LINE
  5
11B
330
CD
100
AcDbEntity
  8
AM_4
100
AcDbLine
 10
0.7461393971638276
 20
-0.5261821644884022
 30
0.0
 11
0.7461393971638276
 21
-0.9607510000000001
 31
0.0
  0
LINE
  5
11C
330
CD
100
AcDbEntity
  8
AM_4
100
AcDbLine
 10
-0.3072517678942966
 20
-0.9607510000000001
 30
0.0
 11
-0.3072517678942966
 21
-0.5158114999999999
 31
0.0
  0
LINE
  5
11D
330
CD
100
AcDbEntity
  8
AM_4
100
AcDbLine
 10
0.7461393971638276
 20
-0.9607510000000001
 30
0.0
 11
0.7223891564634672
 21
-0.9843749999999999
 31
0.0
  0
LINE
  5
11E
330
CD
100
AcDbEntity
  8
AM_4
100
AcDbLine
 10
-0.3072517678942966
 20
-0.9607510000000001
 30
0.0
 11
0.7461393971638276
 21
-0.9607510000000001
 31
0.0
  0
LINE
  5
11F
330
CD
100
AcDbEntity
  8
AM_4
100
AcDbLine
 10
-0.2953766475441165
 20
-0.9843750000000001
 30
0.0
 11
-0.3072517678942966
 21
-0.9607510000000001
 31
0.0
  0
LINE
  5
120
330
CD
100
AcDbEntity
  8
AM_4
100
AcDbLine
 10
-0.7263759999999999
 20
-0.9843750000000001
 30
0.0
 11
0.7223891564634672
 21
-0.9843749999999999
 31
0.0
  0
LINE
  5
121
330
CD
100
AcDbEntity
  8
AM_4
100
AcDbLine
 10
-0.3072517678942966
 20
-0.5158114999999999
 30
0.0
 11
-0.3009480516326672
 21
-0.5032700704630819
 31
0.0
  0
LINE
  5
122
330
CD
100
AcDbEntity
  8
AM_4
100
AcDbLine
 10
-0.3072517678942966
 20
-0.5158114999999999
 30
0.0
 11
0.6102981101629024
 21
-0.5158115
 31
0.0
  0
ENDBLK
  5
D0
330
CD
100
AcDbEntity
  8
0
100
AcDbBlockEnd
  0
BLOCK
  5
125
330
123
100
AcDbEntity
  8
0
100
AcDbBlockBegin
  2
4_129457I_0_in_129276_4
 70
     2
 10
0.0
 20
0.0
 30
0.0
  3
4_129457I_0_in_129276_4
  1

  0
ATTDEF
  5
127
330
123
100
AcDbEntity
  8
AM_6
100
AcDbText
 10
6.4375
 20
0.8249999999999998
 30
0.0
 40
0.5
  1
TB-GT-I
100
AcDbAttributeDefinition
  3

  2
NN
 70
     8
280
     0
  0
ATTDEF
  5
128
330
123
100
AcDbEntity
  8
AM_6
100
AcDbText
 10
6.4375
 20
0.3249999999999998
 30
0.0
 40
0.5
  1
GT Normal Duty Tapped Base Pillow Blocks
100
AcDbAttributeDefinition
  3

  2
NT
 70
     8
280
     0
  0
ATTDEF
  5
129
330
123
100
AcDbEntity
  8
AM_6
100
AcDbText
 10
6.4375
 20
-0.1750000000000002
 30
0.0
 40
0.5
  1
129457I
100
AcDbAttributeDefinition
  3

  2
NB
 70
     8
280
     0
  0
ATTDEF
  5
12A
330
123
100
AcDbEntity
  8
AM_6
100
AcDbText
 10
6.4375
 20
-0.6750000000000002
 30
0.0
 40
0.5
  1
$PN.$LUBE.I
100
AcDbAttributeDefinition
  3

  2
NBSYN
 70
     8
280
     0
  0
ATTDEF
  5
12B
330
123
100
AcDbEntity
  8
AM_6
100
AcDbText
 10
6.4375
 20
-1.175
 30
0.0
 40
0.5
  1
129457
100
AcDbAttributeDefinition
  3

  2
LINA
 70
     8
280
     0
  0
ATTDEF
  5
12C
330
123
100
AcDbEntity
  8
AM_6
100
AcDbText
 10
6.4375
 20
-1.675
 30
0.0
 40
0.5
  1
204
100
AcDbAttributeDefinition
  3

  2
SERIES
 70
     8
280
     0
  0
ATTDEF
  5
12D
330
123
100
AcDbEntity
  8
AM_6
100
AcDbText
 10
6.4375
 20
-2.175
 30
0.0
 40
0.5
  1
129457
100
AcDbAttributeDefinition
  3

  2
PN
 70
     8
280
     0
  0
ATTDEF
  5
12E
330
123
100
AcDbEntity
  8
AM_6
100
AcDbText
 10
6.4375
 20
-2.675
 30
0.0
 40
0.5
  1
TB-GT-04
100
AcDbAttributeDefinition
  3

  2
DESCRIPTION
 70
     8
280
     0
  0
ATTDEF
  5
12F
330
123
100
AcDbEntity
  8
AM_6
100
AcDbText
 10
6.4375
 20
-3.175
 30
0.0
 40
0.5
  1
1-15/32
100
AcDbAttributeDefinition
  3

  2
A
 70
     8
280
     0
  0
ATTDEF
  5
130
330
123
100
AcDbEntity
  8
AM_6
100
AcDbText
 10
6.4375
 20
-3.675
 30
0.0
 40
0.5
  1
2-7/8
100
AcDbAttributeDefinition
  3

  2
B
 70
     8
280
     0
  0
ATTDEF
  5
131
330
123
100
AcDbEntity
  8
AM_6
100
AcDbText
 10
6.4375
 20
-4.175000000000001
 30
0.0
 40
0.5
  1
1-1/2
100
AcDbAttributeDefinition
  3

  2
C
 70
     8
280
     0
  0
ATTDEF
  5
132
330
123
100
AcDbEntity
  8
AM_6
100
AcDbText
 10
6.4375
 20
-4.675000000000001
 30
0.0
 40
0.5
  1
2
100
AcDbAttributeDefinition
  3

  2
D
 70
     8
280
     0
  0
ATTDEF
  5
133
330
123
100
AcDbEntity
  8
AM_6
100
AcDbText
 10
6.4375
 20
-5.175000000000001
 30
0.0
 40
0.5
  1
2-9/16
100
AcDbAttributeDefinition
  3

  2
J
 70
     8
280
     0
  0
ATTDEF
  5
134
330
123
100
AcDbEntity
  8
AM_6
100
AcDbText
 10
6.4375
 20
-5.675000000000001
 30
0.0
 40
0.5
  1
1-1/2
100
AcDbAttributeDefinition
  3

  2
L
 70
     8
280
     0
  0
ATTDEF
  5
135
330
123
100
AcDbEntity
  8
AM_6
100
AcDbText
 10
6.4375
 20
-6.175000000000001
 30
0.0
 40
0.5
  1
1-5/16
100
AcDbAttributeDefinition
  3

  2
M
 70
     8
280
     0
  0
ATTDEF
  5
136
330
123
100
AcDbEntity
  8
AM_6
100
AcDbText
 10
6.4375
 20
-6.675000000000001
 30
0.0
 40
0.5
  1
1/2
100
AcDbAttributeDefinition
  3

  2
N
 70
     8
280
     0
  0
ATTDEF
  5
137
330
123
100
AcDbEntity
  8
AM_6
100
AcDbText
 10
6.4375
 20
-7.175000000000001
 30
0.0
 40
0.5
  1
3/8-16
100
AcDbAttributeDefinition
  3

  2
R
 70
     8
280
     0
  0
ATTDEF
  5
138
330
123
100
AcDbEntity
  8
AM_6
100
AcDbText
 10
6.4375
 20
-7.675000000000001
 30
0.0
 40
0.5
  1
63/64
100
AcDbAttributeDefinition
  3

  2
S
 70
     8
280
     0
  0
ATTDEF
  5
139
330
123
100
AcDbEntity
  8
AM_6
100
AcDbText
 10
6.4375
 20
-8.175
 30
0.0
 40
0.5
  1
63/64
100
AcDbAttributeDefinition
  3

  2
Z
 70
     8
280
     0
  0
ATTDEF
  5
13A
330
123
100
AcDbEntity
  8
AM_6
100
AcDbText
 10
6.4375
 20
-8.675
 30
0.0
 40
0.5
  1
baldor
100
AcDbAttributeDefinition
  3

  2
COMPANY
 70
     8
280
     0
  0
LINE
  5
13B
330
123
100
AcDbEntity
  8
AM_9
100
AcDbLine
 10
0.71875
 20
-0.7500000000000001
 30
0.0
 11
0.7187499999999996
 21
0.617445120947114
 31
0.0
  0
LINE
  5
13C
330
123
100
AcDbEntity
  8
AM_9
100
AcDbLine
 10
-0.66875
 20
-0.6527536594028245
 30
0.0
 11
-0.66875
 21
0.6527536594028241
 31
0.0
  0
LINE
  5
13D
330
123
100
AcDbEntity
  8
AM_9
100
AcDbLine
 10
0.6687499999999993
 20
-0.6527536594028245
 30
0.0
 11
0.6687499999999993
 21
0.6527536594028244
 31
0.0
  0
LINE
  5
13E
330
123
100
AcDbEntity
  8
AM_9
100
AcDbLine
 10
0.7461393971638273
 20
-0.7499999999999999
 30
0.0
 11
0.71875
 21
-0.7500000000000001
 31
0.0
  0
LINE
  5
13F
330
123
100
AcDbEntity
  8
AM_9
100
AcDbLine
 10
0.7461393971638273
 20
-0.6909448999999999
 30
0.0
 11
0.71875
 21
-0.6909448999999999
 31
0.0
  0
LINE
  5
140
330
123
100
AcDbEntity
  8
AM_9
100
AcDbLine
 10
-0.7187499999999998
 20
0.617445120947114
 30
0.0
 11
-0.7187499999999998
 21
-0.7500000000000001
 31
0.0
  0
LINE
  5
141
330
123
100
AcDbEntity
  8
AM_9
100
AcDbLine
 10
-0.7187499999999998
 20
-0.6909448999999999
 30
0.0
 11
-0.7499999999999999
 21
-0.6909448999999999
 31
0.0
  0
LINE
  5
142
330
123
100
AcDbEntity
  8
AM_9
100
AcDbLine
 10
-0.7499999999999999
 20
-0.7499999999999999
 30
0.0
 11
-0.7187499999999998
 21
-0.7500000000000001
 31
0.0
  0
LINE
  5
143
330
123
100
AcDbEntity
  8
AM_9
100
AcDbLine
 10
0.7461393971638273
 20
-0.676356365691613
 30
0.0
 11
0.71875
 21
-0.676356365691613
 31
0.0
  0
LINE
  5
144
330
123
100
AcDbEntity
  8
AM_9
100
AcDbLine
 10
-0.7187499999999998
 20
-0.676356365691613
 30
0.0
 11
-0.7499999999999999
 21
-0.676356365691613
 31
0.0
  0
CIRCLE
  5
145
330
123
100
AcDbEntity
  8
AM_9
100
AcDbCircle
 10
-1.0
 20
0.0
 30
0.0
 40
0.15365
  0
LINE
  5
146
330
123
100
AcDbEntity
  8
AM_9
100
AcDbLine
 10
0.9252
 20
-0.5644360959181709
 30
0.0
 11
0.9252
 21
0.5644360959181706
 31
0.0
  0
LINE
  5
147
330
123
100
AcDbEntity
  8
AM_9
100
AcDbLine
 10
-0.9252
 20
0.5644360959181706
 30
0.0
 11
-0.9252
 21
-0.5644360959181709
 31
0.0
  0
LWPOLYLINE
  5
148
330
123
100
AcDbEntity
  8
AM_9
100
AcDbPolyline
 90
        4
 70
     0
 43
0.0
 10
-0.6130952166666659
 20
-0.6128883276665853
 10
-0.671152348312863
 20
-0.6089674292546914
 10
-0.7241016053355311
 20
-0.6047076205073523
 10
-0.7499999999999996
 20
-0.6023190739120451
  0
LINE
  5
149
330
123
100
AcDbEntity
  8
AM_9
100
AcDbLine
 10
-0.559523809523809
 20
-0.6159607289260023
 30
0.0
 11
-0.6130952166666659
 21
-0.6128883276665853
 31
0.0
  0
LWPOLYLINE
  5
14A
330
123
100
AcDbEntity
  8
AM_9
100
AcDbPolyline
 90
        5
 70
     0
 43
0.0
 10
-0.3072517678942954
 20
-0.6254606678613536
 10
-0.382142704814466
 20
-0.6233558979035025
 10
-0.4541253050069247
 20
-0.620802712675794
 10
-0.5226517374199243
 20
-0.6178205434594662
 10
-0.559523809523809
 20
-0.6159607289260023
  0
LINE
  5
14B
330
123
100
AcDbEntity
  8
AM_9
100
AcDbLine
 10
0.0499999999999968
 20
-0.6290378379820726
 30
0.0
 11
-0.3072517678942954
 21
-0.6254606678613536
 31
0.0
  0
LWPOLYLINE
  5
14C
330
123
100
AcDbEntity
  8
AM_9
100
AcDbPolyline
 90
        8
 70
     0
 43
0.0
 10
0.5595238095238095
 20
-0.6159607289260023
 10
0.4931751130339936
 20
-0.6191746929982059
 10
0.423073056146714
 20
-0.621972063294562
 10
0.3497511578436622
 20
-0.6243315501380168
 10
0.2737674420438969
 20
-0.6262351964089945
 10
0.1957001907048765
 20
-0.6276685142099199
 10
0.116143542747586
 20
-0.628620595126867
 10
0.0499999999999968
 20
-0.6290378379820726
  0
LWPOLYLINE
  5
14D
330
123
100
AcDbEntity
  8
AM_9
100
AcDbPolyline
 90
        5
 70
     0
 43
0.0
 10
0.746139397163827
 20
-0.6026900273479397
 10
0.6956209779219674
 20
-0.607091823480678
 10
0.6398084630106914
 20
-0.6111689837704332
 10
0.5791266193689912
 20
-0.6148904785655434
 10
0.5595238095238095
 20
-0.6159607289260023
  0
LWPOLYLINE
  5
14E
330
123
100
AcDbEntity
  8
AM_9
100
AcDbPolyline
 90
        9
 70
     0
 43
0.0
 10
1.059370029602684
 20
-0.0909214090671168
 10
1.055046037432325
 20
-0.0672781935618201
 10
1.051809735051777
 20
-0.0432967219144128
 10
1.04987282019107
 20
-0.0184870563376659
 10
1.049478268019809
 20
0.0064626251340285
 10
1.050413301982622
 20
0.0276849305747583
 10
1.052435200904698
 20
0.0487586048861115
 10
1.055485458499046
 20
0.0699750824662276
 10
1.059370029602684
 20
0.0909214090671169
  0
LINE
  5
14F
330
123
100
AcDbEntity
  8
AM_9
100
AcDbLine
 10
1.136914075071988
 20
0.0909214090671169
 30
0.0
 11
1.059370029602684
 21
0.0909214090671169
 31
0.0
  0
LINE
  5
150
330
123
100
AcDbEntity
  8
AM_9
100
AcDbLine
 10
1.136914075071988
 20
-0.0909214090671168
 30
0.0
 11
1.059370029602684
 21
-0.0909214090671168
 31
0.0
  0
LINE
  5
151
330
123
100
AcDbEntity
  8
AM_9
100
AcDbLine
 10
-0.258644234156
 20
-0.1988189999999998
 30
0.0
 11
-0.258644234156
 21
-0.4967714303560508
 31
0.0
  0
LINE
  5
152
330
123
100
AcDbEntity
  8
AM_9
100
AcDbLine
 10
-0.166817806617
 20
-0.1988189999999998
 30
0.0
 11
-0.166817806617
 21
-0.496771442003111
 31
0.0
  0
LINE
  5
153
330
123
100
AcDbEntity
  8
AM_9
100
AcDbLine
 10
0.127026
 20
-0.1988189999999998
 30
0.0
 11
0.1270259999999998
 21
-0.4967714213869158
 31
0.0
  0
LINE
  5
154
330
123
100
AcDbEntity
  8
AM_9
100
AcDbLine
 10
0.0352001
 20
-0.1988189999999998
 30
0.0
 11
0.0352001000000002
 21
-0.4967714332211091
 31
0.0
  0
LINE
  5
155
330
123
100
AcDbEntity
  8
AM_9
100
AcDbLine
 10
-0.111722107574
 20
-0.1988189999999998
 30
0.0
 11
-0.1117221075739998
 21
-0.4967714303560508
 31
0.0
  0
LINE
  5
156
330
123
100
AcDbEntity
  8
AM_9
100
AcDbLine
 10
0.0198956999999999
 20
-0.4899804879845014
 30
0.0
 11
0.0198956999999999
 21
-0.4971109851776053
 31
0.0
  0
LINE
  5
157
330
123
100
AcDbEntity
  8
AM_9
100
AcDbLine
 10
0.347409
 20
-0.4899804879845013
 30
0.0
 11
0.347409
 21
-0.4971109851776053
 31
0.0
  0
LINE
  5
158
330
123
100
AcDbEntity
  8
AM_9
100
AcDbLine
 10
0.169879
 20
-0.4899804879845014
 30
0.0
 11
0.169879
 21
-0.4971109851776053
 31
0.0
  0
LINE
  5
159
330
123
100
AcDbEntity
  8
AM_9
100
AcDbLine
 10
0.142331
 20
-0.4899804879845013
 30
0.0
 11
0.142331
 21
-0.4971109851776052
 31
0.0
  0
LINE
  5
15A
330
123
100
AcDbEntity
  8
AM_9
100
AcDbLine
 10
-0.127026446547
 20
-0.4899804879845014
 30
0.0
 11
-0.127026446547
 21
-0.4971109851776053
 31
0.0
  0
LINE
  5
15B
330
123
100
AcDbEntity
  8
AM_9
100
AcDbLine
 10
-0.151513467644
 20
-0.4899804879845013
 30
0.0
 11
-0.151513467644
 21
-0.4971109851776052
 31
0.0
  0
LINE
  5
15C
330
123
100
AcDbEntity
  8
AM_9
100
AcDbLine
 10
-0.273948573129
 20
-0.4899804879845013
 30
0.0
 11
-0.273948573129
 21
-0.4971109851776053
 31
0.0
  0
LINE
  5
15D
330
123
100
AcDbEntity
  8
AM_9
100
AcDbLine
 10
0.0321391999999999
 20
-0.4901842127584176
 30
0.0
 11
0.0321391999999999
 21
-0.4969072612847669
 31
0.0
  0
LINE
  5
15E
330
123
100
AcDbEntity
  8
AM_9
100
AcDbLine
 10
-0.163757175043
 20
-0.4901842127584176
 30
0.0
 11
-0.163757175043
 21
-0.4969072612847669
 31
0.0
  0
LINE
  5
15F
330
123
100
AcDbEntity
  8
AM_9
100
AcDbLine
 10
0.1300870000000001
 20
-0.4901842127584176
 30
0.0
 11
0.1300870000000001
 21
-0.4969072612847669
 31
0.0
  0
LINE
  5
160
330
123
100
AcDbEntity
  8
AM_9
100
AcDbLine
 10
-0.1147831328489999
 20
-0.4901842127584176
 30
0.0
 11
-0.1147831328489999
 21
-0.4969072612847669
 31
0.0
  0
LINE
  5
161
330
123
100
AcDbEntity
  8
AM_9
100
AcDbLine
 10
-0.2617052594309998
 20
-0.4901842127584177
 30
0.0
 11
-0.2617052594309998
 21
-0.496907261284767
 31
0.0
  0
LINE
  5
162
330
123
100
AcDbEntity
  8
AM_9
100
AcDbLine
 10
0.1821220000000001
 20
-0.4901842127584176
 30
0.0
 11
0.1821220000000001
 21
-0.4969072612847669
 31
0.0
  0
LINE
  5
163
330
123
100
AcDbEntity
  8
AM_9
100
AcDbLine
 10
0.197427
 20
-0.1988189999999998
 30
0.0
 11
0.197427
 21
-0.493036414136158
 31
0.0
  0
LINE
  5
164
330
123
100
AcDbEntity
  8
AM_9
100
AcDbLine
 10
0.0413217
 20
-0.4905916832842936
 30
0.0
 11
0.0413217
 21
-0.4964997859688343
 31
0.0
  0
LINE
  5
165
330
123
100
AcDbEntity
  8
AM_9
100
AcDbLine
 10
-0.172939463466
 20
-0.4905916832842936
 30
0.0
 11
-0.172939463466
 21
-0.4964997859688343
 31
0.0
  0
LINE
  5
166
330
123
100
AcDbEntity
  8
AM_9
100
AcDbLine
 10
-0.1056004507250001
 20
-0.4905916832842936
 30
0.0
 11
-0.1056004507250001
 21
-0.4964997859688343
 31
0.0
  0
LINE
  5
167
330
123
100
AcDbEntity
  8
AM_9
100
AcDbLine
 10
-0.252522577307
 20
-0.4905916832842936
 30
0.0
 11
-0.252522577307
 21
-0.4964997859688343
 31
0.0
  0
LINE
  5
168
330
123
100
AcDbEntity
  8
AM_9
100
AcDbLine
 10
0.191305
 20
-0.4905916832842936
 30
0.0
 11
0.191305
 21
-0.4964997859688343
 31
0.0
  0
LINE
  5
169
330
123
100
AcDbEntity
  8
AM_9
100
AcDbLine
 10
0.1209049999999999
 20
-0.4905916832842936
 30
0.0
 11
0.1209049999999999
 21
-0.4964997859688344
 31
0.0
  0
LINE
  5
16A
330
123
100
AcDbEntity
  8
AM_9
100
AcDbLine
 10
0.20967
 20
-0.1988189999999998
 30
0.0
 11
0.20967
 21
-0.4930364141361581
 31
0.0
  0
LINE
  5
16B
330
123
100
AcDbEntity
  8
AM_9
100
AcDbLine
 10
-0.099478400175
 20
-0.4912028576060423
 30
0.0
 11
-0.099478400175
 21
-0.4958886115372936
 31
0.0
  0
LINE
  5
16C
330
123
100
AcDbEntity
  8
AM_9
100
AcDbLine
 10
-0.179061514016
 20
-0.4912028576060423
 30
0.0
 11
-0.179061514016
 21
-0.4958886115372935
 31
0.0
  0
LINE
  5
16D
330
123
100
AcDbEntity
  8
AM_9
100
AcDbLine
 10
0.1147829999999999
 20
-0.4912028576060423
 30
0.0
 11
0.1147829999999999
 21
-0.4958886115372936
 31
0.0
  0
LINE
  5
16E
330
123
100
AcDbEntity
  8
AM_9
100
AcDbLine
 10
0.0474437
 20
-0.4912028576060424
 30
0.0
 11
0.0474437
 21
-0.4958886115372936
 31
0.0
  0
LINE
  5
16F
330
123
100
AcDbEntity
  8
AM_9
100
AcDbLine
 10
-0.246400920458
 20
-0.4912028576060423
 30
0.0
 11
-0.246400920458
 21
-0.4958886115372936
 31
0.0
  0
LINE
  5
170
330
123
100
AcDbEntity
  8
AM_9
100
AcDbLine
 10
0.9380684212938526
 20
0.0787402000000011
 30
0.0
 11
0.9183738871129202
 21
0.0787402000000011
 31
0.0
  0
LINE
  5
171
330
123
100
AcDbEntity
  8
AM_9
100
AcDbLine
 10
0.9183823785731381
 20
-0.078740200000001
 30
0.0
 11
0.9380684212938526
 21
-0.078740200000001
 31
0.0
  0
LWPOLYLINE
  5
172
330
123
100
AcDbEntity
  8
AM_9
100
AcDbPolyline
 90
       20
 70
     0
 43
0.0
 10
0.9183879316668249
 20
0.0787401997835863
 10
0.9114965340094581
 20
0.0782369206145971
 10
0.9013384445490643
 20
0.0756235607020671
 10
0.8915885682369613
 20
0.0708763844801315
 10
0.8825038406273881
 20
0.0640672966041327
 10
0.8743927618405191
 20
0.0554286902811715
 10
0.8675283183488037
 20
0.0451835535434511
 10
0.8621087482966787
 20
0.033635191619381
 10
0.8583595184865466
 20
0.0211917336052821
 10
0.8563372982456409
 20
0.0081386554112664
 10
0.8561321690699149
 20
-0.0050283597549231
 10
0.8576972262107098
 20
-0.0180528727598127
 10
0.8609915158393494
 20
-0.0305199508169126
 10
0.8658832525788377
 20
-0.0421342397464188
 10
0.8722757060832462
 20
-0.0526182122448432
 10
0.87992344292021
 20
-0.0616339982734759
 10
0.8886943541714949
 20
-0.0689766630611584
 10
0.8982426547219818
 20
-0.0743750713713203
 10
0.9083521990243245
 20
-0.0776634451449468
 10
0.9183852196214055
 20
-0.0787401999655988
  0
LWPOLYLINE
  5
173
330
123
100
AcDbEntity
  8
AM_9
100
AcDbPolyline
 90
       11
 70
     0
 43
0.0
 10
0.9183852196214055
 20
-0.0787401999655988
 10
0.9186701498376683
 20
-0.0787393252004521
 10
0.9288878539307455
 20
-0.0775385532368453
 10
0.9387320433413293
 20
-0.0741237111613169
 10
0.9478790256037569
 20
-0.0685878133887007
 10
0.9561408624242261
 20
-0.0611029148850109
 10
0.9632590139747792
 20
-0.051893086312316
 10
0.9691010297057818
 20
-0.0412167202945155
 10
0.9734957104601373
 20
-0.0293764183781406
 10
0.9763642699129276
 20
-0.0167079761462863
 10
0.9776804685803159
 20
0.0000000000000001
  0
LINE
  5
174
330
123
100
AcDbEntity
  8
AM_9
100
AcDbLine
 10
0.194366
 20
-0.4912028576060423
 30
0.0
 11
0.194366
 21
-0.493036414136158
 31
0.0
  0
LINE
  5
175
330
123
100
AcDbEntity
  8
AM_9
100
AcDbLine
 10
0.166818
 20
-0.1988189999999998
 30
0.0
 11
0.166818
 21
-0.493036414136158
 31
0.0
  0
LINE
  5
176
330
123
100
AcDbEntity
  8
AM_9
100
AcDbLine
 10
0.212731
 20
-0.1988189999999998
 30
0.0
 11
0.212731
 21
-0.4930364141361581
 31
0.0
  0
LWPOLYLINE
  5
177
330
123
100
AcDbEntity
  8
AM_9
100
AcDbPolyline
 90
        9
 70
     0
 43
0.0
 10
0.9480145001480361
 20
-0.1818428181342336
 10
0.9581683106662564
 20
-0.1700219299576867
 10
0.9696167811924078
 20
-0.1580319325509577
 10
0.9828715302744613
 20
-0.1456279074929294
 10
0.9977541794133731
 20
-0.1331538668015518
 10
1.011685867446808
 20
-0.1225419610202989
 10
1.026613575989793
 20
-0.1120043701386572
 10
1.042657307034351
 20
-0.1013953425223206
 10
1.059370029602684
 20
-0.0909214090671168
  0
LWPOLYLINE
  5
178
330
123
100
AcDbEntity
  8
AM_9
100
AcDbPolyline
 90
        9
 70
     0
 43
0.0
 10
1.059370029602684
 20
0.0909214090671169
 10
1.040568695781866
 20
0.1027422972436638
 10
1.022647790644238
 20
0.1147322946503927
 10
1.005519007577425
 20
0.127136319708421
 10
0.9898466219917478
 20
0.1396103603997987
 10
0.9777845556626221
 20
0.1502222661810515
 10
0.96690054342738
 20
0.1607598570626932
 10
0.9569575701448181
 20
0.1713688846790299
 10
0.9480145001480361
 20
0.1818428181342338
  0
LINE
  5
179
330
123
100
AcDbEntity
  8
AM_9
100
AcDbLine
 10
0.335166
 20
-0.1988189999999998
 30
0.0
 11
0.335166
 21
-0.4926289589941806
 31
0.0
  0
LINE
  5
17A
330
123
100
AcDbEntity
  8
AM_9
100
AcDbLine
 10
-0.224974530935
 20
-0.1988189999999998
 30
0.0
 11
-0.224974530935
 21
-0.4920177706870696
 31
0.0
  0
LINE
  5
17B
330
123
100
AcDbEntity
  8
AM_9
100
AcDbLine
 10
0.0933567
 20
-0.1988189999999998
 30
0.0
 11
0.0933567
 21
-0.4920177706870695
 31
0.0
  0
LINE
  5
17C
330
123
100
AcDbEntity
  8
AM_9
100
AcDbLine
 10
-0.200487509838
 20
-0.1988189999999998
 30
0.0
 11
-0.200487509838
 21
-0.4920177706870695
 31
0.0
  0
LINE
  5
17D
330
123
100
AcDbEntity
  8
AM_9
100
AcDbLine
 10
0.0688697
 20
-0.1988189999999998
 30
0.0
 11
0.0688697
 21
-0.4920177706870696
 31
0.0
  0
LINE
  5
17E
330
123
100
AcDbEntity
  8
AM_9
100
AcDbLine
 10
-0.078052404353
 20
-0.1988189999999998
 30
0.0
 11
-0.0780524043529999
 21
-0.4920177706870696
 31
0.0
  0
LINE
  5
17F
330
123
100
AcDbEntity
  8
AM_9
100
AcDbLine
 10
-0.18212214559
 20
-0.1988189999999998
 30
0.0
 11
-0.18212214559
 21
-0.4895730253345548
 31
0.0
  0
LINE
  5
180
330
123
100
AcDbEntity
  8
AM_9
100
AcDbLine
 10
-0.096417768601
 20
-0.1988189999999998
 30
0.0
 11
-0.096417768601
 21
-0.4895730253345546
 31
0.0
  0
LINE
  5
181
330
123
100
AcDbEntity
  8
AM_9
100
AcDbLine
 10
0.111722
 20
-0.1988189999999998
 30
0.0
 11
0.1117220000000001
 21
-0.4895730384366689
 31
0.0
  0
LINE
  5
182
330
123
100
AcDbEntity
  8
AM_9
100
AcDbLine
 10
-0.243339895183
 20
-0.1988189999999998
 30
0.0
 11
-0.2433398951829999
 21
-0.4895730449875154
 31
0.0
  0
LINE
  5
183
330
123
100
AcDbEntity
  8
AM_9
100
AcDbLine
 10
0.0505043
 20
-0.1988189999999998
 30
0.0
 11
0.0505043
 21
-0.4895730234609438
 31
0.0
  0
ELLIPSE
  5
184
330
123
100
AcDbEntity
  8
AM_9
100
AcDbEllipse
 10
0.9380684212938528
 20
0.0000000000000001
 30
0.0
 11
-2.892860668945879E-17
 21
-0.1574800000000001
 31
0.0
210
0.0
220
0.0
230
1.0
 40
0.7071067811865468
 41
0.0
 42
6.283185307179586
  0
LINE
  5
185
330
123
100
AcDbEntity
  8
AM_9
100
AcDbLine
 10
-0.197426878264
 20
-0.1988189999999998
 30
0.0
 11
-0.197426878264
 21
-0.4909991328321261
 31
0.0
  0
LINE
  5
186
330
123
100
AcDbEntity
  8
AM_9
100
AcDbLine
 10
0.0964177
 20
-0.1988189999999998
 30
0.0
 11
0.0964177000000002
 21
-0.4909991328321261
 31
0.0
  0
LINE
  5
187
330
123
100
AcDbEntity
  8
AM_9
100
AcDbLine
 10
-0.081113429628
 20
-0.1988189999999998
 30
0.0
 11
-0.081113429628
 21
-0.4909991328321261
 31
0.0
  0
LINE
  5
188
330
123
100
AcDbEntity
  8
AM_9
100
AcDbLine
 10
0.0658091
 20
-0.1988189999999998
 30
0.0
 11
0.0658091
 21
-0.4909991328321261
 31
0.0
  0
LINE
  5
189
330
123
100
AcDbEntity
  8
AM_9
100
AcDbLine
 10
-0.22803555621
 20
-0.1988189999999998
 30
0.0
 11
-0.22803555621
 21
-0.4909991328321261
 31
0.0
  0
LINE
  5
18A
330
123
100
AcDbEntity
  8
AM_9
100
AcDbLine
 10
0.194366
 20
-0.1988189999999998
 30
0.0
 11
0.194366
 21
-0.4892674442831134
 31
0.0
  0
LINE
  5
18B
330
123
100
AcDbEntity
  8
AM_9
100
AcDbLine
 10
-0.191304827714
 20
-0.1988189999999998
 30
0.0
 11
-0.1913048277140001
 21
-0.4901842127584176
 31
0.0
  0
LINE
  5
18C
330
123
100
AcDbEntity
  8
AM_9
100
AcDbLine
 10
-0.172939463466
 20
-0.1988189999999998
 30
0.0
 11
-0.1729394634659999
 21
-0.4891655683521779
 31
0.0
  0
LINE
  5
18D
330
123
100
AcDbEntity
  8
AM_9
100
AcDbLine
 10
0.102539
 20
-0.1988189999999998
 30
0.0
 11
0.1025390000000002
 21
-0.4901842127584177
 31
0.0
  0
LINE
  5
18E
330
123
100
AcDbEntity
  8
AM_9
100
AcDbLine
 10
-0.234157213059
 20
-0.1988189999999998
 30
0.0
 11
-0.234157213059
 21
-0.4901842127584176
 31
0.0
  0
LINE
  5
18F
330
123
100
AcDbEntity
  8
AM_9
100
AcDbLine
 10
0.0413217
 20
-0.1988189999999998
 30
0.0
 11
0.0413216999999999
 21
-0.4891655682473025
 31
0.0
  0
LINE
  5
190
330
123
100
AcDbEntity
  8
AM_9
100
AcDbLine
 10
-0.252522577307
 20
-0.1988189999999998
 30
0.0
 11
-0.252522577307
 21
-0.4891655749034741
 31
0.0
  0
LINE
  5
191
330
123
100
AcDbEntity
  8
AM_9
100
AcDbLine
 10
0.120905
 20
-0.1988189999999998
 30
0.0
 11
0.1209049999999999
 21
-0.4891655582622293
 31
0.0
  0
LINE
  5
192
330
123
100
AcDbEntity
  8
AM_9
100
AcDbLine
 10
-0.105600450725
 20
-0.1988189999999998
 30
0.0
 11
-0.1056004507250001
 21
-0.4891655683521778
 31
0.0
  0
LINE
  5
193
330
123
100
AcDbEntity
  8
AM_9
100
AcDbLine
 10
0.059687
 20
-0.1988189999999998
 30
0.0
 11
0.059687
 21
-0.4901842127584177
 31
0.0
  0
LINE
  5
194
330
123
100
AcDbEntity
  8
AM_9
100
AcDbLine
 10
0.191305
 20
-0.1988189999999998
 30
0.0
 11
0.1913049999999999
 21
-0.4891655749034741
 31
0.0
  0
LINE
  5
195
330
123
100
AcDbEntity
  8
AM_9
100
AcDbLine
 10
-0.087235086477
 20
-0.1988189999999998
 30
0.0
 11
-0.0872350864770001
 21
-0.4901842127584176
 31
0.0
  0
LINE
  5
196
330
123
100
AcDbEntity
  8
AM_9
100
AcDbLine
 10
0.130087
 20
-0.1988189999999998
 30
0.0
 11
0.1300869999999998
 21
-0.4889210925879484
 31
0.0
  0
LINE
  5
197
330
123
100
AcDbEntity
  8
AM_9
100
AcDbLine
 10
0.0321392
 20
-0.1988189999999998
 30
0.0
 11
0.0321392
 21
-0.4889210923217273
 31
0.0
  0
LINE
  5
198
330
123
100
AcDbEntity
  8
AM_9
100
AcDbLine
 10
-0.114783132849
 20
-0.1988189999999998
 30
0.0
 11
-0.114783132849
 21
-0.4889210904917091
 31
0.0
  0
LINE
  5
199
330
123
100
AcDbEntity
  8
AM_9
100
AcDbLine
 10
0.255583
 20
-0.1988189999999998
 30
0.0
 11
0.255583
 21
-0.4887581183629605
 31
0.0
  0
LINE
  5
19A
330
123
100
AcDbEntity
  8
AM_9
100
AcDbLine
 10
-0.0352000977482
 20
-0.1988189999999998
 30
0.0
 11
-0.0352000977482
 21
-0.4887581183629605
 31
0.0
  0
LINE
  5
19B
330
123
100
AcDbEntity
  8
AM_9
100
AcDbLine
 10
-0.3290446658729999
 20
-0.1988189999999998
 30
0.0
 11
-0.3290446658729999
 21
-0.4887581183629604
 31
0.0
  0
LINE
  5
19C
330
123
100
AcDbEntity
  8
AM_9
100
AcDbLine
 10
0.182122
 20
-0.1988189999999998
 30
0.0
 11
0.182122
 21
-0.4889210899256671
 31
0.0
  0
LINE
  5
19D
330
123
100
AcDbEntity
  8
AM_9
100
AcDbLine
 10
-0.163757175043
 20
-0.1988189999999998
 30
0.0
 11
-0.1637571750430001
 21
-0.4889210957323075
 31
0.0
  0
LINE
  5
19E
330
123
100
AcDbEntity
  8
AM_9
100
AcDbLine
 10
-0.261705259431
 20
-0.1988189999999998
 30
0.0
 11
-0.261705259431
 21
-0.4889210904917091
 31
0.0
  0
LINE
  5
19F
330
123
100
AcDbEntity
  8
AM_9
100
AcDbLine
 10
0.0474437
 20
-0.1988189999999998
 30
0.0
 11
0.0474437
 21
-0.4893693136627527
 31
0.0
  0
LINE
  5
1A0
330
123
100
AcDbEntity
  8
AM_9
100
AcDbLine
 10
-0.246400920458
 20
-0.1988189999999998
 30
0.0
 11
-0.246400920458
 21
-0.4893693136627527
 31
0.0
  0
LINE
  5
1A1
330
123
100
AcDbEntity
  8
AM_9
100
AcDbLine
 10
-0.179061514016
 20
-0.1988189999999998
 30
0.0
 11
-0.1790615140160002
 21
-0.4893693136627527
 31
0.0
  0
LINE
  5
1A2
330
123
100
AcDbEntity
  8
AM_9
100
AcDbLine
 10
-0.099478400175
 20
-0.1988189999999998
 30
0.0
 11
-0.0994784001750002
 21
-0.4893693136627525
 31
0.0
  0
LINE
  5
1A3
330
123
100
AcDbEntity
  8
AM_9
100
AcDbLine
 10
0.114783
 20
-0.1988189999999998
 30
0.0
 11
0.114783
 21
-0.4893693136627527
 31
0.0
  0
LINE
  5
1A4
330
123
100
AcDbEntity
  8
AM_9
100
AcDbLine
 10
0.185183
 20
-0.1988189999999998
 30
0.0
 11
0.185183
 21
-0.496771436179456
 31
0.0
  0
LINE
  5
1A5
330
123
100
AcDbEntity
  8
AM_9
100
AcDbLine
 10
-0.078052404353
 20
-0.1988189999999998
 30
0.0
 11
-0.200487509838
 21
-0.1988189999999998
 31
0.0
  0
LINE
  5
1A6
330
123
100
AcDbEntity
  8
AM_9
100
AcDbLine
 10
0.237218
 20
-0.1988189999999998
 30
0.0
 11
0.237218
 21
-0.4887581183629605
 31
0.0
  0
LINE
  5
1A7
330
123
100
AcDbEntity
  8
AM_9
100
AcDbLine
 10
0.347409
 20
-0.1988189999999998
 30
0.0
 11
0.237218
 21
-0.1988189999999998
 31
0.0
  0
LINE
  5
1A8
330
123
100
AcDbEntity
  8
AM_9
100
AcDbLine
 10
0.347409
 20
-0.1988189999999998
 30
0.0
 11
0.3474089999999999
 21
-0.4887581183629605
 31
0.0
  0
LINE
  5
1A9
330
123
100
AcDbEntity
  8
AM_9
100
AcDbLine
 10
-0.127026446547
 20
-0.1988189999999998
 30
0.0
 11
-0.127026446547
 21
-0.4887581183629605
 31
0.0
  0
LINE
  5
1AA
330
123
100
AcDbEntity
  8
AM_9
100
AcDbLine
 10
-0.053565383256
 20
-0.1988189999999998
 30
0.0
 11
-0.053565383256
 21
-0.4887581183629605
 31
0.0
  0
LINE
  5
1AB
330
123
100
AcDbEntity
  8
AM_9
100
AcDbLine
 10
-0.151513467644
 20
-0.1988189999999998
 30
0.0
 11
-0.1515134676440001
 21
-0.4887581183629604
 31
0.0
  0
LINE
  5
1AC
330
123
100
AcDbEntity
  8
AM_9
100
AcDbLine
 10
0.169879
 20
-0.1988189999999998
 30
0.0
 11
0.169879
 21
-0.4887581183629605
 31
0.0
  0
LINE
  5
1AD
330
123
100
AcDbEntity
  8
AM_9
100
AcDbLine
 10
0.212731
 20
-0.1988189999999998
 30
0.0
 11
0.0933567
 21
-0.1988189999999998
 31
0.0
  0
LINE
  5
1AE
330
123
100
AcDbEntity
  8
AM_9
100
AcDbLine
 10
0.0198957
 20
-0.1988189999999998
 30
0.0
 11
0.0198956999999999
 21
-0.4887581183629605
 31
0.0
  0
LINE
  5
1AF
330
123
100
AcDbEntity
  8
AM_9
100
AcDbLine
 10
-0.224974530935
 20
-0.1988189999999998
 30
0.0
 11
-0.3474096364199999
 21
-0.1988189999999998
 31
0.0
  0
LINE
  5
1B0
330
123
100
AcDbEntity
  8
AM_9
100
AcDbLine
 10
-0.273948573129
 20
-0.1988189999999998
 30
0.0
 11
-0.2739485731290003
 21
-0.4887581183629604
 31
0.0
  0
LINE
  5
1B1
330
123
100
AcDbEntity
  8
AM_9
100
AcDbLine
 10
0.142331
 20
-0.1988189999999998
 30
0.0
 11
0.142331
 21
-0.4887581183629604
 31
0.0
  0
LINE
  5
1B2
330
123
100
AcDbEntity
  8
AM_9
100
AcDbLine
 10
-0.3474096364199999
 20
-0.1988189999999998
 30
0.0
 11
-0.3474096364199999
 21
-0.4887581183629604
 31
0.0
  0
LINE
  5
1B3
330
123
100
AcDbEntity
  8
AM_9
100
AcDbLine
 10
0.0688697
 20
-0.1988189999999998
 30
0.0
 11
-0.053565383256
 21
-0.1988189999999998
 31
0.0
  0
ELLIPSE
  5
1B4
330
123
100
AcDbEntity
  8
AM_9
100
AcDbEllipse
 10
1.035504624471523
 20
0.0000000000000004
 30
0.0
 11
6.750008227540356E-18
 21
0.1102359999999996
 31
0.0
210
0.0
220
0.0
230
1.0
 40
0.7071067811865451
 41
3.141592653589793
 42
6.283185307179586
  0
ELLIPSE
  5
1B5
330
123
100
AcDbEntity
  8
AM_9
100
AcDbEllipse
 10
1.049424021459179
 20
0.0
 30
0.0
 11
6.750008227540391E-18
 21
0.1102360000000002
 31
0.0
210
0.0
220
0.0
230
1.0
 40
0.7071067811865475
 41
3.716785882424722
 42
5.709805125721342
  0
LINE
  5
1B6
330
123
100
AcDbEntity
  8
AM_9
100
AcDbLine
 10
1.136914075071988
 20
-0.0909214090671168
 30
0.0
 11
1.12895665827396
 21
-0.1002866652691235
 31
0.0
  0
LWPOLYLINE
  5
1B7
330
123
100
AcDbEntity
  8
AM_9
100
AcDbPolyline
 90
        9
 70
     0
 43
0.0
 10
1.136914075071988
 20
0.0909214090671169
 10
1.141238067242347
 20
0.0672781935618201
 10
1.144474369622895
 20
0.0432967219144128
 10
1.146411284483602
 20
0.0184870563376659
 10
1.146805836654863
 20
-0.0064626251340285
 10
1.14587080269205
 20
-0.0276849305747583
 10
1.143848903769974
 20
-0.0487586048861115
 10
1.140798646175626
 20
-0.0699750824662275
 10
1.136914075071988
 20
-0.0909214090671168
  0
LINE
  5
1B8
330
123
100
AcDbEntity
  8
AM_9
100
AcDbLine
 10
1.128990122508499
 20
0.1002488248821741
 30
0.0
 11
1.136914075071988
 21
0.0909214090671169
 31
0.0
  0
ELLIPSE
  5
1B9
330
123
100
AcDbEntity
  8
AM_9
100
AcDbEllipse
 10
1.035504624471522
 20
-0.0000000000000001
 30
0.0
 11
9.642868896486286E-18
 21
0.1574800000000005
 31
0.0
210
0.0
220
0.0
230
1.0
 40
0.707106781186545
 41
4.01681193168919
 42
5.407408085587374
  0
LWPOLYLINE
  5
1BA
330
123
100
AcDbEntity
  8
AM_9
100
AcDbPolyline
 90
        3
 70
     0
 43
0.0
 10
1.053142426369156
 20
-0.0423430323326947
 10
1.052106742392863
 20
-0.0393410297943178
 10
1.050494667026864
 20
-0.0339899602970533
  0
LWPOLYLINE
  5
1BB
330
123
100
AcDbEntity
  8
AM_9
100
AcDbPolyline
 90
        4
 70
     0
 43
0.0
 10
1.06011236096846
 20
-0.0574407087709913
 10
1.058474876643926
 20
-0.0544833358482901
 10
1.055084394604555
 20
-0.0473079752322638
 10
1.054430599153837
 20
-0.0457202554236193
  0
LWPOLYLINE
  5
1BC
330
123
100
AcDbEntity
  8
AM_9
100
AcDbPolyline
 90
       24
 70
     0
 43
0.0
 10
1.124350670756571
 20
0.0000000000000001
 10
1.124264482153092
 20
-0.0048162411263622
 10
1.123555339956315
 20
-0.0145836690023926
 10
1.122151324982547
 20
-0.0240962300352217
 10
1.120100081014228
 20
-0.033178415786857
 10
1.117472726146449
 20
-0.0416717915862362
 10
1.114362914124704
 20
-0.0494351226464927
 10
1.110884764110208
 20
-0.0563503230407308
 10
1.107169418783898
 20
-0.0623286820343583
 10
1.103360285578793
 20
-0.0673163214477627
 10
1.099613183519977
 20
-0.0712926976839979
 10
1.096071541617215
 20
-0.0742930530672041
 10
1.092854113197991
 20
-0.0764009696444871
 10
1.090029688253733
 20
-0.0777435018554125
 10
1.087570308233685
 20
-0.0784751220489326
 10
1.085227071359294
 20
-0.0787236041418821
 10
1.082445525006993
 20
-0.0783964803728664
 10
1.0798723195497
 20
-0.0775540180424843
 10
1.076961056075951
 20
-0.0760771368008007
 10
1.073738574875218
 20
-0.0738622473803474
 10
1.069913561400265
 20
-0.0704670277044063
 10
1.066014204310789
 20
-0.0661047531069975
 10
1.062160011261118
 20
-0.0607692362782622
 10
1.06011236096846
 20
-0.0574407087709913
  0
LWPOLYLINE
  5
1BD
330
123
100
AcDbEntity
  8
AM_9
100
AcDbPolyline
 90
       23
 70
     0
 43
0.0
 10
1.060668616219001
 20
0.0583831237941709
 10
1.064326674654078
 20
0.0639052694792863
 10
1.068133151783621
 20
0.0685938054848254
 10
1.071833828045276
 20
0.072276410822969
 10
1.075290526641723
 20
0.0750027089479053
 10
1.078396041538954
 20
0.0768699489456904
 10
1.081103574484714
 20
0.0780157470944571
 10
1.083486510595415
 20
0.0785958077457981
 10
1.085918957121237
 20
0.0786998157124662
 10
1.088420595642005
 20
0.0782726839888619
 10
1.091065711508845
 20
0.0773093453244322
 10
1.094043506404058
 20
0.0756910242739405
 10
1.09732173114478
 20
0.0733153020664655
 10
1.101166523447929
 20
0.0697481182875446
 10
1.105066456896233
 20
0.065209365310603
 10
1.108899347905569
 20
0.0596987640578576
 10
1.112540361204964
 20
0.0532457836165056
 10
1.115863956665163
 20
0.0459196895616925
 10
1.118755770547713
 20
0.0378206834501281
 10
1.121119574764212
 20
0.0290665540671808
 10
1.122876011391231
 20
0.0197967959741605
 10
1.123965498616379
 20
0.0101677779022507
 10
1.124350670756571
 20
0.0000000000000001
  0
LWPOLYLINE
  5
1BE
330
123
100
AcDbEntity
  8
AM_9
100
AcDbPolyline
 90
        3
 70
     0
 43
0.0
 10
1.053421772975042
 20
0.0431061919724425
 10
1.053774596446526
 20
0.0440447675330667
 10
1.054680052785521
 20
0.0463352570852036
  0
LWPOLYLINE
  5
1BF
330
123
100
AcDbEntity
  8
AM_9
100
AcDbPolyline
 90
        3
 70
     0
 43
0.0
 10
1.050574309400774
 20
0.0342783868234056
 10
1.050994140764339
 20
0.0357530859723613
 10
1.053421772975042
 20
0.0431061919724425
  0
ELLIPSE
  5
1C0
330
123
100
AcDbEntity
  8
AM_9
100
AcDbEllipse
 10
1.113210270677049
 20
0.0000000000000001
 30
0.0
 11
5.818081450420697E-18
 21
0.09501648074320648
 31
0.0
210
0.0
220
0.0
230
1.0
 40
0.707106781186545
 41
2.084161861636793
 42
7.346466365667668
  0
ELLIPSE
  5
1C1
330
123
100
AcDbEntity
  8
AM_9
100
AcDbEllipse
 10
1.128843666299574
 20
0.0000000000000002
 30
0.0
 11
6.055286803296881E-18
 21
0.09889033813688662
 31
0.0
210
0.0
220
0.0
230
1.0
 40
0.7071067811865442
 41
3.622406308353744
 42
4.71238898038469
  0
ELLIPSE
  5
1C2
330
123
100
AcDbEntity
  8
AM_9
100
AcDbEllipse
 10
1.166622537560674
 20
0.0
 30
0.0
 11
4.542222954855840E-18
 21
0.07418013027132905
 31
0.0
210
0.0
220
0.0
230
1.0
 40
0.7071067811865475
 41
3.626854292090906
 42
4.71238898038469
  0
LINE
  5
1C3
330
123
100
AcDbEntity
  8
AM_9
100
AcDbLine
 10
0.7461393971638273
 20
-0.617445120947114
 30
0.0
 11
0.71875
 21
-0.617445120947114
 31
0.0
  0
LINE
  5
1C4
330
123
100
AcDbEntity
  8
AM_9
100
AcDbLine
 10
-0.7187499999999998
 20
-0.6174451209471141
 30
0.0
 11
-0.7499999999999999
 21
-0.6174451209471141
 31
0.0
  0
LINE
  5
1C5
330
123
100
AcDbEntity
  8
AM_9
100
AcDbLine
 10
-0.66875
 20
-0.6527536594028245
 30
0.0
 11
-0.71875
 21
-0.6562500000000001
 31
0.0
  0
LINE
  5
1C6
330
123
100
AcDbEntity
  8
AM_9
100
AcDbLine
 10
0.6687499999999993
 20
-0.6527536594028245
 30
0.0
 11
-0.66875
 21
-0.6527536594028245
 31
0.0
  0
LINE
  5
1C7
330
123
100
AcDbEntity
  8
AM_9
100
AcDbLine
 10
0.71875
 20
-0.6562500000000001
 30
0.0
 11
0.6687499999999993
 21
-0.6527536594028245
 31
0.0
  0
LWPOLYLINE
  5
1C8
330
123
100
AcDbEntity
  8
AM_9
100
AcDbPolyline
 90
       11
 70
     0
 43
0.0
 10
0.9776804685803159
 20
0.0000000000000001
 10
0.9768560668841538
 20
0.013207983895889
 10
0.9744244507266561
 20
0.0260436757860358
 10
0.9704232516361008
 20
0.0381349402975366
 10
0.9649711899588819
 20
0.0491512516400597
 10
0.9581859969721954
 20
0.0587619114123951
 10
0.9502575159551037
 20
0.0667179213736711
 10
0.9413743622769549
 20
0.0727724761965888
 10
0.9317874885193717
 20
0.0767828878505599
 10
0.9217271154392507
 20
0.0786129909937363
 10
0.9183879316668249
 20
0.0787401997835863
  0
CIRCLE
  5
1C9
330
123
100
AcDbEntity
  8
AM_9
100
AcDbCircle
 10
0.9999999999999999
 20
0.0
 30
0.0
 40
0.15365
  0
ELLIPSE
  5
1CA
330
123
100
AcDbEntity
  8
AM_9
100
AcDbEllipse
 10
0.938068421293852
 20
0.0000000000000003
 30
0.0
 11
4.821446694711201E-18
 21
0.0787402000000013
 31
0.0
210
0.0
220
0.0
230
1.0
 40
0.7071067811865474
 41
0.0
 42
6.283185307179586
  0
LINE
  5
1CB
330
123
100
AcDbEntity
  8
AM_7
100
AcDbLine
 10
-1.196875
 20
-0.0000000000000001
 30
0.0
 11
-0.8031250000000001
 21
-0.0000000000000001
 31
0.0
  0
LINE
  5
1CC
330
123
100
AcDbEntity
  8
AM_7
100
AcDbLine
 10
-1.0
 20
-0.196875
 30
0.0
 11
-1.0
 21
0.1968749999999999
 31
0.0
  0
LINE
  5
1CD
330
123
100
AcDbEntity
  8
AM_7
100
AcDbLine
 10
0.8031250000000001
 20
-0.0000000000000001
 30
0.0
 11
1.196875
 21
-0.0000000000000001
 31
0.0
  0
LINE
  5
1CE
330
123
100
AcDbEntity
  8
AM_7
100
AcDbLine
 10
1.0
 20
-0.196875
 30
0.0
 11
1.0
 21
0.1968749999999999
 31
0.0
  0
LINE
  5
1CF
330
123
100
AcDbEntity
  8
AM_7
100
AcDbLine
 10
0.0
 20
0.8249999999999998
 30
0.0
 11
0.0
 21
-1.0578125
 31
0.0
  0
LINE
  5
1D0
330
123
100
AcDbEntity
  8
AM_4
100
AcDbLine
 10
1.4375
 20
-0.7499999999999999
 30
0.0
 11
0.7461393971638273
 21
-0.7499999999999999
 31
0.0
  0
LINE
  5
1D1
330
123
100
AcDbEntity
  8
AM_4
100
AcDbLine
 10
1.4375
 20
0.7499999999999999
 30
0.0
 11
0.71875
 21
0.7499999999999999
 31
0.0
  0
LINE
  5
1D2
330
123
100
AcDbEntity
  8
AM_4
100
AcDbLine
 10
1.4375
 20
-0.6909448999999999
 30
0.0
 11
0.7461393971638273
 21
-0.6909448999999999
 31
0.0
  0
LINE
  5
1D3
330
123
100
AcDbEntity
  8
AM_4
100
AcDbLine
 10
1.4375
 20
0.6909448999999998
 30
0.0
 11
0.71875
 21
0.6909448999999998
 31
0.0
  0
LINE
  5
1D4
330
123
100
AcDbEntity
  8
AM_4
100
AcDbLine
 10
-0.7499999999999999
 20
-0.6909448999999999
 30
0.0
 11
-1.437499999999999
 21
-0.6909448999999999
 31
0.0
  0
LINE
  5
1D5
330
123
100
AcDbEntity
  8
AM_4
100
AcDbLine
 10
-1.437499999999999
 20
-0.7499999999999999
 30
0.0
 11
-0.7499999999999999
 21
-0.7499999999999999
 31
0.0
  0
LINE
  5
1D6
330
123
100
AcDbEntity
  8
AM_4
100
AcDbLine
 10
-1.437499999999999
 20
0.7499999999999999
 30
0.0
 11
-0.7187499999999998
 21
0.7499999999999999
 31
0.0
  0
LINE
  5
1D7
330
123
100
AcDbEntity
  8
AM_4
100
AcDbLine
 10
-0.7187499999999998
 20
0.6909448999999998
 30
0.0
 11
-1.437499999999999
 21
0.6909448999999998
 31
0.0
  0
LINE
  5
1D8
330
123
100
AcDbEntity
  8
AM_4
100
AcDbLine
 10
1.4375
 20
-0.676356365691613
 30
0.0
 11
0.7461393971638273
 21
-0.676356365691613
 31
0.0
  0
LINE
  5
1D9
330
123
100
AcDbEntity
  8
AM_4
100
AcDbLine
 10
-0.7499999999999999
 20
-0.676356365691613
 30
0.0
 11
-1.437499999999999
 21
-0.676356365691613
 31
0.0
  0
LINE
  5
1DA
330
123
100
AcDbEntity
  8
AM_4
100
AcDbLine
 10
0.71875
 20
0.617445120947114
 30
0.0
 11
0.71875
 21
0.7499999999999999
 31
0.0
  0
LINE
  5
1DB
330
123
100
AcDbEntity
  8
AM_4
100
AcDbLine
 10
1.4375
 20
0.676356365691613
 30
0.0
 11
0.71875
 21
0.676356365691613
 31
0.0
  0
LINE
  5
1DC
330
123
100
AcDbEntity
  8
AM_4
100
AcDbLine
 10
-0.7187499999999998
 20
0.617445120947114
 30
0.0
 11
-0.7187499999999998
 21
0.7499999999999999
 31
0.0
  0
LINE
  5
1DD
330
123
100
AcDbEntity
  8
AM_4
100
AcDbLine
 10
-0.7187499999999998
 20
0.676356365691613
 30
0.0
 11
-1.437499999999999
 21
0.676356365691613
 31
0.0
  0
LWPOLYLINE
  5
1DE
330
123
100
AcDbEntity
  8
AM_4
100
AcDbPolyline
 90
        9
 70
     0
 43
0.0
 10
-0.7499999999999996
 20
-0.6023190739120451
 10
-0.7943628062703646
 20
-0.5976040253189103
 10
-0.8326800319356354
 20
-0.5926365487556925
 10
-0.8646600597719264
 20
-0.5874544497184823
 10
-0.8900595024573342
 20
-0.5820971671099896
 10
-0.9086850548964202
 20
-0.5766054730856808
 10
-0.9203949653887069
 20
-0.5710211627530565
 10
-0.9251001144447109
 20
-0.5653867360856465
 10
-0.9252000000000002
 20
-0.5644360959181709
  0
LWPOLYLINE
  5
1DF
330
123
100
AcDbEntity
  8
AM_4
100
AcDbPolyline
 90
        9
 70
     0
 43
0.0
 10
0.9252000000000002
 20
-0.5644360959181709
 10
0.921679334674483
 20
-0.5700747488132616
 10
0.911144133086895
 20
-0.5756704881551088
 10
0.8936745744826462
 20
-0.5811807269885215
 10
0.8694036127511228
 20
-0.5865635290688042
 10
0.8385159645663088
 20
-0.591777928021901
 10
0.8012467035813632
 20
-0.5967842391232389
 10
0.7578794713761757
 20
-0.6015443613224433
 10
0.746139397163827
 20
-0.6026900273479397
  0
LWPOLYLINE
  5
1E0
330
123
100
AcDbEntity
  8
AM_4
100
AcDbPolyline
 90
       19
 70
     0
 43
0.0
 10
-0.9252000000000002
 20
-0.5644360959181709
 10
-0.921679334674483
 20
-0.5587974430230803
 10
-0.911144133086895
 20
-0.5532017036812331
 10
-0.8936745744826462
 20
-0.5476914648478204
 10
-0.8694036127511228
 20
-0.5423086627675378
 10
-0.8385159645663091
 20
-0.5370942638144409
 10
-0.8012467035813632
 20
-0.532087952713103
 10
-0.757879471376176
 20
-0.5273278305138986
 10
-0.7087443187736793
 20
-0.522850124621004
 10
-0.6542151939537947
 20
-0.5186889130799768
 10
-0.5947070964819872
 20
-0.5148758652232525
 10
-0.530672918911989
 20
-0.511440000647402
 10
-0.4626000000000013
 20
-0.5084074683564793
 10
-0.3910064157624965
 20
-0.5058013477523114
 10
-0.3164370366049102
 20
-0.5036414729863147
 10
-0.2394593805288538
 20
-0.5019442820096262
 10
-0.1606592939774457
 20
-0.5007226914703707
 10
-0.0806364931901351
 20
-0.4999859984101686
 10
-0.0000000000000019
 20
-0.499739809508035
  0
LWPOLYLINE
  5
1E1
330
123
100
AcDbEntity
  8
AM_4
100
AcDbPolyline
 90
       37
 70
     0
 43
0.0
 10
0.9252000000000002
 20
0.5644360959181706
 10
0.921679334674483
 20
0.55879744302308
 10
0.911144133086895
 20
0.5532017036812327
 10
0.8936745744826462
 20
0.54769146484782
 10
0.8694036127511228
 20
0.5423086627675374
 10
0.8385159645663088
 20
0.5370942638144406
 10
0.8012467035813632
 20
0.5320879527131027
 10
0.7578794713761757
 20
0.5273278305138983
 10
0.7087443187736792
 20
0.5228501246210036
 10
0.6542151939537946
 20
0.5186889130799764
 10
0.594707096481987
 20
0.5148758652232521
 10
0.5306729189119889
 20
0.5114400006474016
 10
0.4626000000000012
 20
0.5084074683564789
 10
0.3910064157624964
 20
0.505801347752311
 10
0.3164370366049101
 20
0.5036414729863142
 10
0.2394593805288537
 20
0.5019442820096258
 10
0.1606592939774455
 20
0.5007226914703704
 10
0.080636493190135
 20
0.4999859984101682
 10
0.0000000000000018
 20
0.4997398095080346
 10
-0.0806364931901315
 20
0.4999859984101681
 10
-0.1606592939774421
 20
0.5007226914703703
 10
-0.2394593805288503
 20
0.5019442820096258
 10
-0.3164370366049068
 20
0.5036414729863141
 10
-0.3910064157624932
 20
0.5058013477523109
 10
-0.4625999999999982
 20
0.5084074683564788
 10
-0.530672918911986
 20
0.5114400006474015
 10
-0.5947070964819844
 20
0.5148758652232519
 10
-0.654215193953792
 20
0.5186889130799762
 10
-0.7087443187736768
 20
0.5228501246210034
 10
-0.7578794713761737
 20
0.5273278305138981
 10
-0.8012467035813613
 20
0.5320879527131025
 10
-0.8385159645663074
 20
0.5370942638144404
 10
-0.8694036127511215
 20
0.5423086627675372
 10
-0.8936745744826453
 20
0.5476914648478197
 10
-0.9111441330868946
 20
0.5532017036812324
 10
-0.9216793346744828
 20
0.5587974430230797
 10
-0.9252000000000002
 20
0.5644360959181703
  0
LWPOLYLINE
  5
1E2
330
123
100
AcDbEntity
  8
AM_4
100
AcDbPolyline
 90
       19
 70
     0
 43
0.0
 10
-0.9252000000000002
 20
0.5644360959181706
 10
-0.921679334674483
 20
0.5700747488132611
 10
-0.911144133086895
 20
0.5756704881551085
 10
-0.8936745744826462
 20
0.5811807269885212
 10
-0.8694036127511228
 20
0.5865635290688037
 10
-0.8385159645663091
 20
0.5917779280219007
 10
-0.8012467035813632
 20
0.5967842391232385
 10
-0.757879471376176
 20
0.6015443613224429
 10
-0.7087443187736793
 20
0.6060220672153376
 10
-0.6542151939537947
 20
0.6101832787563648
 10
-0.5947070964819872
 20
0.613996326613089
 10
-0.530672918911989
 20
0.6174321911889394
 10
-0.4626000000000013
 20
0.6204647234798623
 10
-0.3910064157624965
 20
0.6230708440840301
 10
-0.3164370366049102
 20
0.6252307188500269
 10
-0.2394593805288538
 20
0.6269279098267154
 10
-0.1606592939774457
 20
0.6281495003659707
 10
-0.0806364931901351
 20
0.6288861934261731
 10
-0.0000000000000019
 20
0.6291323823283066
  0
LINE
  5
1E3
330
123
100
AcDbEntity
  8
AM_4
100
AcDbLine
 10
-0.151513467644
 20
-0.4971109851776053
 30
0.0
 11
-0.151513467644
 21
-0.4983333560648914
 31
0.0
  0
LINE
  5
1E4
330
123
100
AcDbEntity
  8
AM_4
100
AcDbLine
 10
0.0198956999999998
 20
-0.4971109851776053
 30
0.0
 11
0.0198956999999998
 21
-0.4983333560648913
 31
0.0
  0
LINE
  5
1E5
330
123
100
AcDbEntity
  8
AM_4
100
AcDbLine
 10
0.142331
 20
-0.4971109851776053
 30
0.0
 11
0.142331
 21
-0.4983333560648914
 31
0.0
  0
LINE
  5
1E6
330
123
100
AcDbEntity
  8
AM_4
100
AcDbLine
 10
-0.2739485731290001
 20
-0.4971109851776053
 30
0.0
 11
-0.2739485731290001
 21
-0.4983333560648913
 31
0.0
  0
LINE
  5
1E7
330
123
100
AcDbEntity
  8
AM_4
100
AcDbLine
 10
0.1698790000000001
 20
-0.4971109851776054
 30
0.0
 11
0.1698790000000001
 21
-0.4983333560648914
 31
0.0
  0
LINE
  5
1E8
330
123
100
AcDbEntity
  8
AM_4
100
AcDbLine
 10
-0.1270264465470001
 20
-0.4971109851776053
 30
0.0
 11
-0.1270264465470001
 21
-0.4983333560648913
 31
0.0
  0
LINE
  5
1E9
330
123
100
AcDbEntity
  8
AM_4
100
AcDbLine
 10
-0.258644234156
 20
-0.4967714303560508
 30
0.0
 11
-0.258644234156
 21
-0.4981296321720529
 31
0.0
  0
LINE
  5
1EA
330
123
100
AcDbEntity
  8
AM_4
100
AcDbLine
 10
0.185183
 20
-0.496771436179456
 30
0.0
 11
0.185183
 21
-0.4981296321720529
 31
0.0
  0
LINE
  5
1EB
330
123
100
AcDbEntity
  8
AM_4
100
AcDbLine
 10
-0.166817806617
 20
-0.496771442003111
 30
0.0
 11
-0.166817806617
 21
-0.4981296321720531
 31
0.0
  0
LINE
  5
1EC
330
123
100
AcDbEntity
  8
AM_4
100
AcDbLine
 10
0.1270259999999998
 20
-0.4967714213869158
 30
0.0
 11
0.1270259999999998
 21
-0.4981296321720531
 31
0.0
  0
LINE
  5
1ED
330
123
100
AcDbEntity
  8
AM_4
100
AcDbLine
 10
0.0352001000000002
 20
-0.4967714332211091
 30
0.0
 11
0.0352001000000002
 21
-0.4981296321720531
 31
0.0
  0
LINE
  5
1EE
330
123
100
AcDbEntity
  8
AM_4
100
AcDbLine
 10
-0.1117221075739998
 20
-0.4967714303560508
 30
0.0
 11
-0.1117221075739998
 21
-0.4981296321720531
 31
0.0
  0
LINE
  5
1EF
330
123
100
AcDbEntity
  8
AM_4
100
AcDbLine
 10
0.0474437000000001
 20
-0.4958886115372936
 30
0.0
 11
0.0474437000000001
 21
-0.4977221568561204
 31
0.0
  0
LINE
  5
1F0
330
123
100
AcDbEntity
  8
AM_4
100
AcDbLine
 10
-0.0994784001750001
 20
-0.4958886115372936
 30
0.0
 11
-0.0994784001750001
 21
-0.4977221568561204
 31
0.0
  0
LINE
  5
1F1
330
123
100
AcDbEntity
  8
AM_4
100
AcDbLine
 10
-0.179061514016
 20
-0.4958886115372935
 30
0.0
 11
-0.179061514016
 21
-0.4977221568561205
 31
0.0
  0
LINE
  5
1F2
330
123
100
AcDbEntity
  8
AM_4
100
AcDbLine
 10
0.197427
 20
-0.493036414136158
 30
0.0
 11
0.197427
 21
-0.4977221568561204
 31
0.0
  0
LINE
  5
1F3
330
123
100
AcDbEntity
  8
AM_4
100
AcDbLine
 10
-0.246400920458
 20
-0.4958886115372935
 30
0.0
 11
-0.246400920458
 21
-0.4977221568561205
 31
0.0
  0
LINE
  5
1F4
330
123
100
AcDbEntity
  8
AM_4
100
AcDbLine
 10
0.1147829999999999
 20
-0.4958886115372935
 30
0.0
 11
0.1147829999999999
 21
-0.4977221568561205
 31
0.0
  0
LINE
  5
1F5
330
123
100
AcDbEntity
  8
AM_4
100
AcDbLine
 10
-0.191304827714
 20
-0.4901842127584176
 30
0.0
 11
-0.191304827714
 21
-0.4969072612847669
 31
0.0
  0
LINE
  5
1F6
330
123
100
AcDbEntity
  8
AM_4
100
AcDbLine
 10
0.0596870000000001
 20
-0.4901842127584177
 30
0.0
 11
0.0596870000000001
 21
-0.4969072612847669
 31
0.0
  0
LINE
  5
1F7
330
123
100
AcDbEntity
  8
AM_4
100
AcDbLine
 10
0.20967
 20
-0.4930364141361581
 30
0.0
 11
0.20967
 21
-0.4969072612847669
 31
0.0
  0
LINE
  5
1F8
330
123
100
AcDbEntity
  8
AM_4
100
AcDbLine
 10
-0.0872350864770001
 20
-0.4901842127584176
 30
0.0
 11
-0.0872350864770001
 21
-0.4969072612847669
 31
0.0
  0
LINE
  5
1F9
330
123
100
AcDbEntity
  8
AM_4
100
AcDbLine
 10
-0.234157213059
 20
-0.4901842127584176
 30
0.0
 11
-0.234157213059
 21
-0.4969072612847669
 31
0.0
  0
LINE
  5
1FA
330
123
100
AcDbEntity
  8
AM_4
100
AcDbLine
 10
0.1025390000000001
 20
-0.4901842127584177
 30
0.0
 11
0.1025390000000001
 21
-0.4969072612847669
 31
0.0
  0
LINE
  5
1FB
330
123
100
AcDbEntity
  8
AM_4
100
AcDbLine
 10
0.0658090999999999
 20
-0.4909991328321261
 30
0.0
 11
0.0658090999999999
 21
-0.4960923381831576
 31
0.0
  0
LINE
  5
1FC
330
123
100
AcDbEntity
  8
AM_4
100
AcDbLine
 10
-0.1974268782640001
 20
-0.4909991328321262
 30
0.0
 11
-0.1974268782640001
 21
-0.4960923381831575
 31
0.0
  0
LINE
  5
1FD
330
123
100
AcDbEntity
  8
AM_4
100
AcDbLine
 10
-0.081113429628
 20
-0.4909991328321262
 30
0.0
 11
-0.081113429628
 21
-0.4960923381831575
 31
0.0
  0
LINE
  5
1FE
330
123
100
AcDbEntity
  8
AM_4
100
AcDbLine
 10
0.0964177
 20
-0.4909991328321261
 30
0.0
 11
0.0964177
 21
-0.4960923381831576
 31
0.0
  0
LINE
  5
1FF
330
123
100
AcDbEntity
  8
AM_4
100
AcDbLine
 10
-0.2280355562099999
 20
-0.4909991328321262
 30
0.0
 11
-0.2280355562099999
 21
-0.4960923381831575
 31
0.0
  0
LINE
  5
200
330
123
100
AcDbEntity
  8
AM_4
100
AcDbLine
 10
0.194366
 20
-0.493036414136158
 30
0.0
 11
0.1943660000000001
 21
-0.4958886115372936
 31
0.0
  0
LINE
  5
201
330
123
100
AcDbEntity
  8
AM_4
100
AcDbLine
 10
-0.18212214559
 20
-0.4895730253345548
 30
0.0
 11
-0.18212214559
 21
-0.4950736966947609
 31
0.0
  0
LINE
  5
202
330
123
100
AcDbEntity
  8
AM_4
100
AcDbLine
 10
-0.096417768601
 20
-0.4895730253345546
 30
0.0
 11
-0.096417768601
 21
-0.4950736966947609
 31
0.0
  0
LINE
  5
203
330
123
100
AcDbEntity
  8
AM_4
100
AcDbLine
 10
0.1117220000000001
 20
-0.4895730384366689
 30
0.0
 11
0.1117220000000001
 21
-0.4950736966947609
 31
0.0
  0
LINE
  5
204
330
123
100
AcDbEntity
  8
AM_4
100
AcDbLine
 10
-0.2433398951829999
 20
-0.4895730449875154
 30
0.0
 11
-0.243339895183
 21
-0.4950736966947609
 31
0.0
  0
LINE
  5
205
330
123
100
AcDbEntity
  8
AM_4
100
AcDbLine
 10
0.0505043
 20
-0.4895730234609438
 30
0.0
 11
0.0505043000000001
 21
-0.4950736966947609
 31
0.0
  0
LINE
  5
206
330
123
100
AcDbEntity
  8
AM_4
100
AcDbLine
 10
0.1147829999999999
 20
-0.4893693136627525
 30
0.0
 11
0.1147829999999999
 21
-0.4912028576060423
 31
0.0
  0
LINE
  5
207
330
123
100
AcDbEntity
  8
AM_4
100
AcDbLine
 10
0.0474437
 20
-0.4893693136627527
 30
0.0
 11
0.0474437
 21
-0.4912028576060424
 31
0.0
  0
LINE
  5
208
330
123
100
AcDbEntity
  8
AM_4
100
AcDbLine
 10
0.194366
 20
-0.4892674442831134
 30
0.0
 11
0.194366
 21
-0.4912028576060423
 31
0.0
  0
LINE
  5
209
330
123
100
AcDbEntity
  8
AM_4
100
AcDbLine
 10
-0.0994784001750001
 20
-0.4893693136627524
 30
0.0
 11
-0.0994784001750001
 21
-0.4912028576060423
 31
0.0
  0
LINE
  5
20A
330
123
100
AcDbEntity
  8
AM_4
100
AcDbLine
 10
-0.246400920458
 20
-0.4893693136627525
 30
0.0
 11
-0.246400920458
 21
-0.4912028576060423
 31
0.0
  0
LINE
  5
20B
330
123
100
AcDbEntity
  8
AM_4
100
AcDbLine
 10
-0.1790615140160001
 20
-0.4893693136627525
 30
0.0
 11
-0.1790615140160001
 21
-0.4912028576060423
 31
0.0
  0
LINE
  5
20C
330
123
100
AcDbEntity
  8
AM_4
100
AcDbLine
 10
-0.1729394634659999
 20
-0.4891655683521779
 30
0.0
 11
-0.1729394634659999
 21
-0.4905916832842936
 31
0.0
  0
LINE
  5
20D
330
123
100
AcDbEntity
  8
AM_4
100
AcDbLine
 10
0.0413216999999999
 20
-0.4891655682473025
 30
0.0
 11
0.0413216999999999
 21
-0.4905916832842936
 31
0.0
  0
LINE
  5
20E
330
123
100
AcDbEntity
  8
AM_4
100
AcDbLine
 10
-0.252522577307
 20
-0.4891655749034741
 30
0.0
 11
-0.252522577307
 21
-0.4905916832842936
 31
0.0
  0
LINE
  5
20F
330
123
100
AcDbEntity
  8
AM_4
100
AcDbLine
 10
0.1209049999999999
 20
-0.4891655582622293
 30
0.0
 11
0.1209049999999999
 21
-0.4905916832842936
 31
0.0
  0
LINE
  5
210
330
123
100
AcDbEntity
  8
AM_4
100
AcDbLine
 10
-0.1056004507250001
 20
-0.4891655683521778
 30
0.0
 11
-0.1056004507250001
 21
-0.4905916832842936
 31
0.0
  0
LINE
  5
211
330
123
100
AcDbEntity
  8
AM_4
100
AcDbLine
 10
0.1913049999999999
 20
-0.4891655749034741
 30
0.0
 11
0.1913049999999999
 21
-0.4905916832842936
 31
0.0
  0
LINE
  5
212
330
123
100
AcDbEntity
  8
AM_4
100
AcDbLine
 10
0.1300869999999998
 20
-0.4889210925879484
 30
0.0
 11
0.1300869999999998
 21
-0.4901842127584176
 31
0.0
  0
LINE
  5
213
330
123
100
AcDbEntity
  8
AM_4
100
AcDbLine
 10
0.0321392
 20
-0.4889210923217273
 30
0.0
 11
0.0321392
 21
-0.4901842127584176
 31
0.0
  0
LINE
  5
214
330
123
100
AcDbEntity
  8
AM_4
100
AcDbLine
 10
-0.114783132849
 20
-0.4889210904917091
 30
0.0
 11
-0.114783132849
 21
-0.4901842127584176
 31
0.0
  0
LINE
  5
215
330
123
100
AcDbEntity
  8
AM_4
100
AcDbLine
 10
-0.1270264465469999
 20
-0.4887581183629605
 30
0.0
 11
-0.1270264465469999
 21
-0.4899804879845014
 31
0.0
  0
LINE
  5
216
330
123
100
AcDbEntity
  8
AM_4
100
AcDbLine
 10
0.255583
 20
-0.4887581183629605
 30
0.0
 11
0.2555830000000001
 21
-0.4971109851776052
 31
0.0
  0
LINE
  5
217
330
123
100
AcDbEntity
  8
AM_4
100
AcDbLine
 10
0.0198956999999999
 20
-0.4887581183629605
 30
0.0
 11
0.0198956999999999
 21
-0.4899804879845014
 31
0.0
  0
LINE
  5
218
330
123
100
AcDbEntity
  8
AM_4
100
AcDbLine
 10
-0.0352000977482
 20
-0.4887581183629605
 30
0.0
 11
-0.0352000977482
 21
-0.4971109851776053
 31
0.0
  0
LINE
  5
219
330
123
100
AcDbEntity
  8
AM_4
100
AcDbLine
 10
-0.18212214559
 20
-0.4920177706870695
 30
0.0
 11
-0.1790615140160001
 21
-0.4912028576060423
 31
0.0
  0
LINE
  5
21A
330
123
100
AcDbEntity
  8
AM_4
100
AcDbLine
 10
-0.179061514016
 20
-0.4958886115372935
 30
0.0
 11
-0.18212214559
 21
-0.4950736966947609
 31
0.0
  0
LINE
  5
21B
330
123
100
AcDbEntity
  8
AM_4
100
AcDbLine
 10
-0.172939463466
 20
-0.4964997859688343
 30
0.0
 11
-0.179061514016
 21
-0.4958886115372935
 31
0.0
  0
LINE
  5
21C
330
123
100
AcDbEntity
  8
AM_4
100
AcDbLine
 10
-0.163757175043
 20
-0.4969072612847669
 30
0.0
 11
-0.172939463466
 21
-0.4964997859688343
 31
0.0
  0
LINE
  5
21D
330
123
100
AcDbEntity
  8
AM_4
100
AcDbLine
 10
-0.151513467644
 20
-0.4971109851776052
 30
0.0
 11
-0.163757175043
 21
-0.4969072612847669
 31
0.0
  0
LINE
  5
21E
330
123
100
AcDbEntity
  8
AM_4
100
AcDbLine
 10
-0.127026446547
 20
-0.4971109851776053
 30
0.0
 11
-0.151513467644
 21
-0.4971109851776052
 31
0.0
  0
LINE
  5
21F
330
123
100
AcDbEntity
  8
AM_4
100
AcDbLine
 10
-0.1147831328489999
 20
-0.4969072612847669
 30
0.0
 11
-0.127026446547
 21
-0.4971109851776053
 31
0.0
  0
LINE
  5
220
330
123
100
AcDbEntity
  8
AM_4
100
AcDbLine
 10
-0.1056004507250001
 20
-0.4964997859688343
 30
0.0
 11
-0.1147831328489999
 21
-0.4969072612847669
 31
0.0
  0
LINE
  5
221
330
123
100
AcDbEntity
  8
AM_4
100
AcDbLine
 10
-0.099478400175
 20
-0.4958886115372936
 30
0.0
 11
-0.1056004507250001
 21
-0.4964997859688343
 31
0.0
  0
LINE
  5
222
330
123
100
AcDbEntity
  8
AM_4
100
AcDbLine
 10
-0.096417768601
 20
-0.4950736966947609
 30
0.0
 11
-0.099478400175
 21
-0.4958886115372936
 31
0.0
  0
LINE
  5
223
330
123
100
AcDbEntity
  8
AM_4
100
AcDbLine
 10
-0.0994784001750001
 20
-0.4912028576060423
 30
0.0
 11
-0.096417768601
 21
-0.4920177706870695
 31
0.0
  0
LINE
  5
224
330
123
100
AcDbEntity
  8
AM_4
100
AcDbLine
 10
-0.1056004507250001
 20
-0.4905916832842936
 30
0.0
 11
-0.0994784001750001
 21
-0.4912028576060423
 31
0.0
  0
LINE
  5
225
330
123
100
AcDbEntity
  8
AM_4
100
AcDbLine
 10
-0.114783132849
 20
-0.4901842127584176
 30
0.0
 11
-0.1056004507250001
 21
-0.4905916832842936
 31
0.0
  0
LINE
  5
226
330
123
100
AcDbEntity
  8
AM_4
100
AcDbLine
 10
-0.1270264465469999
 20
-0.4899804879845014
 30
0.0
 11
-0.114783132849
 21
-0.4901842127584176
 31
0.0
  0
LINE
  5
227
330
123
100
AcDbEntity
  8
AM_4
100
AcDbLine
 10
-0.151513467644
 20
-0.4899804879845014
 30
0.0
 11
-0.1270264465469999
 21
-0.4899804879845014
 31
0.0
  0
LINE
  5
228
330
123
100
AcDbEntity
  8
AM_4
100
AcDbLine
 10
-0.1729394634659999
 20
-0.4905916832842936
 30
0.0
 11
-0.1637571750430001
 21
-0.4901842127584176
 31
0.0
  0
LINE
  5
229
330
123
100
AcDbEntity
  8
AM_4
100
AcDbLine
 10
-0.1790615140160001
 20
-0.4912028576060423
 30
0.0
 11
-0.1729394634659999
 21
-0.4905916832842936
 31
0.0
  0
LINE
  5
22A
330
123
100
AcDbEntity
  8
AM_4
100
AcDbLine
 10
-0.3290446658729999
 20
-0.4887581183629604
 30
0.0
 11
-0.3290446658729999
 21
-0.4971109851776053
 31
0.0
  0
LINE
  5
22B
330
123
100
AcDbEntity
  8
AM_4
100
AcDbLine
 10
0.142331
 20
-0.4887581183629604
 30
0.0
 11
0.142331
 21
-0.4899804879845014
 31
0.0
  0
LINE
  5
22C
330
123
100
AcDbEntity
  8
AM_4
100
AcDbLine
 10
0.182122
 20
-0.4889210899256671
 30
0.0
 11
0.182122
 21
-0.4901842127584176
 31
0.0
  0
LINE
  5
22D
330
123
100
AcDbEntity
  8
AM_4
100
AcDbLine
 10
0.169879
 20
-0.4887581183629605
 30
0.0
 11
0.169879
 21
-0.4899804879845014
 31
0.0
  0
LINE
  5
22E
330
123
100
AcDbEntity
  8
AM_4
100
AcDbLine
 10
-0.1637571750430001
 20
-0.4901842127584176
 30
0.0
 11
-0.151513467644
 21
-0.4899804879845014
 31
0.0
  0
LINE
  5
22F
330
123
100
AcDbEntity
  8
AM_4
100
AcDbLine
 10
-0.151513467644
 20
-0.4887581183629604
 30
0.0
 11
-0.151513467644
 21
-0.4899804879845014
 31
0.0
  0
LINE
  5
230
330
123
100
AcDbEntity
  8
AM_4
100
AcDbLine
 10
-0.1637571750430001
 20
-0.4889210957323075
 30
0.0
 11
-0.1637571750430001
 21
-0.4901842127584176
 31
0.0
  0
LINE
  5
231
330
123
100
AcDbEntity
  8
AM_4
100
AcDbLine
 10
-0.261705259431
 20
-0.4889210904917091
 30
0.0
 11
-0.261705259431
 21
-0.4901842127584177
 31
0.0
  0
LINE
  5
232
330
123
100
AcDbEntity
  8
AM_4
100
AcDbLine
 10
-0.273948573129
 20
-0.4887581183629604
 30
0.0
 11
-0.273948573129
 21
-0.4899804879845013
 31
0.0
  0
LINE
  5
233
330
123
100
AcDbEntity
  8
AM_4
100
AcDbLine
 10
-0.273948573129
 20
-0.4971109851776053
 30
0.0
 11
-0.3290446658729999
 21
-0.4971109851776053
 31
0.0
  0
LINE
  5
234
330
123
100
AcDbEntity
  8
AM_4
100
AcDbLine
 10
-0.2617052594309998
 20
-0.496907261284767
 30
0.0
 11
-0.273948573129
 21
-0.4971109851776053
 31
0.0
  0
LINE
  5
235
330
123
100
AcDbEntity
  8
AM_4
100
AcDbLine
 10
-0.252522577307
 20
-0.4964997859688343
 30
0.0
 11
-0.2617052594309998
 21
-0.496907261284767
 31
0.0
  0
LINE
  5
236
330
123
100
AcDbEntity
  8
AM_4
100
AcDbLine
 10
-0.246400920458
 20
-0.4958886115372936
 30
0.0
 11
-0.252522577307
 21
-0.4964997859688343
 31
0.0
  0
LINE
  5
237
330
123
100
AcDbEntity
  8
AM_4
100
AcDbLine
 10
-0.243339895183
 20
-0.4950736966947609
 30
0.0
 11
-0.246400920458
 21
-0.4958886115372936
 31
0.0
  0
LINE
  5
238
330
123
100
AcDbEntity
  8
AM_4
100
AcDbLine
 10
-0.246400920458
 20
-0.4912028576060423
 30
0.0
 11
-0.2433398951829999
 21
-0.4920177706870695
 31
0.0
  0
LINE
  5
239
330
123
100
AcDbEntity
  8
AM_4
100
AcDbLine
 10
-0.252522577307
 20
-0.4905916832842936
 30
0.0
 11
-0.246400920458
 21
-0.4912028576060423
 31
0.0
  0
LINE
  5
23A
330
123
100
AcDbEntity
  8
AM_4
100
AcDbLine
 10
-0.261705259431
 20
-0.4901842127584177
 30
0.0
 11
-0.252522577307
 21
-0.4905916832842936
 31
0.0
  0
LINE
  5
23B
330
123
100
AcDbEntity
  8
AM_4
100
AcDbLine
 10
-0.273948573129
 20
-0.4899804879845013
 30
0.0
 11
-0.261705259431
 21
-0.4901842127584177
 31
0.0
  0
LINE
  5
23C
330
123
100
AcDbEntity
  8
AM_4
100
AcDbLine
 10
-0.3290446658729999
 20
-0.4899804879845014
 30
0.0
 11
-0.273948573129
 21
-0.4899804879845013
 31
0.0
  0
LINE
  5
23D
330
123
100
AcDbEntity
  8
AM_4
100
AcDbLine
 10
0.0198956999999999
 20
-0.4971109851776053
 30
0.0
 11
-0.0352000977482
 21
-0.4971109851776053
 31
0.0
  0
LINE
  5
23E
330
123
100
AcDbEntity
  8
AM_4
100
AcDbLine
 10
0.0321391999999999
 20
-0.4969072612847669
 30
0.0
 11
0.0198956999999999
 21
-0.4971109851776053
 31
0.0
  0
LINE
  5
23F
330
123
100
AcDbEntity
  8
AM_4
100
AcDbLine
 10
0.0413217
 20
-0.4964997859688343
 30
0.0
 11
0.0321391999999999
 21
-0.4969072612847669
 31
0.0
  0
LINE
  5
240
330
123
100
AcDbEntity
  8
AM_4
100
AcDbLine
 10
0.0474437
 20
-0.4958886115372936
 30
0.0
 11
0.0413217
 21
-0.4964997859688343
 31
0.0
  0
LINE
  5
241
330
123
100
AcDbEntity
  8
AM_4
100
AcDbLine
 10
0.0505043000000001
 20
-0.4950736966947609
 30
0.0
 11
0.0474437
 21
-0.4958886115372936
 31
0.0
  0
LINE
  5
242
330
123
100
AcDbEntity
  8
AM_4
100
AcDbLine
 10
0.0474437
 20
-0.4912028576060424
 30
0.0
 11
0.0505043
 21
-0.4920177706870695
 31
0.0
  0
LINE
  5
243
330
123
100
AcDbEntity
  8
AM_4
100
AcDbLine
 10
0.0413216999999999
 20
-0.4905916832842936
 30
0.0
 11
0.0474437
 21
-0.4912028576060424
 31
0.0
  0
LINE
  5
244
330
123
100
AcDbEntity
  8
AM_4
100
AcDbLine
 10
0.0321392
 20
-0.4901842127584176
 30
0.0
 11
0.0413216999999999
 21
-0.4905916832842936
 31
0.0
  0
LINE
  5
245
330
123
100
AcDbEntity
  8
AM_4
100
AcDbLine
 10
0.0198956999999999
 20
-0.4899804879845014
 30
0.0
 11
0.0321392
 21
-0.4901842127584176
 31
0.0
  0
LINE
  5
246
330
123
100
AcDbEntity
  8
AM_4
100
AcDbLine
 10
-0.0352000977482
 20
-0.4899804879845014
 30
0.0
 11
0.0198956999999999
 21
-0.4899804879845014
 31
0.0
  0
LINE
  5
247
330
123
100
AcDbEntity
  8
AM_4
100
AcDbLine
 10
1.049424021459179
 20
0.110236
 30
0.0
 11
1.035504624471522
 21
0.110236
 31
0.0
  0
LINE
  5
248
330
123
100
AcDbEntity
  8
AM_4
100
AcDbLine
 10
1.035504624471522
 20
-0.1102359999999998
 30
0.0
 11
1.049424021459179
 21
-0.1102359999999998
 31
0.0
  0
ELLIPSE
  5
249
330
123
100
AcDbEntity
  8
AM_4
100
AcDbEllipse
 10
1.035504624471522
 20
0.0000000000000001
 30
0.0
 11
6.750008227540381E-18
 21
0.110236
 31
0.0
210
0.0
220
0.0
230
1.0
 40
0.7071067811865466
 41
0.0
 42
3.141592653589793
  0
ELLIPSE
  5
24A
330
123
100
AcDbEntity
  8
AM_4
100
AcDbEllipse
 10
1.049424021459179
 20
0.0000000000000001
 30
0.0
 11
6.750008227540376E-18
 21
0.1102359999999999
 31
0.0
210
0.0
220
0.0
230
1.0
 40
0.707106781186547
 41
5.709805125721345
 42
9.999971189604306
  0
LWPOLYLINE
  5
24B
330
123
100
AcDbEntity
  8
AM_4
100
AcDbPolyline
 90
        9
 70
     0
 43
0.0
 10
0.8366589706933881
 20
-0.0909214090671168
 10
0.8468127812116085
 20
-0.1027422972436637
 10
0.8582612517377598
 20
-0.1147322946503927
 10
0.871516000819813
 20
-0.1271363197084209
 10
0.8863986499587249
 20
-0.1396103603997985
 10
0.9003303379921594
 20
-0.1502222661810513
 10
0.9152580465351442
 20
-0.160759857062693
 10
0.9313017775797026
 20
-0.1713688846790297
 10
0.9480145001480361
 20
-0.1818428181342336
  0
LINE
  5
24C
330
123
100
AcDbEntity
  8
AM_4
100
AcDbLine
 10
1.02555854561734
 20
-0.1818428181342336
 30
0.0
 11
0.9480145001480361
 21
-0.1818428181342336
 31
0.0
  0
LINE
  5
24D
330
123
100
AcDbEntity
  8
AM_4
100
AcDbLine
 10
1.02555854561734
 20
0.1818428181342338
 30
0.0
 11
0.9480145001480361
 21
0.1818428181342338
 31
0.0
  0
LWPOLYLINE
  5
24E
330
123
100
AcDbEntity
  8
AM_4
100
AcDbPolyline
 90
        9
 70
     0
 43
0.0
 10
0.9480145001480361
 20
0.1818428181342338
 10
0.9292131663272182
 20
0.1700219299576869
 10
0.9112922611895898
 20
0.158031932550958
 10
0.8941634781227773
 20
0.1456279074929296
 10
0.8784910925370997
 20
0.133153866801552
 10
0.8664290262079739
 20
0.1225419610202992
 10
0.855545013972732
 20
0.1120043701386575
 10
0.84560204069017
 20
0.1013953425223208
 10
0.8366589706933881
 20
0.0909214090671169
  0
LINE
  5
24F
330
123
100
AcDbEntity
  8
AM_4
100
AcDbLine
 10
0.9142030161626924
 20
0.0909214090671169
 30
0.0
 11
0.8366589706933881
 21
0.0909214090671169
 31
0.0
  0
LWPOLYLINE
  5
250
330
123
100
AcDbEntity
  8
AM_4
100
AcDbPolyline
 90
        9
 70
     0
 43
0.0
 10
0.8366589706933881
 20
0.0909214090671169
 10
0.8323349785230288
 20
0.0672781935618203
 10
0.8290986761424808
 20
0.0432967219144131
 10
0.8271617612817734
 20
0.0184870563376663
 10
0.8267672091105128
 20
-0.006462625134028
 10
0.8277022430733258
 20
-0.0276849305747579
 10
0.8297241419954016
 20
-0.0487586048861113
 10
0.8327743995897499
 20
-0.0699750824662274
 10
0.8366589706933881
 20
-0.0909214090671168
  0
LINE
  5
251
330
123
100
AcDbEntity
  8
AM_4
100
AcDbLine
 10
0.9142030161626924
 20
-0.0909214090671168
 30
0.0
 11
0.8366589706933881
 21
-0.0909214090671168
 31
0.0
  0
LWPOLYLINE
  5
252
330
123
100
AcDbEntity
  8
AM_4
100
AcDbPolyline
 90
        9
 70
     0
 43
0.0
 10
1.12895665827396
 20
-0.1002866652691235
 10
1.126760264553767
 20
-0.1027422972436637
 10
1.115311794027616
 20
-0.1147322946503928
 10
1.102057044945562
 20
-0.1271363197084211
 10
1.087174395806651
 20
-0.1396103603997987
 10
1.073242707773216
 20
-0.1502222661810515
 10
1.058314999230231
 20
-0.1607598570626931
 10
1.042271268185673
 20
-0.1713688846790298
 10
1.02555854561734
 20
-0.1818428181342336
  0
LWPOLYLINE
  5
253
330
123
100
AcDbEntity
  8
AM_4
100
AcDbPolyline
 90
        9
 70
     0
 43
0.0
 10
1.02555854561734
 20
0.1818428181342338
 10
1.044359879438158
 20
0.1700219299576869
 10
1.062280784575786
 20
0.158031932550958
 10
1.079409567642598
 20
0.1456279074929298
 10
1.095081953228276
 20
0.1331538668015521
 10
1.107144019557402
 20
0.1225419610202993
 10
1.118028031792644
 20
0.1120043701386576
 10
1.127971005075206
 20
0.1013953425223208
 10
1.128990122508499
 20
0.1002488248821741
  0
LWPOLYLINE
  5
254
330
123
100
AcDbEntity
  8
AM_4
100
AcDbPolyline
 90
        9
 70
     0
 43
0.0
 10
0.9142030161626924
 20
0.0909214090671169
 10
0.9330043499835105
 20
0.1027422972436637
 10
0.9509252551211383
 20
0.1147322946503926
 10
0.9680540381879507
 20
0.1271363197084208
 10
0.9837264237736282
 20
0.1396103603997984
 10
0.9957884901027539
 20
0.1502222661810513
 10
1.006672502337996
 20
0.160759857062693
 10
1.016615475620558
 20
0.1713688846790298
 10
1.02555854561734
 20
0.1818428181342338
  0
LWPOLYLINE
  5
255
330
123
100
AcDbEntity
  8
AM_4
100
AcDbPolyline
 90
        9
 70
     0
 43
0.0
 10
0.9142030161626924
 20
-0.0909214090671168
 10
0.9185270083330517
 20
-0.0672781935618203
 10
0.9217633107135997
 20
-0.0432967219144132
 10
0.923700225574307
 20
-0.0184870563376664
 10
0.9240947777455677
 20
0.0064626251340278
 10
0.9231597437827549
 20
0.0276849305747577
 10
0.9211378448606791
 20
0.0487586048861112
 10
0.9180875872663308
 20
0.0699750824662274
 10
0.9142030161626924
 20
0.0909214090671169
  0
LWPOLYLINE
  5
256
330
123
100
AcDbEntity
  8
AM_4
100
AcDbPolyline
 90
        9
 70
     0
 43
0.0
 10
1.02555854561734
 20
-0.1818428181342336
 10
1.01540473509912
 20
-0.1700219299576868
 10
1.003956264572968
 20
-0.1580319325509578
 10
0.9907015154909152
 20
-0.1456279074929296
 10
0.9758188663520034
 20
-0.1331538668015519
 10
0.9618871783185692
 20
-0.1225419610202991
 10
0.9469594697755842
 20
-0.1120043701386574
 10
0.9309157387310261
 20
-0.1013953425223207
 10
0.9142030161626924
 20
-0.0909214090671168
  0
ELLIPSE
  5
257
330
123
100
AcDbEntity
  8
AM_4
100
AcDbEllipse
 10
1.035504624471522
 20
0.0000000000000001
 30
0.0
 11
9.642868896486257E-18
 21
0.15748
 31
0.0
210
0.0
220
0.0
230
1.0
 40
0.7071067811865458
 41
5.407408085587377
 42
10.29999723886877
  0
ELLIPSE
  5
258
330
123
100
AcDbEntity
  8
AM_4
100
AcDbEllipse
 10
1.113210270677048
 20
0.0000000000000001
 30
0.0
 11
5.818081450420696E-18
 21
0.09501648074320646
 31
0.0
210
0.0
220
0.0
230
1.0
 40
0.7071067811865313
 41
1.063281058488075
 42
2.084161861636797
  0
LWPOLYLINE
  5
259
330
123
100
AcDbEntity
  8
AM_4
100
AcDbPolyline
 90
       17
 70
     0
 43
0.0
 10
1.161498631050653
 20
0.0874450215695951
 10
1.158950480567068
 20
0.0892625285518024
 10
1.150807239192003
 20
0.0940437082138999
 10
1.142325784311019
 20
0.0975520127034766
 10
1.133649216408326
 20
0.0997619207886247
 10
1.124908517654892
 20
0.10067846467098
 10
1.116217264300972
 20
0.1003257026975107
 10
1.107677202735107
 20
0.0987370130040669
 10
1.099383340192925
 20
0.0959518663533834
 10
1.091408406265634
 20
0.0920060160022699
 10
1.083824667187826
 20
0.0869332959530853
 10
1.076710217882961
 20
0.0807732373536525
 10
1.070150698779379
 20
0.0735811457765205
 10
1.064235303468606
 20
0.065435861302661
 10
1.059048914012761
 20
0.0564410717269037
 10
1.054664504543437
 20
0.046719946106107
 10
1.054641562281867
 20
0.0466617768403233
  0
LWPOLYLINE
  5
25A
330
123
100
AcDbEntity
  8
AM_4
100
AcDbPolyline
 90
       16
 70
     0
 43
0.0
 10
1.05482885987169
 20
-0.0471339669481371
 10
1.056472635260276
 20
-0.0510373480382203
 10
1.061297579234428
 20
-0.0606039048629149
 10
1.06696670355263
 20
-0.0694280563204209
 10
1.073420393780228
 20
-0.0773729151013864
 10
1.080575909355556
 20
-0.0843064927848921
 10
1.088323605782674
 20
-0.0901100663325473
 10
1.096530706294812
 20
-0.0946910211360112
 10
1.105052750872334
 20
-0.0979925955866879
 10
1.11374794040043
 20
-0.0999947994872325
 10
1.122487893498516
 20
-0.1007065213048392
 10
1.13116188608521
 20
-0.100153770339012
 10
1.13966775863972
 20
-0.0983713120238242
 10
1.1479154342764
 20
-0.0953984059136449
 10
1.155832804765483
 20
-0.091270188439612
 10
1.161609270901365
 20
-0.0873623333904505
  0
LINE
  5
25B
330
123
100
AcDbEntity
  8
AM_4
100
AcDbLine
 10
1.190882214693829
 20
0.0657695055315269
 30
0.0
 11
1.161184505632349
 21
0.0876780428575533
 31
0.0
  0
LINE
  5
25C
330
123
100
AcDbEntity
  8
AM_4
100
AcDbLine
 10
1.161184505632349
 20
-0.0876780428575532
 30
0.0
 11
1.190882214693829
 21
-0.0657695055315267
 31
0.0
  0
ELLIPSE
  5
25D
330
123
100
AcDbEntity
  8
AM_4
100
AcDbEllipse
 10
1.128843666299574
 20
0.0000000000000001
 30
0.0
 11
6.055286803296874E-18
 21
0.0988903381368865
 31
0.0
210
0.0
220
0.0
230
1.0
 40
0.7071067811865451
 41
5.802371652415639
 42
9.905591615533325
  0
ELLIPSE
  5
25E
330
123
100
AcDbEntity
  8
AM_4
100
AcDbEllipse
 10
1.174698877190806
 20
0.0000000000000001
 30
0.0
 11
-1.034462156729176E-17
 21
-0.05631349694455623
 31
0.0
210
0.0
220
0.0
230
1.0
 40
0.7071067811865459
 41
0.0
 42
6.283185307179586
  0
LWPOLYLINE
  5
25F
330
123
100
AcDbEntity
  8
AM_4
100
AcDbPolyline
 90
       10
 70
     0
 43
0.0
 10
1.220284135764973
 20
0.0000000000000001
 10
1.220132133852722
 20
0.0054912062412108
 10
1.219098966378857
 20
0.0152611948213493
 10
1.217091907017587
 20
0.024815788078791
 10
1.214121388529102
 20
0.0340025059468909
 10
1.210205227751282
 20
0.0426709137288702
 10
1.205375830730374
 20
0.0506610196873112
 10
1.199694112295293
 20
0.0578002934870779
 10
1.193258149871278
 20
0.0639194699475315
 10
1.191357040614575
 20
0.0654154239374071
  0
LWPOLYLINE
  5
260
330
123
100
AcDbEntity
  8
AM_4
100
AcDbPolyline
 90
       10
 70
     0
 43
0.0
 10
1.191123157062621
 20
-0.0655907838341621
 10
1.193643053033584
 20
-0.0636007980658512
 10
1.199669111997269
 20
-0.0578276540580151
 10
1.205088622957175
 20
-0.0510719092719466
 10
1.209802956860278
 20
-0.0434284034417943
 10
1.213719462834912
 20
-0.0350267788304942
 10
1.216763502254587
 20
-0.0260212670146375
 10
1.218882723443572
 20
-0.0165787324824964
 10
1.220046607566579
 20
-0.0068617062953157
 10
1.220284135764973
 20
0.0000000000000001
  0
ELLIPSE
  5
261
330
123
100
AcDbEntity
  8
AM_4
100
AcDbEllipse
 10
1.166622537560673
 20
0.0000000000000001
 30
0.0
 11
4.542222954855846E-18
 21
0.07418013027132915
 31
0.0
210
0.0
220
0.0
230
1.0
 40
0.7071067811865466
 41
5.793411655446119
 42
9.910039599270501
  0
LWPOLYLINE
  5
262
330
123
100
AcDbEntity
  8
AM_4
100
AcDbPolyline
 90
       19
 70
     0
 43
0.0
 10
0.0
 20
0.6291323823283066
 10
0.0806364931901333
 20
0.6288861934261731
 10
0.160659293977444
 20
0.6281495003659707
 10
0.2394593805288523
 20
0.6269279098267154
 10
0.3164370366049087
 20
0.6252307188500269
 10
0.3910064157624952
 20
0.6230708440840302
 10
0.4626000000000001
 20
0.6204647234798623
 10
0.530672918911988
 20
0.6174321911889397
 10
0.5947070964819863
 20
0.6139963266130891
 10
0.6542151939537938
 20
0.6101832787563648
 10
0.7087443187736786
 20
0.6060220672153376
 10
0.7578794713761754
 20
0.6015443613224429
 10
0.8012467035813626
 20
0.5967842391232385
 10
0.8385159645663086
 20
0.5917779280219007
 10
0.8694036127511225
 20
0.5865635290688038
 10
0.8936745744826461
 20
0.5811807269885212
 10
0.911144133086895
 20
0.5756704881551085
 10
0.921679334674483
 20
0.5700747488132613
 10
0.9252000000000002
 20
0.5644360959181707
  0
LINE
  5
263
330
123
100
AcDbEntity
  8
AM_4
100
AcDbLine
 10
1.4375
 20
0.617445120947114
 30
0.0
 11
0.71875
 21
0.617445120947114
 31
0.0
  0
LINE
  5
264
330
123
100
AcDbEntity
  8
AM_4
100
AcDbLine
 10
0.6687499999999993
 20
0.6527536594028244
 30
0.0
 11
0.71875
 21
0.6562499999999999
 31
0.0
  0
LINE
  5
265
330
123
100
AcDbEntity
  8
AM_4
100
AcDbLine
 10
-0.66875
 20
0.6527536594028241
 30
0.0
 11
0.6687499999999993
 21
0.6527536594028244
 31
0.0
  0
LINE
  5
266
330
123
100
AcDbEntity
  8
AM_4
100
AcDbLine
 10
-0.71875
 20
0.6562499999999999
 30
0.0
 11
-0.66875
 21
0.6527536594028241
 31
0.0
  0
LINE
  5
267
330
123
100
AcDbEntity
  8
AM_4
100
AcDbLine
 10
-0.7187499999999998
 20
0.617445120947114
 30
0.0
 11
-1.437499999999999
 21
0.617445120947114
 31
0.0
  0
LINE
  5
268
330
123
100
AcDbEntity
  8
AM_4
100
AcDbLine
 10
0.3474089999999999
 20
-0.4983333560648914
 30
0.0
 11
0.237218
 21
-0.4983333560648914
 31
0.0
  0
LINE
  5
269
330
123
100
AcDbEntity
  8
AM_4
100
AcDbLine
 10
0.237218
 20
-0.4983333560648914
 30
0.0
 11
0.237218
 21
-0.4887581183629605
 31
0.0
  0
LINE
  5
26A
330
123
100
AcDbEntity
  8
AM_4
100
AcDbLine
 10
0.237218
 20
-0.4887581183629605
 30
0.0
 11
0.3474089999999999
 21
-0.4887581183629605
 31
0.0
  0
LINE
  5
26B
330
123
100
AcDbEntity
  8
AM_4
100
AcDbLine
 10
0.3474089999999999
 20
-0.4887581183629605
 30
0.0
 11
0.3474089999999999
 21
-0.4899804879845013
 31
0.0
  0
LINE
  5
26C
330
123
100
AcDbEntity
  8
AM_4
100
AcDbLine
 10
0.3474089999999999
 20
-0.4899804879845013
 30
0.0
 11
0.255583
 21
-0.4899804879845014
 31
0.0
  0
LINE
  5
26D
330
123
100
AcDbEntity
  8
AM_4
100
AcDbLine
 10
0.2555830000000001
 20
-0.4926289589941806
 30
0.0
 11
0.335166
 21
-0.4926289589941806
 31
0.0
  0
LINE
  5
26E
330
123
100
AcDbEntity
  8
AM_4
100
AcDbLine
 10
0.335166
 20
-0.4926289589941806
 30
0.0
 11
0.3351660000000001
 21
-0.4938513258074747
 31
0.0
  0
LINE
  5
26F
330
123
100
AcDbEntity
  8
AM_4
100
AcDbLine
 10
0.3351660000000001
 20
-0.4938513258074747
 30
0.0
 11
0.255583
 21
-0.4938513258074748
 31
0.0
  0
LINE
  5
270
330
123
100
AcDbEntity
  8
AM_4
100
AcDbLine
 10
0.2555830000000001
 20
-0.4971109851776052
 30
0.0
 11
0.347409
 21
-0.4971109851776053
 31
0.0
  0
LINE
  5
271
330
123
100
AcDbEntity
  8
AM_4
100
AcDbLine
 10
0.347409
 20
-0.4971109851776053
 30
0.0
 11
0.3474089999999999
 21
-0.4983333560648914
 31
0.0
  0
LINE
  5
272
330
123
100
AcDbEntity
  8
AM_4
100
AcDbLine
 10
0.0933566999999999
 20
-0.4950736966947609
 30
0.0
 11
0.0933567
 21
-0.4920177706870695
 31
0.0
  0
LINE
  5
273
330
123
100
AcDbEntity
  8
AM_4
100
AcDbLine
 10
0.0933567
 20
-0.4920177706870695
 30
0.0
 11
0.0964177000000002
 21
-0.4909991328321261
 31
0.0
  0
LINE
  5
274
330
123
100
AcDbEntity
  8
AM_4
100
AcDbLine
 10
0.0964177000000002
 20
-0.4909991328321261
 30
0.0
 11
0.1025390000000002
 21
-0.4901842127584177
 31
0.0
  0
LINE
  5
275
330
123
100
AcDbEntity
  8
AM_4
100
AcDbLine
 10
0.1025390000000002
 20
-0.4901842127584177
 30
0.0
 11
0.114783
 21
-0.4893693136627527
 31
0.0
  0
LINE
  5
276
330
123
100
AcDbEntity
  8
AM_4
100
AcDbLine
 10
0.114783
 20
-0.4893693136627527
 30
0.0
 11
0.127026
 21
-0.4889618361441954
 31
0.0
  0
LINE
  5
277
330
123
100
AcDbEntity
  8
AM_4
100
AcDbLine
 10
0.127026
 20
-0.4889618361441954
 30
0.0
 11
0.169879
 21
-0.4887581183629605
 31
0.0
  0
LINE
  5
278
330
123
100
AcDbEntity
  8
AM_4
100
AcDbLine
 10
0.169879
 20
-0.4887581183629605
 30
0.0
 11
0.1851830000000002
 21
-0.4889618361441956
 31
0.0
  0
LINE
  5
279
330
123
100
AcDbEntity
  8
AM_4
100
AcDbLine
 10
0.1851830000000002
 20
-0.4889618361441956
 30
0.0
 11
0.197427
 21
-0.4893693136627527
 31
0.0
  0
LINE
  5
27A
330
123
100
AcDbEntity
  8
AM_4
100
AcDbLine
 10
0.197427
 20
-0.4893693136627527
 30
0.0
 11
0.2096700000000002
 21
-0.4901842127584176
 31
0.0
  0
LINE
  5
27B
330
123
100
AcDbEntity
  8
AM_4
100
AcDbLine
 10
0.2096700000000002
 20
-0.4901842127584176
 30
0.0
 11
0.212731
 21
-0.4912028576060423
 31
0.0
  0
LINE
  5
27C
330
123
100
AcDbEntity
  8
AM_4
100
AcDbLine
 10
0.212731
 20
-0.4912028576060423
 30
0.0
 11
0.194366
 21
-0.4912028576060423
 31
0.0
  0
LINE
  5
27D
330
123
100
AcDbEntity
  8
AM_4
100
AcDbLine
 10
0.194366
 20
-0.4912028576060423
 30
0.0
 11
0.1913049999999999
 21
-0.4905916832842936
 31
0.0
  0
LINE
  5
27E
330
123
100
AcDbEntity
  8
AM_4
100
AcDbLine
 10
0.1913049999999999
 20
-0.4905916832842936
 30
0.0
 11
0.182122
 21
-0.4901842127584176
 31
0.0
  0
LINE
  5
27F
330
123
100
AcDbEntity
  8
AM_4
100
AcDbLine
 10
0.182122
 20
-0.4901842127584176
 30
0.0
 11
0.169879
 21
-0.4899804879845014
 31
0.0
  0
LINE
  5
280
330
123
100
AcDbEntity
  8
AM_4
100
AcDbLine
 10
0.169879
 20
-0.4899804879845014
 30
0.0
 11
0.142331
 21
-0.4899804879845014
 31
0.0
  0
LINE
  5
281
330
123
100
AcDbEntity
  8
AM_4
100
AcDbLine
 10
0.142331
 20
-0.4899804879845014
 30
0.0
 11
0.1300869999999998
 21
-0.4901842127584176
 31
0.0
  0
LINE
  5
282
330
123
100
AcDbEntity
  8
AM_4
100
AcDbLine
 10
0.1300869999999998
 20
-0.4901842127584176
 30
0.0
 11
0.1209049999999999
 21
-0.4905916832842936
 31
0.0
  0
LINE
  5
283
330
123
100
AcDbEntity
  8
AM_4
100
AcDbLine
 10
0.1209049999999999
 20
-0.4905916832842936
 30
0.0
 11
0.1147829999999999
 21
-0.4912028576060423
 31
0.0
  0
LINE
  5
284
330
123
100
AcDbEntity
  8
AM_4
100
AcDbLine
 10
0.1147829999999999
 20
-0.4912028576060423
 30
0.0
 11
0.1117220000000001
 21
-0.4920177706870695
 31
0.0
  0
LINE
  5
285
330
123
100
AcDbEntity
  8
AM_4
100
AcDbLine
 10
0.1117220000000001
 20
-0.4950736966947609
 30
0.0
 11
0.1147829999999999
 21
-0.4958886115372936
 31
0.0
  0
LINE
  5
286
330
123
100
AcDbEntity
  8
AM_4
100
AcDbLine
 10
0.1147829999999999
 20
-0.4958886115372936
 30
0.0
 11
0.1209049999999999
 21
-0.4964997859688344
 31
0.0
  0
LINE
  5
287
330
123
100
AcDbEntity
  8
AM_4
100
AcDbLine
 10
0.1209049999999999
 20
-0.4964997859688344
 30
0.0
 11
0.1300870000000001
 21
-0.4969072612847669
 31
0.0
  0
LINE
  5
288
330
123
100
AcDbEntity
  8
AM_4
100
AcDbLine
 10
0.1300870000000001
 20
-0.4969072612847669
 30
0.0
 11
0.142331
 21
-0.4971109851776052
 31
0.0
  0
LINE
  5
289
330
123
100
AcDbEntity
  8
AM_4
100
AcDbLine
 10
0.142331
 20
-0.4971109851776052
 30
0.0
 11
0.169879
 21
-0.4971109851776053
 31
0.0
  0
LINE
  5
28A
330
123
100
AcDbEntity
  8
AM_4
100
AcDbLine
 10
0.169879
 20
-0.4971109851776053
 30
0.0
 11
0.1821220000000001
 21
-0.4969072612847669
 31
0.0
  0
LINE
  5
28B
330
123
100
AcDbEntity
  8
AM_4
100
AcDbLine
 10
0.1821220000000001
 20
-0.4969072612847669
 30
0.0
 11
0.191305
 21
-0.4964997859688343
 31
0.0
  0
LINE
  5
28C
330
123
100
AcDbEntity
  8
AM_4
100
AcDbLine
 10
0.191305
 20
-0.4964997859688343
 30
0.0
 11
0.1943660000000001
 21
-0.4958886115372936
 31
0.0
  0
LINE
  5
28D
330
123
100
AcDbEntity
  8
AM_4
100
AcDbLine
 10
0.194366
 20
-0.4942587846052538
 30
0.0
 11
0.166818
 21
-0.4942587846052539
 31
0.0
  0
LINE
  5
28E
330
123
100
AcDbEntity
  8
AM_4
100
AcDbLine
 10
0.166818
 20
-0.4942587846052539
 30
0.0
 11
0.166818
 21
-0.493036414136158
 31
0.0
  0
LINE
  5
28F
330
123
100
AcDbEntity
  8
AM_4
100
AcDbLine
 10
0.166818
 20
-0.493036414136158
 30
0.0
 11
0.212731
 21
-0.4930364141361581
 31
0.0
  0
LINE
  5
290
330
123
100
AcDbEntity
  8
AM_4
100
AcDbLine
 10
0.212731
 20
-0.4930364141361581
 30
0.0
 11
0.2127310000000001
 21
-0.4960923381831575
 31
0.0
  0
LINE
  5
291
330
123
100
AcDbEntity
  8
AM_4
100
AcDbLine
 10
0.2127310000000001
 20
-0.4960923381831575
 30
0.0
 11
0.20967
 21
-0.4969072612847669
 31
0.0
  0
LINE
  5
292
330
123
100
AcDbEntity
  8
AM_4
100
AcDbLine
 10
0.20967
 20
-0.4969072612847669
 30
0.0
 11
0.197427
 21
-0.4977221568561204
 31
0.0
  0
LINE
  5
293
330
123
100
AcDbEntity
  8
AM_4
100
AcDbLine
 10
0.197427
 20
-0.4977221568561204
 30
0.0
 11
0.185183
 21
-0.4981296321720529
 31
0.0
  0
LINE
  5
294
330
123
100
AcDbEntity
  8
AM_4
100
AcDbLine
 10
0.185183
 20
-0.4981296321720529
 30
0.0
 11
0.1698790000000001
 21
-0.4983333560648914
 31
0.0
  0
LINE
  5
295
330
123
100
AcDbEntity
  8
AM_4
100
AcDbLine
 10
0.1698790000000001
 20
-0.4983333560648914
 30
0.0
 11
0.1270259999999998
 21
-0.4981296321720531
 31
0.0
  0
LINE
  5
296
330
123
100
AcDbEntity
  8
AM_4
100
AcDbLine
 10
0.1270259999999998
 20
-0.4981296321720531
 30
0.0
 11
0.1147829999999999
 21
-0.4977221568561205
 31
0.0
  0
LINE
  5
297
330
123
100
AcDbEntity
  8
AM_4
100
AcDbLine
 10
0.1147829999999999
 20
-0.4977221568561205
 30
0.0
 11
0.1025390000000001
 21
-0.4969072612847669
 31
0.0
  0
LINE
  5
298
330
123
100
AcDbEntity
  8
AM_4
100
AcDbLine
 10
0.1025390000000001
 20
-0.4969072612847669
 30
0.0
 11
0.0964177
 21
-0.4960923381831576
 31
0.0
  0
LINE
  5
299
330
123
100
AcDbEntity
  8
AM_4
100
AcDbLine
 10
0.0964177
 20
-0.4960923381831576
 30
0.0
 11
0.0933566999999999
 21
-0.4950736966947609
 31
0.0
  0
LINE
  5
29A
330
123
100
AcDbEntity
  8
AM_4
100
AcDbLine
 10
0.0352001000000002
 20
-0.4981296321720531
 30
0.0
 11
-0.053565383256
 21
-0.4983333560648914
 31
0.0
  0
LINE
  5
29B
330
123
100
AcDbEntity
  8
AM_4
100
AcDbLine
 10
-0.053565383256
 20
-0.4983333560648914
 30
0.0
 11
-0.053565383256
 21
-0.4887581183629605
 31
0.0
  0
LINE
  5
29C
330
123
100
AcDbEntity
  8
AM_4
100
AcDbLine
 10
-0.053565383256
 20
-0.4887581183629605
 30
0.0
 11
0.0352001
 21
-0.4889618361441955
 31
0.0
  0
LINE
  5
29D
330
123
100
AcDbEntity
  8
AM_4
100
AcDbLine
 10
0.0352001
 20
-0.4889618361441955
 30
0.0
 11
0.0474437
 21
-0.4893693136627527
 31
0.0
  0
LINE
  5
29E
330
123
100
AcDbEntity
  8
AM_4
100
AcDbLine
 10
0.0474437
 20
-0.4893693136627527
 30
0.0
 11
0.059687
 21
-0.4901842127584177
 31
0.0
  0
LINE
  5
29F
330
123
100
AcDbEntity
  8
AM_4
100
AcDbLine
 10
0.059687
 20
-0.4901842127584177
 30
0.0
 11
0.0658091
 21
-0.4909991328321261
 31
0.0
  0
LINE
  5
2A0
330
123
100
AcDbEntity
  8
AM_4
100
AcDbLine
 10
0.0658091
 20
-0.4909991328321261
 30
0.0
 11
0.0688697
 21
-0.4920177706870696
 31
0.0
  0
LINE
  5
2A1
330
123
100
AcDbEntity
  8
AM_4
100
AcDbLine
 10
0.0688697
 20
-0.4920177706870696
 30
0.0
 11
0.0688697
 21
-0.4950736966947609
 31
0.0
  0
LINE
  5
2A2
330
123
100
AcDbEntity
  8
AM_4
100
AcDbLine
 10
0.0688697
 20
-0.4950736966947609
 30
0.0
 11
0.0658090999999999
 21
-0.4960923381831576
 31
0.0
  0
LINE
  5
2A3
330
123
100
AcDbEntity
  8
AM_4
100
AcDbLine
 10
0.0658090999999999
 20
-0.4960923381831576
 30
0.0
 11
0.0596870000000001
 21
-0.4969072612847669
 31
0.0
  0
LINE
  5
2A4
330
123
100
AcDbEntity
  8
AM_4
100
AcDbLine
 10
0.0596870000000001
 20
-0.4969072612847669
 30
0.0
 11
0.0474437000000001
 21
-0.4977221568561204
 31
0.0
  0
LINE
  5
2A5
330
123
100
AcDbEntity
  8
AM_4
100
AcDbLine
 10
0.0474437000000001
 20
-0.4977221568561204
 30
0.0
 11
0.0352001000000002
 21
-0.4981296321720531
 31
0.0
  0
LINE
  5
2A6
330
123
100
AcDbEntity
  8
AM_4
100
AcDbLine
 10
-0.2004875098380001
 20
-0.4950736966947609
 30
0.0
 11
-0.200487509838
 21
-0.4920177706870695
 31
0.0
  0
LINE
  5
2A7
330
123
100
AcDbEntity
  8
AM_4
100
AcDbLine
 10
-0.200487509838
 20
-0.4920177706870695
 30
0.0
 11
-0.197426878264
 21
-0.4909991328321261
 31
0.0
  0
LINE
  5
2A8
330
123
100
AcDbEntity
  8
AM_4
100
AcDbLine
 10
-0.197426878264
 20
-0.4909991328321261
 30
0.0
 11
-0.1913048277140001
 21
-0.4901842127584176
 31
0.0
  0
LINE
  5
2A9
330
123
100
AcDbEntity
  8
AM_4
100
AcDbLine
 10
-0.1913048277140001
 20
-0.4901842127584176
 30
0.0
 11
-0.1790615140160002
 21
-0.4893693136627527
 31
0.0
  0
LINE
  5
2AA
330
123
100
AcDbEntity
  8
AM_4
100
AcDbLine
 10
-0.1790615140160002
 20
-0.4893693136627527
 30
0.0
 11
-0.1668178066170001
 21
-0.4889618361441955
 31
0.0
  0
LINE
  5
2AB
330
123
100
AcDbEntity
  8
AM_4
100
AcDbLine
 10
-0.1668178066170001
 20
-0.4889618361441955
 30
0.0
 11
-0.1515134676440001
 21
-0.4887581183629604
 31
0.0
  0
LINE
  5
2AC
330
123
100
AcDbEntity
  8
AM_4
100
AcDbLine
 10
-0.1515134676440001
 20
-0.4887581183629604
 30
0.0
 11
-0.1117221075740001
 21
-0.4889618361441954
 31
0.0
  0
LINE
  5
2AD
330
123
100
AcDbEntity
  8
AM_4
100
AcDbLine
 10
-0.1117221075740001
 20
-0.4889618361441954
 30
0.0
 11
-0.0994784001750002
 21
-0.4893693136627525
 31
0.0
  0
LINE
  5
2AE
330
123
100
AcDbEntity
  8
AM_4
100
AcDbLine
 10
-0.0994784001750002
 20
-0.4893693136627525
 30
0.0
 11
-0.0872350864770001
 21
-0.4901842127584176
 31
0.0
  0
LINE
  5
2AF
330
123
100
AcDbEntity
  8
AM_4
100
AcDbLine
 10
-0.0872350864770001
 20
-0.4901842127584176
 30
0.0
 11
-0.081113429628
 21
-0.4909991328321261
 31
0.0
  0
LINE
  5
2B0
330
123
100
AcDbEntity
  8
AM_4
100
AcDbLine
 10
-0.081113429628
 20
-0.4909991328321261
 30
0.0
 11
-0.0780524043529999
 21
-0.4920177706870696
 31
0.0
  0
LINE
  5
2B1
330
123
100
AcDbEntity
  8
AM_4
100
AcDbLine
 10
-0.0780524043529999
 20
-0.4920177706870696
 30
0.0
 11
-0.078052404353
 21
-0.4950736966947609
 31
0.0
  0
LINE
  5
2B2
330
123
100
AcDbEntity
  8
AM_4
100
AcDbLine
 10
-0.078052404353
 20
-0.4950736966947609
 30
0.0
 11
-0.081113429628
 21
-0.4960923381831575
 31
0.0
  0
LINE
  5
2B3
330
123
100
AcDbEntity
  8
AM_4
100
AcDbLine
 10
-0.081113429628
 20
-0.4960923381831575
 30
0.0
 11
-0.0872350864770001
 21
-0.4969072612847669
 31
0.0
  0
LINE
  5
2B4
330
123
100
AcDbEntity
  8
AM_4
100
AcDbLine
 10
-0.0872350864770001
 20
-0.4969072612847669
 30
0.0
 11
-0.0994784001750001
 21
-0.4977221568561204
 31
0.0
  0
LINE
  5
2B5
330
123
100
AcDbEntity
  8
AM_4
100
AcDbLine
 10
-0.0994784001750001
 20
-0.4977221568561204
 30
0.0
 11
-0.1117221075739998
 21
-0.4981296321720531
 31
0.0
  0
LINE
  5
2B6
330
123
100
AcDbEntity
  8
AM_4
100
AcDbLine
 10
-0.1117221075739998
 20
-0.4981296321720531
 30
0.0
 11
-0.1270264465470001
 21
-0.4983333560648913
 31
0.0
  0
LINE
  5
2B7
330
123
100
AcDbEntity
  8
AM_4
100
AcDbLine
 10
-0.1270264465470001
 20
-0.4983333560648913
 30
0.0
 11
-0.166817806617
 21
-0.4981296321720531
 31
0.0
  0
LINE
  5
2B8
330
123
100
AcDbEntity
  8
AM_4
100
AcDbLine
 10
-0.166817806617
 20
-0.4981296321720531
 30
0.0
 11
-0.179061514016
 21
-0.4977221568561205
 31
0.0
  0
LINE
  5
2B9
330
123
100
AcDbEntity
  8
AM_4
100
AcDbLine
 10
-0.179061514016
 20
-0.4977221568561205
 30
0.0
 11
-0.191304827714
 21
-0.4969072612847669
 31
0.0
  0
LINE
  5
2BA
330
123
100
AcDbEntity
  8
AM_4
100
AcDbLine
 10
-0.191304827714
 20
-0.4969072612847669
 30
0.0
 11
-0.1974268782640001
 21
-0.4960923381831575
 31
0.0
  0
LINE
  5
2BB
330
123
100
AcDbEntity
  8
AM_4
100
AcDbLine
 10
-0.1974268782640001
 20
-0.4960923381831575
 30
0.0
 11
-0.2004875098380001
 21
-0.4950736966947609
 31
0.0
  0
LINE
  5
2BC
330
123
100
AcDbEntity
  8
AM_4
100
AcDbLine
 10
-0.3474096364199999
 20
-0.4983333560648914
 30
0.0
 11
-0.3474096364199999
 21
-0.4887581183629604
 31
0.0
  0
LINE
  5
2BD
330
123
100
AcDbEntity
  8
AM_4
100
AcDbLine
 10
-0.3474096364199999
 20
-0.4887581183629604
 30
0.0
 11
-0.2586442341560002
 21
-0.4889618361441955
 31
0.0
  0
LINE
  5
2BE
330
123
100
AcDbEntity
  8
AM_4
100
AcDbLine
 10
-0.2586442341560002
 20
-0.4889618361441955
 30
0.0
 11
-0.246400920458
 21
-0.4893693136627527
 31
0.0
  0
LINE
  5
2BF
330
123
100
AcDbEntity
  8
AM_4
100
AcDbLine
 10
-0.246400920458
 20
-0.4893693136627527
 30
0.0
 11
-0.234157213059
 21
-0.4901842127584176
 31
0.0
  0
LINE
  5
2C0
330
123
100
AcDbEntity
  8
AM_4
100
AcDbLine
 10
-0.234157213059
 20
-0.4901842127584176
 30
0.0
 11
-0.22803555621
 21
-0.4909991328321261
 31
0.0
  0
LINE
  5
2C1
330
123
100
AcDbEntity
  8
AM_4
100
AcDbLine
 10
-0.22803555621
 20
-0.4909991328321261
 30
0.0
 11
-0.224974530935
 21
-0.4920177706870696
 31
0.0
  0
LINE
  5
2C2
330
123
100
AcDbEntity
  8
AM_4
100
AcDbLine
 10
-0.224974530935
 20
-0.4920177706870696
 30
0.0
 11
-0.2249745309349999
 21
-0.4950736966947609
 31
0.0
  0
LINE
  5
2C3
330
123
100
AcDbEntity
  8
AM_4
100
AcDbLine
 10
-0.2249745309349999
 20
-0.4950736966947609
 30
0.0
 11
-0.2280355562099999
 21
-0.4960923381831575
 31
0.0
  0
LINE
  5
2C4
330
123
100
AcDbEntity
  8
AM_4
100
AcDbLine
 10
-0.2280355562099999
 20
-0.4960923381831575
 30
0.0
 11
-0.234157213059
 21
-0.4969072612847669
 31
0.0
  0
LINE
  5
2C5
330
123
100
AcDbEntity
  8
AM_4
100
AcDbLine
 10
-0.234157213059
 20
-0.4969072612847669
 30
0.0
 11
-0.246400920458
 21
-0.4977221568561205
 31
0.0
  0
LINE
  5
2C6
330
123
100
AcDbEntity
  8
AM_4
100
AcDbLine
 10
-0.246400920458
 20
-0.4977221568561205
 30
0.0
 11
-0.258644234156
 21
-0.4981296321720529
 31
0.0
  0
LINE
  5
2C7
330
123
100
AcDbEntity
  8
AM_4
100
AcDbLine
 10
-0.258644234156
 20
-0.4981296321720529
 30
0.0
 11
-0.3474096364199999
 21
-0.4983333560648914
 31
0.0
  0
LWPOLYLINE
  5
2C8
330
123
100
AcDbEntity
  8
AM_4
100
AcDbPolyline
 90
       19
 70
     0
 43
0.0
 10
0.0
 20
-0.499739809508035
 10
0.0806364931901333
 20
-0.4999859984101685
 10
0.160659293977444
 20
-0.5007226914703707
 10
0.2394593805288523
 20
-0.5019442820096262
 10
0.3164370366049087
 20
-0.5036414729863146
 10
0.3910064157624952
 20
-0.5058013477523113
 10
0.4626000000000001
 20
-0.5084074683564793
 10
0.530672918911988
 20
-0.5114400006474019
 10
0.5947070964819863
 20
-0.5148758652232525
 10
0.6542151939537938
 20
-0.5186889130799768
 10
0.7087443187736786
 20
-0.5228501246210039
 10
0.7578794713761754
 20
-0.5273278305138986
 10
0.8012467035813626
 20
-0.5320879527131029
 10
0.8385159645663086
 20
-0.5370942638144409
 10
0.8694036127511225
 20
-0.5423086627675378
 10
0.8936745744826461
 20
-0.5476914648478203
 10
0.911144133086895
 20
-0.553201703681233
 10
0.921679334674483
 20
-0.5587974430230802
 10
0.9252000000000002
 20
-0.5644360959181709
  0
LINE
  5
2C9
330
123
100
AcDbEntity
  8
AM_4
100
AcDbLine
 10
1.4375
 20
-0.6174451209471141
 30
0.0
 11
0.7461393971638273
 21
-0.617445120947114
 31
0.0
  0
LINE
  5
2CA
330
123
100
AcDbEntity
  8
AM_4
100
AcDbLine
 10
1.4375
 20
0.7499999999999999
 30
0.0
 11
1.4375
 21
-0.7499999999999999
 31
0.0
  0
LINE
  5
2CB
330
123
100
AcDbEntity
  8
AM_4
100
AcDbLine
 10
-1.437499999999999
 20
0.7499999999999999
 30
0.0
 11
-1.437499999999999
 21
-0.7499999999999999
 31
0.0
  0
LINE
  5
2CC
330
123
100
AcDbEntity
  8
AM_4
100
AcDbLine
 10
-0.7499999999999999
 20
-0.6174451209471141
 30
0.0
 11
-1.437499999999999
 21
-0.6174451209471141
 31
0.0
  0
LWPOLYLINE
  5
2CD
330
123
100
AcDbEntity
  8
AM_4
100
AcDbPolyline
 90
       37
 70
     0
 43
0.0
 10
-1.4375
 20
-0.5775473731575791
 10
-1.432029878506884
 20
-0.5687864960102674
 10
-1.415661144955049
 20
-0.560092294428009
 10
-1.388518375290536
 20
-0.5515309365345474
 10
-1.350808142379743
 20
-0.5431675794329409
 10
-1.302817443865184
 20
-0.5350658733206661
 10
-1.244911517940131
 20
-0.527287477073181
 10
-1.177531063665426
 20
-0.5198915889826532
 10
-1.101188886983532
 20
-0.5129344962232109
 10
-1.016465997955663
 20
-0.5064691464715608
 10
-0.9240071889244015
 20
-0.5005447449431982
 10
-0.8245161272546301
 20
-0.4952063799110051
 10
-0.7187500000000016
 20
-0.4904946795562694
 10
-0.6075137512522573
 20
-0.4864455027636934
 10
-0.4916539560306509
 20
-0.4830896662136281
 10
-0.3720523773348758
 20
-0.4804527098485291
 10
-0.2496192553962148
 20
-0.4785547024985726
 10
-0.1252863801997612
 20
-0.4774100891457401
 10
-0.0000000000000028
 20
-0.4770275809887828
 10
0.1252863801997557
 20
-0.47741008914574
 10
0.2496192553962094
 20
-0.4785547024985726
 10
0.3720523773348705
 20
-0.4804527098485291
 10
0.4916539560306457
 20
-0.483089666213628
 10
0.6075137512522523
 20
-0.4864455027636932
 10
0.7187499999999968
 20
-0.4904946795562693
 10
0.8245161272546255
 20
-0.4952063799110048
 10
0.9240071889243973
 20
-0.5005447449431979
 10
1.016465997955659
 20
-0.5064691464715606
 10
1.101188886983528
 20
-0.5129344962232105
 10
1.177531063665423
 20
-0.5198915889826529
 10
1.244911517940128
 20
-0.5272874770731806
 10
1.302817443865182
 20
-0.5350658733206657
 10
1.350808142379742
 20
-0.5431675794329406
 10
1.388518375290534
 20
-0.551530936534547
 10
1.415661144955048
 20
-0.5600922944280086
 10
1.432029878506884
 20
-0.568786496010267
 10
1.4375
 20
-0.5775473731575786
  0
LWPOLYLINE
  5
2CE
330
123
100
AcDbEntity
  8
AM_4
100
AcDbPolyline
 90
       37
 70
     0
 43
0.0
 10
1.4375
 20
0.5775473731575789
 10
1.432029878506884
 20
0.5687864960102672
 10
1.415661144955049
 20
0.5600922944280088
 10
1.388518375290536
 20
0.5515309365345472
 10
1.350808142379744
 20
0.5431675794329407
 10
1.302817443865184
 20
0.5350658733206658
 10
1.244911517940132
 20
0.5272874770731807
 10
1.177531063665427
 20
0.5198915889826529
 10
1.101188886983532
 20
0.5129344962232105
 10
1.016465997955663
 20
0.5064691464715606
 10
0.9240071889244017
 20
0.5005447449431979
 10
0.8245161272546302
 20
0.4952063799110048
 10
0.7187500000000018
 20
0.4904946795562691
 10
0.6075137512522574
 20
0.4864455027636931
 10
0.491653956030651
 20
0.4830896662136278
 10
0.3720523773348759
 20
0.4804527098485288
 10
0.2496192553962149
 20
0.4785547024985723
 10
0.1252863801997613
 20
0.4774100891457397
 10
0.0000000000000029
 20
0.4770275809887825
 10
-0.1252863801997556
 20
0.4774100891457397
 10
-0.2496192553962093
 20
0.4785547024985723
 10
-0.3720523773348703
 20
0.4804527098485287
 10
-0.4916539560306455
 20
0.4830896662136277
 10
-0.6075137512522522
 20
0.4864455027636929
 10
-0.7187499999999967
 20
0.490494679556269
 10
-0.8245161272546254
 20
0.4952063799110045
 10
-0.9240071889243971
 20
0.5005447449431977
 10
-1.016465997955659
 20
0.5064691464715603
 10
-1.101188886983528
 20
0.5129344962232103
 10
-1.177531063665423
 20
0.5198915889826525
 10
-1.244911517940128
 20
0.5272874770731804
 10
-1.302817443865182
 20
0.5350658733206655
 10
-1.350808142379742
 20
0.5431675794329404
 10
-1.388518375290534
 20
0.5515309365345468
 10
-1.415661144955048
 20
0.5600922944280083
 10
-1.432029878506884
 20
0.5687864960102668
 10
-1.4375
 20
0.5775473731575785
  0
ARC
  5
2CF
330
123
100
AcDbEntity
  8
AM_5
100
AcDbCircle
 10
1.0
 20
0.0
 30
0.0
 40
0.1875
100
AcDbArc
 50
75.0
 51
15.00000000000004
  0
ARC
  5
2D0
330
123
100
AcDbEntity
  8
AM_5
100
AcDbCircle
 10
-1.0
 20
0.0000000000000001
 30
0.0
 40
0.1875
100
AcDbArc
 50
75.0
 51
15.0
  0
ENDBLK
  5
126
330
123
100
AcDbEntity
  8
0
100
AcDbBlockEnd
  0
ENDSEC
  0
SECTION
  2
ENTITIES
  0
INSERT
  5
6F
330
1F
100
AcDbEntity
  8
0
100
AcDbBlockReference
  2
1_129276_4
 10
0.0
 20
0.0
 30
0.0
  0
POINT
  5
2D2
330
1F
100
AcDbEntity
  8
ConnectionPoints
100
AcDbPoint
 10
0.0
 20
0.0
 30
0.0
  0
POINT
  5
2D3
330
1F
100
AcDbEntity
  8
ConnectionPoints
100
AcDbPoint
 10
0.0
 20
0.484375
 30
0.0
  0
POINT
  5
2D4
330
1F
100
AcDbEntity
  8
ConnectionPoints
100
AcDbPoint
 10
0.0
 20
0.0
 30
0.0
  0
POINT
  5
2D5
330
1F
100
AcDbEntity
  8
ConnectionPoints
100
AcDbPoint
 10
0.0
 20
0.0
 30
0.0
  0
ENDSEC
  0
SECTION
  2
OBJECTS
  0
DICTIONARY
  5
C
330
0
100
AcDbDictionary
281
     1
  3
ACAD_DETAILVIEWSTYLE
350
2DD
  3
ACAD_GROUP
350
D
  3
ACAD_LAYOUT
350
1A
  3
ACAD_MATERIAL
350
43
  3
ACAD_MLEADERSTYLE
350
6B
  3
ACAD_MLINESTYLE
350
17
  3
ACAD_PLOTSETTINGS
350
19
  3
ACAD_PLOTSTYLENAME
350
E
  3
ACAD_SCALELIST
350
47
  3
ACAD_SECTIONVIEWSTYLE
350
2DE
  3
ACAD_TABLESTYLE
350
69
  3
ACAD_VISUALSTYLE
350
2A
  3
ACDB_RECOMPOSE_DATA
350
2DA
  3
AcDbVariableDictionary
350
2D6
  0
SUN
  5
6D
330
29
100
AcDbSun
 90
        1
290
     0
 63
     7
421
 16777215
 40
1.0
291
     1
 91
  2455826
 92
 54000000
292
     0
 70
     2
 71
   256
280
     1
  0
DICTIONARY
  5
2DD
102
{ACAD_REACTORS
330
C
102
}
330
C
100
AcDbDictionary
281
     1
  0
DICTIONARY
  5
D
102
{ACAD_REACTORS
330
C
102
}
330
C
100
AcDbDictionary
281
     1
  0
DICTIONARY
  5
1A
102
{ACAD_REACTORS
330
C
102
}
330
C
100
AcDbDictionary
281
     1
  3
Layout1
350
1E
  3
Layout2
350
26
  3
Model
350
22
  0
DICTIONARY
  5
43
102
{ACAD_REACTORS
330
C
102
}
330
C
100
AcDbDictionary
281
     1
  3
ByBlock
350
45
  3
ByLayer
350
44
  3
Global
350
46
  0
DICTIONARY
  5
6B
102
{ACAD_REACTORS
330
C
102
}
330
C
100
AcDbDictionary
281
     1
  3
Standard
350
6C
  0
DICTIONARY
  5
17
102
{ACAD_REACTORS
330
C
102
}
330
C
100
AcDbDictionary
281
     1
  3
Standard
350
18
  0
DICTIONARY
  5
19
102
{ACAD_REACTORS
330
C
102
}
330
C
100
AcDbDictionary
281
     1
  0
ACDBDICTIONARYWDFLT
  5
E
102
{ACAD_REACTORS
330
C
102
}
330
C
100
AcDbDictionary
281
     1
  3
Normal
350
F
100
AcDbDictionaryWithDefault
340
F
  0
DICTIONARY
  5
47
102
{ACAD_REACTORS
330
C
102
}
330
C
100
AcDbDictionary
281
     1
  3
A0
350
48
  3
A1
350
49
  3
A2
350
4A
  3
A3
350
4B
  3
A4
350
4C
  3
A5
350
4D
  3
A6
350
4E
  3
A7
350
4F
  3
A8
350
50
  3
A9
350
51
  3
B0
350
52
  3
B1
350
53
  3
B2
350
54
  3
B3
350
55
  3
B4
350
56
  3
B5
350
57
  3
B6
350
58
  3
B7
350
59
  3
B8
350
5A
  3
B9
350
5B
  3
C0
350
5C
  3
C1
350
5D
  3
C2
350
5E
  3
C3
350
5F
  3
C4
350
60
  3
C5
350
61
  3
C6
350
62
  3
C7
350
63
  3
C8
350
64
  3
C9
350
65
  3
D0
350
66
  3
D1
350
67
  3
D2
350
68
  0
DICTIONARY
  5
2DE
102
{ACAD_REACTORS
330
C
102
}
330
C
100
AcDbDictionary
281
     1
  0
DICTIONARY
  5
69
102
{ACAD_REACTORS
330
C
102
}
330
C
100
AcDbDictionary
281
     1
  3
Standard
350
6A
  0
DICTIONARY
  5
2A
102
{ACAD_REACTORS
330
C
102
}
330
C
100
AcDbDictionary
281
     1
  3
2dWireframe
350
2F
  3
Basic
350
32
  3
Brighten
350
36
  3
ColorChange
350
3A
  3
Conceptual
350
34
  3
Dim
350
35
  3
EdgeColorOff
350
3D
  3
Facepattern
350
39
  3
Flat
350
2B
  3
FlatWithEdges
350
2C
  3
Gouraud
350
2D
  3
GouraudWithEdges
350
2E
  3
Hidden
350
31
  3
JitterOff
350
3B
  3
Linepattern
350
38
  3
OverhangOff
350
3C
  3
Realistic
350
33
  3
Shaded
350
42
  3
Shaded with edges
350
41
  3
Shades of Gray
350
3E
  3
Sketchy
350
3F
  3
Thicken
350
37
  3
Wireframe
350
30
  3
X-Ray
350
40
  0
XRECORD
  5
2DA
102
{ACAD_REACTORS
330
C
102
}
330
C
100
AcDbXrecord
280
     1
 90
        1
330
6A
  0
DICTIONARY
  5
2D6
102
{ACAD_REACTORS
330
C
102
}
330
C
100
AcDbDictionary
281
     1
  3
CANNOSCALE
350
2D7
  3
CMLEADERSTYLE
350
2DC
  3
CTABLESTYLE
350
2DB
  0
LAYOUT
  5
1E
102
{ACAD_REACTORS
330
1A
102
}
330
1A
100
AcDbPlotSettings
  1

  2
none_device
  4

  6

 40
0.0
 41
0.0
 42
0.0
 43
0.0
 44
0.0
 45
0.0
 46
0.0
 47
0.0
 48
0.0
 49
0.0
140
0.0
141
0.0
142
1.0
143
1.0
 70
   688
 72
     0
 73
     0
 74
     5
  7

 75
    16
 76
     0
 77
     2
 78
   300
147
1.0
148
0.0
149
0.0
100
AcDbLayout
  1
Layout1
 70
     1
 71
     1
 10
0.0
 20
0.0
 11
12.0
 21
9.0
 12
0.0
 22
0.0
 32
0.0
 14
1.000000000000000E+20
 24
1.000000000000000E+20
 34
1.000000000000000E+20
 15
-1.000000000000000E+20
 25
-1.000000000000000E+20
 35
-1.000000000000000E+20
146
0.0
 13
0.0
 23
0.0
 33
0.0
 16
1.0
 26
0.0
 36
0.0
 17
0.0
 27
1.0
 37
0.0
 76
     0
330
1B
  0
LAYOUT
  5
26
102
{ACAD_REACTORS
330
1A
102
}
330
1A
100
AcDbPlotSettings
  1

  2
none_device
  4

  6

 40
0.0
 41
0.0
 42
0.0
 43
0.0
 44
0.0
 45
0.0
 46
0.0
 47
0.0
 48
0.0
 49
0.0
140
0.0
141
0.0
142
1.0
143
1.0
 70
   688
 72
     0
 73
     0
 74
     5
  7

 75
    16
 76
     0
 77
     2
 78
   300
147
1.0
148
0.0
149
0.0
100
AcDbLayout
  1
Layout2
 70
     1
 71
     2
 10
0.0
 20
0.0
 11
0.0
 21
0.0
 12
0.0
 22
0.0
 32
0.0
 14
0.0
 24
0.0
 34
0.0
 15
0.0
 25
0.0
 35
0.0
146
0.0
 13
0.0
 23
0.0
 33
0.0
 16
1.0
 26
0.0
 36
0.0
 17
0.0
 27
1.0
 37
0.0
 76
     0
330
23
  0
LAYOUT
  5
22
102
{ACAD_REACTORS
330
1A
102
}
330
1A
100
AcDbPlotSettings
  1

  2
none_device
  4
Letter_(8.50_x_11.00_Inches)
  6

 40
6.35
 41
6.35
 42
6.35000508
 43
6.35000508
 44
215.9
 45
279.4
 46
0.0
 47
0.0
 48
0.0
 49
0.0
140
0.0
141
0.0
142
1.0
143
1.0
 70
  1712
 72
     0
 73
     0
 74
     0
  7

 75
     0
 76
     0
 77
     2
 78
   300
147
1.0
148
0.0
149
0.0
100
AcDbLayout
  1
Model
 70
     1
 71
     0
 10
0.0
 20
0.0
 11
12.0
 21
9.0
 12
0.0
 22
0.0
 32
0.0
 14
1.000000000000000E+20
 24
1.000000000000000E+20
 34
1.000000000000000E+20
 15
-1.000000000000000E+20
 25
-1.000000000000000E+20
 35
-1.000000000000000E+20
146
0.0
 13
0.0
 23
0.0
 33
0.0
 16
1.0
 26
0.0
 36
0.0
 17
0.0
 27
1.0
 37
0.0
 76
     0
330
1F
331
29
  0
MATERIAL
  5
45
102
{ACAD_REACTORS
330
43
102
}
330
43
100
AcDbMaterial
  1
ByBlock
 72
     1
 94
      127
  0
MATERIAL
  5
44
102
{ACAD_REACTORS
330
43
102
}
330
43
100
AcDbMaterial
  1
ByLayer
 72
     1
 94
      127
  0
MATERIAL
  5
46
102
{ACAD_REACTORS
330
43
102
}
330
43
100
AcDbMaterial
  1
Global
 72
     1
 94
      127
  0
MLEADERSTYLE
  5
6C
102
{ACAD_REACTORS
330
6B
102
}
330
6B
100
AcDbMLeaderStyle
179
     2
170
     2
171
     1
172
     0
 90
        2
 40
0.0
 41
0.0
173
     1
 91
-1056964608
340
14
 92
       -2
290
     1
 42
0.09
291
     1
 43
0.36
  3
Standard
341
0
 44
0.18
300

342
11
174
     1
178
     6
175
     1
176
     0
 93
-1056964608
 45
0.18
292
     0
297
     0
 46
0.18
343
0
 94
-1056964608
 47
1.0
 49
1.0
140
1.0
293
     1
141
0.0
294
     1
177
     0
142
1.0
295
     0
296
     0
143
0.125
271
     0
272
     9
273
     9
298
     0
  0
MLINESTYLE
  5
18
102
{ACAD_REACTORS
330
17
102
}
330
17
100
AcDbMlineStyle
  2
Standard
 70
     0
  3

 62
   256
 51
90.0
 52
90.0
 71
     2
 49
0.5
 62
   256
  6
BYLAYER
 49
-0.5
 62
   256
  6
BYLAYER
  0
ACDBPLACEHOLDER
  5
F
102
{ACAD_REACTORS
330
E
102
}
330
E
  0
SCALE
  5
48
102
{ACAD_REACTORS
330
47
102
}
330
47
100
AcDbScale
 70
     0
300
1:1
140
1.0
141
1.0
290
     1
  0
SCALE
  5
49
102
{ACAD_REACTORS
330
47
102
}
330
47
100
AcDbScale
 70
     0
300
1:2
140
1.0
141
2.0
290
     0
  0
SCALE
  5
4A
102
{ACAD_REACTORS
330
47
102
}
330
47
100
AcDbScale
 70
     0
300
1:4
140
1.0
141
4.0
290
     0
  0
SCALE
  5
4B
102
{ACAD_REACTORS
330
47
102
}
330
47
100
AcDbScale
 70
     0
300
1:5
140
1.0
141
5.0
290
     0
  0
SCALE
  5
4C
102
{ACAD_REACTORS
330
47
102
}
330
47
100
AcDbScale
 70
     0
300
1:8
140
1.0
141
8.0
290
     0
  0
SCALE
  5
4D
102
{ACAD_REACTORS
330
47
102
}
330
47
100
AcDbScale
 70
     0
300
1:10
140
1.0
141
10.0
290
     0
  0
SCALE
  5
4E
102
{ACAD_REACTORS
330
47
102
}
330
47
100
AcDbScale
 70
     0
300
1:16
140
1.0
141
16.0
290
     0
  0
SCALE
  5
4F
102
{ACAD_REACTORS
330
47
102
}
330
47
100
AcDbScale
 70
     0
300
1:20
140
1.0
141
20.0
290
     0
  0
SCALE
  5
50
102
{ACAD_REACTORS
330
47
102
}
330
47
100
AcDbScale
 70
     0
300
1:30
140
1.0
141
30.0
290
     0
  0
SCALE
  5
51
102
{ACAD_REACTORS
330
47
102
}
330
47
100
AcDbScale
 70
     0
300
1:40
140
1.0
141
40.0
290
     0
  0
SCALE
  5
52
102
{ACAD_REACTORS
330
47
102
}
330
47
100
AcDbScale
 70
     0
300
1:50
140
1.0
141
50.0
290
     0
  0
SCALE
  5
53
102
{ACAD_REACTORS
330
47
102
}
330
47
100
AcDbScale
 70
     0
300
1:100
140
1.0
141
100.0
290
     0
  0
SCALE
  5
54
102
{ACAD_REACTORS
330
47
102
}
330
47
100
AcDbScale
 70
     0
300
2:1
140
2.0
141
1.0
290
     0
  0
SCALE
  5
55
102
{ACAD_REACTORS
330
47
102
}
330
47
100
AcDbScale
 70
     0
300
4:1
140
4.0
141
1.0
290
     0
  0
SCALE
  5
56
102
{ACAD_REACTORS
330
47
102
}
330
47
100
AcDbScale
 70
     0
300
8:1
140
8.0
141
1.0
290
     0
  0
SCALE
  5
57
102
{ACAD_REACTORS
330
47
102
}
330
47
100
AcDbScale
 70
     0
300
10:1
140
10.0
141
1.0
290
     0
  0
SCALE
  5
58
102
{ACAD_REACTORS
330
47
102
}
330
47
100
AcDbScale
 70
     0
300
100:1
140
100.0
141
1.0
290
     0
  0
SCALE
  5
59
102
{ACAD_REACTORS
330
47
102
}
330
47
100
AcDbScale
 70
     0
300
1/128" = 1'-0"
140
0.0078125
141
12.0
290
     0
  0
SCALE
  5
5A
102
{ACAD_REACTORS
330
47
102
}
330
47
100
AcDbScale
 70
     0
300
1/64" = 1'-0"
140
0.015625
141
12.0
290
     0
  0
SCALE
  5
5B
102
{ACAD_REACTORS
330
47
102
}
330
47
100
AcDbScale
 70
     0
300
1/32" = 1'-0"
140
0.03125
141
12.0
290
     0
  0
SCALE
  5
5C
102
{ACAD_REACTORS
330
47
102
}
330
47
100
AcDbScale
 70
     0
300
1/16" = 1'-0"
140
0.0625
141
12.0
290
     0
  0
SCALE
  5
5D
102
{ACAD_REACTORS
330
47
102
}
330
47
100
AcDbScale
 70
     0
300
3/32" = 1'-0"
140
0.09375
141
12.0
290
     0
  0
SCALE
  5
5E
102
{ACAD_REACTORS
330
47
102
}
330
47
100
AcDbScale
 70
     0
300
1/8" = 1'-0"
140
0.125
141
12.0
290
     0
  0
SCALE
  5
5F
102
{ACAD_REACTORS
330
47
102
}
330
47
100
AcDbScale
 70
     0
300
3/16" = 1'-0"
140
0.1875
141
12.0
290
     0
  0
SCALE
  5
60
102
{ACAD_REACTORS
330
47
102
}
330
47
100
AcDbScale
 70
     0
300
1/4" = 1'-0"
140
0.25
141
12.0
290
     0
  0
SCALE
  5
61
102
{ACAD_REACTORS
330
47
102
}
330
47
100
AcDbScale
 70
     0
300
3/8" = 1'-0"
140
0.375
141
12.0
290
     0
  0
SCALE
  5
62
102
{ACAD_REACTORS
330
47
102
}
330
47
100
AcDbScale
 70
     0
300
1/2" = 1'-0"
140
0.5
141
12.0
290
     0
  0
SCALE
  5
63
102
{ACAD_REACTORS
330
47
102
}
330
47
100
AcDbScale
 70
     0
300
3/4" = 1'-0"
140
0.75
141
12.0
290
     0
  0
SCALE
  5
64
102
{ACAD_REACTORS
330
47
102
}
330
47
100
AcDbScale
 70
     0
300
1" = 1'-0"
140
1.0
141
12.0
290
     0
  0
SCALE
  5
65
102
{ACAD_REACTORS
330
47
102
}
330
47
100
AcDbScale
 70
     0
300
1-1/2" = 1'-0"
140
1.5
141
12.0
290
     0
  0
SCALE
  5
66
102
{ACAD_REACTORS
330
47
102
}
330
47
100
AcDbScale
 70
     0
300
3" = 1'-0"
140
3.0
141
12.0
290
     0
  0
SCALE
  5
67
102
{ACAD_REACTORS
330
47
102
}
330
47
100
AcDbScale
 70
     0
300
6" = 1'-0"
140
6.0
141
12.0
290
     0
  0
SCALE
  5
68
102
{ACAD_REACTORS
330
47
102
}
330
47
100
AcDbScale
 70
     0
300
1'-0" = 1'-0"
140
12.0
141
12.0
290
     0
  0
TABLESTYLE
  5
6A
102
{ACAD_REACTORS
330
69
102
}
102
{ACAD_XDICTIONARY
360
2D8
102
}
330
69
100
AcDbTableStyle
  3
Standard
 70
     0
 71
     0
 40
0.06
 41
0.06
280
     0
281
     0
  7
Standard
140
0.18
170
     2
 62
     0
 63
   257
283
     0
 90
        4
 91
        0
  1

274
    -2
284
     1
 64
     0
275
    -2
285
     1
 65
     0
276
    -2
286
     1
 66
     0
277
    -2
287
     1
 67
     0
278
    -2
288
     1
 68
     0
279
    -2
289
     1
 69
     0
  7
Standard
140
0.25
170
     5
 62
     0
 63
   257
283
     0
 90
        4
 91
        0
  1

274
    -2
284
     1
 64
     0
275
    -2
285
     1
 65
     0
276
    -2
286
     1
 66
     0
277
    -2
287
     1
 67
     0
278
    -2
288
     1
 68
     0
279
    -2
289
     1
 69
     0
  7
Standard
140
0.18
170
     5
 62
     0
 63
   257
283
     0
 90
        4
 91
        0
  1

274
    -2
284
     1
 64
     0
275
    -2
285
     1
 65
     0
276
    -2
286
     1
 66
     0
277
    -2
287
     1
 67
     0
278
    -2
288
     1
 68
     0
279
    -2
289
     1
 69
     0
  0
VISUALSTYLE
  5
2F
102
{ACAD_REACTORS
330
2A
102
}
330
2A
100
AcDbVisualStyle
  2
2dWireframe
 70
     4
177
     3
291
     0
 70
    58
 90
        0
176
     1
 90
        2
176
     1
 90
        0
176
     1
 90
        0
176
     1
 40
0.6
176
     1
 40
30.0
176
     1
 62
     7
420
 16777215
176
     1
 90
        1
176
     1
 90
        4
176
     1
 62
     7
176
     1
 62
   257
176
     1
 90
        1
176
     1
 90
        1
176
     1
 40
1.0
176
     1
 90
        0
176
     1
 62
   257
176
     1
 40
1.0
176
     1
 90
        1
176
     1
 90
        6
176
     1
 90
        2
176
     1
 62
     7
176
     1
 90
        5
176
     1
 90
        0
176
     1
 90
        0
176
     1
290
     0
176
     1
 90
        1
176
     1
 40
0.0
176
     1
 90
        0
176
     1
290
     1
176
     1
290
     1
176
     1
290
     0
176
     1
290
     0
176
     1
290
     0
176
     1
290
     0
176
     1
290
     0
176
     1
290
     0
176
     1
290
     0
176
     1
 90
       50
176
     1
 40
0.0
176
     1
 40
1.0
176
     1
 90
        0
176
     1
 62
    18
420
        0
176
     1
 90
       50
176
     1
 90
        3
176
     1
 62
     5
420
      255
176
     1
290
     0
176
     1
 90
       50
176
     1
 90
       50
176
     1
 90
       50
176
     1
290
     0
176
     1
 90
       50
176
     1
 62
   256
176
     0
 40
1.0
176
     0
 90
        2
176
     1
  1
strokes_ogs.tif
176
     1
290
     0
176
     1
 40
1.0
176
     1
 40
1.0
176
     1
  0
VISUALSTYLE
  5
32
102
{ACAD_REACTORS
330
2A
102
}
330
2A
100
AcDbVisualStyle
  2
Basic
 70
     7
177
     3
291
     1
 70
    58
 90
        1
176
     1
 90
        0
176
     1
 90
        1
176
     1
 90
        0
176
     1
 40
0.6
176
     1
 40
30.0
176
     1
 62
     7
420
 16777215
176
     1
 90
        0
176
     1
 90
        4
176
     1
 62
     7
176
     1
 62
   257
176
     1
 90
        1
176
     1
 90
        1
176
     1
 40
1.0
176
     1
 90
        8
176
     1
 62
     7
176
     1
 40
1.0
176
     1
 90
        1
176
     1
 90
        6
176
     1
 90
        2
176
     1
 62
     7
176
     1
 90
        5
176
     1
 90
        0
176
     1
 90
        0
176
     1
290
     0
176
     1
 90
        1
176
     1
 40
0.0
176
     1
 90
        0
176
     1
290
     0
176
     1
290
     1
176
     1
290
     1
176
     1
290
     0
176
     1
290
     0
176
     1
290
     0
176
     1
290
     0
176
     1
290
     0
176
     1
290
     0
176
     1
 90
       50
176
     1
 40
0.0
176
     1
 40
1.0
176
     1
 90
        0
176
     1
 62
    18
420
        0
176
     1
 90
       50
176
     1
 90
        3
176
     1
 62
     5
420
      255
176
     1
290
     0
176
     1
 90
       50
176
     1
 90
       50
176
     1
 90
       50
176
     1
290
     0
176
     1
 90
       50
176
     1
 62
   256
176
     0
 40
1.0
176
     0
 90
        2
176
     1
  1
strokes_ogs.tif
176
     1
290
     0
176
     1
 40
1.0
176
     1
 40
1.0
176
     1
  0
VISUALSTYLE
  5
36
102
{ACAD_REACTORS
330
2A
102
}
330
2A
100
AcDbVisualStyle
  2
Brighten
 70
    12
177
     3
291
     1
 70
    58
 90
        2
176
     1
 90
        2
176
     1
 90
        0
176
     1
 90
        0
176
     1
 40
0.6
176
     1
 40
30.0
176
     1
 62
     7
420
 16777215
176
     1
 90
        1
176
     1
 90
        4
176
     1
 62
     7
176
     1
 62
   257
176
     1
 90
        1
176
     1
 90
        1
176
     1
 40
1.0
176
     1
 90
        8
176
     1
 62
     7
176
     1
 40
1.0
176
     1
 90
        1
176
     1
 90
        6
176
     1
 90
        2
176
     1
 62
     7
176
     1
 90
        5
176
     1
 90
        0
176
     1
 90
        0
176
     1
290
     0
176
     1
 90
        1
176
     1
 40
50.0
176
     1
 90
        0
176
     1
290
     0
176
     1
290
     1
176
     1
290
     1
176
     1
290
     0
176
     1
290
     0
176
     1
290
     0
176
     1
290
     0
176
     1
290
     0
176
     1
290
     0
176
     1
 90
       50
176
     1
 40
0.0
176
     1
 40
1.0
176
     1
 90
        0
176
     1
 62
    18
420
        0
176
     1
 90
       50
176
     1
 90
        3
176
     1
 62
     5
420
      255
176
     1
290
     0
176
     1
 90
       50
176
     1
 90
       50
176
     1
 90
       50
176
     1
290
     0
176
     1
 90
       50
176
     1
 62
   256
176
     0
 40
1.0
176
     0
 90
        2
176
     1
  1
strokes_ogs.tif
176
     1
290
     0
176
     1
 40
1.0
176
     1
 40
1.0
176
     1
  0
VISUALSTYLE
  5
3A
102
{ACAD_REACTORS
330
2A
102
}
330
2A
100
AcDbVisualStyle
  2
ColorChange
 70
    16
177
     3
291
     1
 70
    58
 90
        2
176
     1
 90
        2
176
     1
 90
        3
176
     1
 90
        0
176
     1
 40
0.6
176
     1
 40
30.0
176
     1
 62
     8
420
  8421504
176
     1
 90
        1
176
     1
 90
        4
176
     1
 62
     7
176
     1
 62
   257
176
     1
 90
        1
176
     1
 90
        1
176
     1
 40
1.0
176
     1
 90
        8
176
     1
 62
     8
420
  8421504
176
     1
 40
1.0
176
     1
 90
        1
176
     1
 90
        6
176
     1
 90
        2
176
     1
 62
     7
176
     1
 90
        5
176
     1
 90
        0
176
     1
 90
        0
176
     1
290
     0
176
     1
 90
        1
176
     1
 40
0.0
176
     1
 90
        0
176
     1
290
     0
176
     1
290
     1
176
     1
290
     1
176
     1
290
     0
176
     1
290
     0
176
     1
290
     0
176
     1
290
     0
176
     1
290
     0
176
     1
290
     0
176
     1
 90
       50
176
     1
 40
0.0
176
     1
 40
1.0
176
     1
 90
        0
176
     1
 62
    18
420
        0
176
     1
 90
       50
176
     1
 90
        3
176
     1
 62
     5
420
      255
176
     1
290
     0
176
     1
 90
       50
176
     1
 90
       50
176
     1
 90
       50
176
     1
290
     0
176
     1
 90
       50
176
     1
 62
   256
176
     0
 40
1.0
176
     0
 90
        2
176
     1
  1
strokes_ogs.tif
176
     1
290
     0
176
     1
 40
1.0
176
     1
 40
1.0
176
     1
  0
VISUALSTYLE
  5
34
102
{ACAD_REACTORS
330
2A
102
}
330
2A
100
AcDbVisualStyle
  2
Conceptual
 70
     9
177
     3
291
     0
 70
    58
 90
        3
176
     1
 90
        2
176
     1
 90
        0
176
     1
 90
        0
176
     1
 40
0.6
176
     1
 40
30.0
176
     1
 62
     7
420
 16777215
176
     1
 90
        2
176
     1
 90
        2
176
     1
 62
     7
176
     1
 62
   257
176
     1
 90
        1
176
     1
 90
        1
176
     1
 40
179.0
176
     1
 90
        8
176
     1
 62
     7
176
     1
 40
1.0
176
     1
 90
        1
176
     1
 90
        6
176
     1
 90
        2
176
     1
 62
     7
176
     1
 90
        3
176
     1
 90
        0
176
     1
 90
        0
176
     1
290
     0
176
     1
 90
        1
176
     1
 40
0.0
176
     1
 90
        0
176
     1
290
     0
176
     1
290
     1
176
     1
290
     1
176
     1
290
     0
176
     1
290
     0
176
     1
290
     0
176
     1
290
     0
176
     1
290
     0
176
     1
290
     0
176
     1
 90
       50
176
     1
 40
0.0
176
     1
 40
1.0
176
     1
 90
        0
176
     1
 62
    18
420
        0
176
     1
 90
       50
176
     1
 90
        3
176
     1
 62
     5
420
      255
176
     1
290
     0
176
     1
 90
       50
176
     1
 90
       50
176
     1
 90
       50
176
     1
290
     0
176
     1
 90
       50
176
     1
 62
   256
176
     0
 40
1.0
176
     0
 90
        2
176
     1
  1
strokes_ogs.tif
176
     1
290
     0
176
     1
 40
1.0
176
     1
 40
1.0
176
     1
  0
VISUALSTYLE
  5
35
102
{ACAD_REACTORS
330
2A
102
}
330
2A
100
AcDbVisualStyle
  2
Dim
 70
    11
177
     3
291
     1
 70
    58
 90
        2
176
     1
 90
        2
176
     1
 90
        0
176
     1
 90
        0
176
     1
 40
0.6
176
     1
 40
30.0
176
     1
 62
     7
420
 16777215
176
     1
 90
        1
176
     1
 90
        4
176
     1
 62
     7
176
     1
 62
   257
176
     1
 90
        1
176
     1
 90
        1
176
     1
 40
1.0
176
     1
 90
        8
176
     1
 62
     7
176
     1
 40
1.0
176
     1
 90
        1
176
     1
 90
        6
176
     1
 90
        2
176
     1
 62
     7
176
     1
 90
        5
176
     1
 90
        0
176
     1
 90
        0
176
     1
290
     0
176
     1
 90
        1
176
     1
 40
-50.0
176
     1
 90
        0
176
     1
290
     0
176
     1
290
     1
176
     1
290
     1
176
     1
290
     0
176
     1
290
     0
176
     1
290
     0
176
     1
290
     0
176
     1
290
     0
176
     1
290
     0
176
     1
 90
       50
176
     1
 40
0.0
176
     1
 40
1.0
176
     1
 90
        0
176
     1
 62
    18
420
        0
176
     1
 90
       50
176
     1
 90
        3
176
     1
 62
     5
420
      255
176
     1
290
     0
176
     1
 90
       50
176
     1
 90
       50
176
     1
 90
       50
176
     1
290
     0
176
     1
 90
       50
176
     1
 62
   256
176
     0
 40
1.0
176
     0
 90
        2
176
     1
  1
strokes_ogs.tif
176
     1
290
     0
176
     1
 40
1.0
176
     1
 40
1.0
176
     1
  0
VISUALSTYLE
  5
3D
102
{ACAD_REACTORS
330
2A
102
}
330
2A
100
AcDbVisualStyle
  2
EdgeColorOff
 70
    22
177
     3
291
     1
 70
    58
 90
        2
176
     0
 90
        2
176
     0
 90
        0
176
     0
 90
        0
176
     0
 40
0.6
176
     0
 40
30.0
176
     0
 62
     7
420
 16777215
176
     0
 90
        1
176
     0
 90
        4
176
     0
 62
     7
176
     0
 62
   257
176
     0
 90
        1
176
     0
 90
        1
176
     0
 40
1.0
176
     0
 90
        8
176
     2
 62
     7
176
     0
 40
1.0
176
     0
 90
        1
176
     0
 90
        6
176
     0
 90
        2
176
     0
 62
     7
176
     0
 90
        5
176
     0
 90
        0
176
     0
 90
        0
176
     0
290
     0
176
     0
 90
        1
176
     0
 40
0.0
176
     0
 90
        0
176
     0
290
     0
176
     0
290
     1
176
     0
290
     1
176
     0
290
     0
176
     0
290
     0
176
     0
290
     0
176
     0
290
     0
176
     0
290
     0
176
     0
290
     0
176
     0
 90
       50
176
     0
 40
0.0
176
     0
 40
1.0
176
     0
 90
        0
176
     0
 62
    18
420
        0
176
     0
 90
       50
176
     0
 90
        3
176
     0
 62
     5
420
      255
176
     0
290
     0
176
     0
 90
       50
176
     0
 90
       50
176
     0
 90
       50
176
     0
290
     0
176
     0
 90
       50
176
     0
 62
   256
176
     0
 40
1.0
176
     0
 90
        2
176
     0
  1
strokes_ogs.tif
176
     0
290
     0
176
     0
 40
1.0
176
     0
 40
1.0
176
     0
  0
VISUALSTYLE
  5
39
102
{ACAD_REACTORS
330
2A
102
}
330
2A
100
AcDbVisualStyle
  2
Facepattern
 70
    15
177
     3
291
     1
 70
    58
 90
        2
176
     1
 90
        2
176
     1
 90
        0
176
     1
 90
        0
176
     1
 40
0.6
176
     1
 40
30.0
176
     1
 62
     7
420
 16777215
176
     1
 90
        1
176
     1
 90
        4
176
     1
 62
     7
176
     1
 62
   257
176
     1
 90
        1
176
     1
 90
        1
176
     1
 40
1.0
176
     1
 90
        8
176
     1
 62
     7
176
     1
 40
1.0
176
     1
 90
        1
176
     1
 90
        6
176
     1
 90
        2
176
     1
 62
     7
176
     1
 90
        5
176
     1
 90
        0
176
     1
 90
        0
176
     1
290
     0
176
     1
 90
        1
176
     1
 40
0.0
176
     1
 90
        0
176
     1
290
     0
176
     1
290
     1
176
     1
290
     1
176
     1
290
     0
176
     1
290
     0
176
     1
290
     0
176
     1
290
     0
176
     1
290
     0
176
     1
290
     0
176
     1
 90
       50
176
     1
 40
0.0
176
     1
 40
1.0
176
     1
 90
        0
176
     1
 62
    18
420
        0
176
     1
 90
       50
176
     1
 90
        3
176
     1
 62
     5
420
      255
176
     1
290
     0
176
     1
 90
       50
176
     1
 90
       50
176
     1
 90
       50
176
     1
290
     0
176
     1
 90
       50
176
     1
 62
   256
176
     0
 40
1.0
176
     0
 90
        2
176
     1
  1
strokes_ogs.tif
176
     1
290
     0
176
     1
 40
1.0
176
     1
 40
1.0
176
     1
  0
VISUALSTYLE
  5
2B
102
{ACAD_REACTORS
330
2A
102
}
330
2A
100
AcDbVisualStyle
  2
Flat
 70
     0
177
     3
291
     1
 70
    58
 90
        2
176
     1
 90
        1
176
     1
 90
        1
176
     1
 90
        2
176
     1
 40
0.6
176
     1
 40
30.0
176
     1
 62
     7
420
 16777215
176
     1
 90
        0
176
     1
 90
        0
176
     1
 62
     7
176
     1
 62
   257
176
     1
 90
        1
176
     1
 90
        1
176
     1
 40
1.0
176
     1
 90
        8
176
     1
 62
     7
176
     1
 40
1.0
176
     1
 90
        1
176
     1
 90
        6
176
     1
 90
        2
176
     1
 62
     7
176
     1
 90
        5
176
     1
 90
        0
176
     1
 90
        0
176
     1
290
     0
176
     1
 90
       13
176
     1
 40
0.0
176
     1
 90
        0
176
     1
290
     0
176
     1
290
     1
176
     1
290
     1
176
     1
290
     0
176
     1
290
     0
176
     1
290
     0
176
     1
290
     0
176
     1
290
     0
176
     1
290
     0
176
     1
 90
       50
176
     1
 40
0.0
176
     1
 40
1.0
176
     1
 90
        0
176
     1
 62
    18
420
        0
176
     1
 90
       50
176
     1
 90
        3
176
     1
 62
     5
420
      255
176
     1
290
     0
176
     1
 90
       50
176
     1
 90
       50
176
     1
 90
       50
176
     1
290
     0
176
     1
 90
       50
176
     1
 62
   256
176
     0
 40
1.0
176
     0
 90
        2
176
     1
  1
strokes_ogs.tif
176
     1
290
     0
176
     1
 40
1.0
176
     1
 40
1.0
176
     1
  0
VISUALSTYLE
  5
2C
102
{ACAD_REACTORS
330
2A
102
}
330
2A
100
AcDbVisualStyle
  2
FlatWithEdges
 70
     1
177
     3
291
     1
 70
    58
 90
        2
176
     1
 90
        1
176
     1
 90
        1
176
     1
 90
        2
176
     1
 40
0.6
176
     1
 40
30.0
176
     1
 62
     7
420
 16777215
176
     1
 90
        1
176
     1
 90
        0
176
     1
 62
     7
176
     1
 62
   257
176
     1
 90
        1
176
     1
 90
        1
176
     1
 40
1.0
176
     1
 90
        0
176
     1
 62
   257
176
     1
 40
1.0
176
     1
 90
        1
176
     1
 90
        6
176
     1
 90
        2
176
     1
 62
     7
176
     1
 90
        5
176
     1
 90
        0
176
     1
 90
        0
176
     1
290
     0
176
     1
 90
       13
176
     1
 40
0.0
176
     1
 90
        0
176
     1
290
     0
176
     1
290
     1
176
     1
290
     1
176
     1
290
     0
176
     1
290
     0
176
     1
290
     0
176
     1
290
     0
176
     1
290
     0
176
     1
290
     0
176
     1
 90
       50
176
     1
 40
0.0
176
     1
 40
1.0
176
     1
 90
        0
176
     1
 62
    18
420
        0
176
     1
 90
       50
176
     1
 90
        3
176
     1
 62
     5
420
      255
176
     1
290
     0
176
     1
 90
       50
176
     1
 90
       50
176
     1
 90
       50
176
     1
290
     0
176
     1
 90
       50
176
     1
 62
   256
176
     0
 40
1.0
176
     0
 90
        2
176
     1
  1
strokes_ogs.tif
176
     1
290
     0
176
     1
 40
1.0
176
     1
 40
1.0
176
     1
  0
VISUALSTYLE
  5
2D
102
{ACAD_REACTORS
330
2A
102
}
330
2A
100
AcDbVisualStyle
  2
Gouraud
 70
     2
177
     3
291
     1
 70
    58
 90
        2
176
     1
 90
        2
176
     1
 90
        1
176
     1
 90
        2
176
     1
 40
0.6
176
     1
 40
30.0
176
     1
 62
     7
420
 16777215
176
     1
 90
        0
176
     1
 90
        0
176
     1
 62
     7
176
     1
 62
   257
176
     1
 90
        1
176
     1
 90
        1
176
     1
 40
1.0
176
     1
 90
        0
176
     1
 62
     7
176
     1
 40
1.0
176
     1
 90
        1
176
     1
 90
        6
176
     1
 90
        2
176
     1
 62
     7
176
     1
 90
        5
176
     1
 90
        0
176
     1
 90
        0
176
     1
290
     0
176
     1
 90
       13
176
     1
 40
0.0
176
     1
 90
        0
176
     1
290
     0
176
     1
290
     1
176
     1
290
     1
176
     1
290
     0
176
     1
290
     0
176
     1
290
     0
176
     1
290
     0
176
     1
290
     0
176
     1
290
     0
176
     1
 90
       50
176
     1
 40
0.0
176
     1
 40
1.0
176
     1
 90
        0
176
     1
 62
    18
420
        0
176
     1
 90
       50
176
     1
 90
        3
176
     1
 62
     5
420
      255
176
     1
290
     0
176
     1
 90
       50
176
     1
 90
       50
176
     1
 90
       50
176
     1
290
     0
176
     1
 90
       50
176
     1
 62
   256
176
     0
 40
1.0
176
     0
 90
        2
176
     1
  1
strokes_ogs.tif
176
     1
290
     0
176
     1
 40
1.0
176
     1
 40
1.0
176
     1
  0
VISUALSTYLE
  5
2E
102
{ACAD_REACTORS
330
2A
102
}
330
2A
100
AcDbVisualStyle
  2
GouraudWithEdges
 70
     3
177
     3
291
     1
 70
    58
 90
        2
176
     1
 90
        2
176
     1
 90
        1
176
     1
 90
        2
176
     1
 40
0.6
176
     1
 40
30.0
176
     1
 62
     7
420
 16777215
176
     1
 90
        1
176
     1
 90
        0
176
     1
 62
     7
176
     1
 62
   257
176
     1
 90
        1
176
     1
 90
        1
176
     1
 40
1.0
176
     1
 90
        0
176
     1
 62
   257
176
     1
 40
1.0
176
     1
 90
        1
176
     1
 90
        6
176
     1
 90
        2
176
     1
 62
     7
176
     1
 90
        5
176
     1
 90
        0
176
     1
 90
        0
176
     1
290
     0
176
     1
 90
       13
176
     1
 40
0.0
176
     1
 90
        0
176
     1
290
     0
176
     1
290
     1
176
     1
290
     1
176
     1
290
     0
176
     1
290
     0
176
     1
290
     0
176
     1
290
     0
176
     1
290
     0
176
     1
290
     0
176
     1
 90
       50
176
     1
 40
0.0
176
     1
 40
1.0
176
     1
 90
        0
176
     1
 62
    18
420
        0
176
     1
 90
       50
176
     1
 90
        3
176
     1
 62
     5
420
      255
176
     1
290
     0
176
     1
 90
       50
176
     1
 90
       50
176
     1
 90
       50
176
     1
290
     0
176
     1
 90
       50
176
     1
 62
   256
176
     0
 40
1.0
176
     0
 90
        2
176
     1
  1
strokes_ogs.tif
176
     1
290
     0
176
     1
 40
1.0
176
     1
 40
1.0
176
     1
  0
VISUALSTYLE
  5
31
102
{ACAD_REACTORS
330
2A
102
}
330
2A
100
AcDbVisualStyle
  2
Hidden
 70
     6
177
     3
291
     0
 70
    58
 90
        1
176
     1
 90
        2
176
     1
 90
        2
176
     1
 90
        0
176
     1
 40
0.6
176
     1
 40
30.0
176
     1
 62
     7
420
 16777215
176
     1
 90
        2
176
     1
 90
        2
176
     1
 62
     7
176
     1
 62
   257
176
     1
 90
        2
176
     1
 90
        1
176
     1
 40
40.0
176
     1
 90
        0
176
     1
 62
   257
176
     1
 40
1.0
176
     1
 90
        1
176
     1
 90
        6
176
     1
 90
        2
176
     1
 62
     7
176
     1
 90
        3
176
     1
 90
        0
176
     1
 90
        0
176
     1
290
     0
176
     1
 90
        1
176
     1
 40
0.0
176
     1
 90
        0
176
     1
290
     0
176
     1
290
     1
176
     1
290
     1
176
     1
290
     0
176
     1
290
     0
176
     1
290
     0
176
     1
290
     0
176
     1
290
     0
176
     1
290
     0
176
     1
 90
       50
176
     1
 40
0.0
176
     1
 40
1.0
176
     1
 90
        0
176
     1
 62
    18
420
        0
176
     1
 90
       50
176
     1
 90
        3
176
     1
 62
     5
420
      255
176
     1
290
     0
176
     1
 90
       50
176
     1
 90
       50
176
     1
 90
       50
176
     1
290
     0
176
     1
 90
       50
176
     1
 62
   256
176
     0
 40
1.0
176
     0
 90
        2
176
     1
  1
strokes_ogs.tif
176
     1
290
     0
176
     1
 40
1.0
176
     1
 40
1.0
176
     1
  0
VISUALSTYLE
  5
3B
102
{ACAD_REACTORS
330
2A
102
}
330
2A
100
AcDbVisualStyle
  2
JitterOff
 70
    20
177
     3
291
     1
 70
    58
 90
        2
176
     0
 90
        2
176
     0
 90
        0
176
     0
 90
        0
176
     0
 40
0.6
176
     0
 40
30.0
176
     0
 62
     7
420
 16777215
176
     0
 90
        1
176
     0
 90
        4
176
     0
 62
     7
176
     0
 62
   257
176
     0
 90
        1
176
     0
 90
        1
176
     0
 40
1.0
176
     0
 90
       10
176
     2
 62
     7
176
     0
 40
1.0
176
     0
 90
        1
176
     0
 90
        6
176
     0
 90
        2
176
     0
 62
     7
176
     0
 90
        5
176
     0
 90
        0
176
     0
 90
        0
176
     0
290
     0
176
     0
 90
        1
176
     0
 40
0.0
176
     0
 90
        0
176
     0
290
     0
176
     0
290
     1
176
     0
290
     1
176
     0
290
     0
176
     0
290
     0
176
     0
290
     0
176
     0
290
     0
176
     0
290
     0
176
     0
290
     0
176
     0
 90
       50
176
     0
 40
0.0
176
     0
 40
1.0
176
     0
 90
        0
176
     0
 62
    18
420
        0
176
     0
 90
       50
176
     0
 90
        3
176
     0
 62
     5
420
      255
176
     0
290
     0
176
     0
 90
       50
176
     0
 90
       50
176
     0
 90
       50
176
     0
290
     0
176
     0
 90
       50
176
     0
 62
   256
176
     0
 40
1.0
176
     0
 90
        2
176
     0
  1
strokes_ogs.tif
176
     0
290
     0
176
     0
 40
1.0
176
     0
 40
1.0
176
     0
  0
VISUALSTYLE
  5
38
102
{ACAD_REACTORS
330
2A
102
}
330
2A
100
AcDbVisualStyle
  2
Linepattern
 70
    14
177
     3
291
     1
 70
    58
 90
        2
176
     1
 90
        2
176
     1
 90
        0
176
     1
 90
        0
176
     1
 40
0.6
176
     1
 40
30.0
176
     1
 62
     7
420
 16777215
176
     1
 90
        1
176
     1
 90
        4
176
     1
 62
     7
176
     1
 62
   257
176
     1
 90
        7
176
     1
 90
        7
176
     1
 40
1.0
176
     1
 90
        8
176
     1
 62
     7
176
     1
 40
1.0
176
     1
 90
        1
176
     1
 90
        6
176
     1
 90
        2
176
     1
 62
     7
176
     1
 90
        5
176
     1
 90
        0
176
     1
 90
        0
176
     1
290
     0
176
     1
 90
        1
176
     1
 40
0.0
176
     1
 90
        0
176
     1
290
     0
176
     1
290
     1
176
     1
290
     1
176
     1
290
     0
176
     1
290
     0
176
     1
290
     0
176
     1
290
     0
176
     1
290
     0
176
     1
290
     0
176
     1
 90
       50
176
     1
 40
0.0
176
     1
 40
1.0
176
     1
 90
        0
176
     1
 62
    18
420
        0
176
     1
 90
       50
176
     1
 90
        3
176
     1
 62
     5
420
      255
176
     1
290
     0
176
     1
 90
       50
176
     1
 90
       50
176
     1
 90
       50
176
     1
290
     0
176
     1
 90
       50
176
     1
 62
   256
176
     0
 40
1.0
176
     0
 90
        2
176
     1
  1
strokes_ogs.tif
176
     1
290
     0
176
     1
 40
1.0
176
     1
 40
1.0
176
     1
  0
VISUALSTYLE
  5
3C
102
{ACAD_REACTORS
330
2A
102
}
330
2A
100
AcDbVisualStyle
  2
OverhangOff
 70
    21
177
     3
291
     1
 70
    58
 90
        2
176
     0
 90
        2
176
     0
 90
        0
176
     0
 90
        0
176
     0
 40
0.6
176
     0
 40
30.0
176
     0
 62
     7
420
 16777215
176
     0
 90
        1
176
     0
 90
        4
176
     0
 62
     7
176
     0
 62
   257
176
     0
 90
        1
176
     0
 90
        1
176
     0
 40
1.0
176
     0
 90
        9
176
     2
 62
     7
176
     0
 40
1.0
176
     0
 90
        1
176
     0
 90
        6
176
     0
 90
        2
176
     0
 62
     7
176
     0
 90
        5
176
     0
 90
        0
176
     0
 90
        0
176
     0
290
     0
176
     0
 90
        1
176
     0
 40
0.0
176
     0
 90
        0
176
     0
290
     0
176
     0
290
     1
176
     0
290
     1
176
     0
290
     0
176
     0
290
     0
176
     0
290
     0
176
     0
290
     0
176
     0
290
     0
176
     0
290
     0
176
     0
 90
       50
176
     0
 40
0.0
176
     0
 40
1.0
176
     0
 90
        0
176
     0
 62
    18
420
        0
176
     0
 90
       50
176
     0
 90
        3
176
     0
 62
     5
420
      255
176
     0
290
     0
176
     0
 90
       50
176
     0
 90
       50
176
     0
 90
       50
176
     0
290
     0
176
     0
 90
       50
176
     0
 62
   256
176
     0
 40
1.0
176
     0
 90
        2
176
     0
  1
strokes_ogs.tif
176
     0
290
     0
176
     0
 40
1.0
176
     0
 40
1.0
176
     0
  0
VISUALSTYLE
  5
33
102
{ACAD_REACTORS
330
2A
102
}
330
2A
100
AcDbVisualStyle
  2
Realistic
 70
     8
177
     3
291
     0
 70
    58
 90
        2
176
     1
 90
        3
176
     1
 90
        0
176
     1
 90
        2
176
     1
 40
0.6
176
     1
 40
30.0
176
     1
 62
     7
420
 16777215
176
     1
 90
        0
176
     1
 90
        0
176
     1
 62
     7
176
     1
 62
   257
176
     1
 90
        1
176
     1
 90
        1
176
     1
 40
1.0
176
     1
 90
        8
176
     1
 62
   257
176
     1
 40
1.0
176
     1
 90
        1
176
     1
 90
        6
176
     1
 90
        2
176
     1
 62
     7
176
     1
 90
        3
176
     1
 90
        0
176
     1
 90
        0
176
     1
290
     0
176
     1
 90
       13
176
     1
 40
0.0
176
     1
 90
        0
176
     1
290
     0
176
     1
290
     1
176
     1
290
     1
176
     1
290
     0
176
     1
290
     0
176
     1
290
     0
176
     1
290
     0
176
     1
290
     0
176
     1
290
     0
176
     1
 90
       50
176
     1
 40
0.0
176
     1
 40
1.0
176
     1
 90
        0
176
     1
 62
    18
420
        0
176
     1
 90
       50
176
     1
 90
        3
176
     1
 62
     5
420
      255
176
     1
290
     0
176
     1
 90
       50
176
     1
 90
       50
176
     1
 90
       50
176
     1
290
     0
176
     1
 90
       50
176
     1
 62
   256
176
     0
 40
1.0
176
     0
 90
        2
176
     1
  1
strokes_ogs.tif
176
     1
290
     0
176
     1
 40
1.0
176
     1
 40
1.0
176
     1
  0
VISUALSTYLE
  5
42
102
{ACAD_REACTORS
330
2A
102
}
330
2A
100
AcDbVisualStyle
  2
Shaded
 70
    27
177
     3
291
     0
 70
    58
 90
        2
176
     1
 90
        2
176
     1
 90
        1
176
     1
 90
        2
176
     1
 40
0.6
176
     1
 40
30.0
176
     1
 62
     7
420
 16777215
176
     1
 90
        0
176
     1
 90
        4
176
     1
 62
     7
176
     1
 62
   257
176
     1
 90
        1
176
     1
 90
        1
176
     1
 40
1.0
176
     1
 90
        8
176
     1
 62
   257
176
     1
 40
1.0
176
     1
 90
        1
176
     1
 90
        6
176
     1
 90
        2
176
     1
 62
     8
420
  7895160
176
     1
 90
        3
176
     1
 90
        0
176
     1
 90
        0
176
     1
290
     0
176
     1
 90
        5
176
     1
 40
0.0
176
     1
 90
        0
176
     1
290
     0
176
     1
290
     1
176
     1
290
     1
176
     1
290
     0
176
     1
290
     0
176
     1
290
     0
176
     1
290
     0
176
     1
290
     0
176
     1
290
     0
176
     1
 90
       50
176
     1
 40
0.0
176
     1
 40
1.0
176
     1
 90
        0
176
     1
 62
    18
420
        0
176
     1
 90
       50
176
     1
 90
        3
176
     1
 62
     5
420
      255
176
     1
290
     0
176
     1
 90
       50
176
     1
 90
       50
176
     1
 90
       50
176
     1
290
     0
176
     1
 90
       50
176
     1
 62
   256
176
     0
 40
1.0
176
     0
 90
        2
176
     1
  1
strokes_ogs.tif
176
     1
290
     0
176
     1
 40
1.0
176
     1
 40
1.0
176
     1
  0
VISUALSTYLE
  5
41
102
{ACAD_REACTORS
330
2A
102
}
330
2A
100
AcDbVisualStyle
  2
Shaded with edges
 70
    26
177
     3
291
     0
 70
    58
 90
        2
176
     1
 90
        2
176
     1
 90
        1
176
     1
 90
        2
176
     1
 40
0.6
176
     1
 40
30.0
176
     1
 62
     7
420
 16777215
176
     1
 90
        1
176
     1
 90
       10
176
     1
 62
     7
176
     1
 62
   257
176
     1
 90
        2
176
     1
 90
        1
176
     1
 40
1.0
176
     1
 90
        8
176
     1
 62
   257
176
     1
 40
1.0
176
     1
 90
        1
176
     1
 90
        6
176
     1
 90
        2
176
     1
 62
     7
176
     1
 90
        3
176
     1
 90
        0
176
     1
 90
        0
176
     1
290
     0
176
     1
 90
        5
176
     1
 40
0.0
176
     1
 90
        0
176
     1
290
     0
176
     1
290
     1
176
     1
290
     1
176
     1
290
     0
176
     1
290
     0
176
     1
290
     0
176
     1
290
     0
176
     1
290
     0
176
     1
290
     0
176
     1
 90
       50
176
     1
 40
0.0
176
     1
 40
1.0
176
     1
 90
        0
176
     1
 62
    18
420
        0
176
     1
 90
       50
176
     1
 90
        3
176
     1
 62
     5
420
      255
176
     1
290
     0
176
     1
 90
       50
176
     1
 90
       50
176
     1
 90
       50
176
     1
290
     0
176
     1
 90
       50
176
     1
 62
   256
176
     0
 40
1.0
176
     0
 90
        2
176
     1
  1
strokes_ogs.tif
176
     1
290
     0
176
     1
 40
1.0
176
     1
 40
1.0
176
     1
  0
VISUALSTYLE
  5
3E
102
{ACAD_REACTORS
330
2A
102
}
330
2A
100
AcDbVisualStyle
  2
Shades of Gray
 70
    23
177
     3
291
     0
 70
    58
 90
        2
176
     1
 90
        2
176
     1
 90
        3
176
     1
 90
        0
176
     1
 40
0.6
176
     1
 40
30.0
176
     1
 62
     7
420
 16777215
176
     1
 90
        2
176
     1
 90
        2
176
     1
 62
     7
176
     1
 62
     7
176
     1
 90
        1
176
     1
 90
        1
176
     1
 40
40.0
176
     1
 90
        8
176
     1
 62
     7
176
     1
 40
1.0
176
     1
 90
        1
176
     1
 90
        6
176
     1
 90
        2
176
     1
 62
     7
176
     1
 90
        3
176
     1
 90
        0
176
     1
 90
        0
176
     1
290
     0
176
     1
 90
        1
176
     1
 40
0.0
176
     1
 90
        0
176
     1
290
     0
176
     1
290
     1
176
     1
290
     1
176
     1
290
     0
176
     1
290
     0
176
     1
290
     0
176
     1
290
     0
176
     1
290
     0
176
     1
290
     0
176
     1
 90
       50
176
     1
 40
0.0
176
     1
 40
1.0
176
     1
 90
        0
176
     1
 62
    18
420
        0
176
     1
 90
       50
176
     1
 90
        3
176
     1
 62
     5
420
      255
176
     1
290
     0
176
     1
 90
       50
176
     1
 90
       50
176
     1
 90
       50
176
     1
290
     0
176
     1
 90
       50
176
     1
 62
   256
176
     0
 40
1.0
176
     0
 90
        2
176
     1
  1
strokes_ogs.tif
176
     1
290
     0
176
     1
 40
1.0
176
     1
 40
1.0
176
     1
  0
VISUALSTYLE
  5
3F
102
{ACAD_REACTORS
330
2A
102
}
330
2A
100
AcDbVisualStyle
  2
Sketchy
 70
    24
177
     3
291
     0
 70
    58
 90
        1
176
     1
 90
        2
176
     1
 90
        2
176
     1
 90
        0
176
     1
 40
0.6
176
     1
 40
30.0
176
     1
 62
     7
420
 16777215
176
     1
 90
        2
176
     1
 90
        2
176
     1
 62
     7
176
     1
 62
     7
176
     1
 90
        1
176
     1
 90
        1
176
     1
 40
40.0
176
     1
 90
       11
176
     1
 62
     7
176
     1
 40
1.0
176
     1
 90
        1
176
     1
 90
        6
176
     1
 90
        2
176
     1
 62
     7
176
     1
 90
        6
176
     1
 90
        0
176
     1
 90
        0
176
     1
290
     0
176
     1
 90
        1
176
     1
 40
0.0
176
     1
 90
        0
176
     1
290
     0
176
     1
290
     1
176
     1
290
     1
176
     1
290
     0
176
     1
290
     0
176
     1
290
     0
176
     1
290
     0
176
     1
290
     0
176
     1
290
     0
176
     1
 90
       50
176
     1
 40
0.0
176
     1
 40
1.0
176
     1
 90
        0
176
     1
 62
    18
420
        0
176
     1
 90
       50
176
     1
 90
        3
176
     1
 62
     5
420
      255
176
     1
290
     0
176
     1
 90
       50
176
     1
 90
       50
176
     1
 90
       50
176
     1
290
     0
176
     1
 90
       50
176
     1
 62
   256
176
     0
 40
1.0
176
     0
 90
        2
176
     1
  1
strokes_ogs.tif
176
     1
290
     0
176
     1
 40
1.0
176
     1
 40
1.0
176
     1
  0
VISUALSTYLE
  5
37
102
{ACAD_REACTORS
330
2A
102
}
330
2A
100
AcDbVisualStyle
  2
Thicken
 70
    13
177
     3
291
     1
 70
    58
 90
        2
176
     1
 90
        2
176
     1
 90
        0
176
     1
 90
        0
176
     1
 40
0.6
176
     1
 40
30.0
176
     1
 62
     7
420
 16777215
176
     1
 90
        1
176
     1
 90
        4
176
     1
 62
     7
176
     1
 62
   257
176
     1
 90
        1
176
     1
 90
        1
176
     1
 40
1.0
176
     1
 90
       12
176
     1
 62
     7
176
     1
 40
1.0
176
     1
 90
        1
176
     1
 90
        6
176
     1
 90
        2
176
     1
 62
     7
176
     1
 90
        5
176
     1
 90
        0
176
     1
 90
        0
176
     1
290
     0
176
     1
 90
        1
176
     1
 40
0.0
176
     1
 90
        0
176
     1
290
     0
176
     1
290
     1
176
     1
290
     1
176
     1
290
     0
176
     1
290
     0
176
     1
290
     0
176
     1
290
     0
176
     1
290
     0
176
     1
290
     0
176
     1
 90
       50
176
     1
 40
0.0
176
     1
 40
1.0
176
     1
 90
        0
176
     1
 62
    18
420
        0
176
     1
 90
       50
176
     1
 90
        3
176
     1
 62
     5
420
      255
176
     1
290
     0
176
     1
 90
       50
176
     1
 90
       50
176
     1
 90
       50
176
     1
290
     0
176
     1
 90
       50
176
     1
 62
   256
176
     0
 40
1.0
176
     0
 90
        2
176
     1
  1
strokes_ogs.tif
176
     1
290
     0
176
     1
 40
1.0
176
     1
 40
1.0
176
     1
  0
VISUALSTYLE
  5
30
102
{ACAD_REACTORS
330
2A
102
}
330
2A
100
AcDbVisualStyle
  2
Wireframe
 70
     5
177
     3
291
     0
 70
    58
 90
        0
176
     1
 90
        2
176
     1
 90
        0
176
     1
 90
        0
176
     1
 40
0.6
176
     1
 40
30.0
176
     1
 62
     7
420
 16777215
176
     1
 90
        1
176
     1
 90
        4
176
     1
 62
     7
176
     1
 62
   257
176
     1
 90
        1
176
     1
 90
        1
176
     1
 40
1.0
176
     1
 90
        0
176
     1
 62
   257
176
     1
 40
1.0
176
     1
 90
        1
176
     1
 90
        6
176
     1
 90
        2
176
     1
 62
     7
176
     1
 90
        3
176
     1
 90
        0
176
     1
 90
        0
176
     1
290
     0
176
     1
 90
        1
176
     1
 40
0.0
176
     1
 90
        0
176
     1
290
     0
176
     1
290
     1
176
     1
290
     1
176
     1
290
     0
176
     1
290
     0
176
     1
290
     0
176
     1
290
     0
176
     1
290
     0
176
     1
290
     0
176
     1
 90
       50
176
     1
 40
0.0
176
     1
 40
1.0
176
     1
 90
        0
176
     1
 62
    18
420
        0
176
     1
 90
       50
176
     1
 90
        3
176
     1
 62
     5
420
      255
176
     1
290
     0
176
     1
 90
       50
176
     1
 90
       50
176
     1
 90
       50
176
     1
290
     0
176
     1
 90
       50
176
     1
 62
   256
176
     0
 40
1.0
176
     0
 90
        2
176
     1
  1
strokes_ogs.tif
176
     1
290
     0
176
     1
 40
1.0
176
     1
 40
1.0
176
     1
  0
VISUALSTYLE
  5
40
102
{ACAD_REACTORS
330
2A
102
}
330
2A
100
AcDbVisualStyle
  2
X-Ray
 70
    25
177
     3
291
     0
 70
    58
 90
        2
176
     1
 90
        2
176
     1
 90
        1
176
     1
 90
        1
176
     1
 40
0.5
176
     1
 40
30.0
176
     1
 62
     7
420
 16777215
176
     1
 90
        1
176
     1
 90
        0
176
     1
 62
     7
176
     1
 62
   257
176
     1
 90
        1
176
     1
 90
        1
176
     1
 40
1.0
176
     1
 90
        8
176
     1
 62
     7
176
     1
 40
1.0
176
     1
 90
        1
176
     1
 90
        6
176
     1
 90
        2
176
     1
 62
     7
176
     1
 90
        3
176
     1
 90
        0
176
     1
 90
        0
176
     1
290
     0
176
     1
 90
       13
176
     1
 40
0.0
176
     1
 90
        0
176
     1
290
     0
176
     1
290
     1
176
     1
290
     1
176
     1
290
     0
176
     1
290
     0
176
     1
290
     0
176
     1
290
     0
176
     1
290
     0
176
     1
290
     0
176
     1
 90
       50
176
     1
 40
0.0
176
     1
 40
1.0
176
     1
 90
        0
176
     1
 62
    18
420
        0
176
     1
 90
       50
176
     1
 90
        3
176
     1
 62
     5
420
      255
176
     1
290
     0
176
     1
 90
       50
176
     1
 90
       50
176
     1
 90
       50
176
     1
290
     0
176
     1
 90
       50
176
     1
 62
   256
176
     0
 40
1.0
176
     0
 90
        2
176
     1
  1
strokes_ogs.tif
176
     1
290
     0
176
     1
 40
1.0
176
     1
 40
1.0
176
     1
  0
DICTIONARYVAR
  5
2D7
102
{ACAD_REACTORS
330
2D6
102
}
330
2D6
100
DictionaryVariables
280
     0
  1
1:1
  0
DICTIONARYVAR
  5
2DC
102
{ACAD_REACTORS
330
2D6
102
}
330
2D6
100
DictionaryVariables
280
     0
  1
Standard
  0
DICTIONARYVAR
  5
2DB
102
{ACAD_REACTORS
330
2D6
102
}
330
2D6
100
DictionaryVariables
280
     0
  1
Standard
  0
DICTIONARY
  5
2D8
330
6A
100
AcDbDictionary
280
     1
281
     1
  3
ACAD_ROUNDTRIP_2008_TABLESTYLE_CELLSTYLEMAP
360
2D9
  0
CELLSTYLEMAP
  5
2D9
102
{ACAD_REACTORS
330
2D8
102
}
330
2D8
100
AcDbCellStyleMap
 90
        3
300
CELLSTYLE
  1
TABLEFORMAT_BEGIN
 90
        5
170
     1
 91
        0
 92
    32768
 62
   257
 93
        1
300
CONTENTFORMAT
  1
CONTENTFORMAT_BEGIN
 90
        0
 91
        0
 92
        4
 93
        0
300

 40
0.0
140
1.0
 94
        5
 62
     0
340
11
144
0.25
309
CONTENTFORMAT_END
171
     1
301
MARGIN
  1
CELLMARGIN_BEGIN
 40
0.06
 40
0.06
 40
0.06
 40
0.06
 40
0.06
 40
0.06
309
CELLMARGIN_END
 94
        6
 95
        1
302
GRIDFORMAT
  1
GRIDFORMAT_BEGIN
 90
        0
 91
        1
 62
     0
 92
       -2
340
14
 93
        0
 40
0.045
309
GRIDFORMAT_END
 95
        2
302
GRIDFORMAT
  1
GRIDFORMAT_BEGIN
 90
        0
 91
        1
 62
     0
 92
       -2
340
14
 93
        0
 40
0.045
309
GRIDFORMAT_END
 95
        4
302
GRIDFORMAT
  1
GRIDFORMAT_BEGIN
 90
        0
 91
        1
 62
     0
 92
       -2
340
14
 93
        0
 40
0.045
309
GRIDFORMAT_END
 95
        8
302
GRIDFORMAT
  1
GRIDFORMAT_BEGIN
 90
        0
 91
        1
 62
     0
 92
       -2
340
14
 93
        0
 40
0.045
309
GRIDFORMAT_END
 95
       16
302
GRIDFORMAT
  1
GRIDFORMAT_BEGIN
 90
        0
 91
        1
 62
     0
 92
       -2
340
14
 93
        0
 40
0.045
309
GRIDFORMAT_END
 95
       32
302
GRIDFORMAT
  1
GRIDFORMAT_BEGIN
 90
        0
 91
        1
 62
     0
 92
       -2
340
14
 93
        0
 40
0.045
309
GRIDFORMAT_END
309
TABLEFORMAT_END
  1
CELLSTYLE_BEGIN
 90
        1
 91
        1
300
_TITLE
309
CELLSTYLE_END
300
CELLSTYLE
  1
TABLEFORMAT_BEGIN
 90
        5
170
     1
 91
        0
 92
        0
 62
   257
 93
        1
300
CONTENTFORMAT
  1
CONTENTFORMAT_BEGIN
 90
        0
 91
        0
 92
        4
 93
        0
300

 40
0.0
140
1.0
 94
        5
 62
     0
340
11
144
0.18
309
CONTENTFORMAT_END
171
     1
301
MARGIN
  1
CELLMARGIN_BEGIN
 40
0.06
 40
0.06
 40
0.06
 40
0.06
 40
0.06
 40
0.06
309
CELLMARGIN_END
 94
        6
 95
        1
302
GRIDFORMAT
  1
GRIDFORMAT_BEGIN
 90
        0
 91
        1
 62
     0
 92
       -2
340
14
 93
        0
 40
0.045
309
GRIDFORMAT_END
 95
        2
302
GRIDFORMAT
  1
GRIDFORMAT_BEGIN
 90
        0
 91
        1
 62
     0
 92
       -2
340
14
 93
        0
 40
0.045
309
GRIDFORMAT_END
 95
        4
302
GRIDFORMAT
  1
GRIDFORMAT_BEGIN
 90
        0
 91
        1
 62
     0
 92
       -2
340
14
 93
        0
 40
0.045
309
GRIDFORMAT_END
 95
        8
302
GRIDFORMAT
  1
GRIDFORMAT_BEGIN
 90
        0
 91
        1
 62
     0
 92
       -2
340
14
 93
        0
 40
0.045
309
GRIDFORMAT_END
 95
       16
302
GRIDFORMAT
  1
GRIDFORMAT_BEGIN
 90
        0
 91
        1
 62
     0
 92
       -2
340
14
 93
        0
 40
0.045
309
GRIDFORMAT_END
 95
       32
302
GRIDFORMAT
  1
GRIDFORMAT_BEGIN
 90
        0
 91
        1
 62
     0
 92
       -2
340
14
 93
        0
 40
0.045
309
GRIDFORMAT_END
309
TABLEFORMAT_END
  1
CELLSTYLE_BEGIN
 90
        2
 91
        1
300
_HEADER
309
CELLSTYLE_END
300
CELLSTYLE
  1
TABLEFORMAT_BEGIN
 90
        5
170
     1
 91
        0
 92
        0
 62
   257
 93
        1
300
CONTENTFORMAT
  1
CONTENTFORMAT_BEGIN
 90
        0
 91
        0
 92
        4
 93
        0
300

 40
0.0
140
1.0
 94
        2
 62
     0
340
11
144
0.18
309
CONTENTFORMAT_END
171
     1
301
MARGIN
  1
CELLMARGIN_BEGIN
 40
0.06
 40
0.06
 40
0.06
 40
0.06
 40
0.06
 40
0.06
309
CELLMARGIN_END
 94
        6
 95
        1
302
GRIDFORMAT
  1
GRIDFORMAT_BEGIN
 90
        0
 91
        1
 62
     0
 92
       -2
340
14
 93
        0
 40
0.045
309
GRIDFORMAT_END
 95
        2
302
GRIDFORMAT
  1
GRIDFORMAT_BEGIN
 90
        0
 91
        1
 62
     0
 92
       -2
340
14
 93
        0
 40
0.045
309
GRIDFORMAT_END
 95
        4
302
GRIDFORMAT
  1
GRIDFORMAT_BEGIN
 90
        0
 91
        1
 62
     0
 92
       -2
340
14
 93
        0
 40
0.045
309
GRIDFORMAT_END
 95
        8
302
GRIDFORMAT
  1
GRIDFORMAT_BEGIN
 90
        0
 91
        1
 62
     0
 92
       -2
340
14
 93
        0
 40
0.045
309
GRIDFORMAT_END
 95
       16
302
GRIDFORMAT
  1
GRIDFORMAT_BEGIN
 90
        0
 91
        1
 62
     0
 92
       -2
340
14
 93
        0
 40
0.045
309
GRIDFORMAT_END
 95
       32
302
GRIDFORMAT
  1
GRIDFORMAT_BEGIN
 90
        0
 91
        1
 62
     0
 92
       -2
340
14
 93
        0
 40
0.045
309
GRIDFORMAT_END
309
TABLEFORMAT_END
  1
CELLSTYLE_BEGIN
 90
        3
 91
        2
300
_DATA
309
CELLSTYLE_END
  0
ENDSEC
  0
EOF