0
SECTION
  2
HEADER
  9
$ACADVER
  1
AC1027
  9
$ACADMAINTVER
 70
   105
  9
$DWGCODEPAGE
  3
ANSI_1252
  9
$REQUIREDVERSIONS
160
                 0
  9
$COMMENTS
  1
File was created by Cadenas
  9
$CUSTOMPROPERTYTAG
  1
NN
  9
$CUSTOMPROPERTY
  1
Grip Tight Two-Bolt Pillow Block - Stainless Housing, Corrision Resistant Insert Metric Bore
  9
$CUSTOMPROPERTYTAG
  1
NT
  9
$CUSTOMPROPERTY
  1
GTEZ Normal Duty Stainless Steel Housed Pillow Blocks
  9
$CUSTOMPROPERTYTAG
  1
NB
  9
$CUSTOMPROPERTY
  1
 129275
  9
$CUSTOMPROPERTYTAG
  1
NBSYN
  9
$CUSTOMPROPERTY
  1
 $PN.$LUBE.
  9
$CUSTOMPROPERTYTAG
  1
LINA
  9
$CUSTOMPROPERTY
  1
 129275
  9
$CUSTOMPROPERTYTAG
  1
SERIES
  9
$CUSTOMPROPERTY
  1
210
  9
$CUSTOMPROPERTYTAG
  1
SS
  9
$CUSTOMPROPERTY
  1
50
  9
$CUSTOMPROPERTYTAG
  1
PN
  9
$CUSTOMPROPERTY
  1
129275
  9
$CUSTOMPROPERTYTAG
  1
DESCRIPTION
  9
$CUSTOMPROPERTY
  1
P2B-GTEZ-50M-SHCR
  9
$CUSTOMPROPERTYTAG
  1
A
  9
$CUSTOMPROPERTY
  1
47.2
  9
$CUSTOMPROPERTYTAG
  1
B
  9
$CUSTOMPROPERTY
  1
203.2
  9
$CUSTOMPROPERTYTAG
  1
C
  9
$CUSTOMPROPERTY
  1
41.3
  9
$CUSTOMPROPERTYTAG
  1
DMIN
  9
$CUSTOMPROPERTY
  1
146.4
  9
$CUSTOMPROPERTYTAG
  1
DMAX
  9
$CUSTOMPROPERTY
  1
169.9
  9
$CUSTOMPROPERTYTAG
  1
F
  9
$CUSTOMPROPERTY
  1
M16
  9
$CUSTOMPROPERTYTAG
  1
G
  9
$CUSTOMPROPERTY
  1
29.0
  9
$CUSTOMPROPERTYTAG
  1
H
  9
$CUSTOMPROPERTY
  1
15.9
  9
$CUSTOMPROPERTYTAG
  1
J
  9
$CUSTOMPROPERTY
  1
109.5
  9
$CUSTOMPROPERTYTAG
  1
L
  9
$CUSTOMPROPERTY
  1
74.6
  9
$CUSTOMPROPERTYTAG
  1
M
  9
$CUSTOMPROPERTY
  1
57.2
  9
$CUSTOMPROPERTYTAG
  1
R
  9
$CUSTOMPROPERTY
  1
16.7
  9
$CUSTOMPROPERTYTAG
  1
S
  9
$CUSTOMPROPERTY
  1
30.6
  9
$CUSTOMPROPERTYTAG
  1
Z
  9
$CUSTOMPROPERTY
  1
29.4
  9
$CUSTOMPROPERTYTAG
  1
COMPANY
  9
$CUSTOMPROPERTY
  1
baldor
  9
$INSBASE
 10
0.0
 20
0.0
 30
0.0
  9
$EXTMIN
 10
1.000000000000000E+20
 20
1.000000000000000E+20
 30
1.000000000000000E+20
  9
$EXTMAX
 10
-1.000000000000000E+20
 20
-1.000000000000000E+20
 30
-1.000000000000000E+20
  9
$LIMMIN
 10
0.0
 20
0.0
  9
$LIMMAX
 10
420.0
 20
297.0
  9
$ORTHOMODE
 70
     0
  9
$REGENMODE
 70
     1
  9
$FILLMODE
 70
     1
  9
$QTEXTMODE
 70
     0
  9
$MIRRTEXT
 70
     1
  9
$LTSCALE
 40
1.0
  9
$ATTMODE
 70
     1
  9
$TEXTSIZE
 40
2.5
  9
$TRACEWID
 40
1.0
  9
$TEXTSTYLE
  7
Standard
  9
$CLAYER
  8
0
  9
$CELTYPE
  6
ByLayer
  9
$CECOLOR
 62
   256
  9
$CELTSCALE
 40
1.0
  9
$DISPSILH
 70
     0
  9
$DIMSCALE
 40
1.0
  9
$DIMASZ
 40
2.5
  9
$DIMEXO
 40
0.625
  9
$DIMDLI
 40
3.75
  9
$DIMRND
 40
0.0
  9
$DIMDLE
 40
0.0
  9
$DIMEXE
 40
1.25
  9
$DIMTP
 40
0.0
  9
$DIMTM
 40
0.0
  9
$DIMTXT
 40
2.5
  9
$DIMCEN
 40
2.5
  9
$DIMTSZ
 40
0.0
  9
$DIMTOL
 70
     0
  9
$DIMLIM
 70
     0
  9
$DIMTIH
 70
     0
  9
$DIMTOH
 70
     0
  9
$DIMSE1
 70
     0
  9
$DIMSE2
 70
     0
  9
$DIMTAD
 70
     1
  9
$DIMZIN
 70
     8
  9
$DIMBLK
  1

  9
$DIMASO
 70
     1
  9
$DIMSHO
 70
     1
  9
$DIMPOST
  1

  9
$DIMAPOST
  1

  9
$DIMALT
 70
     0
  9
$DIMALTD
 70
     3
  9
$DIMALTF
 40
0.03937007874016
  9
$DIMLFAC
 40
1.0
  9
$DIMTOFL
 70
     1
  9
$DIMTVP
 40
0.0
  9
$DIMTIX
 70
     0
  9
$DIMSOXD
 70
     0
  9
$DIMSAH
 70
     0
  9
$DIMBLK1
  1

  9
$DIMBLK2
  1

  9
$DIMSTYLE
  2
ISO-25
  9
$DIMCLRD
 70
     0
  9
$DIMCLRE
 70
     0
  9
$DIMCLRT
 70
     0
  9
$DIMTFAC
 40
1.0
  9
$DIMGAP
 40
0.625
  9
$DIMJUST
 70
     0
  9
$DIMSD1
 70
     0
  9
$DIMSD2
 70
     0
  9
$DIMTOLJ
 70
     0
  9
$DIMTZIN
 70
     8
  9
$DIMALTZ
 70
     0
  9
$DIMALTTZ
 70
     0
  9
$DIMUPT
 70
     0
  9
$DIMDEC
 70
     2
  9
$DIMTDEC
 70
     2
  9
$DIMALTU
 70
     2
  9
$DIMALTTD
 70
     3
  9
$DIMTXSTY
  7
Standard
  9
$DIMAUNIT
 70
     0
  9
$DIMADEC
 70
     0
  9
$DIMALTRND
 40
0.0
  9
$DIMAZIN
 70
     0
  9
$DIMDSEP
 70
    44
  9
$DIMATFIT
 70
     3
  9
$DIMFRAC
 70
     0
  9
$DIMLDRBLK
  1

  9
$DIMLUNIT
 70
     2
  9
$DIMLWD
 70
    -2
  9
$DIMLWE
 70
    -2
  9
$DIMTMOVE
 70
     0
  9
$DIMFXL
 40
1.0
  9
$DIMFXLON
 70
     0
  9
$DIMJOGANG
 40
0.7853981633974483
  9
$DIMTFILL
 70
     0
  9
$DIMTFILLCLR
 70
     0
  9
$DIMARCSYM
 70
     0
  9
$DIMLTYPE
  6

  9
$DIMLTEX1
  6

  9
$DIMLTEX2
  6

  9
$DIMTXTDIRECTION
 70
     0
  9
$LUNITS
 70
     2
  9
$LUPREC
 70
     4
  9
$SKETCHINC
 40
1.0
  9
$FILLETRAD
 40
10.0
  9
$AUNITS
 70
     0
  9
$AUPREC
 70
     0
  9
$MENU
  1
.
  9
$ELEVATION
 40
0.0
  9
$PELEVATION
 40
0.0
  9
$THICKNESS
 40
0.0
  9
$LIMCHECK
 70
     0
  9
$CHAMFERA
 40
0.0
  9
$CHAMFERB
 40
0.0
  9
$CHAMFERC
 40
0.0
  9
$CHAMFERD
 40
0.0
  9
$SKPOLY
 70
     0
  9
$TDCREATE
 40
2458168.992053056
  9
$TDUCREATE
 40
2458168.950386389
  9
$TDUPDATE
 40
2458168.992053229
  9
$TDUUPDATE
 40
2458168.950386562
  9
$TDINDWG
 40
0.0000000116
  9
$TDUSRTIMER
 40
0.0000000116
  9
$USRTIMER
 70
     1
  9
$ANGBASE
 50
0.0
  9
$ANGDIR
 70
     0
  9
$PDMODE
 70
     0
  9
$PDSIZE
 40
0.0
  9
$PLINEWID
 40
0.0
  9
$SPLFRAME
 70
     0
  9
$SPLINETYPE
 70
     6
  9
$SPLINESEGS
 70
     8
  9
$HANDSEED
  5
1F3
  9
$SURFTAB1
 70
     6
  9
$SURFTAB2
 70
     6
  9
$SURFTYPE
 70
     6
  9
$SURFU
 70
     6
  9
$SURFV
 70
     6
  9
$UCSBASE
  2

  9
$UCSNAME
  2

  9
$UCSORG
 10
0.0
 20
0.0
 30
0.0
  9
$UCSXDIR
 10
1.0
 20
0.0
 30
0.0
  9
$UCSYDIR
 10
0.0
 20
1.0
 30
0.0
  9
$UCSORTHOREF
  2

  9
$UCSORTHOVIEW
 70
     0
  9
$UCSORGTOP
 10
0.0
 20
0.0
 30
0.0
  9
$UCSORGBOTTOM
 10
0.0
 20
0.0
 30
0.0
  9
$UCSORGLEFT
 10
0.0
 20
0.0
 30
0.0
  9
$UCSORGRIGHT
 10
0.0
 20
0.0
 30
0.0
  9
$UCSORGFRONT
 10
0.0
 20
0.0
 30
0.0
  9
$UCSORGBACK
 10
0.0
 20
0.0
 30
0.0
  9
$PUCSBASE
  2

  9
$PUCSNAME
  2

  9
$PUCSORG
 10
0.0
 20
0.0
 30
0.0
  9
$PUCSXDIR
 10
1.0
 20
0.0
 30
0.0
  9
$PUCSYDIR
 10
0.0
 20
1.0
 30
0.0
  9
$PUCSORTHOREF
  2

  9
$PUCSORTHOVIEW
 70
     0
  9
$PUCSORGTOP
 10
0.0
 20
0.0
 30
0.0
  9
$PUCSORGBOTTOM
 10
0.0
 20
0.0
 30
0.0
  9
$PUCSORGLEFT
 10
0.0
 20
0.0
 30
0.0
  9
$PUCSORGRIGHT
 10
0.0
 20
0.0
 30
0.0
  9
$PUCSORGFRONT
 10
0.0
 20
0.0
 30
0.0
  9
$PUCSORGBACK
 10
0.0
 20
0.0
 30
0.0
  9
$USERI1
 70
     0
  9
$USERI2
 70
     0
  9
$USERI3
 70
     0
  9
$USERI4
 70
     0
  9
$USERI5
 70
     0
  9
$USERR1
 40
0.0
  9
$USERR2
 40
0.0
  9
$USERR3
 40
0.0
  9
$USERR4
 40
0.0
  9
$USERR5
 40
0.0
  9
$WORLDVIEW
 70
     1
  9
$SHADEDGE
 70
     3
  9
$SHADEDIF
 70
    70
  9
$TILEMODE
 70
     1
  9
$MAXACTVP
 70
    64
  9
$PINSBASE
 10
0.0
 20
0.0
 30
0.0
  9
$PLIMCHECK
 70
     0
  9
$PEXTMIN
 10
1.000000000000000E+20
 20
1.000000000000000E+20
 30
1.000000000000000E+20
  9
$PEXTMAX
 10
-1.000000000000000E+20
 20
-1.000000000000000E+20
 30
-1.000000000000000E+20
  9
$PLIMMIN
 10
0.0
 20
0.0
  9
$PLIMMAX
 10
420.0
 20
297.0
  9
$UNITMODE
 70
     0
  9
$VISRETAIN
 70
     1
  9
$PLINEGEN
 70
     0
  9
$PSLTSCALE
 70
     1
  9
$TREEDEPTH
 70
  3020
  9
$CMLSTYLE
  2
Standard
  9
$CMLJUST
 70
     0
  9
$CMLSCALE
 40
20.0
  9
$PROXYGRAPHICS
 70
     1
  9
$MEASUREMENT
 70
     1
  9
$CELWEIGHT
370
    -1
  9
$ENDCAPS
280
     0
  9
$JOINSTYLE
280
     0
  9
$LWDISPLAY
290
     0
  9
$INSUNITS
 70
     4
  9
$HYPERLINKBASE
  1

  9
$STYLESHEET
  1

  9
$XEDIT
290
     1
  9
$CEPSNTYPE
380
     0
  9
$PSTYLEMODE
290
     1
  9
$FINGERPRINTGUID
  2
{4B12557B-D4AF-4ACF-9DFC-D443EF68BD8A}
  9
$VERSIONGUID
  2
{FAEB1C32-E019-11D5-929B-00C0DF256EC4}
  9
$EXTNAMES
290
     1
  9
$PSVPSCALE
 40
0.0
  9
$OLESTARTUP
290
     0
  9
$SORTENTS
280
   127
  9
$INDEXCTL
280
     0
  9
$HIDETEXT
280
     1
  9
$XCLIPFRAME
280
     2
  9
$HALOGAP
280
     0
  9
$OBSCOLOR
 70
   257
  9
$OBSLTYPE
280
     0
  9
$INTERSECTIONDISPLAY
280
     0
  9
$INTERSECTIONCOLOR
 70
   257
  9
$DIMASSOC
280
     2
  9
$PROJECTNAME
  1

  9
$CAMERADISPLAY
290
     0
  9
$LENSLENGTH
 40
50.0
  9
$CAMERAHEIGHT
 40
0.0
  9
$STEPSPERSEC
 40
2.0
  9
$STEPSIZE
 40
6.0
  9
$3DDWFPREC
 40
2.0
  9
$PSOLWIDTH
 40
5.0
  9
$PSOLHEIGHT
 40
80.0
  9
$LOFTANG1
 40
1.570796326794897
  9
$LOFTANG2
 40
1.570796326794897
  9
$LOFTMAG1
 40
0.0
  9
$LOFTMAG2
 40
0.0
  9
$LOFTPARAM
 70
     7
  9
$LOFTNORMALS
280
     1
  9
$LATITUDE
 40
37.795
  9
$LONGITUDE
 40
-122.394
  9
$NORTHDIRECTION
 40
0.0
  9
$TIMEZONE
 70
 -8000
  9
$LIGHTGLYPHDISPLAY
280
     1
  9
$TILEMODELIGHTSYNCH
280
     1
  9
$CMATERIAL
347
44
  9
$SOLIDHIST
280
     0
  9
$SHOWHIST
280
     1
  9
$DWFFRAME
280
     2
  9
$DGNFRAME
280
     2
  9
$REALWORLDSCALE
290
     1
  9
$INTERFERECOLOR
 62
   256
  9
$CSHADOW
280
     0
  9
$SHADOWPLANELOCATION
 40
0.0
  0
ENDSEC
  0
SECTION
  2
CLASSES
  0
CLASS
  1
ACDBDICTIONARYWDFLT
  2
AcDbDictionaryWithDefault
  3
ObjectDBX Classes
 90
        0
 91
        4
280
     0
281
     0
  0
CLASS
  1
VISUALSTYLE
  2
AcDbVisualStyle
  3
ObjectDBX Classes
 90
     4095
 91
        4
280
     0
281
     0
  0
CLASS
  1
MATERIAL
  2
AcDbMaterial
  3
ObjectDBX Classes
 90
     1153
 91
        4
280
     0
281
     0
  0
CLASS
  1
SCALE
  2
AcDbScale
  3
ObjectDBX Classes
 90
     1153
 91
        4
280
     0
281
     0
  0
CLASS
  1
TABLESTYLE
  2
AcDbTableStyle
  3
ObjectDBX Classes
 90
     4095
 91
        4
280
     0
281
     0
  0
CLASS
  1
MLEADERSTYLE
  2
AcDbMLeaderStyle
  3
ACDB_MLEADERSTYLE_CLASS
 90
     4095
 91
        4
280
     0
281
     0
  0
CLASS
  1
SUN
  2
AcDbSun
  3
SCENEOE
 90
     1153
 91
        4
280
     0
281
     0
  0
CLASS
  1
DICTIONARYVAR
  2
AcDbDictionaryVar
  3
ObjectDBX Classes
 90
        0
 91
        4
280
     0
281
     0
  0
CLASS
  1
CELLSTYLEMAP
  2
AcDbCellStyleMap
  3
ObjectDBX Classes
 90
     1152
 91
        4
280
     0
281
     0
  0
ENDSEC
  0
SECTION
  2
TABLES
  0
TABLE
  2
VPORT
  5
8
330
0
100
AcDbSymbolTable
 70
     1
  0
VPORT
  5
29
330
8
100
AcDbSymbolTableRecord
100
AcDbViewportTableRecord
  2
*Active
 70
     0
 10
0.0
 20
0.0
 11
1.0
 21
1.0
 12
4.821428571428555
 22
-2.200000337174771
 13
0.0
 23
0.0
 14
10.0
 24
10.0
 15
10.0
 25
10.0
 16
0.0
 26
0.0
 36
1.0
 17
0.0
 27
0.0
 37
0.0
 40
112.1999993121634
 41
1.934935076797089
 42
50.0
 43
0.0
 44
0.0
 50
0.0
 51
0.0
 71
     0
 72
   100
 73
     1
 74
     3
 75
     0
 76
     0
 77
     0
 78
     0
281
     0
 65
     1
110
0.0
120
0.0
130
0.0
111
1.0
121
0.0
131
0.0
112
0.0
122
1.0
132
0.0
 79
     0
146
0.0
348
2F
 60
     3
 61
     5
292
     1
282
     1
141
0.0
142
0.0
 63
   250
361
6D
  0
ENDTAB
  0
TABLE
  2
LTYPE
  5
5
330
0
100
AcDbSymbolTable
 70
     3
  0
LTYPE
  5
14
330
5
100
AcDbSymbolTableRecord
100
AcDbLinetypeTableRecord
  2
ByBlock
 70
     0
  3

 72
    65
 73
     0
 40
0.0
  0
LTYPE
  5
15
330
5
100
AcDbSymbolTableRecord
100
AcDbLinetypeTableRecord
  2
ByLayer
 70
     0
  3

 72
    65
 73
     0
 40
0.0
  0
LTYPE
  5
16
330
5
100
AcDbSymbolTableRecord
100
AcDbLinetypeTableRecord
  2
Continuous
 70
     0
  3
Solid line
 72
    65
 73
     0
 40
0.0
  0
LTYPE
  5
9D
330
5
100
AcDbSymbolTableRecord
100
AcDbLinetypeTableRecord
  2
Dashed
 70
     0
  3

 72
    65
 73
     2
 40
2.0
 49
1.0
 74
     0
 49
-1.0
 74
     0
  0
LTYPE
  5
A6
330
5
100
AcDbSymbolTableRecord
100
AcDbLinetypeTableRecord
  2
Center
 70
     0
  3

 72
    65
 73
     4
 40
1.5
 49
0.45
 74
     0
 49
-0.5
 74
     0
 49
0.05
 74
     0
 49
-0.5
 74
     0
  0
ENDTAB
  0
TABLE
  2
LAYER
  5
2
330
0
100
AcDbSymbolTable
 70
     8
  0
LAYER
  5
10
330
2
100
AcDbSymbolTableRecord
100
AcDbLayerTableRecord
  2
0
 70
     0
 62
     7
  6
Continuous
370
    -3
390
F
347
46
348
0
  0
LAYER
  5
6E
330
2
100
AcDbSymbolTableRecord
100
AcDbLayerTableRecord
  2
AM_6
 70
     0
 62
    -2
  6
Continuous
370
    35
390
F
347
46
348
0
  0
LAYER
  5
9E
330
2
100
AcDbSymbolTableRecord
100
AcDbLayerTableRecord
  2
AM_9
 70
     0
 62
     6
  6
Dashed
370
    25
390
F
347
46
348
0
  0
LAYER
  5
A7
330
2
100
AcDbSymbolTableRecord
100
AcDbLayerTableRecord
  2
AM_7
 70
     0
 62
     7
  6
Center
370
    25
390
F
347
46
348
0
  0
LAYER
  5
AA
330
2
100
AcDbSymbolTableRecord
100
AcDbLayerTableRecord
  2
AM_4
 70
     0
 62
     3
  6
Continuous
370
    25
390
F
347
46
348
0
  0
LAYER
  5
AD
330
2
100
AcDbSymbolTableRecord
100
AcDbLayerTableRecord
  2
AM_0
 70
     0
 62
     7
  6
Continuous
370
    50
390
F
347
46
348
0
  0
LAYER
  5
DA
330
2
100
AcDbSymbolTableRecord
100
AcDbLayerTableRecord
  2
AM_5
 70
     0
 62
     3
  6
Continuous
370
    25
390
F
347
46
348
0
  0
LAYER
  5
1E5
330
2
100
AcDbSymbolTableRecord
100
AcDbLayerTableRecord
  2
ConnectionPoints
 70
     0
 62
     7
  6
Continuous
370
    50
390
F
347
46
348
0
  0
ENDTAB
  0
TABLE
  2
STYLE
  5
3
330
0
100
AcDbSymbolTable
 70
     1
  0
STYLE
  5
11
330
3
100
AcDbSymbolTableRecord
100
AcDbTextStyleTableRecord
  2
Standard
 70
     0
 40
0.0
 41
1.0
 50
0.0
 71
     0
 42
2.5
  3
txt
  4

  0
ENDTAB
  0
TABLE
  2
VIEW
  5
6
330
0
100
AcDbSymbolTable
 70
     0
  0
ENDTAB
  0
TABLE
  2
UCS
  5
7
330
0
100
AcDbSymbolTable
 70
     0
  0
ENDTAB
  0
TABLE
  2
APPID
  5
9
330
0
100
AcDbSymbolTable
 70
     1
  0
APPID
  5
12
330
9
100
AcDbSymbolTableRecord
100
AcDbRegAppTableRecord
  2
ACAD
 70
     0
  0
ENDTAB
  0
TABLE
  2
DIMSTYLE
  5
A
330
0
100
AcDbSymbolTable
 70
     1
100
AcDbDimStyleTable
  0
DIMSTYLE
105
27
330
A
100
AcDbSymbolTableRecord
100
AcDbDimStyleTableRecord
  2
ISO-25
 70
     0
 41
2.5
 42
0.625
 43
3.75
 44
1.25
 73
     0
 74
     0
 77
     1
 78
     8
140
2.5
141
2.5
143
0.03937007874016
147
0.625
171
     3
172
     1
178
     0
271
     2
272
     2
274
     3
278
    44
283
     0
284
     8
340
11
  0
ENDTAB
  0
TABLE
  2
BLOCK_RECORD
  5
1
330
0
100
AcDbSymbolTable
 70
     4
  0
BLOCK_RECORD
  5
1F
330
1
100
AcDbSymbolTableRecord
100
AcDbBlockTableRecord
  2
*Model_Space
340
22
 70
     0
280
     1
281
     0
  0
BLOCK_RECORD
  5
1B
330
1
100
AcDbSymbolTableRecord
100
AcDbBlockTableRecord
  2
*Paper_Space
340
1E
 70
     0
280
     1
281
     0
  0
BLOCK_RECORD
  5
23
330
1
100
AcDbSymbolTableRecord
100
AcDbBlockTableRecord
  2
*Paper_Space0
340
26
 70
     0
280
     1
281
     0
  0
BLOCK_RECORD
  5
87
330
1
100
AcDbSymbolTableRecord
100
AcDbBlockTableRecord
  2
1_INS_GT_10_CR_0_in__129275_0
340
0
102
{BLKREFS
331
88
102
}
 70
     0
280
     1
281
     0
  0
BLOCK_RECORD
  5
B3
330
1
100
AcDbSymbolTableRecord
100
AcDbBlockTableRecord
  2
2_129986_0_in__129275_0
340
0
102
{BLKREFS
331
B4
102
}
 70
     0
280
     1
281
     0
  0
BLOCK_RECORD
  5
F3
330
1
100
AcDbSymbolTableRecord
100
AcDbBlockTableRecord
  2
3_P2B_GTEZ_10_SHCR_0_in__129275_0
340
0
102
{BLKREFS
331
F4
102
}
 70
     0
280
     1
281
     0
  0
ENDTAB
  0
ENDSEC
  0
SECTION
  2
BLOCKS
  0
BLOCK
  5
20
330
1F
100
AcDbEntity
  8
0
100
AcDbBlockBegin
  2
*Model_Space
 70
     0
 10
0.0
 20
0.0
 30
0.0
  3
*Model_Space
  1

  0
ENDBLK
  5
21
330
1F
100
AcDbEntity
  8
0
100
AcDbBlockEnd
  0
BLOCK
  5
1C
330
1B
100
AcDbEntity
 67
     1
  8
0
100
AcDbBlockBegin
  2
*Paper_Space
 70
     0
 10
0.0
 20
0.0
 30
0.0
  3
*Paper_Space
  1

  0
ENDBLK
  5
1D
330
1B
100
AcDbEntity
 67
     1
  8
0
100
AcDbBlockEnd
  0
BLOCK
  5
24
330
23
100
AcDbEntity
  8
0
100
AcDbBlockBegin
  2
*Paper_Space0
 70
     0
 10
0.0
 20
0.0
 30
0.0
  3
*Paper_Space0
  1

  0
ENDBLK
  5
25
330
23
100
AcDbEntity
  8
0
100
AcDbBlockEnd
  0
BLOCK
  5
89
330
87
100
AcDbEntity
  8
0
100
AcDbBlockBegin
  2
1_INS_GT_10_CR_0_in__129275_0
 70
     2
 10
0.0
 20
0.0
 30
0.0
  3
1_INS_GT_10_CR_0_in__129275_0
  1

  0
ATTDEF
  5
8B
330
87
100
AcDbEntity
  8
AM_6
100
AcDbText
 10
51.81372446740853
 20
46.81372446740853
 30
0.0
 40
0.5
  1
INS-GT-CR-M
100
AcDbAttributeDefinition
  3

  2
NN
 70
     8
280
     0
  0
ATTDEF
  5
8C
330
87
100
AcDbEntity
  8
AM_6
100
AcDbText
 10
51.81372446740853
 20
46.31372446740853
 30
0.0
 40
0.5
  1
GT Normal Duty Corrosion Resistant Bearing Inserts
100
AcDbAttributeDefinition
  3

  2
NT
 70
     8
280
     0
  0
ATTDEF
  5
8D
330
87
100
AcDbEntity
  8
AM_6
100
AcDbText
 10
51.81372446740853
 20
45.81372446740853
 30
0.0
 40
0.5
  1
INS-GT-10-CR
100
AcDbAttributeDefinition
  3

  2
NB
 70
     8
280
     0
  0
ATTDEF
  5
8E
330
87
100
AcDbEntity
  8
AM_6
100
AcDbText
 10
51.81372446740853
 20
45.31372446740853
 30
0.0
 40
0.5
  1
$PN.
100
AcDbAttributeDefinition
  3

  2
NBSYN
 70
     8
280
     0
  0
ATTDEF
  5
8F
330
87
100
AcDbEntity
  8
AM_6
100
AcDbText
 10
51.81372446740853
 20
44.81372446740853
 30
0.0
 40
0.5
  1
INS-GT-10-CR
100
AcDbAttributeDefinition
  3

  2
LINA
 70
     8
280
     0
  0
ATTDEF
  5
90
330
87
100
AcDbEntity
  8
AM_6
100
AcDbText
 10
51.81372446740853
 20
44.31372446740853
 30
0.0
 40
0.5
  1
210
100
AcDbAttributeDefinition
  3

  2
SERIES
 70
     8
280
     0
  0
ATTDEF
  5
91
330
87
100
AcDbEntity
  8
AM_6
100
AcDbText
 10
51.81372446740853
 20
43.81372446740853
 30
0.0
 40
0.5
  1
INS-GT-10-CR
100
AcDbAttributeDefinition
  3

  2
PN
 70
     8
280
     0
  0
ATTDEF
  5
92
330
87
100
AcDbEntity
  8
AM_6
100
AcDbText
 10
51.81372446740853
 20
43.31372446740853
 30
0.0
 40
0.5
  1
INS-GT-10-CR
100
AcDbAttributeDefinition
  3

  2
DESCRIPTION
 70
     8
280
     0
  0
ATTDEF
  5
93
330
87
100
AcDbEntity
  8
AM_6
100
AcDbText
 10
51.81372446740853
 20
42.81372446740853
 30
0.0
 40
0.5
  1
47.2
100
AcDbAttributeDefinition
  3

  2
A
 70
     8
280
     0
  0
ATTDEF
  5
94
330
87
100
AcDbEntity
  8
AM_6
100
AcDbText
 10
51.81372446740853
 20
42.31372446740853
 30
0.0
 40
0.5
  1
22.0
100
AcDbAttributeDefinition
  3

  2
C
 70
     8
280
     0
  0
ATTDEF
  5
95
330
87
100
AcDbEntity
  8
AM_6
100
AcDbText
 10
51.81372446740853
 20
41.81372446740853
 30
0.0
 40
0.5
  1
90.0
100
AcDbAttributeDefinition
  3

  2
D
 70
     8
280
     0
  0
ATTDEF
  5
96
330
87
100
AcDbEntity
  8
AM_6
100
AcDbText
 10
51.81372446740853
 20
41.31372446740853
 30
0.0
 40
0.5
  1
6.3
100
AcDbAttributeDefinition
  3

  2
J
 70
     8
280
     0
  0
ATTDEF
  5
97
330
87
100
AcDbEntity
  8
AM_6
100
AcDbText
 10
51.81372446740853
 20
40.81372446740853
 30
0.0
 40
0.5
  1
74.6
100
AcDbAttributeDefinition
  3

  2
L
 70
     8
280
     0
  0
ATTDEF
  5
98
330
87
100
AcDbEntity
  8
AM_6
100
AcDbText
 10
51.81372446740853
 20
40.31372446740853
 30
0.0
 40
0.5
  1
10 - 32 x 1/4
100
AcDbAttributeDefinition
  3

  2
N
 70
     8
280
     0
  0
ATTDEF
  5
99
330
87
100
AcDbEntity
  8
AM_6
100
AcDbText
 10
51.81372446740853
 20
39.81372446740853
 30
0.0
 40
0.5
  1
16.7
100
AcDbAttributeDefinition
  3

  2
W
 70
     8
280
     0
  0
ATTDEF
  5
9A
330
87
100
AcDbEntity
  8
AM_6
100
AcDbText
 10
51.81372446740853
 20
39.31372446740853
 30
0.0
 40
0.5
  1
29.4
100
AcDbAttributeDefinition
  3

  2
X
 70
     8
280
     0
  0
ATTDEF
  5
9B
330
87
100
AcDbEntity
  8
AM_6
100
AcDbText
 10
51.81372446740853
 20
38.81372446740853
 30
0.0
 40
0.5
  1
30.6
100
AcDbAttributeDefinition
  3

  2
Y
 70
     8
280
     0
  0
ATTDEF
  5
9C
330
87
100
AcDbEntity
  8
AM_6
100
AcDbText
 10
51.81372446740853
 20
38.31372446740853
 30
0.0
 40
0.5
  1
baldor
100
AcDbAttributeDefinition
  3

  2
COMPANY
 70
     8
280
     0
  0
CIRCLE
  5
9F
330
87
100
AcDbEntity
  8
AM_9
100
AcDbCircle
 10
0.0
 20
0.0
 30
0.0
 40
28.73684477609161
  0
ARC
  5
A0
330
87
100
AcDbEntity
  8
AM_9
100
AcDbCircle
 10
-0.0000000000000036
 20
0.0000000000000213
 30
0.0
 40
45.00000000000001
100
AcDbArc
 50
221.1845418886446
 51
318.8154581113554
  0
CIRCLE
  5
A1
330
87
100
AcDbEntity
  8
AM_9
100
AcDbCircle
 10
0.0
 20
0.0
 30
0.0
 40
42.8
  0
CIRCLE
  5
A2
330
87
100
AcDbEntity
  8
AM_9
100
AcDbCircle
 10
0.0
 20
0.0
 30
0.0
 40
43.69278292882572
  0
CIRCLE
  5
A3
330
87
100
AcDbEntity
  8
AM_9
100
AcDbCircle
 10
0.0
 20
0.0
 30
0.0
 40
30.49126984126984
  0
CIRCLE
  5
A4
330
87
100
AcDbEntity
  8
AM_9
100
AcDbCircle
 10
0.0
 20
0.0
 30
0.0
 40
32.27555555555555
  0
CIRCLE
  5
A5
330
87
100
AcDbEntity
  8
AM_9
100
AcDbCircle
 10
0.0
 20
0.0
 30
0.0
 40
33.15555555555555
  0
LINE
  5
A8
330
87
100
AcDbEntity
  8
AM_7
100
AcDbLine
 10
-46.81372446740853
 20
0.0
 30
0.0
 11
46.81372446740853
 21
0.0
 31
0.0
  0
LINE
  5
A9
330
87
100
AcDbEntity
  8
AM_7
100
AcDbLine
 10
0.0
 20
-46.81372446740853
 30
0.0
 11
0.0
 21
46.81372446740853
 31
0.0
  0
CIRCLE
  5
AB
330
87
100
AcDbEntity
  8
AM_4
100
AcDbCircle
 10
0.0
 20
0.0
 30
0.0
 40
44.36769565051794
  0
CIRCLE
  5
AC
330
87
100
AcDbEntity
  8
AM_4
100
AcDbCircle
 10
0.0
 20
0.0
 30
0.0
 40
44.58449949277002
  0
CIRCLE
  5
AE
330
87
100
AcDbEntity
  8
AM_0
100
AcDbCircle
 10
0.0
 20
0.0
 30
0.0
 40
43.91278292882572
  0
CIRCLE
  5
AF
330
87
100
AcDbEntity
  8
AM_4
100
AcDbCircle
 10
0.0
 20
0.0
 30
0.0
 40
43.90435490426049
  0
CIRCLE
  5
B0
330
87
100
AcDbEntity
  8
AM_4
100
AcDbCircle
 10
0.0
 20
0.0
 30
0.0
 40
42.20666580556272
  0
CIRCLE
  5
B1
330
87
100
AcDbEntity
  8
AM_4
100
AcDbCircle
 10
0.0
 20
0.0
 30
0.0
 40
43.02592503748536
  0
ARC
  5
B2
330
87
100
AcDbEntity
  8
AM_0
100
AcDbCircle
 10
-0.0000000000000004
 20
-0.0000000000011333
 30
0.0
 40
27.82698412698526
100
AcDbArc
 50
87.42538277921079
 51
92.5746172207892
  0
ENDBLK
  5
8A
330
87
100
AcDbEntity
  8
0
100
AcDbBlockEnd
  0
BLOCK
  5
B5
330
B3
100
AcDbEntity
  8
0
100
AcDbBlockBegin
  2
2_129986_0_in__129275_0
 70
     2
 10
0.0
 20
0.0
 30
0.0
  3
2_129986_0_in__129275_0
  1

  0
ATTDEF
  5
B7
330
B3
100
AcDbEntity
  8
AM_6
100
AcDbText
 10
42.16675261574516
 20
37.29215822548001
 30
0.0
 40
0.5
  1
Grip Tight Adapter and Nut - Corrosion Resistant Metric Bore
100
AcDbAttributeDefinition
  3

  2
NN
 70
     8
280
     0
  0
ATTDEF
  5
B8
330
B3
100
AcDbEntity
  8
AM_6
100
AcDbText
 10
42.16675261574516
 20
36.79215822548001
 30
0.0
 40
0.5
  1
GT and GTM Adapter & Lock Nut Assemblies
100
AcDbAttributeDefinition
  3

  2
NT
 70
     8
280
     0
  0
ATTDEF
  5
B9
330
B3
100
AcDbEntity
  8
AM_6
100
AcDbText
 10
42.16675261574516
 20
36.29215822548001
 30
0.0
 40
0.5
  1
129986
100
AcDbAttributeDefinition
  3

  2
NB
 70
     8
280
     0
  0
ATTDEF
  5
BA
330
B3
100
AcDbEntity
  8
AM_6
100
AcDbText
 10
42.16675261574516
 20
35.79215822548001
 30
0.0
 40
0.5
  1
$PN.
100
AcDbAttributeDefinition
  3

  2
NBSYN
 70
     8
280
     0
  0
ATTDEF
  5
BB
330
B3
100
AcDbEntity
  8
AM_6
100
AcDbText
 10
42.16675261574516
 20
35.29215822548001
 30
0.0
 40
0.5
  1
129986
100
AcDbAttributeDefinition
  3

  2
LINA
 70
     8
280
     0
  0
ATTDEF
  5
BC
330
B3
100
AcDbEntity
  8
AM_6
100
AcDbText
 10
42.16675261574516
 20
34.79215822548001
 30
0.0
 40
0.5
  1
210
100
AcDbAttributeDefinition
  3

  2
SERIES
 70
     8
280
     0
  0
ATTDEF
  5
BD
330
B3
100
AcDbEntity
  8
AM_6
100
AcDbText
 10
42.16675261574516
 20
34.29215822548001
 30
0.0
 40
0.5
  1
50
100
AcDbAttributeDefinition
  3

  2
SS
 70
     8
280
     0
  0
ATTDEF
  5
BE
330
B3
100
AcDbEntity
  8
AM_6
100
AcDbText
 10
42.16675261574516
 20
33.79215822548001
 30
0.0
 40
0.5
  1
129986
100
AcDbAttributeDefinition
  3

  2
PN
 70
     8
280
     0
  0
ATTDEF
  5
BF
330
B3
100
AcDbEntity
  8
AM_6
100
AcDbText
 10
42.16675261574516
 20
33.29215822548001
 30
0.0
 40
0.5
  1
AN-GT-10-50M-CR
100
AcDbAttributeDefinition
  3

  2
DESCRIPTION
 70
     8
280
     0
  0
ATTDEF
  5
C0
330
B3
100
AcDbEntity
  8
AM_6
100
AcDbText
 10
42.16675261574516
 20
32.79215822548001
 30
0.0
 40
0.5
  1
47.2
100
AcDbAttributeDefinition
  3

  2
A
 70
     8
280
     0
  0
ATTDEF
  5
C1
330
B3
100
AcDbEntity
  8
AM_6
100
AcDbText
 10
42.16675261574516
 20
32.29215822548001
 30
0.0
 40
0.5
  1
22.0
100
AcDbAttributeDefinition
  3

  2
C
 70
     8
280
     0
  0
ATTDEF
  5
C2
330
B3
100
AcDbEntity
  8
AM_6
100
AcDbText
 10
42.16675261574516
 20
31.79215822548001
 30
0.0
 40
0.5
  1
90.0
100
AcDbAttributeDefinition
  3

  2
D
 70
     8
280
     0
  0
ATTDEF
  5
C3
330
B3
100
AcDbEntity
  8
AM_6
100
AcDbText
 10
42.16675261574516
 20
31.29215822548001
 30
0.0
 40
0.5
  1
6.3
100
AcDbAttributeDefinition
  3

  2
J
 70
     8
280
     0
  0
ATTDEF
  5
C4
330
B3
100
AcDbEntity
  8
AM_6
100
AcDbText
 10
42.16675261574516
 20
30.79215822548001
 30
0.0
 40
0.5
  1
74.6
100
AcDbAttributeDefinition
  3

  2
L
 70
     8
280
     0
  0
ATTDEF
  5
C5
330
B3
100
AcDbEntity
  8
AM_6
100
AcDbText
 10
42.16675261574516
 20
30.29215822548001
 30
0.0
 40
0.5
  1
10 - 32 x 1/4
100
AcDbAttributeDefinition
  3

  2
N
 70
     8
280
     0
  0
ATTDEF
  5
C6
330
B3
100
AcDbEntity
  8
AM_6
100
AcDbText
 10
42.16675261574516
 20
29.79215822548001
 30
0.0
 40
0.5
  1
16.7
100
AcDbAttributeDefinition
  3

  2
W
 70
     8
280
     0
  0
ATTDEF
  5
C7
330
B3
100
AcDbEntity
  8
AM_6
100
AcDbText
 10
42.16675261574516
 20
29.29215822548001
 30
0.0
 40
0.5
  1
29.4
100
AcDbAttributeDefinition
  3

  2
X
 70
     8
280
     0
  0
ATTDEF
  5
C8
330
B3
100
AcDbEntity
  8
AM_6
100
AcDbText
 10
42.16675261574516
 20
28.79215822548001
 30
0.0
 40
0.5
  1
30.6
100
AcDbAttributeDefinition
  3

  2
Y
 70
     8
280
     0
  0
ATTDEF
  5
C9
330
B3
100
AcDbEntity
  8
AM_6
100
AcDbText
 10
42.16675261574516
 20
28.29215822548001
 30
0.0
 40
0.5
  1
baldor
100
AcDbAttributeDefinition
  3

  2
COMPANY
 70
     8
280
     0
  0
LINE
  5
CA
330
B3
100
AcDbEntity
  8
AM_9
100
AcDbLine
 10
1.25
 20
27.82714084446926
 30
0.0
 11
1.25
 21
28.76801837394452
 31
0.0
  0
LINE
  5
CB
330
B3
100
AcDbEntity
  8
AM_9
100
AcDbLine
 10
-1.25
 20
27.82714084446926
 30
0.0
 11
-1.25
 21
28.76801837394452
 31
0.0
  0
ARC
  5
CC
330
B3
100
AcDbEntity
  8
AM_9
100
AcDbCircle
 10
-0.0000000000000001
 20
-0.0000000000000004
 30
0.0
 40
28.79516246114283
100
AcDbArc
 50
92.48799559160287
 51
87.51200440839716
  0
CIRCLE
  5
CD
330
B3
100
AcDbEntity
  8
AM_9
100
AcDbCircle
 10
0.0
 20
0.0
 30
0.0
 40
30.49126984126983
  0
CIRCLE
  5
CE
330
B3
100
AcDbEntity
  8
AM_9
100
AcDbCircle
 10
0.0
 20
0.0
 30
0.0
 40
33.52855555555555
  0
LINE
  5
CF
330
B3
100
AcDbEntity
  8
AM_9
100
AcDbLine
 10
-36.8682
 20
-1.981199999999999
 30
0.0
 11
-28.4068
 21
-1.981199999999999
 31
0.0
  0
LINE
  5
D0
330
B3
100
AcDbEntity
  8
AM_9
100
AcDbLine
 10
-28.4068
 20
1.981199999999999
 30
0.0
 11
-36.8682
 21
1.981199999999999
 31
0.0
  0
LINE
  5
D1
330
B3
100
AcDbEntity
  8
AM_9
100
AcDbLine
 10
-28.4068
 20
-1.981199999999999
 30
0.0
 11
-27.975
 21
-2.412999999999998
 31
0.0
  0
LINE
  5
D2
330
B3
100
AcDbEntity
  8
AM_9
100
AcDbLine
 10
-27.975
 20
2.412999999999998
 30
0.0
 11
-28.4068
 21
1.981199999999999
 31
0.0
  0
LINE
  5
D3
330
B3
100
AcDbEntity
  8
AM_9
100
AcDbLine
 10
-27.975
 20
2.412999999999998
 30
0.0
 11
-27.975
 21
-2.412999999999998
 31
0.0
  0
LINE
  5
D4
330
B3
100
AcDbEntity
  8
AM_9
100
AcDbLine
 10
-28.4068
 20
1.981199999999999
 30
0.0
 11
-28.4068
 21
-1.981199999999999
 31
0.0
  0
LINE
  5
D5
330
B3
100
AcDbEntity
  8
AM_9
100
AcDbLine
 10
-36.8682
 20
1.981199999999999
 30
0.0
 11
-37.2167758823262
 21
2.329775882326201
 31
0.0
  0
LINE
  5
D6
330
B3
100
AcDbEntity
  8
AM_9
100
AcDbLine
 10
-37.2192128374597
 20
-2.332212837459697
 30
0.0
 11
-36.8682
 21
-1.981199999999999
 31
0.0
  0
LINE
  5
D7
330
B3
100
AcDbEntity
  8
AM_9
100
AcDbLine
 10
-36.8682
 20
1.981199999999999
 30
0.0
 11
-36.8682
 21
-1.981199999999999
 31
0.0
  0
LWPOLYLINE
  5
D8
330
B3
100
AcDbEntity
  8
AM_9
100
AcDbPolyline
 90
        6
 70
     0
 43
0.0
 10
-37.28681683084023
 20
0.9916101166134333
 10
-37.2825206423691
 20
1.141776927128181
 10
-37.25959078932583
 20
1.735769054910624
 10
-37.23785587679725
 20
2.152229007070707
 10
-37.22685104417898
 20
2.334857883150665
 10
-37.22655609726806
 20
2.339555756325397
  0
LWPOLYLINE
  5
D9
330
B3
100
AcDbEntity
  8
AM_9
100
AcDbPolyline
 90
        6
 70
     0
 43
0.0
 10
-37.22655609201719
 20
-2.339555839875959
 10
-37.22670708960457
 20
-2.337151955861017
 10
-37.23730271058966
 20
-2.161778628794474
 10
-37.26004585726817
 20
-1.725972976113307
 10
-37.28411883660896
 20
-1.088339366935104
 10
-37.28614338671888
 20
-1.016617600201861
  0
LINE
  5
DB
330
B3
100
AcDbEntity
  8
AM_5
100
AcDbLine
 10
-37.22186764524317
 20
-2.412999999999998
 30
0.0
 11
-27.975
 21
-2.412999999999998
 31
0.0
  0
LINE
  5
DC
330
B3
100
AcDbEntity
  8
AM_5
100
AcDbLine
 10
-37.22186764524317
 20
2.413000000000002
 30
0.0
 11
-27.975
 21
2.413000000000002
 31
0.0
  0
LINE
  5
DD
330
B3
100
AcDbEntity
  8
AM_0
100
AcDbLine
 10
-15.85539628595159
 20
-33.76235194140705
 30
0.0
 11
-14.67868250028742
 21
-31.72422387866999
 31
0.0
  0
LINE
  5
DE
330
B3
100
AcDbEntity
  8
AM_0
100
AcDbLine
 10
34.81332504441681
 20
-3.15
 30
0.0
 11
37.16675261574516
 21
-3.15
 31
0.0
  0
ARC
  5
DF
330
B3
100
AcDbEntity
  8
AM_0
100
AcDbCircle
 10
-0.0000000000000078
 20
0.0
 30
0.0
 40
37.3
100
AcDbArc
 50
244.84442159755
 51
355.15557840245
  0
LINE
  5
E0
330
B3
100
AcDbEntity
  8
AM_0
100
AcDbLine
 10
-14.67868250028744
 20
31.72422387866997
 30
0.0
 11
-15.85539628595162
 21
33.76235194140704
 31
0.0
  0
LINE
  5
E1
330
B3
100
AcDbEntity
  8
AM_0
100
AcDbLine
 10
37.16675261574516
 20
3.15
 30
0.0
 11
34.81332504441681
 21
3.15
 31
0.0
  0
ARC
  5
E2
330
B3
100
AcDbEntity
  8
AM_0
100
AcDbCircle
 10
-0.0000000000000071
 20
-0.0000000000000071
 30
0.0
 40
37.3
100
AcDbArc
 50
4.844421597549964
 51
115.1555784024501
  0
LINE
  5
E3
330
B3
100
AcDbEntity
  8
AM_0
100
AcDbLine
 10
-20.13464254412938
 20
-28.57422387866999
 30
0.0
 11
-21.31135632979356
 21
-30.61235194140705
 31
0.0
  0
LINE
  5
E4
330
B3
100
AcDbEntity
  8
AM_0
100
AcDbLine
 10
-21.31135632979358
 20
30.61235194140704
 30
0.0
 11
-20.1346425441294
 21
28.57422387866996
 31
0.0
  0
ARC
  5
E5
330
B3
100
AcDbEntity
  8
AM_0
100
AcDbCircle
 10
-0.0000000000000426
 20
0.0000000000000284
 30
0.0
 40
37.29999999999995
100
AcDbArc
 50
124.84442159755
 51
178.480769271793
  0
LWPOLYLINE
  5
E6
330
B3
100
AcDbEntity
  8
AM_0
100
AcDbPolyline
 90
        4
 70
     0
 43
0.0
 10
-37.28688840282968
 20
0.9889151808548996
 10
-37.20595146553376
 20
0.4328417388416904
 10
-37.18921835188642
 20
-0.1529220264168852
 10
-37.28688840282968
 20
-0.9889151808549119
  0
ARC
  5
E7
330
B3
100
AcDbEntity
  8
AM_0
100
AcDbCircle
 10
-0.0000000000000213
 20
-0.0000000000000142
 30
0.0
 40
37.29999999999998
100
AcDbArc
 50
181.519230728207
 51
235.1555784024501
  0
LINE
  5
E8
330
B3
100
AcDbEntity
  8
AM_0
100
AcDbLine
 10
1.25
 20
24.96873044429773
 30
0.0
 11
1.25
 21
27.82698412698412
 31
0.0
  0
LINE
  5
E9
330
B3
100
AcDbEntity
  8
AM_0
100
AcDbLine
 10
-1.25
 20
24.96873044429773
 30
0.0
 11
-1.250000000000001
 21
27.82698412698412
 31
0.0
  0
LINE
  5
EA
330
B3
100
AcDbEntity
  8
AM_0
100
AcDbLine
 10
-1.250000000000001
 20
27.82698412698412
 30
0.0
 11
1.25
 21
27.82698412698412
 31
0.0
  0
LINE
  5
EB
330
B3
100
AcDbEntity
  8
AM_0
100
AcDbLine
 10
34.81332504441681
 20
3.15
 30
0.0
 11
34.81332504441681
 21
-3.15
 31
0.0
  0
ARC
  5
EC
330
B3
100
AcDbEntity
  8
AM_0
100
AcDbCircle
 10
0.0000000000000036
 20
0.0000000000000036
 30
0.0
 40
36.41999999999999
100
AcDbArc
 50
4.961765167585334
 51
115.0382348324147
  0
LINE
  5
ED
330
B3
100
AcDbEntity
  8
AM_0
100
AcDbLine
 10
-20.1346425441294
 20
28.57422387866996
 30
0.0
 11
-14.67868250028744
 21
31.72422387866997
 31
0.0
  0
ARC
  5
EE
330
B3
100
AcDbEntity
  8
AM_0
100
AcDbCircle
 10
0.0000000000000213
 20
0.0000000000000036
 30
0.0
 40
36.42000000000001
100
AcDbArc
 50
124.9617651675854
 51
235.0382348324146
  0
LINE
  5
EF
330
B3
100
AcDbEntity
  8
AM_0
100
AcDbLine
 10
-14.67868250028742
 20
-31.72422387866999
 30
0.0
 11
-20.13464254412938
 21
-28.57422387866999
 31
0.0
  0
ARC
  5
F0
330
B3
100
AcDbEntity
  8
AM_0
100
AcDbCircle
 10
0.0000000000000022
 20
-0.0000000000000071
 30
0.0
 40
36.41999999999999
100
AcDbArc
 50
244.9617651675853
 51
355.0382348324147
  0
ARC
  5
F1
330
B3
100
AcDbEntity
  8
AM_0
100
AcDbCircle
 10
0.0
 20
0.000000000000005
 30
0.0
 40
25.0
100
AcDbArc
 50
92.86598398259886
 51
87.13401601740115
  0
ARC
  5
F2
330
B3
100
AcDbEntity
  8
AM_0
100
AcDbCircle
 10
0.0
 20
0.0000000000000005
 30
0.0
 40
27.82698412698412
100
AcDbArc
 50
92.57461722078929
 51
87.42538277921072
  0
ENDBLK
  5
B6
330
B3
100
AcDbEntity
  8
0
100
AcDbBlockEnd
  0
BLOCK
  5
F5
330
F3
100
AcDbEntity
  8
0
100
AcDbBlockBegin
  2
3_P2B_GTEZ_10_SHCR_0_in__129275_0
 70
     2
 10
0.0
 20
0.0
 30
0.0
  3
3_P2B_GTEZ_10_SHCR_0_in__129275_0
  1

  0
ATTDEF
  5
F7
330
F3
100
AcDbEntity
  8
AM_6
100
AcDbText
 10
106.6
 20
52.29999932565045
 30
0.0
 40
0.5
  1
P2B-GTEZ-SHCR-M-Body
100
AcDbAttributeDefinition
  3

  2
NN
 70
     8
280
     0
  0
ATTDEF
  5
F8
330
F3
100
AcDbEntity
  8
AM_6
100
AcDbText
 10
106.6
 20
51.79999932565045
 30
0.0
 40
0.5
  1
GTEZ Normal Duty Stainless Steel Housed Pillow Blocks
100
AcDbAttributeDefinition
  3

  2
NT
 70
     8
280
     0
  0
ATTDEF
  5
F9
330
F3
100
AcDbEntity
  8
AM_6
100
AcDbText
 10
106.6
 20
51.29999932565045
 30
0.0
 40
0.5
  1
P2B-GTEZ-10-SHCR
100
AcDbAttributeDefinition
  3

  2
NB
 70
     8
280
     0
  0
ATTDEF
  5
FA
330
F3
100
AcDbEntity
  8
AM_6
100
AcDbText
 10
106.6
 20
50.79999932565045
 30
0.0
 40
0.5
  1
$PN.$LUBE.
100
AcDbAttributeDefinition
  3

  2
NBSYN
 70
     8
280
     0
  0
ATTDEF
  5
FB
330
F3
100
AcDbEntity
  8
AM_6
100
AcDbText
 10
106.6
 20
50.29999932565045
 30
0.0
 40
0.5
  1
P2B-GTEZ-10-SHCR
100
AcDbAttributeDefinition
  3

  2
LINA
 70
     8
280
     0
  0
ATTDEF
  5
FC
330
F3
100
AcDbEntity
  8
AM_6
100
AcDbText
 10
106.6
 20
49.79999932565045
 30
0.0
 40
0.5
  1
210
100
AcDbAttributeDefinition
  3

  2
SERIES
 70
     8
280
     0
  0
ATTDEF
  5
FD
330
F3
100
AcDbEntity
  8
AM_6
100
AcDbText
 10
106.6
 20
49.29999932565045
 30
0.0
 40
0.5
  1
P2B-GTEZ-10-SHCR
100
AcDbAttributeDefinition
  3

  2
PN
 70
     8
280
     0
  0
ATTDEF
  5
FE
330
F3
100
AcDbEntity
  8
AM_6
100
AcDbText
 10
106.6
 20
48.79999932565045
 30
0.0
 40
0.5
  1
P2B-GTEZ-10-SHCR
100
AcDbAttributeDefinition
  3

  2
DESCRIPTION
 70
     8
280
     0
  0
ATTDEF
  5
FF
330
F3
100
AcDbEntity
  8
AM_6
100
AcDbText
 10
106.6
 20
48.29999932565045
 30
0.0
 40
0.5
  1
47.2
100
AcDbAttributeDefinition
  3

  2
A
 70
     8
280
     0
  0
ATTDEF
  5
100
330
F3
100
AcDbEntity
  8
AM_6
100
AcDbText
 10
106.6
 20
47.79999932565045
 30
0.0
 40
0.5
  1
203.2
100
AcDbAttributeDefinition
  3

  2
B
 70
     8
280
     0
  0
ATTDEF
  5
101
330
F3
100
AcDbEntity
  8
AM_6
100
AcDbText
 10
106.6
 20
47.29999932565045
 30
0.0
 40
0.5
  1
41.3
100
AcDbAttributeDefinition
  3

  2
C
 70
     8
280
     0
  0
ATTDEF
  5
102
330
F3
100
AcDbEntity
  8
AM_6
100
AcDbText
 10
106.6
 20
46.79999932565045
 30
0.0
 40
0.5
  1
146.4
100
AcDbAttributeDefinition
  3

  2
DMIN
 70
     8
280
     0
  0
ATTDEF
  5
103
330
F3
100
AcDbEntity
  8
AM_6
100
AcDbText
 10
106.6
 20
46.29999932565045
 30
0.0
 40
0.5
  1
169.9
100
AcDbAttributeDefinition
  3

  2
DMAX
 70
     8
280
     0
  0
ATTDEF
  5
104
330
F3
100
AcDbEntity
  8
AM_6
100
AcDbText
 10
106.6
 20
45.79999932565045
 30
0.0
 40
0.5
  1
M16
100
AcDbAttributeDefinition
  3

  2
F
 70
     8
280
     0
  0
ATTDEF
  5
105
330
F3
100
AcDbEntity
  8
AM_6
100
AcDbText
 10
106.6
 20
45.29999932565045
 30
0.0
 40
0.5
  1
29.0
100
AcDbAttributeDefinition
  3

  2
G
 70
     8
280
     0
  0
ATTDEF
  5
106
330
F3
100
AcDbEntity
  8
AM_6
100
AcDbText
 10
106.6
 20
44.79999932565045
 30
0.0
 40
0.5
  1
15.9
100
AcDbAttributeDefinition
  3

  2
H
 70
     8
280
     0
  0
ATTDEF
  5
107
330
F3
100
AcDbEntity
  8
AM_6
100
AcDbText
 10
106.6
 20
44.29999932565045
 30
0.0
 40
0.5
  1
109.5
100
AcDbAttributeDefinition
  3

  2
J
 70
     8
280
     0
  0
ATTDEF
  5
108
330
F3
100
AcDbEntity
  8
AM_6
100
AcDbText
 10
106.6
 20
43.79999932565045
 30
0.0
 40
0.5
  1
74.6
100
AcDbAttributeDefinition
  3

  2
L
 70
     8
280
     0
  0
ATTDEF
  5
109
330
F3
100
AcDbEntity
  8
AM_6
100
AcDbText
 10
106.6
 20
43.29999932565045
 30
0.0
 40
0.5
  1
57.2
100
AcDbAttributeDefinition
  3

  2
M
 70
     8
280
     0
  0
ATTDEF
  5
10A
330
F3
100
AcDbEntity
  8
AM_6
100
AcDbText
 10
106.6
 20
42.79999932565045
 30
0.0
 40
0.5
  1
16.7
100
AcDbAttributeDefinition
  3

  2
R
 70
     8
280
     0
  0
ATTDEF
  5
10B
330
F3
100
AcDbEntity
  8
AM_6
100
AcDbText
 10
106.6
 20
42.29999932565045
 30
0.0
 40
0.5
  1
30.6
100
AcDbAttributeDefinition
  3

  2
S
 70
     8
280
     0
  0
ATTDEF
  5
10C
330
F3
100
AcDbEntity
  8
AM_6
100
AcDbText
 10
106.6
 20
41.79999932565045
 30
0.0
 40
0.5
  1
29.4
100
AcDbAttributeDefinition
  3

  2
Z
 70
     8
280
     0
  0
ATTDEF
  5
10D
330
F3
100
AcDbEntity
  8
AM_6
100
AcDbText
 10
106.6
 20
41.29999932565045
 30
0.0
 40
0.5
  1
baldor
100
AcDbAttributeDefinition
  3

  2
COMPANY
 70
     8
280
     0
  0
LINE
  5
10E
330
F3
100
AcDbEntity
  8
AM_9
100
AcDbLine
 10
-73.2
 20
-57.2
 30
0.0
 11
-73.2
 21
-41.3
 31
0.0
  0
LINE
  5
10F
330
F3
100
AcDbEntity
  8
AM_9
100
AcDbLine
 10
-64.57499999999999
 20
-57.2
 30
0.0
 11
-64.57499999999999
 21
-41.3
 31
0.0
  0
LINE
  5
110
330
F3
100
AcDbEntity
  8
AM_9
100
AcDbLine
 10
-84.95
 20
-57.2
 30
0.0
 11
-84.95
 21
-41.3
 31
0.0
  0
LINE
  5
111
330
F3
100
AcDbEntity
  8
AM_9
100
AcDbLine
 10
-93.575
 20
-41.3
 30
0.0
 11
-93.575
 21
-57.2
 31
0.0
  0
LINE
  5
112
330
F3
100
AcDbEntity
  8
AM_9
100
AcDbLine
 10
73.2
 20
-57.2
 30
0.0
 11
73.2
 21
-41.3
 31
0.0
  0
LINE
  5
113
330
F3
100
AcDbEntity
  8
AM_9
100
AcDbLine
 10
64.57499999999999
 20
-41.3
 30
0.0
 11
64.57499999999999
 21
-57.2
 31
0.0
  0
LINE
  5
114
330
F3
100
AcDbEntity
  8
AM_9
100
AcDbLine
 10
84.95
 20
-57.2
 30
0.0
 11
84.95
 21
-41.3
 31
0.0
  0
LINE
  5
115
330
F3
100
AcDbEntity
  8
AM_9
100
AcDbLine
 10
93.575
 20
-57.2
 30
0.0
 11
93.575
 21
-41.3
 31
0.0
  0
LINE
  5
116
330
F3
100
AcDbEntity
  8
AM_7
100
AcDbLine
 10
33.54676416308502
 20
33.54676416308502
 30
0.0
 11
44.50431138883744
 21
44.50431138883744
 31
0.0
  0
LINE
  5
117
330
F3
100
AcDbEntity
  8
AM_0
100
AcDbLine
 10
42.17079942341817
 20
44.52049195005258
 30
0.0
 11
44.52049180853839
 21
42.17079956493235
 31
0.0
  0
ARC
  5
118
330
F3
100
AcDbEntity
  8
AM_0
100
AcDbCircle
 10
44.16693855945931
 20
41.81724603282489
 30
0.0
 40
0.499999999999986
100
AcDbArc
 50
336.8014094863514
 51
45.00000000000058
  0
ARC
  5
119
330
F3
100
AcDbEntity
  8
AM_0
100
AcDbCircle
 10
41.81724603282489
 20
44.16693855945931
 30
0.0
 40
0.499999999999989
100
AcDbArc
 50
44.99999999999944
 51
113.1985905136486
  0
LINE
  5
11A
330
F3
100
AcDbEntity
  8
AM_4
100
AcDbLine
 10
41.62028638353531
 20
44.62651107446833
 30
0.0
 11
44.62651107446833
 21
41.62028638353531
 31
0.0
  0
LINE
  5
11B
330
F3
100
AcDbEntity
  8
AM_0
100
AcDbLine
 10
41.62028638353531
 20
44.62651107446833
 30
0.0
 11
40.28838754632125
 21
44.05569728709089
 31
0.0
  0
LINE
  5
11C
330
F3
100
AcDbEntity
  8
AM_0
100
AcDbLine
 10
44.05569728709089
 20
40.28838754632125
 30
0.0
 11
44.62651107446833
 21
41.62028638353531
 31
0.0
  0
LINE
  5
11D
330
F3
100
AcDbEntity
  8
AM_4
100
AcDbLine
 10
40.28838754632124
 20
44.05569728709089
 30
0.0
 11
44.05569728709089
 21
40.28838754632124
 31
0.0
  0
ARC
  5
11E
330
F3
100
AcDbEntity
  8
AM_0
100
AcDbCircle
 10
43.59612477208186
 20
40.48534719561083
 30
0.0
 40
0.500000000000003
100
AcDbArc
 50
269.1570816963489
 51
336.8014094863523
  0
ARC
  5
11F
330
F3
100
AcDbEntity
  8
AM_0
100
AcDbCircle
 10
40.48534719561083
 20
43.59612477208186
 30
0.0
 40
0.5000000000000056
100
AcDbArc
 50
113.1985905136477
 51
180.8429183036511
  0
LINE
  5
120
330
F3
100
AcDbEntity
  8
AM_0
100
AcDbLine
 10
41.43645737753169
 20
37.47665940288702
 30
0.0
 11
41.79001076812496
 21
37.83021279348029
 31
0.0
  0
LINE
  5
121
330
F3
100
AcDbEntity
  8
AM_0
100
AcDbLine
 10
37.83021279348029
 20
41.79001076812496
 30
0.0
 11
37.47665940288702
 21
41.43645737753169
 31
0.0
  0
LINE
  5
122
330
F3
100
AcDbEntity
  8
AM_4
100
AcDbLine
 10
39.98540130316211
 20
43.58876918755977
 30
0.0
 11
43.58876918755977
 21
39.98540130316211
 31
0.0
  0
LINE
  5
123
330
F3
100
AcDbEntity
  8
AM_0
100
AcDbLine
 10
37.83021279348028
 20
41.79001076812497
 30
0.0
 11
41.79001076812497
 21
37.83021279348028
 31
0.0
  0
ARC
  5
124
330
F3
100
AcDbEntity
  8
AM_0
100
AcDbCircle
 10
43.56219713847374
 20
38.17934676669115
 30
0.0
 40
1.806249999999997
100
AcDbArc
 50
89.15708169634945
 51
191.1449738717063
  0
ARC
  5
125
330
F3
100
AcDbEntity
  8
AM_0
100
AcDbCircle
 10
38.17934676669115
 20
43.56219713847374
 30
0.0
 40
1.806249999999994
100
AcDbArc
 50
258.8550261282937
 51
0.8429183036505625
  0
LINE
  5
126
330
F3
100
AcDbEntity
  8
AM_0
100
AcDbLine
 10
38.90983176225926
 20
34.95003378761459
 30
0.0
 11
39.31513703397204
 21
35.35533905932737
 31
0.0
  0
LINE
  5
127
330
F3
100
AcDbEntity
  8
AM_0
100
AcDbLine
 10
35.35533905932737
 20
39.31513703397204
 30
0.0
 11
34.94874807376073
 21
38.90854604840541
 31
0.0
  0
LINE
  5
128
330
F3
100
AcDbEntity
  8
AM_0
100
AcDbLine
 10
36.62813126546317
 20
42.28498551495554
 30
0.0
 11
42.28498551495554
 21
36.62813126546317
 31
0.0
  0
LINE
  5
129
330
F3
100
AcDbEntity
  8
AM_0
100
AcDbLine
 10
40.16366517139589
 20
34.50681092190352
 30
0.0
 11
42.28498551495554
 21
36.62813126546317
 31
0.0
  0
LINE
  5
12A
330
F3
100
AcDbEntity
  8
AM_0
100
AcDbLine
 10
34.50681092190352
 20
40.16366517139589
 30
0.0
 11
40.16366517139589
 21
34.50681092190352
 31
0.0
  0
LINE
  5
12B
330
F3
100
AcDbEntity
  8
AM_0
100
AcDbLine
 10
36.62813126546317
 20
42.28498551495554
 30
0.0
 11
34.50681092190352
 21
40.16366517139589
 31
0.0
  0
LWPOLYLINE
  5
12C
330
F3
100
AcDbEntity
  8
AM_0
100
AcDbPolyline
 90
        3
 70
     0
 43
0.0
 10
36.51088763145977
 20
42.16774188095214
 10
37.30083901107864
 20
41.54983838318344
 10
38.04234482783626
 20
40.87077195258245
  0
LWPOLYLINE
  5
12D
330
F3
100
AcDbEntity
  8
AM_0
100
AcDbPolyline
 90
        3
 70
     0
 43
0.0
 10
35.92102448427661
 20
38.7494516090228
 10
35.24486400312315
 20
39.48750469024243
 10
34.62405455590692
 20
40.2809088053993
  0
LWPOLYLINE
  5
12E
330
F3
100
AcDbEntity
  8
AM_0
100
AcDbPolyline
 90
        3
 70
     0
 43
0.0
 10
40.87077195258245
 20
38.04234482783626
 10
41.54693243373591
 20
37.30429174661663
 10
42.16774188095214
 20
36.51088763145977
  0
LINE
  5
12F
330
F3
100
AcDbEntity
  8
AM_0
100
AcDbLine
 10
39.33931475620595
 20
39.33931475620595
 30
0.0
 11
37.45248168065311
 21
37.45248168065311
 31
0.0
  0
LWPOLYLINE
  5
130
330
F3
100
AcDbEntity
  8
AM_0
100
AcDbPolyline
 90
        3
 70
     0
 43
0.0
 10
40.2809088053993
 20
34.62405455590692
 10
39.49095742578042
 20
35.24195805367562
 10
38.7494516090228
 20
35.92102448427661
  0
LWPOLYLINE
  5
131
330
F3
100
AcDbEntity
  8
AM_0
100
AcDbPolyline
 90
        3
 70
     0
 43
0.0
 10
38.7494516090228
 20
35.92102448427661
 10
38.07329112786934
 20
36.65907756549625
 10
37.45248168065311
 20
37.45248168065311
  0
LWPOLYLINE
  5
132
330
F3
100
AcDbEntity
  8
AM_0
100
AcDbPolyline
 90
        3
 70
     0
 43
0.0
 10
37.45248168065311
 20
37.45248168065311
 10
36.66253030103424
 20
38.0703851784218
 10
35.92102448427661
 20
38.7494516090228
  0
LWPOLYLINE
  5
133
330
F3
100
AcDbEntity
  8
AM_0
100
AcDbPolyline
 90
        3
 70
     0
 43
0.0
 10
38.04234482783626
 20
40.87077195258245
 10
38.71850530898972
 20
40.13271887136281
 10
39.33931475620595
 20
39.33931475620595
  0
LWPOLYLINE
  5
134
330
F3
100
AcDbEntity
  8
AM_0
100
AcDbPolyline
 90
        3
 70
     0
 43
0.0
 10
39.33931475620595
 20
39.33931475620595
 10
40.12926613582482
 20
38.72141125843726
 10
40.87077195258245
 20
38.04234482783626
  0
ARC
  5
135
330
F3
100
AcDbEntity
  8
AM_0
100
AcDbCircle
 10
-0.0000000000000036
 20
0.0
 30
0.0
 40
44.99999999999999
100
AcDbArc
 50
221.1845418886446
 51
318.8154581113554
  0
LINE
  5
136
330
F3
100
AcDbEntity
  8
AM_0
100
AcDbLine
 10
-71.99493
 20
-50.101019
 30
0.0
 11
-71.91719
 21
-49.805012
 31
0.0
  0
LINE
  5
137
330
F3
100
AcDbEntity
  8
AM_0
100
AcDbLine
 10
-74.094082
 20
-47.95497
 30
0.0
 11
-74.094082
 21
-50.54503
 31
0.0
  0
LINE
  5
138
330
F3
100
AcDbEntity
  8
AM_0
100
AcDbLine
 10
-72.694649
 20
-47.95497
 30
0.0
 11
-74.094082
 21
-47.95497
 31
0.0
  0
LINE
  5
139
330
F3
100
AcDbEntity
  8
AM_0
100
AcDbLine
 10
-72.15043
 20
-48.17698
 30
0.0
 11
-72.383664
 21
-48.02897
 31
0.0
  0
LINE
  5
13A
330
F3
100
AcDbEntity
  8
AM_0
100
AcDbLine
 10
-72.15043
 20
-50.32302
 30
0.0
 11
-71.99493
 21
-50.101019
 31
0.0
  0
LINE
  5
13B
330
F3
100
AcDbEntity
  8
AM_0
100
AcDbLine
 10
-72.383664
 20
-50.47103
 30
0.0
 11
-72.15043
 21
-50.32302
 31
0.0
  0
LINE
  5
13C
330
F3
100
AcDbEntity
  8
AM_0
100
AcDbLine
 10
-72.383664
 20
-48.02897
 30
0.0
 11
-72.694649
 21
-47.95497
 31
0.0
  0
LINE
  5
13D
330
F3
100
AcDbEntity
  8
AM_0
100
AcDbLine
 10
-71.99493
 20
-48.398981
 30
0.0
 11
-72.15043
 21
-48.17698
 31
0.0
  0
LINE
  5
13E
330
F3
100
AcDbEntity
  8
AM_0
100
AcDbLine
 10
-71.91719
 20
-48.694988
 30
0.0
 11
-71.99493
 21
-48.398981
 31
0.0
  0
LINE
  5
13F
330
F3
100
AcDbEntity
  8
AM_0
100
AcDbLine
 10
-71.91719
 20
-49.805012
 30
0.0
 11
-71.91719
 21
-48.694988
 31
0.0
  0
LINE
  5
140
330
F3
100
AcDbEntity
  8
AM_0
100
AcDbLine
 10
-72.694649
 20
-50.54503
 30
0.0
 11
-72.383664
 21
-50.47103
 31
0.0
  0
LINE
  5
141
330
F3
100
AcDbEntity
  8
AM_0
100
AcDbLine
 10
-74.094082
 20
-50.54503
 30
0.0
 11
-72.694649
 21
-50.54503
 31
0.0
  0
LINE
  5
142
330
F3
100
AcDbEntity
  8
AM_0
100
AcDbLine
 10
-81.55773
 20
-47.95497
 30
0.0
 11
-81.55773
 21
-50.54503
 31
0.0
  0
LINE
  5
143
330
F3
100
AcDbEntity
  8
AM_0
100
AcDbLine
 10
-80.15829000000001
 20
-47.95497
 30
0.0
 11
-81.55773
 21
-47.95497
 31
0.0
  0
LINE
  5
144
330
F3
100
AcDbEntity
  8
AM_0
100
AcDbLine
 10
-79.84731000000001
 20
-48.02897
 30
0.0
 11
-80.15829000000001
 21
-47.95497
 31
0.0
  0
LINE
  5
145
330
F3
100
AcDbEntity
  8
AM_0
100
AcDbLine
 10
-79.61407
 20
-48.17698
 30
0.0
 11
-79.84731000000001
 21
-48.02897
 31
0.0
  0
LINE
  5
146
330
F3
100
AcDbEntity
  8
AM_0
100
AcDbLine
 10
-79.45858
 20
-48.398981
 30
0.0
 11
-79.61407
 21
-48.17698
 31
0.0
  0
LINE
  5
147
330
F3
100
AcDbEntity
  8
AM_0
100
AcDbLine
 10
-79.84731000000001
 20
-50.47103
 30
0.0
 11
-79.61407
 21
-50.32302
 31
0.0
  0
LINE
  5
148
330
F3
100
AcDbEntity
  8
AM_0
100
AcDbLine
 10
-80.15829000000001
 20
-50.54503
 30
0.0
 11
-79.84731000000001
 21
-50.47103
 31
0.0
  0
LINE
  5
149
330
F3
100
AcDbEntity
  8
AM_0
100
AcDbLine
 10
-79.38083
 20
-49.805012
 30
0.0
 11
-79.38083
 21
-48.694988
 31
0.0
  0
LINE
  5
14A
330
F3
100
AcDbEntity
  8
AM_0
100
AcDbLine
 10
-81.55773
 20
-50.54503
 30
0.0
 11
-80.15829000000001
 21
-50.54503
 31
0.0
  0
LINE
  5
14B
330
F3
100
AcDbEntity
  8
AM_0
100
AcDbLine
 10
-79.61407
 20
-50.32302
 30
0.0
 11
-79.45858
 21
-50.101019
 31
0.0
  0
LINE
  5
14C
330
F3
100
AcDbEntity
  8
AM_0
100
AcDbLine
 10
-79.45858
 20
-50.101019
 30
0.0
 11
-79.38083
 21
-49.805012
 31
0.0
  0
LINE
  5
14D
330
F3
100
AcDbEntity
  8
AM_0
100
AcDbLine
 10
-79.38083
 20
-48.694988
 30
0.0
 11
-79.45858
 21
-48.398981
 31
0.0
  0
LINE
  5
14E
330
F3
100
AcDbEntity
  8
AM_0
100
AcDbLine
 10
-76.42647000000001
 20
-50.54503
 30
0.0
 11
-76.11549000000001
 21
-50.47103
 31
0.0
  0
LINE
  5
14F
330
F3
100
AcDbEntity
  8
AM_0
100
AcDbLine
 10
-75.72675000000001
 20
-48.398981
 30
0.0
 11
-75.88225
 21
-48.17698
 31
0.0
  0
LINE
  5
150
330
F3
100
AcDbEntity
  8
AM_0
100
AcDbLine
 10
-75.64901
 20
-48.694988
 30
0.0
 11
-75.72675000000001
 21
-48.398981
 31
0.0
  0
LINE
  5
151
330
F3
100
AcDbEntity
  8
AM_0
100
AcDbLine
 10
-75.64901
 20
-49.805012
 30
0.0
 11
-75.64901
 21
-48.694988
 31
0.0
  0
LINE
  5
152
330
F3
100
AcDbEntity
  8
AM_0
100
AcDbLine
 10
-75.72675000000001
 20
-50.101019
 30
0.0
 11
-75.64901
 21
-49.805012
 31
0.0
  0
LINE
  5
153
330
F3
100
AcDbEntity
  8
AM_0
100
AcDbLine
 10
-75.88225
 20
-50.32302
 30
0.0
 11
-75.72675000000001
 21
-50.101019
 31
0.0
  0
LINE
  5
154
330
F3
100
AcDbEntity
  8
AM_0
100
AcDbLine
 10
-76.11549000000001
 20
-50.47103
 30
0.0
 11
-75.88225
 21
-50.32302
 31
0.0
  0
LINE
  5
155
330
F3
100
AcDbEntity
  8
AM_0
100
AcDbLine
 10
-77.04844
 20
-50.54503
 30
0.0
 11
-76.42647000000001
 21
-50.54503
 31
0.0
  0
LINE
  5
156
330
F3
100
AcDbEntity
  8
AM_0
100
AcDbLine
 10
-77.35943
 20
-50.47103
 30
0.0
 11
-77.04844
 21
-50.54503
 31
0.0
  0
LINE
  5
157
330
F3
100
AcDbEntity
  8
AM_0
100
AcDbLine
 10
-77.59266000000001
 20
-50.32302
 30
0.0
 11
-77.35943
 21
-50.47103
 31
0.0
  0
LINE
  5
158
330
F3
100
AcDbEntity
  8
AM_0
100
AcDbLine
 10
-77.74816
 20
-50.101019
 30
0.0
 11
-77.59266000000001
 21
-50.32302
 31
0.0
  0
LINE
  5
159
330
F3
100
AcDbEntity
  8
AM_0
100
AcDbLine
 10
-77.8259
 20
-49.805012
 30
0.0
 11
-77.74816
 21
-50.101019
 31
0.0
  0
LINE
  5
15A
330
F3
100
AcDbEntity
  8
AM_0
100
AcDbLine
 10
-77.8259
 20
-48.694988
 30
0.0
 11
-77.8259
 21
-49.805012
 31
0.0
  0
LINE
  5
15B
330
F3
100
AcDbEntity
  8
AM_0
100
AcDbLine
 10
-77.59266000000001
 20
-48.17698
 30
0.0
 11
-77.74816
 21
-48.398981
 31
0.0
  0
LINE
  5
15C
330
F3
100
AcDbEntity
  8
AM_0
100
AcDbLine
 10
-77.74816
 20
-48.398981
 30
0.0
 11
-77.8259
 21
-48.694988
 31
0.0
  0
LINE
  5
15D
330
F3
100
AcDbEntity
  8
AM_0
100
AcDbLine
 10
-75.88225
 20
-48.17698
 30
0.0
 11
-76.11549000000001
 21
-48.02897
 31
0.0
  0
LINE
  5
15E
330
F3
100
AcDbEntity
  8
AM_0
100
AcDbLine
 10
-76.11549000000001
 20
-48.02897
 30
0.0
 11
-76.42647000000001
 21
-47.95497
 31
0.0
  0
LINE
  5
15F
330
F3
100
AcDbEntity
  8
AM_0
100
AcDbLine
 10
-76.42647000000001
 20
-47.95497
 30
0.0
 11
-77.04844
 21
-47.95497
 31
0.0
  0
LINE
  5
160
330
F3
100
AcDbEntity
  8
AM_0
100
AcDbLine
 10
-77.04844
 20
-47.95497
 30
0.0
 11
-77.35943
 21
-48.02897
 31
0.0
  0
LINE
  5
161
330
F3
100
AcDbEntity
  8
AM_0
100
AcDbLine
 10
-77.35943
 20
-48.02897
 30
0.0
 11
-77.59266000000001
 21
-48.17698
 31
0.0
  0
LINE
  5
162
330
F3
100
AcDbEntity
  8
AM_0
100
AcDbLine
 10
-101.6
 20
-57.2
 30
0.0
 11
101.6
 21
-57.2
 31
0.0
  0
LWPOLYLINE
  5
163
330
F3
100
AcDbEntity
  8
AM_0
100
AcDbPolyline
 90
       19
 70
     0
 43
0.0
 10
101.6
 20
-42.8
 10
101.5942920471376
 20
-42.66926638587851
 10
101.5772116295183
 20
-42.5395277334996
 10
101.5488887394336
 20
-42.41177143234621
 10
101.5095389311788
 20
-42.28696978501149
 10
101.459461680555
 20
-42.16607260738895
 10
101.3990381056766
 20
-42.05
 10
101.3287280664335
 20
-41.93963534547343
 10
101.2490666646784
 20
-41.83581858547019
 10
101.1606601717798
 20
-41.73933982822017
 10
101.0641814145298
 20
-41.65093333532153
 10
100.9603646545265
 20
-41.57127193356651
 10
100.85
 20
-41.50096189432334
 10
100.733927392611
 20
-41.44053831944503
 10
100.6130302149885
 20
-41.39046106882113
 10
100.4882285676537
 20
-41.3511112605664
 10
100.3604722665004
 20
-41.32278837048169
 10
100.2307336141214
 20
-41.30570795286238
 10
100.1
 20
-41.3
  0
LINE
  5
164
330
F3
100
AcDbEntity
  8
AM_0
100
AcDbLine
 10
101.6
 20
-57.2
 30
0.0
 11
101.6
 21
-42.8
 31
0.0
  0
LWPOLYLINE
  5
165
330
F3
100
AcDbEntity
  8
AM_0
100
AcDbPolyline
 90
       19
 70
     0
 43
0.0
 10
-100.1
 20
-41.3
 10
-100.2307336141215
 20
-41.30570795286238
 10
-100.3604722665004
 20
-41.32278837048169
 10
-100.4882285676538
 20
-41.3511112605664
 10
-100.6130302149885
 20
-41.39046106882114
 10
-100.7339273926111
 20
-41.44053831944503
 10
-100.85
 20
-41.50096189432334
 10
-100.9603646545266
 20
-41.57127193356651
 10
-101.0641814145298
 20
-41.65093333532153
 10
-101.1606601717798
 20
-41.73933982822017
 10
-101.2490666646785
 20
-41.83581858547019
 10
-101.3287280664335
 20
-41.93963534547343
 10
-101.3990381056767
 20
-42.04999999999999
 10
-101.459461680555
 20
-42.16607260738893
 10
-101.5095389311789
 20
-42.28696978501149
 10
-101.5488887394336
 20
-42.41177143234621
 10
-101.5772116295183
 20
-42.53952773349959
 10
-101.5942920471376
 20
-42.6692663858785
 10
-101.6
 20
-42.79999999999998
  0
LINE
  5
166
330
F3
100
AcDbEntity
  8
AM_0
100
AcDbLine
 10
-101.6
 20
-57.2
 30
0.0
 11
-101.6
 21
-42.8
 31
0.0
  0
LINE
  5
167
330
F3
100
AcDbEntity
  8
AM_0
100
AcDbLine
 10
-33.86666666666667
 20
-57.2
 30
0.0
 11
-33.86666666666667
 21
-29.63188972861652
 31
0.0
  0
LINE
  5
168
330
F3
100
AcDbEntity
  8
AM_0
100
AcDbLine
 10
-35.55807384558143
 20
-27.57940145094121
 30
0.0
 11
-33.86666666666667
 21
-29.63188972861651
 31
0.0
  0
LINE
  5
169
330
F3
100
AcDbEntity
  8
AM_0
100
AcDbLine
 10
33.86666666666667
 20
-57.2
 30
0.0
 11
33.86666666666667
 21
-29.63188972861651
 31
0.0
  0
LINE
  5
16A
330
F3
100
AcDbEntity
  8
AM_0
100
AcDbLine
 10
33.86666666666667
 20
-29.63188972861652
 30
0.0
 11
35.55807384558143
 21
-27.57940145094122
 31
0.0
  0
LWPOLYLINE
  5
16B
330
F3
100
AcDbEntity
  8
AM_0
100
AcDbPolyline
 90
       19
 70
     0
 43
0.0
 10
-52.3
 20
-39.8
 10
-52.30570795286238
 20
-39.93073361412149
 10
-52.32278837048168
 20
-40.0604722665004
 10
-52.35111126056639
 20
-40.18822856765378
 10
-52.39046106882113
 20
-40.3130302149885
 10
-52.44053831944501
 20
-40.43392739261105
 10
-52.50096189432333
 20
-40.55
 10
-52.5712719335665
 20
-40.66036465452657
 10
-52.65093333532152
 20
-40.7641814145298
 10
-52.73933982822016
 20
-40.86066017177982
 10
-52.83581858547017
 20
-40.94906666467846
 10
-52.93963534547341
 20
-41.02872806643349
 10
-53.04999999999998
 20
-41.09903810567666
 10
-53.16607260738893
 20
-41.15946168055498
 10
-53.28696978501148
 20
-41.20953893117886
 10
-53.41177143234619
 20
-41.2488887394336
 10
-53.53952773349958
 20
-41.27721162951831
 10
-53.66926638587848
 20
-41.29429204713762
 10
-53.79999997764825
 20
-41.3
  0
LINE
  5
16C
330
F3
100
AcDbEntity
  8
AM_0
100
AcDbLine
 10
36.25112327841985
 20
-41.30000000000151
 30
0.0
 11
35.55807384558143
 21
-27.57940145094121
 31
0.0
  0
LWPOLYLINE
  5
16D
330
F3
100
AcDbEntity
  8
AM_0
100
AcDbPolyline
 90
       19
 70
     0
 43
0.0
 10
53.80000014657016
 20
-41.3
 10
53.66926653189093
 20
-41.29429205991205
 10
53.53952787784304
 20
-41.27721165496996
 10
53.41177157392212
 20
-41.24888877736876
 10
53.2869699227424
 20
-41.20953898130882
 10
53.16607274022663
 20
-41.15946174249821
 10
53.05000012693348
 20
-41.09903817896176
 10
52.93963546553668
 20
-41.02872815050269
 10
52.83581869774945
 20
-40.94906675889196
 10
52.73933993186094
 20
-40.86066027542059
 10
52.65093342953502
 20
-40.76418152680909
 10
52.57127201763571
 20
-40.66036477458984
 10
52.50096196760843
 20
-40.5500001269335
 10
52.44053838138826
 20
-40.43392752544875
 10
52.39046111895109
 20
-40.31303035271942
 10
52.35111129850155
 20
-40.18822870922971
 10
52.32278839593333
 20
-40.06047241084385
 10
52.30570796563681
 20
-39.93073376013393
 10
52.3
 20
-39.80000014657019
  0
LINE
  5
16E
330
F3
100
AcDbEntity
  8
AM_0
100
AcDbLine
 10
52.3
 20
0.0
 30
0.0
 11
52.3
 21
-39.80000000000001
 31
0.0
  0
LWPOLYLINE
  5
16F
330
F3
100
AcDbEntity
  8
AM_0
100
AcDbPolyline
 90
       37
 70
     0
 43
0.0
 10
-52.3
 20
0.0000000000000134
 10
-52.10098265142485
 20
4.558245343136427
 10
-51.5054453654389
 20
9.081799681735577
 10
-50.51792054038376
 20
13.53623603588393
 10
-49.14592383646188
 20
17.88765345526422
 10
-47.39989697702436
 20
22.10293502585727
 10
-45.29312828075137
 20
26.14999990965428
 10
-42.84165152952327
 20
29.99804749920495
 10
-40.06412394165902
 20
33.61779182883816
 10
-36.98168417921931
 20
36.981684458544
 10
-33.61779147002431
 20
40.06412413423651
 10
-29.99804706876492
 20
42.84165162875571
 10
-26.14999941599619
 20
45.29312828075134
 10
-22.10293447787037
 20
47.39989687265966
 10
-17.88765286225122
 20
49.14592362339457
 10
-13.53623540749024
 20
50.51792021510322
 10
-9.081799027875848
 20
51.50544492528849
 10
-4.558244673919138
 20
52.10098209462217
 10
0.0000006743494831
 20
52.29999932565045
 10
4.558246017485898
 20
52.1009819770753
 10
9.081800356085045
 20
51.50544469108937
 10
13.5362367102334
 20
50.51791986603423
 10
17.88765412961369
 20
49.14592316211236
 10
22.10293570020674
 20
47.39989630267484
 10
26.15000058400376
 20
45.29312760640186
 10
29.99804817355444
 20
42.84165085517376
 10
33.61779250318765
 20
40.06412326730953
 10
36.9816851328935
 20
36.98168350486983
 10
40.06412480858601
 20
33.61779079567482
 10
42.84165230310521
 20
29.99804639441545
 10
45.29312895510085
 20
26.14999874164672
 10
47.39989754700917
 20
22.1029338035209
 10
49.1459242977441
 20
17.88765218790175
 10
50.51792088945274
 20
13.53623473314077
 10
51.50544559963803
 20
9.081798353526386
 10
52.10098276897173
 20
4.558243999569674
 10
52.3
 20
-0.0000000000000074
  0
LINE
  5
170
330
F3
100
AcDbEntity
  8
AM_0
100
AcDbLine
 10
-52.3
 20
-39.8
 30
0.0
 11
-52.29999999999998
 21
0.0000000000000294
 31
0.0
  0
LINE
  5
171
330
F3
100
AcDbEntity
  8
AM_0
100
AcDbLine
 10
-35.55807384558143
 20
-27.57940145094122
 30
0.0
 11
-36.25112327841982
 21
-41.3
 31
0.0
  0
LWPOLYLINE
  5
172
330
F3
100
AcDbEntity
  8
AM_0
100
AcDbPolyline
 90
       53
 70
     0
 43
0.0
 10
-35.55807384558142
 20
-27.57940145094122
 10
-37.8264678573156
 20
-24.37536316528371
 10
-39.80697960840983
 20
-20.9858136476917
 10
-41.48453620857262
 20
-17.43654941666004
 10
-42.84637043914033
 20
-13.75458251609118
 10
-43.88211791932037
 20
-9.96793493733088
 10
-44.58389598538714
 20
-6.105425354893816
 10
-44.94636368251268
 20
-2.196449798949385
 10
-44.96676241265789
 20
1.729242066217699
 10
-44.64493692916928
 20
5.64177335511596
 10
-43.98333651829974
 20
9.511367342185896
 10
-42.98699635866122
 20
13.30857408066118
 10
-41.66349920047524
 20
17.00449453444588
 10
-40.02291765626499
 20
20.57100051722893
 10
-38.07773754219214
 20
23.98094876496614
 10
-35.84276285345667
 20
27.20838751250921
 10
-33.33500309695445
 20
30.22875400220851
 10
-30.57354383865922
 20
33.0190614213303
 10
-27.57940145094128
 20
35.55807384558137
 10
-24.37536316528378
 20
37.82646785731556
 10
-20.98581364769178
 20
39.8069796084098
 10
-17.43654941666011
 20
41.48453620857259
 10
-13.75458251609126
 20
42.84637043914031
 10
-9.96793493733096
 20
43.88211791932036
 10
-6.105425354893897
 20
44.58389598538713
 10
-2.196449798949468
 20
44.94636368251268
 10
1.729242066217616
 20
44.9667624126579
 10
5.641773355115877
 20
44.6449369291693
 10
9.511367342185814
 20
43.98333651829977
 10
13.30857408066109
 20
42.98699635866125
 10
17.0044945344458
 20
41.66349920047526
 10
20.57100051722885
 20
40.02291765626502
 10
23.98094876496608
 20
38.07773754219219
 10
27.20838751250914
 20
35.84276285345671
 10
30.22875400220845
 20
33.33500309695451
 10
33.01906142133024
 20
30.57354383865928
 10
35.55807384558132
 20
27.57940145094135
 10
37.82646785731551
 20
24.37536316528385
 10
39.80697960840976
 20
20.98581364769185
 10
41.48453620857256
 20
17.43654941666019
 10
42.84637043914028
 20
13.75458251609134
 10
43.88211791932034
 20
9.96793493733104
 10
44.58389598538712
 20
6.105425354893979
 10
44.94636368251268
 20
2.19644979894955
 10
44.9667624126579
 20
-1.729242066217534
 10
44.6449369291693
 20
-5.641773355115795
 10
43.98333651829978
 20
-9.511367342185736
 10
42.98699635866127
 20
-13.30857408066101
 10
41.66349920047529
 20
-17.00449453444573
 10
40.02291765626505
 20
-20.57100051722878
 10
38.07773754219223
 20
-23.980948764966
 10
35.84276285345676
 20
-27.20838751250908
 10
35.55807384558143
 20
-27.5794014509412
  0
LINE
  5
173
330
F3
100
AcDbEntity
  8
AM_0
100
AcDbLine
 10
96.4375
 20
-57.2
 30
0.0
 11
96.43749999999999
 21
-41.3
 31
0.0
  0
LINE
  5
174
330
F3
100
AcDbEntity
  8
AM_0
100
AcDbLine
 10
36.25112327841985
 20
-41.30000000000151
 30
0.0
 11
100.1
 21
-41.3
 31
0.0
  0
LINE
  5
175
330
F3
100
AcDbEntity
  8
AM_0
100
AcDbLine
 10
36.25112327841982
 20
-57.2
 30
0.0
 11
36.25112327841985
 21
-41.30000000000151
 31
0.0
  0
LINE
  5
176
330
F3
100
AcDbEntity
  8
AM_0
100
AcDbLine
 10
-78.29238000000001
 20
-48.694988
 30
0.0
 11
-78.29238000000001
 21
-49.805012
 31
0.0
  0
LINE
  5
177
330
F3
100
AcDbEntity
  8
AM_0
100
AcDbLine
 10
-70.82874
 20
-49.805012
 30
0.0
 11
-70.75099
 21
-50.17502000000001
 31
0.0
  0
LINE
  5
178
330
F3
100
AcDbEntity
  8
AM_0
100
AcDbLine
 10
-70.75099
 20
-50.17502000000001
 30
0.0
 11
-70.5955
 21
-50.47103
 31
0.0
  0
LINE
  5
179
330
F3
100
AcDbEntity
  8
AM_0
100
AcDbLine
 10
-70.5955
 20
-50.47103
 30
0.0
 11
-70.28451
 21
-50.76703
 31
0.0
  0
LINE
  5
17A
330
F3
100
AcDbEntity
  8
AM_0
100
AcDbLine
 10
-71.52845
 20
-50.17502000000001
 30
0.0
 11
-71.45071
 21
-49.805012
 31
0.0
  0
LINE
  5
17B
330
F3
100
AcDbEntity
  8
AM_0
100
AcDbLine
 10
-71.45071
 20
-49.805012
 30
0.0
 11
-71.45071
 21
-48.694988
 31
0.0
  0
LINE
  5
17C
330
F3
100
AcDbEntity
  8
AM_0
100
AcDbLine
 10
-71.68395000000001
 20
-50.47103
 30
0.0
 11
-71.52845
 21
-50.17502000000001
 31
0.0
  0
LINE
  5
17D
330
F3
100
AcDbEntity
  8
AM_0
100
AcDbLine
 10
-71.99493
 20
-47.73297
 30
0.0
 11
-72.305918
 21
-47.58496
 31
0.0
  0
LINE
  5
17E
330
F3
100
AcDbEntity
  8
AM_0
100
AcDbLine
 10
-70.28451
 20
-50.76703
 30
0.0
 11
-69.97353
 21
-50.91504
 31
0.0
  0
LINE
  5
17F
330
F3
100
AcDbEntity
  8
AM_0
100
AcDbLine
 10
-71.45071
 20
-48.694988
 30
0.0
 11
-71.52845
 21
-48.32498
 31
0.0
  0
LINE
  5
180
330
F3
100
AcDbEntity
  8
AM_0
100
AcDbLine
 10
-71.52845
 20
-48.32498
 30
0.0
 11
-71.68395000000001
 21
-48.02897
 31
0.0
  0
LINE
  5
181
330
F3
100
AcDbEntity
  8
AM_0
100
AcDbLine
 10
-71.68395000000001
 20
-48.02897
 30
0.0
 11
-71.99493
 21
-47.73297
 31
0.0
  0
LINE
  5
182
330
F3
100
AcDbEntity
  8
AM_0
100
AcDbLine
 10
-67.17466000000002
 20
-47.51096
 30
0.0
 11
-67.17466000000002
 21
-50.98904
 31
0.0
  0
LINE
  5
183
330
F3
100
AcDbEntity
  8
AM_0
100
AcDbLine
 10
-64.3758
 20
-47.51096
 30
0.0
 11
-67.17466000000002
 21
-47.51096
 31
0.0
  0
LINE
  5
184
330
F3
100
AcDbEntity
  8
AM_0
100
AcDbLine
 10
-64.3758
 20
-47.95497
 30
0.0
 11
-64.3758
 21
-47.51096
 31
0.0
  0
LINE
  5
185
330
F3
100
AcDbEntity
  8
AM_0
100
AcDbLine
 10
-66.70819
 20
-47.95497
 30
0.0
 11
-64.3758
 21
-47.95497
 31
0.0
  0
LINE
  5
186
330
F3
100
AcDbEntity
  8
AM_0
100
AcDbLine
 10
-66.70819
 20
-48.916993
 30
0.0
 11
-66.70819
 21
-47.95497
 31
0.0
  0
LINE
  5
187
330
F3
100
AcDbEntity
  8
AM_0
100
AcDbLine
 10
-64.68678
 20
-48.916993
 30
0.0
 11
-66.70819
 21
-48.916993
 31
0.0
  0
LINE
  5
188
330
F3
100
AcDbEntity
  8
AM_0
100
AcDbLine
 10
-64.68678
 20
-49.361002
 30
0.0
 11
-64.68678
 21
-48.916993
 31
0.0
  0
LINE
  5
189
330
F3
100
AcDbEntity
  8
AM_0
100
AcDbLine
 10
-66.70819
 20
-49.361002
 30
0.0
 11
-64.68678
 21
-49.361002
 31
0.0
  0
LINE
  5
18A
330
F3
100
AcDbEntity
  8
AM_0
100
AcDbLine
 10
-66.70819
 20
-50.54503
 30
0.0
 11
-66.70819
 21
-49.361002
 31
0.0
  0
LINE
  5
18B
330
F3
100
AcDbEntity
  8
AM_0
100
AcDbLine
 10
-64.3758
 20
-50.54503
 30
0.0
 11
-66.70819
 21
-50.54503
 31
0.0
  0
LINE
  5
18C
330
F3
100
AcDbEntity
  8
AM_0
100
AcDbLine
 10
-64.3758
 20
-50.98904
 30
0.0
 11
-64.3758
 21
-50.54503
 31
0.0
  0
LINE
  5
18D
330
F3
100
AcDbEntity
  8
AM_0
100
AcDbLine
 10
-67.17466000000002
 20
-50.98904
 30
0.0
 11
-64.3758
 21
-50.98904
 31
0.0
  0
LINE
  5
18E
330
F3
100
AcDbEntity
  8
AM_0
100
AcDbLine
 10
-70.75099
 20
-48.32498
 30
0.0
 11
-70.82874
 21
-48.694988
 31
0.0
  0
LINE
  5
18F
330
F3
100
AcDbEntity
  8
AM_0
100
AcDbLine
 10
-70.59550000000002
 20
-48.02897
 30
0.0
 11
-70.75099
 21
-48.32498
 31
0.0
  0
LINE
  5
190
330
F3
100
AcDbEntity
  8
AM_0
100
AcDbLine
 10
-70.28451
 20
-47.73297
 30
0.0
 11
-70.59550000000002
 21
-48.02897
 31
0.0
  0
LINE
  5
191
330
F3
100
AcDbEntity
  8
AM_0
100
AcDbLine
 10
-69.97353
 20
-47.58496
 30
0.0
 11
-70.28451
 21
-47.73297
 31
0.0
  0
LINE
  5
192
330
F3
100
AcDbEntity
  8
AM_0
100
AcDbLine
 10
-69.5848
 20
-47.51096
 30
0.0
 11
-69.97353
 21
-47.58496
 31
0.0
  0
LINE
  5
193
330
F3
100
AcDbEntity
  8
AM_0
100
AcDbLine
 10
-68.88508
 20
-47.51096
 30
0.0
 11
-69.5848
 21
-47.51096
 31
0.0
  0
LINE
  5
194
330
F3
100
AcDbEntity
  8
AM_0
100
AcDbLine
 10
-68.49635
 20
-47.58496
 30
0.0
 11
-68.88508
 21
-47.51096
 31
0.0
  0
LINE
  5
195
330
F3
100
AcDbEntity
  8
AM_0
100
AcDbLine
 10
-68.18536
 20
-47.73297
 30
0.0
 11
-68.49635
 21
-47.58496
 31
0.0
  0
LINE
  5
196
330
F3
100
AcDbEntity
  8
AM_0
100
AcDbLine
 10
-67.87438
 20
-48.02897
 30
0.0
 11
-68.18536
 21
-47.73297
 31
0.0
  0
LINE
  5
197
330
F3
100
AcDbEntity
  8
AM_0
100
AcDbLine
 10
-67.79663000000001
 20
-48.398981
 30
0.0
 11
-67.87438
 21
-48.02897
 31
0.0
  0
LINE
  5
198
330
F3
100
AcDbEntity
  8
AM_0
100
AcDbLine
 10
-68.26311
 20
-48.398981
 30
0.0
 11
-67.79663000000001
 21
-48.398981
 31
0.0
  0
LINE
  5
199
330
F3
100
AcDbEntity
  8
AM_0
100
AcDbLine
 10
-68.34086
 20
-48.17698
 30
0.0
 11
-68.26311
 21
-48.398981
 31
0.0
  0
LINE
  5
19A
330
F3
100
AcDbEntity
  8
AM_0
100
AcDbLine
 10
-68.5741
 20
-48.02897
 30
0.0
 11
-68.34086
 21
-48.17698
 31
0.0
  0
LINE
  5
19B
330
F3
100
AcDbEntity
  8
AM_0
100
AcDbLine
 10
-68.88508
 20
-47.95497
 30
0.0
 11
-68.5741
 21
-48.02897
 31
0.0
  0
LINE
  5
19C
330
F3
100
AcDbEntity
  8
AM_0
100
AcDbLine
 10
-69.5848
 20
-47.95497
 30
0.0
 11
-68.88508
 21
-47.95497
 31
0.0
  0
LINE
  5
19D
330
F3
100
AcDbEntity
  8
AM_0
100
AcDbLine
 10
-69.89578
 20
-48.02897
 30
0.0
 11
-69.5848
 21
-47.95497
 31
0.0
  0
LINE
  5
19E
330
F3
100
AcDbEntity
  8
AM_0
100
AcDbLine
 10
-70.12902
 20
-48.17698
 30
0.0
 11
-69.89578
 21
-48.02897
 31
0.0
  0
LINE
  5
19F
330
F3
100
AcDbEntity
  8
AM_0
100
AcDbLine
 10
-70.28451
 20
-48.398981
 30
0.0
 11
-70.12902
 21
-48.17698
 31
0.0
  0
LINE
  5
1A0
330
F3
100
AcDbEntity
  8
AM_0
100
AcDbLine
 10
-70.36226
 20
-48.694988
 30
0.0
 11
-70.28451
 21
-48.398981
 31
0.0
  0
LINE
  5
1A1
330
F3
100
AcDbEntity
  8
AM_0
100
AcDbLine
 10
-70.36226
 20
-49.805012
 30
0.0
 11
-70.36226
 21
-48.694988
 31
0.0
  0
LINE
  5
1A2
330
F3
100
AcDbEntity
  8
AM_0
100
AcDbLine
 10
-70.28451
 20
-50.101019
 30
0.0
 11
-70.36226
 21
-49.805012
 31
0.0
  0
LINE
  5
1A3
330
F3
100
AcDbEntity
  8
AM_0
100
AcDbLine
 10
-70.12902
 20
-50.32302
 30
0.0
 11
-70.28451
 21
-50.101019
 31
0.0
  0
LINE
  5
1A4
330
F3
100
AcDbEntity
  8
AM_0
100
AcDbLine
 10
-69.89578
 20
-50.47103
 30
0.0
 11
-70.12902
 21
-50.32302
 31
0.0
  0
LINE
  5
1A5
330
F3
100
AcDbEntity
  8
AM_0
100
AcDbLine
 10
-69.5848
 20
-50.54503
 30
0.0
 11
-69.89578
 21
-50.47103
 31
0.0
  0
LINE
  5
1A6
330
F3
100
AcDbEntity
  8
AM_0
100
AcDbLine
 10
-68.88508
 20
-50.54503
 30
0.0
 11
-69.5848
 21
-50.54503
 31
0.0
  0
LINE
  5
1A7
330
F3
100
AcDbEntity
  8
AM_0
100
AcDbLine
 10
-68.5741
 20
-50.47103
 30
0.0
 11
-68.88508
 21
-50.54503
 31
0.0
  0
LINE
  5
1A8
330
F3
100
AcDbEntity
  8
AM_0
100
AcDbLine
 10
-68.34086
 20
-50.32302
 30
0.0
 11
-68.5741
 21
-50.47103
 31
0.0
  0
LINE
  5
1A9
330
F3
100
AcDbEntity
  8
AM_0
100
AcDbLine
 10
-68.26311
 20
-50.101019
 30
0.0
 11
-68.34086
 21
-50.32302
 31
0.0
  0
LINE
  5
1AA
330
F3
100
AcDbEntity
  8
AM_0
100
AcDbLine
 10
-68.26311
 20
-49.509006
 30
0.0
 11
-68.26311
 21
-50.101019
 31
0.0
  0
LINE
  5
1AB
330
F3
100
AcDbEntity
  8
AM_0
100
AcDbLine
 10
-68.96283
 20
-49.509006
 30
0.0
 11
-68.26311
 21
-49.509006
 31
0.0
  0
LINE
  5
1AC
330
F3
100
AcDbEntity
  8
AM_0
100
AcDbLine
 10
-68.96283
 20
-49.064996
 30
0.0
 11
-68.96283
 21
-49.509006
 31
0.0
  0
LINE
  5
1AD
330
F3
100
AcDbEntity
  8
AM_0
100
AcDbLine
 10
-67.79663000000001
 20
-49.064996
 30
0.0
 11
-68.96283
 21
-49.064996
 31
0.0
  0
LINE
  5
1AE
330
F3
100
AcDbEntity
  8
AM_0
100
AcDbLine
 10
-67.79663000000001
 20
-50.17502000000001
 30
0.0
 11
-67.79663000000001
 21
-49.064996
 31
0.0
  0
LINE
  5
1AF
330
F3
100
AcDbEntity
  8
AM_0
100
AcDbLine
 10
-67.87438
 20
-50.47103
 30
0.0
 11
-67.79663000000001
 21
-50.17502000000001
 31
0.0
  0
LINE
  5
1B0
330
F3
100
AcDbEntity
  8
AM_0
100
AcDbLine
 10
-68.18536
 20
-50.76703
 30
0.0
 11
-67.87438
 21
-50.47103
 31
0.0
  0
LINE
  5
1B1
330
F3
100
AcDbEntity
  8
AM_0
100
AcDbLine
 10
-68.49635
 20
-50.91504
 30
0.0
 11
-68.18536
 21
-50.76703
 31
0.0
  0
LINE
  5
1B2
330
F3
100
AcDbEntity
  8
AM_0
100
AcDbLine
 10
-68.88508
 20
-50.98904
 30
0.0
 11
-68.49635
 21
-50.91504
 31
0.0
  0
LINE
  5
1B3
330
F3
100
AcDbEntity
  8
AM_0
100
AcDbLine
 10
-69.5848
 20
-50.98904
 30
0.0
 11
-68.88508
 21
-50.98904
 31
0.0
  0
LINE
  5
1B4
330
F3
100
AcDbEntity
  8
AM_0
100
AcDbLine
 10
-69.97353
 20
-50.91504
 30
0.0
 11
-69.5848
 21
-50.98904
 31
0.0
  0
LINE
  5
1B5
330
F3
100
AcDbEntity
  8
AM_0
100
AcDbLine
 10
-70.82874
 20
-48.694988
 30
0.0
 11
-70.82874
 21
-49.805012
 31
0.0
  0
LINE
  5
1B6
330
F3
100
AcDbEntity
  8
AM_0
100
AcDbLine
 10
-74.56056000000001
 20
-47.51096
 30
0.0
 11
-74.56056000000001
 21
-50.98904
 31
0.0
  0
LINE
  5
1B7
330
F3
100
AcDbEntity
  8
AM_0
100
AcDbLine
 10
-72.694649
 20
-47.51096
 30
0.0
 11
-74.56056000000001
 21
-47.51096
 31
0.0
  0
LINE
  5
1B8
330
F3
100
AcDbEntity
  8
AM_0
100
AcDbLine
 10
-72.305918
 20
-47.58496
 30
0.0
 11
-72.694649
 21
-47.51096
 31
0.0
  0
LINE
  5
1B9
330
F3
100
AcDbEntity
  8
AM_0
100
AcDbLine
 10
-71.99493
 20
-50.76703
 30
0.0
 11
-71.68395000000001
 21
-50.47103
 31
0.0
  0
LINE
  5
1BA
330
F3
100
AcDbEntity
  8
AM_0
100
AcDbLine
 10
-72.305918
 20
-50.91504
 30
0.0
 11
-71.99493
 21
-50.76703
 31
0.0
  0
LINE
  5
1BB
330
F3
100
AcDbEntity
  8
AM_0
100
AcDbLine
 10
-72.694649
 20
-50.98904
 30
0.0
 11
-72.305918
 21
-50.91504
 31
0.0
  0
LINE
  5
1BC
330
F3
100
AcDbEntity
  8
AM_0
100
AcDbLine
 10
-74.56056000000001
 20
-50.98904
 30
0.0
 11
-72.694649
 21
-50.98904
 31
0.0
  0
LINE
  5
1BD
330
F3
100
AcDbEntity
  8
AM_0
100
AcDbLine
 10
-78.21464
 20
-48.32498
 30
0.0
 11
-78.29238000000001
 21
-48.694988
 31
0.0
  0
LINE
  5
1BE
330
F3
100
AcDbEntity
  8
AM_0
100
AcDbLine
 10
-78.05914
 20
-48.02897
 30
0.0
 11
-78.21464
 21
-48.32498
 31
0.0
  0
LINE
  5
1BF
330
F3
100
AcDbEntity
  8
AM_0
100
AcDbLine
 10
-77.74816
 20
-47.73297
 30
0.0
 11
-78.05914
 21
-48.02897
 31
0.0
  0
LINE
  5
1C0
330
F3
100
AcDbEntity
  8
AM_0
100
AcDbLine
 10
-77.43717000000001
 20
-47.58496
 30
0.0
 11
-77.74816
 21
-47.73297
 31
0.0
  0
LINE
  5
1C1
330
F3
100
AcDbEntity
  8
AM_0
100
AcDbLine
 10
-77.04844
 20
-47.51096
 30
0.0
 11
-77.43717000000001
 21
-47.58496
 31
0.0
  0
LINE
  5
1C2
330
F3
100
AcDbEntity
  8
AM_0
100
AcDbLine
 10
-76.42647000000001
 20
-47.51096
 30
0.0
 11
-77.04844
 21
-47.51096
 31
0.0
  0
LINE
  5
1C3
330
F3
100
AcDbEntity
  8
AM_0
100
AcDbLine
 10
-76.03774
 20
-47.58496
 30
0.0
 11
-76.42647000000001
 21
-47.51096
 31
0.0
  0
LINE
  5
1C4
330
F3
100
AcDbEntity
  8
AM_0
100
AcDbLine
 10
-75.72675000000001
 20
-47.73297
 30
0.0
 11
-76.03774
 21
-47.58496
 31
0.0
  0
LINE
  5
1C5
330
F3
100
AcDbEntity
  8
AM_0
100
AcDbLine
 10
-75.41577000000001
 20
-48.02897
 30
0.0
 11
-75.72675000000001
 21
-47.73297
 31
0.0
  0
LINE
  5
1C6
330
F3
100
AcDbEntity
  8
AM_0
100
AcDbLine
 10
-75.26028000000001
 20
-48.32498
 30
0.0
 11
-75.41577000000001
 21
-48.02897
 31
0.0
  0
LINE
  5
1C7
330
F3
100
AcDbEntity
  8
AM_0
100
AcDbLine
 10
-75.18253
 20
-48.694988
 30
0.0
 11
-75.26028000000001
 21
-48.32498
 31
0.0
  0
LINE
  5
1C8
330
F3
100
AcDbEntity
  8
AM_0
100
AcDbLine
 10
-75.18253
 20
-49.805012
 30
0.0
 11
-75.18253
 21
-48.694988
 31
0.0
  0
LINE
  5
1C9
330
F3
100
AcDbEntity
  8
AM_0
100
AcDbLine
 10
-75.26028000000001
 20
-50.17502000000001
 30
0.0
 11
-75.18253
 21
-49.805012
 31
0.0
  0
LINE
  5
1CA
330
F3
100
AcDbEntity
  8
AM_0
100
AcDbLine
 10
-75.41577000000001
 20
-50.47103
 30
0.0
 11
-75.26028000000001
 21
-50.17502000000001
 31
0.0
  0
LINE
  5
1CB
330
F3
100
AcDbEntity
  8
AM_0
100
AcDbLine
 10
-75.72675000000001
 20
-50.76703
 30
0.0
 11
-75.41577000000001
 21
-50.47103
 31
0.0
  0
LINE
  5
1CC
330
F3
100
AcDbEntity
  8
AM_0
100
AcDbLine
 10
-76.03774
 20
-50.91504
 30
0.0
 11
-75.72675000000001
 21
-50.76703
 31
0.0
  0
LINE
  5
1CD
330
F3
100
AcDbEntity
  8
AM_0
100
AcDbLine
 10
-76.42647000000001
 20
-50.98904
 30
0.0
 11
-76.03774
 21
-50.91504
 31
0.0
  0
LINE
  5
1CE
330
F3
100
AcDbEntity
  8
AM_0
100
AcDbLine
 10
-77.04844
 20
-50.98904
 30
0.0
 11
-76.42647000000001
 21
-50.98904
 31
0.0
  0
LINE
  5
1CF
330
F3
100
AcDbEntity
  8
AM_0
100
AcDbLine
 10
-77.43717000000001
 20
-50.91504
 30
0.0
 11
-77.04844
 21
-50.98904
 31
0.0
  0
LINE
  5
1D0
330
F3
100
AcDbEntity
  8
AM_0
100
AcDbLine
 10
-77.74816
 20
-50.76703
 30
0.0
 11
-77.43717000000001
 21
-50.91504
 31
0.0
  0
LINE
  5
1D1
330
F3
100
AcDbEntity
  8
AM_0
100
AcDbLine
 10
-78.05914
 20
-50.47103
 30
0.0
 11
-77.74816
 21
-50.76703
 31
0.0
  0
LINE
  5
1D2
330
F3
100
AcDbEntity
  8
AM_0
100
AcDbLine
 10
-78.21464
 20
-50.17502000000001
 30
0.0
 11
-78.05914
 21
-50.47103
 31
0.0
  0
LINE
  5
1D3
330
F3
100
AcDbEntity
  8
AM_0
100
AcDbLine
 10
-78.29238000000001
 20
-49.805012
 30
0.0
 11
-78.21464
 21
-50.17502000000001
 31
0.0
  0
LINE
  5
1D4
330
F3
100
AcDbEntity
  8
AM_0
100
AcDbLine
 10
-80.15829000000001
 20
-47.51096
 30
0.0
 11
-82.02420000000001
 21
-47.51096
 31
0.0
  0
LINE
  5
1D5
330
F3
100
AcDbEntity
  8
AM_0
100
AcDbLine
 10
-79.76956
 20
-47.58496
 30
0.0
 11
-80.15829000000001
 21
-47.51096
 31
0.0
  0
LINE
  5
1D6
330
F3
100
AcDbEntity
  8
AM_0
100
AcDbLine
 10
-79.45858
 20
-47.73297
 30
0.0
 11
-79.76956
 21
-47.58496
 31
0.0
  0
LINE
  5
1D7
330
F3
100
AcDbEntity
  8
AM_0
100
AcDbLine
 10
-79.14759000000001
 20
-48.02897
 30
0.0
 11
-79.45858
 21
-47.73297
 31
0.0
  0
LINE
  5
1D8
330
F3
100
AcDbEntity
  8
AM_0
100
AcDbLine
 10
-78.99210000000001
 20
-48.32498
 30
0.0
 11
-79.14759000000001
 21
-48.02897
 31
0.0
  0
LINE
  5
1D9
330
F3
100
AcDbEntity
  8
AM_0
100
AcDbLine
 10
-78.91435
 20
-48.694988
 30
0.0
 11
-78.99210000000001
 21
-48.32498
 31
0.0
  0
LINE
  5
1DA
330
F3
100
AcDbEntity
  8
AM_0
100
AcDbLine
 10
-78.91435
 20
-49.805012
 30
0.0
 11
-78.91435
 21
-48.694988
 31
0.0
  0
LINE
  5
1DB
330
F3
100
AcDbEntity
  8
AM_0
100
AcDbLine
 10
-78.99210000000001
 20
-50.17502000000001
 30
0.0
 11
-78.91435
 21
-49.805012
 31
0.0
  0
LINE
  5
1DC
330
F3
100
AcDbEntity
  8
AM_0
100
AcDbLine
 10
-79.14759000000001
 20
-50.47103
 30
0.0
 11
-78.99210000000001
 21
-50.17502000000001
 31
0.0
  0
LINE
  5
1DD
330
F3
100
AcDbEntity
  8
AM_0
100
AcDbLine
 10
-79.45858
 20
-50.76703
 30
0.0
 11
-79.14759000000001
 21
-50.47103
 31
0.0
  0
LINE
  5
1DE
330
F3
100
AcDbEntity
  8
AM_0
100
AcDbLine
 10
-79.76956
 20
-50.91504
 30
0.0
 11
-79.45858
 21
-50.76703
 31
0.0
  0
LINE
  5
1DF
330
F3
100
AcDbEntity
  8
AM_0
100
AcDbLine
 10
-80.15829000000001
 20
-50.98904
 30
0.0
 11
-79.76956
 21
-50.91504
 31
0.0
  0
LINE
  5
1E0
330
F3
100
AcDbEntity
  8
AM_0
100
AcDbLine
 10
-82.02420000000001
 20
-50.98904
 30
0.0
 11
-80.15829000000001
 21
-50.98904
 31
0.0
  0
LINE
  5
1E1
330
F3
100
AcDbEntity
  8
AM_0
100
AcDbLine
 10
-82.02420000000001
 20
-47.51096
 30
0.0
 11
-82.02420000000001
 21
-50.98904
 31
0.0
  0
LINE
  5
1E2
330
F3
100
AcDbEntity
  8
AM_0
100
AcDbLine
 10
-36.25112327841982
 20
-57.2
 30
0.0
 11
-36.25112327841982
 21
-41.3
 31
0.0
  0
LINE
  5
1E3
330
F3
100
AcDbEntity
  8
AM_0
100
AcDbLine
 10
-100.1
 20
-41.3
 30
0.0
 11
-36.25112327841982
 21
-41.3
 31
0.0
  0
LINE
  5
1E4
330
F3
100
AcDbEntity
  8
AM_0
100
AcDbLine
 10
-96.4375
 20
-57.2
 30
0.0
 11
-96.4375
 21
-41.3
 31
0.0
  0
ENDBLK
  5
F6
330
F3
100
AcDbEntity
  8
0
100
AcDbBlockEnd
  0
ENDSEC
  0
SECTION
  2
ENTITIES
  0
ATTDEF
  5
6F
330
1F
100
AcDbEntity
  8
AM_6
100
AcDbText
 10
106.6
 20
52.29999932565045
 30
0.0
 40
0.5
  1
Grip Tight Two-Bolt Pillow Block - Stainless Housing, Corrision Resistant Insert Metric Bore
100
AcDbAttributeDefinition
  3

  2
NN
 70
     8
280
     0
  0
ATTDEF
  5
70
330
1F
100
AcDbEntity
  8
AM_6
100
AcDbText
 10
106.6
 20
51.79999932565045
 30
0.0
 40
0.5
  1
GTEZ Normal Duty Stainless Steel Housed Pillow Blocks
100
AcDbAttributeDefinition
  3

  2
NT
 70
     8
280
     0
  0
ATTDEF
  5
71
330
1F
100
AcDbEntity
  8
AM_6
100
AcDbText
 10
106.6
 20
51.29999932565045
 30
0.0
 40
0.5
  1
 129275
100
AcDbAttributeDefinition
  3

  2
NB
 70
     8
280
     0
  0
ATTDEF
  5
72
330
1F
100
AcDbEntity
  8
AM_6
100
AcDbText
 10
106.6
 20
50.79999932565045
 30
0.0
 40
0.5
  1
 $PN.$LUBE.
100
AcDbAttributeDefinition
  3

  2
NBSYN
 70
     8
280
     0
  0
ATTDEF
  5
73
330
1F
100
AcDbEntity
  8
AM_6
100
AcDbText
 10
106.6
 20
50.29999932565045
 30
0.0
 40
0.5
  1
 129275
100
AcDbAttributeDefinition
  3

  2
LINA
 70
     8
280
     0
  0
ATTDEF
  5
74
330
1F
100
AcDbEntity
  8
AM_6
100
AcDbText
 10
106.6
 20
49.79999932565045
 30
0.0
 40
0.5
  1
210
100
AcDbAttributeDefinition
  3

  2
SERIES
 70
     8
280
     0
  0
ATTDEF
  5
75
330
1F
100
AcDbEntity
  8
AM_6
100
AcDbText
 10
106.6
 20
49.29999932565045
 30
0.0
 40
0.5
  1
50
100
AcDbAttributeDefinition
  3

  2
SS
 70
     8
280
     0
  0
ATTDEF
  5
76
330
1F
100
AcDbEntity
  8
AM_6
100
AcDbText
 10
106.6
 20
48.79999932565045
 30
0.0
 40
0.5
  1
129275
100
AcDbAttributeDefinition
  3

  2
PN
 70
     8
280
     0
  0
ATTDEF
  5
77
330
1F
100
AcDbEntity
  8
AM_6
100
AcDbText
 10
106.6
 20
48.29999932565045
 30
0.0
 40
0.5
  1
P2B-GTEZ-50M-SHCR
100
AcDbAttributeDefinition
  3

  2
DESCRIPTION
 70
     8
280
     0
  0
ATTDEF
  5
78
330
1F
100
AcDbEntity
  8
AM_6
100
AcDbText
 10
106.6
 20
47.79999932565045
 30
0.0
 40
0.5
  1
47.2
100
AcDbAttributeDefinition
  3

  2
A
 70
     8
280
     0
  0
ATTDEF
  5
79
330
1F
100
AcDbEntity
  8
AM_6
100
AcDbText
 10
106.6
 20
47.29999932565045
 30
0.0
 40
0.5
  1
203.2
100
AcDbAttributeDefinition
  3

  2
B
 70
     8
280
     0
  0
ATTDEF
  5
7A
330
1F
100
AcDbEntity
  8
AM_6
100
AcDbText
 10
106.6
 20
46.79999932565045
 30
0.0
 40
0.5
  1
41.3
100
AcDbAttributeDefinition
  3

  2
C
 70
     8
280
     0
  0
ATTDEF
  5
7B
330
1F
100
AcDbEntity
  8
AM_6
100
AcDbText
 10
106.6
 20
46.29999932565045
 30
0.0
 40
0.5
  1
146.4
100
AcDbAttributeDefinition
  3

  2
DMIN
 70
     8
280
     0
  0
ATTDEF
  5
7C
330
1F
100
AcDbEntity
  8
AM_6
100
AcDbText
 10
106.6
 20
45.79999932565045
 30
0.0
 40
0.5
  1
169.9
100
AcDbAttributeDefinition
  3

  2
DMAX
 70
     8
280
     0
  0
ATTDEF
  5
7D
330
1F
100
AcDbEntity
  8
AM_6
100
AcDbText
 10
106.6
 20
45.29999932565045
 30
0.0
 40
0.5
  1
M16
100
AcDbAttributeDefinition
  3

  2
F
 70
     8
280
     0
  0
ATTDEF
  5
7E
330
1F
100
AcDbEntity
  8
AM_6
100
AcDbText
 10
106.6
 20
44.79999932565045
 30
0.0
 40
0.5
  1
29.0
100
AcDbAttributeDefinition
  3

  2
G
 70
     8
280
     0
  0
ATTDEF
  5
7F
330
1F
100
AcDbEntity
  8
AM_6
100
AcDbText
 10
106.6
 20
44.29999932565045
 30
0.0
 40
0.5
  1
15.9
100
AcDbAttributeDefinition
  3

  2
H
 70
     8
280
     0
  0
ATTDEF
  5
80
330
1F
100
AcDbEntity
  8
AM_6
100
AcDbText
 10
106.6
 20
43.79999932565045
 30
0.0
 40
0.5
  1
109.5
100
AcDbAttributeDefinition
  3

  2
J
 70
     8
280
     0
  0
ATTDEF
  5
81
330
1F
100
AcDbEntity
  8
AM_6
100
AcDbText
 10
106.6
 20
43.29999932565045
 30
0.0
 40
0.5
  1
74.6
100
AcDbAttributeDefinition
  3

  2
L
 70
     8
280
     0
  0
ATTDEF
  5
82
330
1F
100
AcDbEntity
  8
AM_6
100
AcDbText
 10
106.6
 20
42.79999932565045
 30
0.0
 40
0.5
  1
57.2
100
AcDbAttributeDefinition
  3

  2
M
 70
     8
280
     0
  0
ATTDEF
  5
83
330
1F
100
AcDbEntity
  8
AM_6
100
AcDbText
 10
106.6
 20
42.29999932565045
 30
0.0
 40
0.5
  1
16.7
100
AcDbAttributeDefinition
  3

  2
R
 70
     8
280
     0
  0
ATTDEF
  5
84
330
1F
100
AcDbEntity
  8
AM_6
100
AcDbText
 10
106.6
 20
41.79999932565045
 30
0.0
 40
0.5
  1
30.6
100
AcDbAttributeDefinition
  3

  2
S
 70
     8
280
     0
  0
ATTDEF
  5
85
330
1F
100
AcDbEntity
  8
AM_6
100
AcDbText
 10
106.6
 20
41.29999932565045
 30
0.0
 40
0.5
  1
29.4
100
AcDbAttributeDefinition
  3

  2
Z
 70
     8
280
     0
  0
ATTDEF
  5
86
330
1F
100
AcDbEntity
  8
AM_6
100
AcDbText
 10
106.6
 20
40.79999932565045
 30
0.0
 40
0.5
  1
baldor
100
AcDbAttributeDefinition
  3

  2
COMPANY
 70
     8
280
     0
  0
INSERT
  5
88
330
1F
100
AcDbEntity
  8
0
100
AcDbBlockReference
  2
1_INS_GT_10_CR_0_in__129275_0
 10
0.0
 20
0.0
 30
0.0
  0
INSERT
  5
B4
330
1F
100
AcDbEntity
  8
0
100
AcDbBlockReference
  2
2_129986_0_in__129275_0
 10
0.0
 20
0.0
 30
0.0
  0
INSERT
  5
F4
330
1F
100
AcDbEntity
  8
0
100
AcDbBlockReference
  2
3_P2B_GTEZ_10_SHCR_0_in__129275_0
 10
0.0
 20
0.0
 30
0.0
  0
POINT
  5
1E6
330
1F
100
AcDbEntity
  8
ConnectionPoints
100
AcDbPoint
 10
0.0
 20
0.0
 30
0.0
  0
POINT
  5
1E7
330
1F
100
AcDbEntity
  8
ConnectionPoints
100
AcDbPoint
 10
0.0
 20
0.0
 30
-16.7
  0
POINT
  5
1E8
330
1F
100
AcDbEntity
  8
ConnectionPoints
100
AcDbPoint
 10
0.0
 20
0.0
 30
0.0
  0
ENDSEC
  0
SECTION
  2
OBJECTS
  0
DICTIONARY
  5
C
330
0
100
AcDbDictionary
281
     1
  3
ACAD_DETAILVIEWSTYLE
350
1F0
  3
ACAD_GROUP
350
D
  3
ACAD_LAYOUT
350
1A
  3
ACAD_MATERIAL
350
43
  3
ACAD_MLEADERSTYLE
350
6B
  3
ACAD_MLINESTYLE
350
17
  3
ACAD_PLOTSETTINGS
350
19
  3
ACAD_PLOTSTYLENAME
350
E
  3
ACAD_SCALELIST
350
47
  3
ACAD_SECTIONVIEWSTYLE
350
1F1
  3
ACAD_TABLESTYLE
350
69
  3
ACAD_VISUALSTYLE
350
2A
  3
ACDB_RECOMPOSE_DATA
350
1ED
  3
AcDbVariableDictionary
350
1E9
  0
SUN
  5
6D
330
29
100
AcDbSun
 90
        1
290
     0
 63
     7
421
 16777215
 40
1.0
291
     1
 91
  2455826
 92
 54000000
292
     0
 70
     2
 71
   256
280
     1
  0
DICTIONARY
  5
1F0
102
{ACAD_REACTORS
330
C
102
}
330
C
100
AcDbDictionary
281
     1
  0
DICTIONARY
  5
D
102
{ACAD_REACTORS
330
C
102
}
330
C
100
AcDbDictionary
281
     1
  0
DICTIONARY
  5
1A
102
{ACAD_REACTORS
330
C
102
}
330
C
100
AcDbDictionary
281
     1
  3
Layout1
350
1E
  3
Layout2
350
26
  3
Model
350
22
  0
DICTIONARY
  5
43
102
{ACAD_REACTORS
330
C
102
}
330
C
100
AcDbDictionary
281
     1
  3
ByBlock
350
45
  3
ByLayer
350
44
  3
Global
350
46
  0
DICTIONARY
  5
6B
102
{ACAD_REACTORS
330
C
102
}
330
C
100
AcDbDictionary
281
     1
  3
Standard
350
6C
  0
DICTIONARY
  5
17
102
{ACAD_REACTORS
330
C
102
}
330
C
100
AcDbDictionary
281
     1
  3
Standard
350
18
  0
DICTIONARY
  5
19
102
{ACAD_REACTORS
330
C
102
}
330
C
100
AcDbDictionary
281
     1
  0
ACDBDICTIONARYWDFLT
  5
E
102
{ACAD_REACTORS
330
C
102
}
330
C
100
AcDbDictionary
281
     1
  3
Normal
350
F
100
AcDbDictionaryWithDefault
340
F
  0
DICTIONARY
  5
47
102
{ACAD_REACTORS
330
C
102
}
330
C
100
AcDbDictionary
281
     1
  3
A0
350
48
  3
A1
350
49
  3
A2
350
4A
  3
A3
350
4B
  3
A4
350
4C
  3
A5
350
4D
  3
A6
350
4E
  3
A7
350
4F
  3
A8
350
50
  3
A9
350
51
  3
B0
350
52
  3
B1
350
53
  3
B2
350
54
  3
B3
350
55
  3
B4
350
56
  3
B5
350
57
  3
B6
350
58
  3
B7
350
59
  3
B8
350
5A
  3
B9
350
5B
  3
C0
350
5C
  3
C1
350
5D
  3
C2
350
5E
  3
C3
350
5F
  3
C4
350
60
  3
C5
350
61
  3
C6
350
62
  3
C7
350
63
  3
C8
350
64
  3
C9
350
65
  3
D0
350
66
  3
D1
350
67
  3
D2
350
68
  0
DICTIONARY
  5
1F1
102
{ACAD_REACTORS
330
C
102
}
330
C
100
AcDbDictionary
281
     1
  0
DICTIONARY
  5
69
102
{ACAD_REACTORS
330
C
102
}
330
C
100
AcDbDictionary
281
     1
  3
Standard
350
6A
  0
DICTIONARY
  5
2A
102
{ACAD_REACTORS
330
C
102
}
330
C
100
AcDbDictionary
281
     1
  3
2dWireframe
350
2F
  3
Basic
350
32
  3
Brighten
350
36
  3
ColorChange
350
3A
  3
Conceptual
350
34
  3
Dim
350
35
  3
EdgeColorOff
350
3D
  3
Facepattern
350
39
  3
Flat
350
2B
  3
FlatWithEdges
350
2C
  3
Gouraud
350
2D
  3
GouraudWithEdges
350
2E
  3
Hidden
350
31
  3
JitterOff
350
3B
  3
Linepattern
350
38
  3
OverhangOff
350
3C
  3
Realistic
350
33
  3
Shaded
350
42
  3
Shaded with edges
350
41
  3
Shades of Gray
350
3E
  3
Sketchy
350
3F
  3
Thicken
350
37
  3
Wireframe
350
30
  3
X-Ray
350
40
  0
XRECORD
  5
1ED
102
{ACAD_REACTORS
330
C
102
}
330
C
100
AcDbXrecord
280
     1
 90
        1
330
6A
  0
DICTIONARY
  5
1E9
102
{ACAD_REACTORS
330
C
102
}
330
C
100
AcDbDictionary
281
     1
  3
CANNOSCALE
350
1EA
  3
CMLEADERSTYLE
350
1EF
  3
CTABLESTYLE
350
1EE
  3
SECTIONTHICKNESSINC
350
1F2
  0
LAYOUT
  5
1E
102
{ACAD_REACTORS
330
1A
102
}
330
1A
100
AcDbPlotSettings
  1

  2
none_device
  4

  6

 40
0.0
 41
0.0
 42
0.0
 43
0.0
 44
0.0
 45
0.0
 46
0.0
 47
0.0
 48
0.0
 49
0.0
140
0.0
141
0.0
142
1.0
143
1.0
 70
   688
 72
     1
 73
     0
 74
     5
  7

 75
    16
 76
     0
 77
     2
 78
   300
147
1.0
148
0.0
149
0.0
100
AcDbLayout
  1
Layout1
 70
     1
 71
     1
 10
0.0
 20
0.0
 11
420.0
 21
297.0
 12
0.0
 22
0.0
 32
0.0
 14
1.000000000000000E+20
 24
1.000000000000000E+20
 34
1.000000000000000E+20
 15
-1.000000000000000E+20
 25
-1.000000000000000E+20
 35
-1.000000000000000E+20
146
0.0
 13
0.0
 23
0.0
 33
0.0
 16
1.0
 26
0.0
 36
0.0
 17
0.0
 27
1.0
 37
0.0
 76
     0
330
1B
  0
LAYOUT
  5
26
102
{ACAD_REACTORS
330
1A
102
}
330
1A
100
AcDbPlotSettings
  1

  2
none_device
  4

  6

 40
0.0
 41
0.0
 42
0.0
 43
0.0
 44
0.0
 45
0.0
 46
0.0
 47
0.0
 48
0.0
 49
0.0
140
0.0
141
0.0
142
1.0
143
1.0
 70
   688
 72
     1
 73
     0
 74
     5
  7

 75
    16
 76
     0
 77
     2
 78
   300
147
1.0
148
0.0
149
0.0
100
AcDbLayout
  1
Layout2
 70
     1
 71
     2
 10
0.0
 20
0.0
 11
0.0
 21
0.0
 12
0.0
 22
0.0
 32
0.0
 14
0.0
 24
0.0
 34
0.0
 15
0.0
 25
0.0
 35
0.0
146
0.0
 13
0.0
 23
0.0
 33
0.0
 16
1.0
 26
0.0
 36
0.0
 17
0.0
 27
1.0
 37
0.0
 76
     0
330
23
  0
LAYOUT
  5
22
102
{ACAD_REACTORS
330
1A
102
}
330
1A
100
AcDbPlotSettings
  1

  2
none_device
  4
Letter_(8.50_x_11.00_Inches)
  6

 40
6.35
 41
6.35
 42
6.35000508
 43
6.35000508
 44
215.9
 45
279.4
 46
0.0
 47
0.0
 48
0.0
 49
0.0
140
0.0
141
0.0
142
1.0
143
1.0
 70
  1712
 72
     1
 73
     0
 74
     0
  7

 75
     0
 76
     0
 77
     2
 78
   300
147
1.0
148
0.0
149
0.0
100
AcDbLayout
  1
Model
 70
     1
 71
     0
 10
0.0
 20
0.0
 11
420.0
 21
297.0
 12
0.0
 22
0.0
 32
0.0
 14
1.000000000000000E+20
 24
1.000000000000000E+20
 34
1.000000000000000E+20
 15
-1.000000000000000E+20
 25
-1.000000000000000E+20
 35
-1.000000000000000E+20
146
0.0
 13
0.0
 23
0.0
 33
0.0
 16
1.0
 26
0.0
 36
0.0
 17
0.0
 27
1.0
 37
0.0
 76
     0
330
1F
331
29
  0
MATERIAL
  5
45
102
{ACAD_REACTORS
330
43
102
}
330
43
100
AcDbMaterial
  1
ByBlock
 72
     1
 94
      127
  0
MATERIAL
  5
44
102
{ACAD_REACTORS
330
43
102
}
330
43
100
AcDbMaterial
  1
ByLayer
 72
     1
 94
      127
  0
MATERIAL
  5
46
102
{ACAD_REACTORS
330
43
102
}
330
43
100
AcDbMaterial
  1
Global
 72
     1
 94
      127
  0
MLEADERSTYLE
  5
6C
102
{ACAD_REACTORS
330
6B
102
}
330
6B
100
AcDbMLeaderStyle
179
     2
170
     2
171
     1
172
     0
 90
        2
 40
0.0
 41
0.0
173
     1
 91
-1056964608
340
14
 92
       -2
290
     1
 42
2.0
291
     1
 43
8.0
  3
Standard
341
0
 44
4.0
300

342
11
174
     1
178
     6
175
     1
176
     0
 93
-1056964608
 45
4.0
292
     0
297
     0
 46
4.0
343
0
 94
-1056964608
 47
1.0
 49
1.0
140
1.0
293
     1
141
0.0
294
     1
177
     0
142
1.0
295
     0
296
     0
143
3.75
271
     0
272
     9
273
     9
298
     0
  0
MLINESTYLE
  5
18
102
{ACAD_REACTORS
330
17
102
}
330
17
100
AcDbMlineStyle
  2
Standard
 70
     0
  3

 62
   256
 51
90.0
 52
90.0
 71
     2
 49
0.5
 62
   256
  6
BYLAYER
 49
-0.5
 62
   256
  6
BYLAYER
  0
ACDBPLACEHOLDER
  5
F
102
{ACAD_REACTORS
330
E
102
}
330
E
  0
SCALE
  5
48
102
{ACAD_REACTORS
330
47
102
}
330
47
100
AcDbScale
 70
     0
300
1:1
140
1.0
141
1.0
290
     1
  0
SCALE
  5
49
102
{ACAD_REACTORS
330
47
102
}
330
47
100
AcDbScale
 70
     0
300
1:2
140
1.0
141
2.0
290
     0
  0
SCALE
  5
4A
102
{ACAD_REACTORS
330
47
102
}
330
47
100
AcDbScale
 70
     0
300
1:4
140
1.0
141
4.0
290
     0
  0
SCALE
  5
4B
102
{ACAD_REACTORS
330
47
102
}
330
47
100
AcDbScale
 70
     0
300
1:5
140
1.0
141
5.0
290
     0
  0
SCALE
  5
4C
102
{ACAD_REACTORS
330
47
102
}
330
47
100
AcDbScale
 70
     0
300
1:8
140
1.0
141
8.0
290
     0
  0
SCALE
  5
4D
102
{ACAD_REACTORS
330
47
102
}
330
47
100
AcDbScale
 70
     0
300
1:10
140
1.0
141
10.0
290
     0
  0
SCALE
  5
4E
102
{ACAD_REACTORS
330
47
102
}
330
47
100
AcDbScale
 70
     0
300
1:16
140
1.0
141
16.0
290
     0
  0
SCALE
  5
4F
102
{ACAD_REACTORS
330
47
102
}
330
47
100
AcDbScale
 70
     0
300
1:20
140
1.0
141
20.0
290
     0
  0
SCALE
  5
50
102
{ACAD_REACTORS
330
47
102
}
330
47
100
AcDbScale
 70
     0
300
1:30
140
1.0
141
30.0
290
     0
  0
SCALE
  5
51
102
{ACAD_REACTORS
330
47
102
}
330
47
100
AcDbScale
 70
     0
300
1:40
140
1.0
141
40.0
290
     0
  0
SCALE
  5
52
102
{ACAD_REACTORS
330
47
102
}
330
47
100
AcDbScale
 70
     0
300
1:50
140
1.0
141
50.0
290
     0
  0
SCALE
  5
53
102
{ACAD_REACTORS
330
47
102
}
330
47
100
AcDbScale
 70
     0
300
1:100
140
1.0
141
100.0
290
     0
  0
SCALE
  5
54
102
{ACAD_REACTORS
330
47
102
}
330
47
100
AcDbScale
 70
     0
300
2:1
140
2.0
141
1.0
290
     0
  0
SCALE
  5
55
102
{ACAD_REACTORS
330
47
102
}
330
47
100
AcDbScale
 70
     0
300
4:1
140
4.0
141
1.0
290
     0
  0
SCALE
  5
56
102
{ACAD_REACTORS
330
47
102
}
330
47
100
AcDbScale
 70
     0
300
8:1
140
8.0
141
1.0
290
     0
  0
SCALE
  5
57
102
{ACAD_REACTORS
330
47
102
}
330
47
100
AcDbScale
 70
     0
300
10:1
140
10.0
141
1.0
290
     0
  0
SCALE
  5
58
102
{ACAD_REACTORS
330
47
102
}
330
47
100
AcDbScale
 70
     0
300
100:1
140
100.0
141
1.0
290
     0
  0
SCALE
  5
59
102
{ACAD_REACTORS
330
47
102
}
330
47
100
AcDbScale
 70
     0
300
1/128" = 1'-0"
140
0.0078125
141
12.0
290
     0
  0
SCALE
  5
5A
102
{ACAD_REACTORS
330
47
102
}
330
47
100
AcDbScale
 70
     0
300
1/64" = 1'-0"
140
0.015625
141
12.0
290
     0
  0
SCALE
  5
5B
102
{ACAD_REACTORS
330
47
102
}
330
47
100
AcDbScale
 70
     0
300
1/32" = 1'-0"
140
0.03125
141
12.0
290
     0
  0
SCALE
  5
5C
102
{ACAD_REACTORS
330
47
102
}
330
47
100
AcDbScale
 70
     0
300
1/16" = 1'-0"
140
0.0625
141
12.0
290
     0
  0
SCALE
  5
5D
102
{ACAD_REACTORS
330
47
102
}
330
47
100
AcDbScale
 70
     0
300
3/32" = 1'-0"
140
0.09375
141
12.0
290
     0
  0
SCALE
  5
5E
102
{ACAD_REACTORS
330
47
102
}
330
47
100
AcDbScale
 70
     0
300
1/8" = 1'-0"
140
0.125
141
12.0
290
     0
  0
SCALE
  5
5F
102
{ACAD_REACTORS
330
47
102
}
330
47
100
AcDbScale
 70
     0
300
3/16" = 1'-0"
140
0.1875
141
12.0
290
     0
  0
SCALE
  5
60
102
{ACAD_REACTORS
330
47
102
}
330
47
100
AcDbScale
 70
     0
300
1/4" = 1'-0"
140
0.25
141
12.0
290
     0
  0
SCALE
  5
61
102
{ACAD_REACTORS
330
47
102
}
330
47
100
AcDbScale
 70
     0
300
3/8" = 1'-0"
140
0.375
141
12.0
290
     0
  0
SCALE
  5
62
102
{ACAD_REACTORS
330
47
102
}
330
47
100
AcDbScale
 70
     0
300
1/2" = 1'-0"
140
0.5
141
12.0
290
     0
  0
SCALE
  5
63
102
{ACAD_REACTORS
330
47
102
}
330
47
100
AcDbScale
 70
     0
300
3/4" = 1'-0"
140
0.75
141
12.0
290
     0
  0
SCALE
  5
64
102
{ACAD_REACTORS
330
47
102
}
330
47
100
AcDbScale
 70
     0
300
1" = 1'-0"
140
1.0
141
12.0
290
     0
  0
SCALE
  5
65
102
{ACAD_REACTORS
330
47
102
}
330
47
100
AcDbScale
 70
     0
300
1-1/2" = 1'-0"
140
1.5
141
12.0
290
     0
  0
SCALE
  5
66
102
{ACAD_REACTORS
330
47
102
}
330
47
100
AcDbScale
 70
     0
300
3" = 1'-0"
140
3.0
141
12.0
290
     0
  0
SCALE
  5
67
102
{ACAD_REACTORS
330
47
102
}
330
47
100
AcDbScale
 70
     0
300
6" = 1'-0"
140
6.0
141
12.0
290
     0
  0
SCALE
  5
68
102
{ACAD_REACTORS
330
47
102
}
330
47
100
AcDbScale
 70
     0
300
1'-0" = 1'-0"
140
12.0
141
12.0
290
     0
  0
TABLESTYLE
  5
6A
102
{ACAD_REACTORS
330
69
102
}
102
{ACAD_XDICTIONARY
360
1EB
102
}
330
69
100
AcDbTableStyle
  3
Standard
 70
     0
 71
     0
 40
0.06
 41
0.06
280
     0
281
     0
  7
Standard
140
4.5
170
     2
 62
     0
 63
   257
283
     0
 90
        4
 91
        0
  1

274
    -2
284
     1
 64
     0
275
    -2
285
     1
 65
     0
276
    -2
286
     1
 66
     0
277
    -2
287
     1
 67
     0
278
    -2
288
     1
 68
     0
279
    -2
289
     1
 69
     0
  7
Standard
140
6.0
170
     5
 62
     0
 63
   257
283
     0
 90
        4
 91
        0
  1

274
    -2
284
     1
 64
     0
275
    -2
285
     1
 65
     0
276
    -2
286
     1
 66
     0
277
    -2
287
     1
 67
     0
278
    -2
288
     1
 68
     0
279
    -2
289
     1
 69
     0
  7
Standard
140
4.5
170
     5
 62
     0
 63
   257
283
     0
 90
        4
 91
        0
  1

274
    -2
284
     1
 64
     0
275
    -2
285
     1
 65
     0
276
    -2
286
     1
 66
     0
277
    -2
287
     1
 67
     0
278
    -2
288
     1
 68
     0
279
    -2
289
     1
 69
     0
  0
VISUALSTYLE
  5
2F
102
{ACAD_REACTORS
330
2A
102
}
330
2A
100
AcDbVisualStyle
  2
2dWireframe
 70
     4
177
     3
291
     0
 70
    58
 90
        0
176
     1
 90
        2
176
     1
 90
        0
176
     1
 90
        0
176
     1
 40
0.6
176
     1
 40
30.0
176
     1
 62
     7
420
 16777215
176
     1
 90
        1
176
     1
 90
        4
176
     1
 62
     7
176
     1
 62
   257
176
     1
 90
        1
176
     1
 90
        1
176
     1
 40
1.0
176
     1
 90
        0
176
     1
 62
   257
176
     1
 40
1.0
176
     1
 90
        1
176
     1
 90
        6
176
     1
 90
        2
176
     1
 62
     7
176
     1
 90
        5
176
     1
 90
        0
176
     1
 90
        0
176
     1
290
     0
176
     1
 90
        1
176
     1
 40
0.0
176
     1
 90
        0
176
     1
290
     1
176
     1
290
     1
176
     1
290
     0
176
     1
290
     0
176
     1
290
     0
176
     1
290
     0
176
     1
290
     0
176
     1
290
     0
176
     1
290
     0
176
     1
 90
       50
176
     1
 40
0.0
176
     1
 40
1.0
176
     1
 90
        0
176
     1
 62
    18
420
        0
176
     1
 90
       50
176
     1
 90
        3
176
     1
 62
     5
420
      255
176
     1
290
     0
176
     1
 90
       50
176
     1
 90
       50
176
     1
 90
       50
176
     1
290
     0
176
     1
 90
       50
176
     1
 62
   256
176
     0
 40
1.0
176
     0
 90
        2
176
     1
  1
strokes_ogs.tif
176
     1
290
     0
176
     1
 40
1.0
176
     1
 40
1.0
176
     1
  0
VISUALSTYLE
  5
32
102
{ACAD_REACTORS
330
2A
102
}
330
2A
100
AcDbVisualStyle
  2
Basic
 70
     7
177
     3
291
     1
 70
    58
 90
        1
176
     1
 90
        0
176
     1
 90
        1
176
     1
 90
        0
176
     1
 40
0.6
176
     1
 40
30.0
176
     1
 62
     7
420
 16777215
176
     1
 90
        0
176
     1
 90
        4
176
     1
 62
     7
176
     1
 62
   257
176
     1
 90
        1
176
     1
 90
        1
176
     1
 40
1.0
176
     1
 90
        8
176
     1
 62
     7
176
     1
 40
1.0
176
     1
 90
        1
176
     1
 90
        6
176
     1
 90
        2
176
     1
 62
     7
176
     1
 90
        5
176
     1
 90
        0
176
     1
 90
        0
176
     1
290
     0
176
     1
 90
        1
176
     1
 40
0.0
176
     1
 90
        0
176
     1
290
     0
176
     1
290
     1
176
     1
290
     1
176
     1
290
     0
176
     1
290
     0
176
     1
290
     0
176
     1
290
     0
176
     1
290
     0
176
     1
290
     0
176
     1
 90
       50
176
     1
 40
0.0
176
     1
 40
1.0
176
     1
 90
        0
176
     1
 62
    18
420
        0
176
     1
 90
       50
176
     1
 90
        3
176
     1
 62
     5
420
      255
176
     1
290
     0
176
     1
 90
       50
176
     1
 90
       50
176
     1
 90
       50
176
     1
290
     0
176
     1
 90
       50
176
     1
 62
   256
176
     0
 40
1.0
176
     0
 90
        2
176
     1
  1
strokes_ogs.tif
176
     1
290
     0
176
     1
 40
1.0
176
     1
 40
1.0
176
     1
  0
VISUALSTYLE
  5
36
102
{ACAD_REACTORS
330
2A
102
}
330
2A
100
AcDbVisualStyle
  2
Brighten
 70
    12
177
     3
291
     1
 70
    58
 90
        2
176
     1
 90
        2
176
     1
 90
        0
176
     1
 90
        0
176
     1
 40
0.6
176
     1
 40
30.0
176
     1
 62
     7
420
 16777215
176
     1
 90
        1
176
     1
 90
        4
176
     1
 62
     7
176
     1
 62
   257
176
     1
 90
        1
176
     1
 90
        1
176
     1
 40
1.0
176
     1
 90
        8
176
     1
 62
     7
176
     1
 40
1.0
176
     1
 90
        1
176
     1
 90
        6
176
     1
 90
        2
176
     1
 62
     7
176
     1
 90
        5
176
     1
 90
        0
176
     1
 90
        0
176
     1
290
     0
176
     1
 90
        1
176
     1
 40
50.0
176
     1
 90
        0
176
     1
290
     0
176
     1
290
     1
176
     1
290
     1
176
     1
290
     0
176
     1
290
     0
176
     1
290
     0
176
     1
290
     0
176
     1
290
     0
176
     1
290
     0
176
     1
 90
       50
176
     1
 40
0.0
176
     1
 40
1.0
176
     1
 90
        0
176
     1
 62
    18
420
        0
176
     1
 90
       50
176
     1
 90
        3
176
     1
 62
     5
420
      255
176
     1
290
     0
176
     1
 90
       50
176
     1
 90
       50
176
     1
 90
       50
176
     1
290
     0
176
     1
 90
       50
176
     1
 62
   256
176
     0
 40
1.0
176
     0
 90
        2
176
     1
  1
strokes_ogs.tif
176
     1
290
     0
176
     1
 40
1.0
176
     1
 40
1.0
176
     1
  0
VISUALSTYLE
  5
3A
102
{ACAD_REACTORS
330
2A
102
}
330
2A
100
AcDbVisualStyle
  2
ColorChange
 70
    16
177
     3
291
     1
 70
    58
 90
        2
176
     1
 90
        2
176
     1
 90
        3
176
     1
 90
        0
176
     1
 40
0.6
176
     1
 40
30.0
176
     1
 62
     8
420
  8421504
176
     1
 90
        1
176
     1
 90
        4
176
     1
 62
     7
176
     1
 62
   257
176
     1
 90
        1
176
     1
 90
        1
176
     1
 40
1.0
176
     1
 90
        8
176
     1
 62
     8
420
  8421504
176
     1
 40
1.0
176
     1
 90
        1
176
     1
 90
        6
176
     1
 90
        2
176
     1
 62
     7
176
     1
 90
        5
176
     1
 90
        0
176
     1
 90
        0
176
     1
290
     0
176
     1
 90
        1
176
     1
 40
0.0
176
     1
 90
        0
176
     1
290
     0
176
     1
290
     1
176
     1
290
     1
176
     1
290
     0
176
     1
290
     0
176
     1
290
     0
176
     1
290
     0
176
     1
290
     0
176
     1
290
     0
176
     1
 90
       50
176
     1
 40
0.0
176
     1
 40
1.0
176
     1
 90
        0
176
     1
 62
    18
420
        0
176
     1
 90
       50
176
     1
 90
        3
176
     1
 62
     5
420
      255
176
     1
290
     0
176
     1
 90
       50
176
     1
 90
       50
176
     1
 90
       50
176
     1
290
     0
176
     1
 90
       50
176
     1
 62
   256
176
     0
 40
1.0
176
     0
 90
        2
176
     1
  1
strokes_ogs.tif
176
     1
290
     0
176
     1
 40
1.0
176
     1
 40
1.0
176
     1
  0
VISUALSTYLE
  5
34
102
{ACAD_REACTORS
330
2A
102
}
330
2A
100
AcDbVisualStyle
  2
Conceptual
 70
     9
177
     3
291
     0
 70
    58
 90
        3
176
     1
 90
        2
176
     1
 90
        0
176
     1
 90
        0
176
     1
 40
0.6
176
     1
 40
30.0
176
     1
 62
     7
420
 16777215
176
     1
 90
        2
176
     1
 90
        2
176
     1
 62
     7
176
     1
 62
   257
176
     1
 90
        1
176
     1
 90
        1
176
     1
 40
179.0
176
     1
 90
        8
176
     1
 62
     7
176
     1
 40
1.0
176
     1
 90
        1
176
     1
 90
        6
176
     1
 90
        2
176
     1
 62
     7
176
     1
 90
        3
176
     1
 90
        0
176
     1
 90
        0
176
     1
290
     0
176
     1
 90
        1
176
     1
 40
0.0
176
     1
 90
        0
176
     1
290
     0
176
     1
290
     1
176
     1
290
     1
176
     1
290
     0
176
     1
290
     0
176
     1
290
     0
176
     1
290
     0
176
     1
290
     0
176
     1
290
     0
176
     1
 90
       50
176
     1
 40
0.0
176
     1
 40
1.0
176
     1
 90
        0
176
     1
 62
    18
420
        0
176
     1
 90
       50
176
     1
 90
        3
176
     1
 62
     5
420
      255
176
     1
290
     0
176
     1
 90
       50
176
     1
 90
       50
176
     1
 90
       50
176
     1
290
     0
176
     1
 90
       50
176
     1
 62
   256
176
     0
 40
1.0
176
     0
 90
        2
176
     1
  1
strokes_ogs.tif
176
     1
290
     0
176
     1
 40
1.0
176
     1
 40
1.0
176
     1
  0
VISUALSTYLE
  5
35
102
{ACAD_REACTORS
330
2A
102
}
330
2A
100
AcDbVisualStyle
  2
Dim
 70
    11
177
     3
291
     1
 70
    58
 90
        2
176
     1
 90
        2
176
     1
 90
        0
176
     1
 90
        0
176
     1
 40
0.6
176
     1
 40
30.0
176
     1
 62
     7
420
 16777215
176
     1
 90
        1
176
     1
 90
        4
176
     1
 62
     7
176
     1
 62
   257
176
     1
 90
        1
176
     1
 90
        1
176
     1
 40
1.0
176
     1
 90
        8
176
     1
 62
     7
176
     1
 40
1.0
176
     1
 90
        1
176
     1
 90
        6
176
     1
 90
        2
176
     1
 62
     7
176
     1
 90
        5
176
     1
 90
        0
176
     1
 90
        0
176
     1
290
     0
176
     1
 90
        1
176
     1
 40
-50.0
176
     1
 90
        0
176
     1
290
     0
176
     1
290
     1
176
     1
290
     1
176
     1
290
     0
176
     1
290
     0
176
     1
290
     0
176
     1
290
     0
176
     1
290
     0
176
     1
290
     0
176
     1
 90
       50
176
     1
 40
0.0
176
     1
 40
1.0
176
     1
 90
        0
176
     1
 62
    18
420
        0
176
     1
 90
       50
176
     1
 90
        3
176
     1
 62
     5
420
      255
176
     1
290
     0
176
     1
 90
       50
176
     1
 90
       50
176
     1
 90
       50
176
     1
290
     0
176
     1
 90
       50
176
     1
 62
   256
176
     0
 40
1.0
176
     0
 90
        2
176
     1
  1
strokes_ogs.tif
176
     1
290
     0
176
     1
 40
1.0
176
     1
 40
1.0
176
     1
  0
VISUALSTYLE
  5
3D
102
{ACAD_REACTORS
330
2A
102
}
330
2A
100
AcDbVisualStyle
  2
EdgeColorOff
 70
    22
177
     3
291
     1
 70
    58
 90
        2
176
     0
 90
        2
176
     0
 90
        0
176
     0
 90
        0
176
     0
 40
0.6
176
     0
 40
30.0
176
     0
 62
     7
420
 16777215
176
     0
 90
        1
176
     0
 90
        4
176
     0
 62
     7
176
     0
 62
   257
176
     0
 90
        1
176
     0
 90
        1
176
     0
 40
1.0
176
     0
 90
        8
176
     2
 62
     7
176
     0
 40
1.0
176
     0
 90
        1
176
     0
 90
        6
176
     0
 90
        2
176
     0
 62
     7
176
     0
 90
        5
176
     0
 90
        0
176
     0
 90
        0
176
     0
290
     0
176
     0
 90
        1
176
     0
 40
0.0
176
     0
 90
        0
176
     0
290
     0
176
     0
290
     1
176
     0
290
     1
176
     0
290
     0
176
     0
290
     0
176
     0
290
     0
176
     0
290
     0
176
     0
290
     0
176
     0
290
     0
176
     0
 90
       50
176
     0
 40
0.0
176
     0
 40
1.0
176
     0
 90
        0
176
     0
 62
    18
420
        0
176
     0
 90
       50
176
     0
 90
        3
176
     0
 62
     5
420
      255
176
     0
290
     0
176
     0
 90
       50
176
     0
 90
       50
176
     0
 90
       50
176
     0
290
     0
176
     0
 90
       50
176
     0
 62
   256
176
     0
 40
1.0
176
     0
 90
        2
176
     0
  1
strokes_ogs.tif
176
     0
290
     0
176
     0
 40
1.0
176
     0
 40
1.0
176
     0
  0
VISUALSTYLE
  5
39
102
{ACAD_REACTORS
330
2A
102
}
330
2A
100
AcDbVisualStyle
  2
Facepattern
 70
    15
177
     3
291
     1
 70
    58
 90
        2
176
     1
 90
        2
176
     1
 90
        0
176
     1
 90
        0
176
     1
 40
0.6
176
     1
 40
30.0
176
     1
 62
     7
420
 16777215
176
     1
 90
        1
176
     1
 90
        4
176
     1
 62
     7
176
     1
 62
   257
176
     1
 90
        1
176
     1
 90
        1
176
     1
 40
1.0
176
     1
 90
        8
176
     1
 62
     7
176
     1
 40
1.0
176
     1
 90
        1
176
     1
 90
        6
176
     1
 90
        2
176
     1
 62
     7
176
     1
 90
        5
176
     1
 90
        0
176
     1
 90
        0
176
     1
290
     0
176
     1
 90
        1
176
     1
 40
0.0
176
     1
 90
        0
176
     1
290
     0
176
     1
290
     1
176
     1
290
     1
176
     1
290
     0
176
     1
290
     0
176
     1
290
     0
176
     1
290
     0
176
     1
290
     0
176
     1
290
     0
176
     1
 90
       50
176
     1
 40
0.0
176
     1
 40
1.0
176
     1
 90
        0
176
     1
 62
    18
420
        0
176
     1
 90
       50
176
     1
 90
        3
176
     1
 62
     5
420
      255
176
     1
290
     0
176
     1
 90
       50
176
     1
 90
       50
176
     1
 90
       50
176
     1
290
     0
176
     1
 90
       50
176
     1
 62
   256
176
     0
 40
1.0
176
     0
 90
        2
176
     1
  1
strokes_ogs.tif
176
     1
290
     0
176
     1
 40
1.0
176
     1
 40
1.0
176
     1
  0
VISUALSTYLE
  5
2B
102
{ACAD_REACTORS
330
2A
102
}
330
2A
100
AcDbVisualStyle
  2
Flat
 70
     0
177
     3
291
     1
 70
    58
 90
        2
176
     1
 90
        1
176
     1
 90
        1
176
     1
 90
        2
176
     1
 40
0.6
176
     1
 40
30.0
176
     1
 62
     7
420
 16777215
176
     1
 90
        0
176
     1
 90
        0
176
     1
 62
     7
176
     1
 62
   257
176
     1
 90
        1
176
     1
 90
        1
176
     1
 40
1.0
176
     1
 90
        8
176
     1
 62
     7
176
     1
 40
1.0
176
     1
 90
        1
176
     1
 90
        6
176
     1
 90
        2
176
     1
 62
     7
176
     1
 90
        5
176
     1
 90
        0
176
     1
 90
        0
176
     1
290
     0
176
     1
 90
       13
176
     1
 40
0.0
176
     1
 90
        0
176
     1
290
     0
176
     1
290
     1
176
     1
290
     1
176
     1
290
     0
176
     1
290
     0
176
     1
290
     0
176
     1
290
     0
176
     1
290
     0
176
     1
290
     0
176
     1
 90
       50
176
     1
 40
0.0
176
     1
 40
1.0
176
     1
 90
        0
176
     1
 62
    18
420
        0
176
     1
 90
       50
176
     1
 90
        3
176
     1
 62
     5
420
      255
176
     1
290
     0
176
     1
 90
       50
176
     1
 90
       50
176
     1
 90
       50
176
     1
290
     0
176
     1
 90
       50
176
     1
 62
   256
176
     0
 40
1.0
176
     0
 90
        2
176
     1
  1
strokes_ogs.tif
176
     1
290
     0
176
     1
 40
1.0
176
     1
 40
1.0
176
     1
  0
VISUALSTYLE
  5
2C
102
{ACAD_REACTORS
330
2A
102
}
330
2A
100
AcDbVisualStyle
  2
FlatWithEdges
 70
     1
177
     3
291
     1
 70
    58
 90
        2
176
     1
 90
        1
176
     1
 90
        1
176
     1
 90
        2
176
     1
 40
0.6
176
     1
 40
30.0
176
     1
 62
     7
420
 16777215
176
     1
 90
        1
176
     1
 90
        0
176
     1
 62
     7
176
     1
 62
   257
176
     1
 90
        1
176
     1
 90
        1
176
     1
 40
1.0
176
     1
 90
        0
176
     1
 62
   257
176
     1
 40
1.0
176
     1
 90
        1
176
     1
 90
        6
176
     1
 90
        2
176
     1
 62
     7
176
     1
 90
        5
176
     1
 90
        0
176
     1
 90
        0
176
     1
290
     0
176
     1
 90
       13
176
     1
 40
0.0
176
     1
 90
        0
176
     1
290
     0
176
     1
290
     1
176
     1
290
     1
176
     1
290
     0
176
     1
290
     0
176
     1
290
     0
176
     1
290
     0
176
     1
290
     0
176
     1
290
     0
176
     1
 90
       50
176
     1
 40
0.0
176
     1
 40
1.0
176
     1
 90
        0
176
     1
 62
    18
420
        0
176
     1
 90
       50
176
     1
 90
        3
176
     1
 62
     5
420
      255
176
     1
290
     0
176
     1
 90
       50
176
     1
 90
       50
176
     1
 90
       50
176
     1
290
     0
176
     1
 90
       50
176
     1
 62
   256
176
     0
 40
1.0
176
     0
 90
        2
176
     1
  1
strokes_ogs.tif
176
     1
290
     0
176
     1
 40
1.0
176
     1
 40
1.0
176
     1
  0
VISUALSTYLE
  5
2D
102
{ACAD_REACTORS
330
2A
102
}
330
2A
100
AcDbVisualStyle
  2
Gouraud
 70
     2
177
     3
291
     1
 70
    58
 90
        2
176
     1
 90
        2
176
     1
 90
        1
176
     1
 90
        2
176
     1
 40
0.6
176
     1
 40
30.0
176
     1
 62
     7
420
 16777215
176
     1
 90
        0
176
     1
 90
        0
176
     1
 62
     7
176
     1
 62
   257
176
     1
 90
        1
176
     1
 90
        1
176
     1
 40
1.0
176
     1
 90
        0
176
     1
 62
     7
176
     1
 40
1.0
176
     1
 90
        1
176
     1
 90
        6
176
     1
 90
        2
176
     1
 62
     7
176
     1
 90
        5
176
     1
 90
        0
176
     1
 90
        0
176
     1
290
     0
176
     1
 90
       13
176
     1
 40
0.0
176
     1
 90
        0
176
     1
290
     0
176
     1
290
     1
176
     1
290
     1
176
     1
290
     0
176
     1
290
     0
176
     1
290
     0
176
     1
290
     0
176
     1
290
     0
176
     1
290
     0
176
     1
 90
       50
176
     1
 40
0.0
176
     1
 40
1.0
176
     1
 90
        0
176
     1
 62
    18
420
        0
176
     1
 90
       50
176
     1
 90
        3
176
     1
 62
     5
420
      255
176
     1
290
     0
176
     1
 90
       50
176
     1
 90
       50
176
     1
 90
       50
176
     1
290
     0
176
     1
 90
       50
176
     1
 62
   256
176
     0
 40
1.0
176
     0
 90
        2
176
     1
  1
strokes_ogs.tif
176
     1
290
     0
176
     1
 40
1.0
176
     1
 40
1.0
176
     1
  0
VISUALSTYLE
  5
2E
102
{ACAD_REACTORS
330
2A
102
}
330
2A
100
AcDbVisualStyle
  2
GouraudWithEdges
 70
     3
177
     3
291
     1
 70
    58
 90
        2
176
     1
 90
        2
176
     1
 90
        1
176
     1
 90
        2
176
     1
 40
0.6
176
     1
 40
30.0
176
     1
 62
     7
420
 16777215
176
     1
 90
        1
176
     1
 90
        0
176
     1
 62
     7
176
     1
 62
   257
176
     1
 90
        1
176
     1
 90
        1
176
     1
 40
1.0
176
     1
 90
        0
176
     1
 62
   257
176
     1
 40
1.0
176
     1
 90
        1
176
     1
 90
        6
176
     1
 90
        2
176
     1
 62
     7
176
     1
 90
        5
176
     1
 90
        0
176
     1
 90
        0
176
     1
290
     0
176
     1
 90
       13
176
     1
 40
0.0
176
     1
 90
        0
176
     1
290
     0
176
     1
290
     1
176
     1
290
     1
176
     1
290
     0
176
     1
290
     0
176
     1
290
     0
176
     1
290
     0
176
     1
290
     0
176
     1
290
     0
176
     1
 90
       50
176
     1
 40
0.0
176
     1
 40
1.0
176
     1
 90
        0
176
     1
 62
    18
420
        0
176
     1
 90
       50
176
     1
 90
        3
176
     1
 62
     5
420
      255
176
     1
290
     0
176
     1
 90
       50
176
     1
 90
       50
176
     1
 90
       50
176
     1
290
     0
176
     1
 90
       50
176
     1
 62
   256
176
     0
 40
1.0
176
     0
 90
        2
176
     1
  1
strokes_ogs.tif
176
     1
290
     0
176
     1
 40
1.0
176
     1
 40
1.0
176
     1
  0
VISUALSTYLE
  5
31
102
{ACAD_REACTORS
330
2A
102
}
330
2A
100
AcDbVisualStyle
  2
Hidden
 70
     6
177
     3
291
     0
 70
    58
 90
        1
176
     1
 90
        2
176
     1
 90
        2
176
     1
 90
        0
176
     1
 40
0.6
176
     1
 40
30.0
176
     1
 62
     7
420
 16777215
176
     1
 90
        2
176
     1
 90
        2
176
     1
 62
     7
176
     1
 62
   257
176
     1
 90
        2
176
     1
 90
        1
176
     1
 40
40.0
176
     1
 90
        0
176
     1
 62
   257
176
     1
 40
1.0
176
     1
 90
        1
176
     1
 90
        6
176
     1
 90
        2
176
     1
 62
     7
176
     1
 90
        3
176
     1
 90
        0
176
     1
 90
        0
176
     1
290
     0
176
     1
 90
        1
176
     1
 40
0.0
176
     1
 90
        0
176
     1
290
     0
176
     1
290
     1
176
     1
290
     1
176
     1
290
     0
176
     1
290
     0
176
     1
290
     0
176
     1
290
     0
176
     1
290
     0
176
     1
290
     0
176
     1
 90
       50
176
     1
 40
0.0
176
     1
 40
1.0
176
     1
 90
        0
176
     1
 62
    18
420
        0
176
     1
 90
       50
176
     1
 90
        3
176
     1
 62
     5
420
      255
176
     1
290
     0
176
     1
 90
       50
176
     1
 90
       50
176
     1
 90
       50
176
     1
290
     0
176
     1
 90
       50
176
     1
 62
   256
176
     0
 40
1.0
176
     0
 90
        2
176
     1
  1
strokes_ogs.tif
176
     1
290
     0
176
     1
 40
1.0
176
     1
 40
1.0
176
     1
  0
VISUALSTYLE
  5
3B
102
{ACAD_REACTORS
330
2A
102
}
330
2A
100
AcDbVisualStyle
  2
JitterOff
 70
    20
177
     3
291
     1
 70
    58
 90
        2
176
     0
 90
        2
176
     0
 90
        0
176
     0
 90
        0
176
     0
 40
0.6
176
     0
 40
30.0
176
     0
 62
     7
420
 16777215
176
     0
 90
        1
176
     0
 90
        4
176
     0
 62
     7
176
     0
 62
   257
176
     0
 90
        1
176
     0
 90
        1
176
     0
 40
1.0
176
     0
 90
       10
176
     2
 62
     7
176
     0
 40
1.0
176
     0
 90
        1
176
     0
 90
        6
176
     0
 90
        2
176
     0
 62
     7
176
     0
 90
        5
176
     0
 90
        0
176
     0
 90
        0
176
     0
290
     0
176
     0
 90
        1
176
     0
 40
0.0
176
     0
 90
        0
176
     0
290
     0
176
     0
290
     1
176
     0
290
     1
176
     0
290
     0
176
     0
290
     0
176
     0
290
     0
176
     0
290
     0
176
     0
290
     0
176
     0
290
     0
176
     0
 90
       50
176
     0
 40
0.0
176
     0
 40
1.0
176
     0
 90
        0
176
     0
 62
    18
420
        0
176
     0
 90
       50
176
     0
 90
        3
176
     0
 62
     5
420
      255
176
     0
290
     0
176
     0
 90
       50
176
     0
 90
       50
176
     0
 90
       50
176
     0
290
     0
176
     0
 90
       50
176
     0
 62
   256
176
     0
 40
1.0
176
     0
 90
        2
176
     0
  1
strokes_ogs.tif
176
     0
290
     0
176
     0
 40
1.0
176
     0
 40
1.0
176
     0
  0
VISUALSTYLE
  5
38
102
{ACAD_REACTORS
330
2A
102
}
330
2A
100
AcDbVisualStyle
  2
Linepattern
 70
    14
177
     3
291
     1
 70
    58
 90
        2
176
     1
 90
        2
176
     1
 90
        0
176
     1
 90
        0
176
     1
 40
0.6
176
     1
 40
30.0
176
     1
 62
     7
420
 16777215
176
     1
 90
        1
176
     1
 90
        4
176
     1
 62
     7
176
     1
 62
   257
176
     1
 90
        7
176
     1
 90
        7
176
     1
 40
1.0
176
     1
 90
        8
176
     1
 62
     7
176
     1
 40
1.0
176
     1
 90
        1
176
     1
 90
        6
176
     1
 90
        2
176
     1
 62
     7
176
     1
 90
        5
176
     1
 90
        0
176
     1
 90
        0
176
     1
290
     0
176
     1
 90
        1
176
     1
 40
0.0
176
     1
 90
        0
176
     1
290
     0
176
     1
290
     1
176
     1
290
     1
176
     1
290
     0
176
     1
290
     0
176
     1
290
     0
176
     1
290
     0
176
     1
290
     0
176
     1
290
     0
176
     1
 90
       50
176
     1
 40
0.0
176
     1
 40
1.0
176
     1
 90
        0
176
     1
 62
    18
420
        0
176
     1
 90
       50
176
     1
 90
        3
176
     1
 62
     5
420
      255
176
     1
290
     0
176
     1
 90
       50
176
     1
 90
       50
176
     1
 90
       50
176
     1
290
     0
176
     1
 90
       50
176
     1
 62
   256
176
     0
 40
1.0
176
     0
 90
        2
176
     1
  1
strokes_ogs.tif
176
     1
290
     0
176
     1
 40
1.0
176
     1
 40
1.0
176
     1
  0
VISUALSTYLE
  5
3C
102
{ACAD_REACTORS
330
2A
102
}
330
2A
100
AcDbVisualStyle
  2
OverhangOff
 70
    21
177
     3
291
     1
 70
    58
 90
        2
176
     0
 90
        2
176
     0
 90
        0
176
     0
 90
        0
176
     0
 40
0.6
176
     0
 40
30.0
176
     0
 62
     7
420
 16777215
176
     0
 90
        1
176
     0
 90
        4
176
     0
 62
     7
176
     0
 62
   257
176
     0
 90
        1
176
     0
 90
        1
176
     0
 40
1.0
176
     0
 90
        9
176
     2
 62
     7
176
     0
 40
1.0
176
     0
 90
        1
176
     0
 90
        6
176
     0
 90
        2
176
     0
 62
     7
176
     0
 90
        5
176
     0
 90
        0
176
     0
 90
        0
176
     0
290
     0
176
     0
 90
        1
176
     0
 40
0.0
176
     0
 90
        0
176
     0
290
     0
176
     0
290
     1
176
     0
290
     1
176
     0
290
     0
176
     0
290
     0
176
     0
290
     0
176
     0
290
     0
176
     0
290
     0
176
     0
290
     0
176
     0
 90
       50
176
     0
 40
0.0
176
     0
 40
1.0
176
     0
 90
        0
176
     0
 62
    18
420
        0
176
     0
 90
       50
176
     0
 90
        3
176
     0
 62
     5
420
      255
176
     0
290
     0
176
     0
 90
       50
176
     0
 90
       50
176
     0
 90
       50
176
     0
290
     0
176
     0
 90
       50
176
     0
 62
   256
176
     0
 40
1.0
176
     0
 90
        2
176
     0
  1
strokes_ogs.tif
176
     0
290
     0
176
     0
 40
1.0
176
     0
 40
1.0
176
     0
  0
VISUALSTYLE
  5
33
102
{ACAD_REACTORS
330
2A
102
}
330
2A
100
AcDbVisualStyle
  2
Realistic
 70
     8
177
     3
291
     0
 70
    58
 90
        2
176
     1
 90
        3
176
     1
 90
        0
176
     1
 90
        2
176
     1
 40
0.6
176
     1
 40
30.0
176
     1
 62
     7
420
 16777215
176
     1
 90
        0
176
     1
 90
        0
176
     1
 62
     7
176
     1
 62
   257
176
     1
 90
        1
176
     1
 90
        1
176
     1
 40
1.0
176
     1
 90
        8
176
     1
 62
   257
176
     1
 40
1.0
176
     1
 90
        1
176
     1
 90
        6
176
     1
 90
        2
176
     1
 62
     7
176
     1
 90
        3
176
     1
 90
        0
176
     1
 90
        0
176
     1
290
     0
176
     1
 90
       13
176
     1
 40
0.0
176
     1
 90
        0
176
     1
290
     0
176
     1
290
     1
176
     1
290
     1
176
     1
290
     0
176
     1
290
     0
176
     1
290
     0
176
     1
290
     0
176
     1
290
     0
176
     1
290
     0
176
     1
 90
       50
176
     1
 40
0.0
176
     1
 40
1.0
176
     1
 90
        0
176
     1
 62
    18
420
        0
176
     1
 90
       50
176
     1
 90
        3
176
     1
 62
     5
420
      255
176
     1
290
     0
176
     1
 90
       50
176
     1
 90
       50
176
     1
 90
       50
176
     1
290
     0
176
     1
 90
       50
176
     1
 62
   256
176
     0
 40
1.0
176
     0
 90
        2
176
     1
  1
strokes_ogs.tif
176
     1
290
     0
176
     1
 40
1.0
176
     1
 40
1.0
176
     1
  0
VISUALSTYLE
  5
42
102
{ACAD_REACTORS
330
2A
102
}
330
2A
100
AcDbVisualStyle
  2
Shaded
 70
    27
177
     3
291
     0
 70
    58
 90
        2
176
     1
 90
        2
176
     1
 90
        1
176
     1
 90
        2
176
     1
 40
0.6
176
     1
 40
30.0
176
     1
 62
     7
420
 16777215
176
     1
 90
        0
176
     1
 90
        4
176
     1
 62
     7
176
     1
 62
   257
176
     1
 90
        1
176
     1
 90
        1
176
     1
 40
1.0
176
     1
 90
        8
176
     1
 62
   257
176
     1
 40
1.0
176
     1
 90
        1
176
     1
 90
        6
176
     1
 90
        2
176
     1
 62
     8
420
  7895160
176
     1
 90
        3
176
     1
 90
        0
176
     1
 90
        0
176
     1
290
     0
176
     1
 90
        5
176
     1
 40
0.0
176
     1
 90
        0
176
     1
290
     0
176
     1
290
     1
176
     1
290
     1
176
     1
290
     0
176
     1
290
     0
176
     1
290
     0
176
     1
290
     0
176
     1
290
     0
176
     1
290
     0
176
     1
 90
       50
176
     1
 40
0.0
176
     1
 40
1.0
176
     1
 90
        0
176
     1
 62
    18
420
        0
176
     1
 90
       50
176
     1
 90
        3
176
     1
 62
     5
420
      255
176
     1
290
     0
176
     1
 90
       50
176
     1
 90
       50
176
     1
 90
       50
176
     1
290
     0
176
     1
 90
       50
176
     1
 62
   256
176
     0
 40
1.0
176
     0
 90
        2
176
     1
  1
strokes_ogs.tif
176
     1
290
     0
176
     1
 40
1.0
176
     1
 40
1.0
176
     1
  0
VISUALSTYLE
  5
41
102
{ACAD_REACTORS
330
2A
102
}
330
2A
100
AcDbVisualStyle
  2
Shaded with edges
 70
    26
177
     3
291
     0
 70
    58
 90
        2
176
     1
 90
        2
176
     1
 90
        1
176
     1
 90
        2
176
     1
 40
0.6
176
     1
 40
30.0
176
     1
 62
     7
420
 16777215
176
     1
 90
        1
176
     1
 90
       10
176
     1
 62
     7
176
     1
 62
   257
176
     1
 90
        2
176
     1
 90
        1
176
     1
 40
1.0
176
     1
 90
        8
176
     1
 62
   257
176
     1
 40
1.0
176
     1
 90
        1
176
     1
 90
        6
176
     1
 90
        2
176
     1
 62
     7
176
     1
 90
        3
176
     1
 90
        0
176
     1
 90
        0
176
     1
290
     0
176
     1
 90
        5
176
     1
 40
0.0
176
     1
 90
        0
176
     1
290
     0
176
     1
290
     1
176
     1
290
     1
176
     1
290
     0
176
     1
290
     0
176
     1
290
     0
176
     1
290
     0
176
     1
290
     0
176
     1
290
     0
176
     1
 90
       50
176
     1
 40
0.0
176
     1
 40
1.0
176
     1
 90
        0
176
     1
 62
    18
420
        0
176
     1
 90
       50
176
     1
 90
        3
176
     1
 62
     5
420
      255
176
     1
290
     0
176
     1
 90
       50
176
     1
 90
       50
176
     1
 90
       50
176
     1
290
     0
176
     1
 90
       50
176
     1
 62
   256
176
     0
 40
1.0
176
     0
 90
        2
176
     1
  1
strokes_ogs.tif
176
     1
290
     0
176
     1
 40
1.0
176
     1
 40
1.0
176
     1
  0
VISUALSTYLE
  5
3E
102
{ACAD_REACTORS
330
2A
102
}
330
2A
100
AcDbVisualStyle
  2
Shades of Gray
 70
    23
177
     3
291
     0
 70
    58
 90
        2
176
     1
 90
        2
176
     1
 90
        3
176
     1
 90
        0
176
     1
 40
0.6
176
     1
 40
30.0
176
     1
 62
     7
420
 16777215
176
     1
 90
        2
176
     1
 90
        2
176
     1
 62
     7
176
     1
 62
     7
176
     1
 90
        1
176
     1
 90
        1
176
     1
 40
40.0
176
     1
 90
        8
176
     1
 62
     7
176
     1
 40
1.0
176
     1
 90
        1
176
     1
 90
        6
176
     1
 90
        2
176
     1
 62
     7
176
     1
 90
        3
176
     1
 90
        0
176
     1
 90
        0
176
     1
290
     0
176
     1
 90
        1
176
     1
 40
0.0
176
     1
 90
        0
176
     1
290
     0
176
     1
290
     1
176
     1
290
     1
176
     1
290
     0
176
     1
290
     0
176
     1
290
     0
176
     1
290
     0
176
     1
290
     0
176
     1
290
     0
176
     1
 90
       50
176
     1
 40
0.0
176
     1
 40
1.0
176
     1
 90
        0
176
     1
 62
    18
420
        0
176
     1
 90
       50
176
     1
 90
        3
176
     1
 62
     5
420
      255
176
     1
290
     0
176
     1
 90
       50
176
     1
 90
       50
176
     1
 90
       50
176
     1
290
     0
176
     1
 90
       50
176
     1
 62
   256
176
     0
 40
1.0
176
     0
 90
        2
176
     1
  1
strokes_ogs.tif
176
     1
290
     0
176
     1
 40
1.0
176
     1
 40
1.0
176
     1
  0
VISUALSTYLE
  5
3F
102
{ACAD_REACTORS
330
2A
102
}
330
2A
100
AcDbVisualStyle
  2
Sketchy
 70
    24
177
     3
291
     0
 70
    58
 90
        1
176
     1
 90
        2
176
     1
 90
        2
176
     1
 90
        0
176
     1
 40
0.6
176
     1
 40
30.0
176
     1
 62
     7
420
 16777215
176
     1
 90
        2
176
     1
 90
        2
176
     1
 62
     7
176
     1
 62
     7
176
     1
 90
        1
176
     1
 90
        1
176
     1
 40
40.0
176
     1
 90
       11
176
     1
 62
     7
176
     1
 40
1.0
176
     1
 90
        1
176
     1
 90
        6
176
     1
 90
        2
176
     1
 62
     7
176
     1
 90
        6
176
     1
 90
        0
176
     1
 90
        0
176
     1
290
     0
176
     1
 90
        1
176
     1
 40
0.0
176
     1
 90
        0
176
     1
290
     0
176
     1
290
     1
176
     1
290
     1
176
     1
290
     0
176
     1
290
     0
176
     1
290
     0
176
     1
290
     0
176
     1
290
     0
176
     1
290
     0
176
     1
 90
       50
176
     1
 40
0.0
176
     1
 40
1.0
176
     1
 90
        0
176
     1
 62
    18
420
        0
176
     1
 90
       50
176
     1
 90
        3
176
     1
 62
     5
420
      255
176
     1
290
     0
176
     1
 90
       50
176
     1
 90
       50
176
     1
 90
       50
176
     1
290
     0
176
     1
 90
       50
176
     1
 62
   256
176
     0
 40
1.0
176
     0
 90
        2
176
     1
  1
strokes_ogs.tif
176
     1
290
     0
176
     1
 40
1.0
176
     1
 40
1.0
176
     1
  0
VISUALSTYLE
  5
37
102
{ACAD_REACTORS
330
2A
102
}
330
2A
100
AcDbVisualStyle
  2
Thicken
 70
    13
177
     3
291
     1
 70
    58
 90
        2
176
     1
 90
        2
176
     1
 90
        0
176
     1
 90
        0
176
     1
 40
0.6
176
     1
 40
30.0
176
     1
 62
     7
420
 16777215
176
     1
 90
        1
176
     1
 90
        4
176
     1
 62
     7
176
     1
 62
   257
176
     1
 90
        1
176
     1
 90
        1
176
     1
 40
1.0
176
     1
 90
       12
176
     1
 62
     7
176
     1
 40
1.0
176
     1
 90
        1
176
     1
 90
        6
176
     1
 90
        2
176
     1
 62
     7
176
     1
 90
        5
176
     1
 90
        0
176
     1
 90
        0
176
     1
290
     0
176
     1
 90
        1
176
     1
 40
0.0
176
     1
 90
        0
176
     1
290
     0
176
     1
290
     1
176
     1
290
     1
176
     1
290
     0
176
     1
290
     0
176
     1
290
     0
176
     1
290
     0
176
     1
290
     0
176
     1
290
     0
176
     1
 90
       50
176
     1
 40
0.0
176
     1
 40
1.0
176
     1
 90
        0
176
     1
 62
    18
420
        0
176
     1
 90
       50
176
     1
 90
        3
176
     1
 62
     5
420
      255
176
     1
290
     0
176
     1
 90
       50
176
     1
 90
       50
176
     1
 90
       50
176
     1
290
     0
176
     1
 90
       50
176
     1
 62
   256
176
     0
 40
1.0
176
     0
 90
        2
176
     1
  1
strokes_ogs.tif
176
     1
290
     0
176
     1
 40
1.0
176
     1
 40
1.0
176
     1
  0
VISUALSTYLE
  5
30
102
{ACAD_REACTORS
330
2A
102
}
330
2A
100
AcDbVisualStyle
  2
Wireframe
 70
     5
177
     3
291
     0
 70
    58
 90
        0
176
     1
 90
        2
176
     1
 90
        0
176
     1
 90
        0
176
     1
 40
0.6
176
     1
 40
30.0
176
     1
 62
     7
420
 16777215
176
     1
 90
        1
176
     1
 90
        4
176
     1
 62
     7
176
     1
 62
   257
176
     1
 90
        1
176
     1
 90
        1
176
     1
 40
1.0
176
     1
 90
        0
176
     1
 62
   257
176
     1
 40
1.0
176
     1
 90
        1
176
     1
 90
        6
176
     1
 90
        2
176
     1
 62
     7
176
     1
 90
        3
176
     1
 90
        0
176
     1
 90
        0
176
     1
290
     0
176
     1
 90
        1
176
     1
 40
0.0
176
     1
 90
        0
176
     1
290
     0
176
     1
290
     1
176
     1
290
     1
176
     1
290
     0
176
     1
290
     0
176
     1
290
     0
176
     1
290
     0
176
     1
290
     0
176
     1
290
     0
176
     1
 90
       50
176
     1
 40
0.0
176
     1
 40
1.0
176
     1
 90
        0
176
     1
 62
    18
420
        0
176
     1
 90
       50
176
     1
 90
        3
176
     1
 62
     5
420
      255
176
     1
290
     0
176
     1
 90
       50
176
     1
 90
       50
176
     1
 90
       50
176
     1
290
     0
176
     1
 90
       50
176
     1
 62
   256
176
     0
 40
1.0
176
     0
 90
        2
176
     1
  1
strokes_ogs.tif
176
     1
290
     0
176
     1
 40
1.0
176
     1
 40
1.0
176
     1
  0
VISUALSTYLE
  5
40
102
{ACAD_REACTORS
330
2A
102
}
330
2A
100
AcDbVisualStyle
  2
X-Ray
 70
    25
177
     3
291
     0
 70
    58
 90
        2
176
     1
 90
        2
176
     1
 90
        1
176
     1
 90
        1
176
     1
 40
0.5
176
     1
 40
30.0
176
     1
 62
     7
420
 16777215
176
     1
 90
        1
176
     1
 90
        0
176
     1
 62
     7
176
     1
 62
   257
176
     1
 90
        1
176
     1
 90
        1
176
     1
 40
1.0
176
     1
 90
        8
176
     1
 62
     7
176
     1
 40
1.0
176
     1
 90
        1
176
     1
 90
        6
176
     1
 90
        2
176
     1
 62
     7
176
     1
 90
        3
176
     1
 90
        0
176
     1
 90
        0
176
     1
290
     0
176
     1
 90
       13
176
     1
 40
0.0
176
     1
 90
        0
176
     1
290
     0
176
     1
290
     1
176
     1
290
     1
176
     1
290
     0
176
     1
290
     0
176
     1
290
     0
176
     1
290
     0
176
     1
290
     0
176
     1
290
     0
176
     1
 90
       50
176
     1
 40
0.0
176
     1
 40
1.0
176
     1
 90
        0
176
     1
 62
    18
420
        0
176
     1
 90
       50
176
     1
 90
        3
176
     1
 62
     5
420
      255
176
     1
290
     0
176
     1
 90
       50
176
     1
 90
       50
176
     1
 90
       50
176
     1
290
     0
176
     1
 90
       50
176
     1
 62
   256
176
     0
 40
1.0
176
     0
 90
        2
176
     1
  1
strokes_ogs.tif
176
     1
290
     0
176
     1
 40
1.0
176
     1
 40
1.0
176
     1
  0
DICTIONARYVAR
  5
1EA
102
{ACAD_REACTORS
330
1E9
102
}
330
1E9
100
DictionaryVariables
280
     0
  1
1:1
  0
DICTIONARYVAR
  5
1EF
102
{ACAD_REACTORS
330
1E9
102
}
330
1E9
100
DictionaryVariables
280
     0
  1
Standard
  0
DICTIONARYVAR
  5
1EE
102
{ACAD_REACTORS
330
1E9
102
}
330
1E9
100
DictionaryVariables
280
     0
  1
Standard
  0
DICTIONARYVAR
  5
1F2
102
{ACAD_REACTORS
330
1E9
102
}
330
1E9
100
DictionaryVariables
280
     0
  1
6.000000
  0
DICTIONARY
  5
1EB
330
6A
100
AcDbDictionary
280
     1
281
     1
  3
ACAD_ROUNDTRIP_2008_TABLESTYLE_CELLSTYLEMAP
360
1EC
  0
CELLSTYLEMAP
  5
1EC
102
{ACAD_REACTORS
330
1EB
102
}
330
1EB
100
AcDbCellStyleMap
 90
        3
300
CELLSTYLE
  1
TABLEFORMAT_BEGIN
 90
        5
170
     1
 91
        0
 92
    32768
 62
   257
 93
        1
300
CONTENTFORMAT
  1
CONTENTFORMAT_BEGIN
 90
        0
 91
        0
 92
        4
 93
        0
300

 40
0.0
140
1.0
 94
        5
 62
     0
340
11
144
6.0
309
CONTENTFORMAT_END
171
     1
301
MARGIN
  1
CELLMARGIN_BEGIN
 40
1.5
 40
1.5
 40
1.5
 40
1.5
 40
1.5
 40
1.5
309
CELLMARGIN_END
 94
        6
 95
        1
302
GRIDFORMAT
  1
GRIDFORMAT_BEGIN
 90
        0
 91
        1
 62
     0
 92
       -2
340
14
 93
        0
 40
0.045
309
GRIDFORMAT_END
 95
        2
302
GRIDFORMAT
  1
GRIDFORMAT_BEGIN
 90
        0
 91
        1
 62
     0
 92
       -2
340
14
 93
        0
 40
0.045
309
GRIDFORMAT_END
 95
        4
302
GRIDFORMAT
  1
GRIDFORMAT_BEGIN
 90
        0
 91
        1
 62
     0
 92
       -2
340
14
 93
        0
 40
0.045
309
GRIDFORMAT_END
 95
        8
302
GRIDFORMAT
  1
GRIDFORMAT_BEGIN
 90
        0
 91
        1
 62
     0
 92
       -2
340
14
 93
        0
 40
0.045
309
GRIDFORMAT_END
 95
       16
302
GRIDFORMAT
  1
GRIDFORMAT_BEGIN
 90
        0
 91
        1
 62
     0
 92
       -2
340
14
 93
        0
 40
0.045
309
GRIDFORMAT_END
 95
       32
302
GRIDFORMAT
  1
GRIDFORMAT_BEGIN
 90
        0
 91
        1
 62
     0
 92
       -2
340
14
 93
        0
 40
0.045
309
GRIDFORMAT_END
309
TABLEFORMAT_END
  1
CELLSTYLE_BEGIN
 90
        1
 91
        1
300
_TITLE
309
CELLSTYLE_END
300
CELLSTYLE
  1
TABLEFORMAT_BEGIN
 90
        5
170
     1
 91
        0
 92
        0
 62
   257
 93
        1
300
CONTENTFORMAT
  1
CONTENTFORMAT_BEGIN
 90
        0
 91
        0
 92
        4
 93
        0
300

 40
0.0
140
1.0
 94
        5
 62
     0
340
11
144
4.5
309
CONTENTFORMAT_END
171
     1
301
MARGIN
  1
CELLMARGIN_BEGIN
 40
1.5
 40
1.5
 40
1.5
 40
1.5
 40
1.5
 40
1.5
309
CELLMARGIN_END
 94
        6
 95
        1
302
GRIDFORMAT
  1
GRIDFORMAT_BEGIN
 90
        0
 91
        1
 62
     0
 92
       -2
340
14
 93
        0
 40
0.045
309
GRIDFORMAT_END
 95
        2
302
GRIDFORMAT
  1
GRIDFORMAT_BEGIN
 90
        0
 91
        1
 62
     0
 92
       -2
340
14
 93
        0
 40
0.045
309
GRIDFORMAT_END
 95
        4
302
GRIDFORMAT
  1
GRIDFORMAT_BEGIN
 90
        0
 91
        1
 62
     0
 92
       -2
340
14
 93
        0
 40
0.045
309
GRIDFORMAT_END
 95
        8
302
GRIDFORMAT
  1
GRIDFORMAT_BEGIN
 90
        0
 91
        1
 62
     0
 92
       -2
340
14
 93
        0
 40
0.045
309
GRIDFORMAT_END
 95
       16
302
GRIDFORMAT
  1
GRIDFORMAT_BEGIN
 90
        0
 91
        1
 62
     0
 92
       -2
340
14
 93
        0
 40
0.045
309
GRIDFORMAT_END
 95
       32
302
GRIDFORMAT
  1
GRIDFORMAT_BEGIN
 90
        0
 91
        1
 62
     0
 92
       -2
340
14
 93
        0
 40
0.045
309
GRIDFORMAT_END
309
TABLEFORMAT_END
  1
CELLSTYLE_BEGIN
 90
        2
 91
        1
300
_HEADER
309
CELLSTYLE_END
300
CELLSTYLE
  1
TABLEFORMAT_BEGIN
 90
        5
170
     1
 91
        0
 92
        0
 62
   257
 93
        1
300
CONTENTFORMAT
  1
CONTENTFORMAT_BEGIN
 90
        0
 91
        0
 92
        4
 93
        0
300

 40
0.0
140
1.0
 94
        2
 62
     0
340
11
144
4.5
309
CONTENTFORMAT_END
171
     1
301
MARGIN
  1
CELLMARGIN_BEGIN
 40
1.5
 40
1.5
 40
1.5
 40
1.5
 40
1.5
 40
1.5
309
CELLMARGIN_END
 94
        6
 95
        1
302
GRIDFORMAT
  1
GRIDFORMAT_BEGIN
 90
        0
 91
        1
 62
     0
 92
       -2
340
14
 93
        0
 40
0.045
309
GRIDFORMAT_END
 95
        2
302
GRIDFORMAT
  1
GRIDFORMAT_BEGIN
 90
        0
 91
        1
 62
     0
 92
       -2
340
14
 93
        0
 40
0.045
309
GRIDFORMAT_END
 95
        4
302
GRIDFORMAT
  1
GRIDFORMAT_BEGIN
 90
        0
 91
        1
 62
     0
 92
       -2
340
14
 93
        0
 40
0.045
309
GRIDFORMAT_END
 95
        8
302
GRIDFORMAT
  1
GRIDFORMAT_BEGIN
 90
        0
 91
        1
 62
     0
 92
       -2
340
14
 93
        0
 40
0.045
309
GRIDFORMAT_END
 95
       16
302
GRIDFORMAT
  1
GRIDFORMAT_BEGIN
 90
        0
 91
        1
 62
     0
 92
       -2
340
14
 93
        0
 40
0.045
309
GRIDFORMAT_END
 95
       32
302
GRIDFORMAT
  1
GRIDFORMAT_BEGIN
 90
        0
 91
        1
 62
     0
 92
       -2
340
14
 93
        0
 40
0.045
309
GRIDFORMAT_END
309
TABLEFORMAT_END
  1
CELLSTYLE_BEGIN
 90
        3
 91
        2
300
_DATA
309
CELLSTYLE_END
  0
ENDSEC
  0
EOF