0
SECTION
  2
HEADER
  9
$ACADVER
  1
AC1027
  9
$ACADMAINTVER
 70
   105
  9
$DWGCODEPAGE
  3
ANSI_1252
  9
$REQUIREDVERSIONS
160
                 0
  9
$COMMENTS
  1
File was created by Cadenas
  9
$CUSTOMPROPERTYTAG
  1
NN
  9
$CUSTOMPROPERTY
  1
Grip Tight Two-Bolt Pillow Block - Stainless Housing, Corrision Resistant Insert Inch Bore
  9
$CUSTOMPROPERTYTAG
  1
NT
  9
$CUSTOMPROPERTY
  1
GTEZ Normal Duty Stainless Steel Housed Pillow Blocks
  9
$CUSTOMPROPERTYTAG
  1
NB
  9
$CUSTOMPROPERTY
  1
 129274
  9
$CUSTOMPROPERTYTAG
  1
NBSYN
  9
$CUSTOMPROPERTY
  1
 $PN.$LUBE.
  9
$CUSTOMPROPERTYTAG
  1
LINA
  9
$CUSTOMPROPERTY
  1
129274
  9
$CUSTOMPROPERTYTAG
  1
SERIES
  9
$CUSTOMPROPERTY
  1
210
  9
$CUSTOMPROPERTYTAG
  1
SS
  9
$CUSTOMPROPERTY
  1
1-15/16
  9
$CUSTOMPROPERTYTAG
  1
PN
  9
$CUSTOMPROPERTY
  1
129274
  9
$CUSTOMPROPERTYTAG
  1
DESCRIPTION
  9
$CUSTOMPROPERTY
  1
P2B-GTEZ-115-SHCR
  9
$CUSTOMPROPERTYTAG
  1
A
  9
$CUSTOMPROPERTY
  1
1-55/64
  9
$CUSTOMPROPERTYTAG
  1
B
  9
$CUSTOMPROPERTY
  1
8
  9
$CUSTOMPROPERTYTAG
  1
C
  9
$CUSTOMPROPERTY
  1
1-5/8
  9
$CUSTOMPROPERTYTAG
  1
DMIN
  9
$CUSTOMPROPERTY
  1
5-49/64
  9
$CUSTOMPROPERTYTAG
  1
DMAX
  9
$CUSTOMPROPERTY
  1
6-11/16
  9
$CUSTOMPROPERTYTAG
  1
F
  9
$CUSTOMPROPERTY
  1
5/8
  9
$CUSTOMPROPERTYTAG
  1
G
  9
$CUSTOMPROPERTY
  1
1-9/64
  9
$CUSTOMPROPERTYTAG
  1
H
  9
$CUSTOMPROPERTY
  1
5/8
  9
$CUSTOMPROPERTYTAG
  1
J
  9
$CUSTOMPROPERTY
  1
4-5/16
  9
$CUSTOMPROPERTYTAG
  1
L
  9
$CUSTOMPROPERTY
  1
2-15/16
  9
$CUSTOMPROPERTYTAG
  1
M
  9
$CUSTOMPROPERTY
  1
2-1/4
  9
$CUSTOMPROPERTYTAG
  1
R
  9
$CUSTOMPROPERTY
  1
21/32
  9
$CUSTOMPROPERTYTAG
  1
S
  9
$CUSTOMPROPERTY
  1
1-13/64
  9
$CUSTOMPROPERTYTAG
  1
Z
  9
$CUSTOMPROPERTY
  1
1-5/32
  9
$CUSTOMPROPERTYTAG
  1
COMPANY
  9
$CUSTOMPROPERTY
  1
baldor
  9
$INSBASE
 10
0.0
 20
0.0
 30
0.0
  9
$EXTMIN
 10
1.000000000000000E+20
 20
1.000000000000000E+20
 30
1.000000000000000E+20
  9
$EXTMAX
 10
-1.000000000000000E+20
 20
-1.000000000000000E+20
 30
-1.000000000000000E+20
  9
$LIMMIN
 10
0.0
 20
0.0
  9
$LIMMAX
 10
12.0
 20
9.0
  9
$ORTHOMODE
 70
     0
  9
$REGENMODE
 70
     1
  9
$FILLMODE
 70
     1
  9
$QTEXTMODE
 70
     0
  9
$MIRRTEXT
 70
     1
  9
$LTSCALE
 40
1.0
  9
$ATTMODE
 70
     1
  9
$TEXTSIZE
 40
0.2
  9
$TRACEWID
 40
0.05
  9
$TEXTSTYLE
  7
Standard
  9
$CLAYER
  8
0
  9
$CELTYPE
  6
ByLayer
  9
$CECOLOR
 62
   256
  9
$CELTSCALE
 40
1.0
  9
$DISPSILH
 70
     0
  9
$DIMSCALE
 40
1.0
  9
$DIMASZ
 40
0.18
  9
$DIMEXO
 40
0.0625
  9
$DIMDLI
 40
0.38
  9
$DIMRND
 40
0.0
  9
$DIMDLE
 40
0.0
  9
$DIMEXE
 40
0.18
  9
$DIMTP
 40
0.0
  9
$DIMTM
 40
0.0
  9
$DIMTXT
 40
0.18
  9
$DIMCEN
 40
0.09
  9
$DIMTSZ
 40
0.0
  9
$DIMTOL
 70
     0
  9
$DIMLIM
 70
     0
  9
$DIMTIH
 70
     1
  9
$DIMTOH
 70
     1
  9
$DIMSE1
 70
     0
  9
$DIMSE2
 70
     0
  9
$DIMTAD
 70
     0
  9
$DIMZIN
 70
     0
  9
$DIMBLK
  1

  9
$DIMASO
 70
     1
  9
$DIMSHO
 70
     1
  9
$DIMPOST
  1

  9
$DIMAPOST
  1

  9
$DIMALT
 70
     0
  9
$DIMALTD
 70
     2
  9
$DIMALTF
 40
25.4
  9
$DIMLFAC
 40
1.0
  9
$DIMTOFL
 70
     0
  9
$DIMTVP
 40
0.0
  9
$DIMTIX
 70
     0
  9
$DIMSOXD
 70
     0
  9
$DIMSAH
 70
     0
  9
$DIMBLK1
  1

  9
$DIMBLK2
  1

  9
$DIMSTYLE
  2
Standard
  9
$DIMCLRD
 70
     0
  9
$DIMCLRE
 70
     0
  9
$DIMCLRT
 70
     0
  9
$DIMTFAC
 40
1.0
  9
$DIMGAP
 40
0.09
  9
$DIMJUST
 70
     0
  9
$DIMSD1
 70
     0
  9
$DIMSD2
 70
     0
  9
$DIMTOLJ
 70
     1
  9
$DIMTZIN
 70
     0
  9
$DIMALTZ
 70
     0
  9
$DIMALTTZ
 70
     0
  9
$DIMUPT
 70
     0
  9
$DIMDEC
 70
     4
  9
$DIMTDEC
 70
     4
  9
$DIMALTU
 70
     2
  9
$DIMALTTD
 70
     2
  9
$DIMTXSTY
  7
Standard
  9
$DIMAUNIT
 70
     0
  9
$DIMADEC
 70
     0
  9
$DIMALTRND
 40
0.0
  9
$DIMAZIN
 70
     0
  9
$DIMDSEP
 70
    46
  9
$DIMATFIT
 70
     3
  9
$DIMFRAC
 70
     0
  9
$DIMLDRBLK
  1

  9
$DIMLUNIT
 70
     2
  9
$DIMLWD
 70
    -2
  9
$DIMLWE
 70
    -2
  9
$DIMTMOVE
 70
     0
  9
$DIMFXL
 40
1.0
  9
$DIMFXLON
 70
     0
  9
$DIMJOGANG
 40
0.7853981633974483
  9
$DIMTFILL
 70
     0
  9
$DIMTFILLCLR
 70
     0
  9
$DIMARCSYM
 70
     0
  9
$DIMLTYPE
  6

  9
$DIMLTEX1
  6

  9
$DIMLTEX2
  6

  9
$DIMTXTDIRECTION
 70
     0
  9
$LUNITS
 70
     2
  9
$LUPREC
 70
     4
  9
$SKETCHINC
 40
0.1
  9
$FILLETRAD
 40
0.5
  9
$AUNITS
 70
     0
  9
$AUPREC
 70
     0
  9
$MENU
  1
.
  9
$ELEVATION
 40
0.0
  9
$PELEVATION
 40
0.0
  9
$THICKNESS
 40
0.0
  9
$LIMCHECK
 70
     0
  9
$CHAMFERA
 40
0.0
  9
$CHAMFERB
 40
0.0
  9
$CHAMFERC
 40
0.0
  9
$CHAMFERD
 40
0.0
  9
$SKPOLY
 70
     0
  9
$TDCREATE
 40
2458168.992074387
  9
$TDUCREATE
 40
2458168.95040772
  9
$TDUPDATE
 40
2458168.992074572
  9
$TDUUPDATE
 40
2458168.950407905
  9
$TDINDWG
 40
0.0000000116
  9
$TDUSRTIMER
 40
0.0000000116
  9
$USRTIMER
 70
     1
  9
$ANGBASE
 50
0.0
  9
$ANGDIR
 70
     0
  9
$PDMODE
 70
     0
  9
$PDSIZE
 40
0.0
  9
$PLINEWID
 40
0.0
  9
$SPLFRAME
 70
     0
  9
$SPLINETYPE
 70
     6
  9
$SPLINESEGS
 70
     8
  9
$HANDSEED
  5
1F1
  9
$SURFTAB1
 70
     6
  9
$SURFTAB2
 70
     6
  9
$SURFTYPE
 70
     6
  9
$SURFU
 70
     6
  9
$SURFV
 70
     6
  9
$UCSBASE
  2

  9
$UCSNAME
  2

  9
$UCSORG
 10
0.0
 20
0.0
 30
0.0
  9
$UCSXDIR
 10
1.0
 20
0.0
 30
0.0
  9
$UCSYDIR
 10
0.0
 20
1.0
 30
0.0
  9
$UCSORTHOREF
  2

  9
$UCSORTHOVIEW
 70
     0
  9
$UCSORGTOP
 10
0.0
 20
0.0
 30
0.0
  9
$UCSORGBOTTOM
 10
0.0
 20
0.0
 30
0.0
  9
$UCSORGLEFT
 10
0.0
 20
0.0
 30
0.0
  9
$UCSORGRIGHT
 10
0.0
 20
0.0
 30
0.0
  9
$UCSORGFRONT
 10
0.0
 20
0.0
 30
0.0
  9
$UCSORGBACK
 10
0.0
 20
0.0
 30
0.0
  9
$PUCSBASE
  2

  9
$PUCSNAME
  2

  9
$PUCSORG
 10
0.0
 20
0.0
 30
0.0
  9
$PUCSXDIR
 10
1.0
 20
0.0
 30
0.0
  9
$PUCSYDIR
 10
0.0
 20
1.0
 30
0.0
  9
$PUCSORTHOREF
  2

  9
$PUCSORTHOVIEW
 70
     0
  9
$PUCSORGTOP
 10
0.0
 20
0.0
 30
0.0
  9
$PUCSORGBOTTOM
 10
0.0
 20
0.0
 30
0.0
  9
$PUCSORGLEFT
 10
0.0
 20
0.0
 30
0.0
  9
$PUCSORGRIGHT
 10
0.0
 20
0.0
 30
0.0
  9
$PUCSORGFRONT
 10
0.0
 20
0.0
 30
0.0
  9
$PUCSORGBACK
 10
0.0
 20
0.0
 30
0.0
  9
$USERI1
 70
     0
  9
$USERI2
 70
     0
  9
$USERI3
 70
     0
  9
$USERI4
 70
     0
  9
$USERI5
 70
     0
  9
$USERR1
 40
0.0
  9
$USERR2
 40
0.0
  9
$USERR3
 40
0.0
  9
$USERR4
 40
0.0
  9
$USERR5
 40
0.0
  9
$WORLDVIEW
 70
     1
  9
$SHADEDGE
 70
     3
  9
$SHADEDIF
 70
    70
  9
$TILEMODE
 70
     1
  9
$MAXACTVP
 70
    64
  9
$PINSBASE
 10
0.0
 20
0.0
 30
0.0
  9
$PLIMCHECK
 70
     0
  9
$PEXTMIN
 10
1.000000000000000E+20
 20
1.000000000000000E+20
 30
1.000000000000000E+20
  9
$PEXTMAX
 10
-1.000000000000000E+20
 20
-1.000000000000000E+20
 30
-1.000000000000000E+20
  9
$PLIMMIN
 10
0.0
 20
0.0
  9
$PLIMMAX
 10
12.0
 20
9.0
  9
$UNITMODE
 70
     0
  9
$VISRETAIN
 70
     1
  9
$PLINEGEN
 70
     0
  9
$PSLTSCALE
 70
     1
  9
$TREEDEPTH
 70
  3020
  9
$CMLSTYLE
  2
Standard
  9
$CMLJUST
 70
     0
  9
$CMLSCALE
 40
1.0
  9
$PROXYGRAPHICS
 70
     1
  9
$MEASUREMENT
 70
     0
  9
$CELWEIGHT
370
    -1
  9
$ENDCAPS
280
     0
  9
$JOINSTYLE
280
     0
  9
$LWDISPLAY
290
     0
  9
$INSUNITS
 70
     1
  9
$HYPERLINKBASE
  1

  9
$STYLESHEET
  1

  9
$XEDIT
290
     1
  9
$CEPSNTYPE
380
     0
  9
$PSTYLEMODE
290
     1
  9
$FINGERPRINTGUID
  2
{885D6139-C60A-4271-B369-6A4037321E55}
  9
$VERSIONGUID
  2
{FAEB1C32-E019-11D5-929B-00C0DF256EC4}
  9
$EXTNAMES
290
     1
  9
$PSVPSCALE
 40
0.0
  9
$OLESTARTUP
290
     0
  9
$SORTENTS
280
   127
  9
$INDEXCTL
280
     0
  9
$HIDETEXT
280
     1
  9
$XCLIPFRAME
280
     2
  9
$HALOGAP
280
     0
  9
$OBSCOLOR
 70
   257
  9
$OBSLTYPE
280
     0
  9
$INTERSECTIONDISPLAY
280
     0
  9
$INTERSECTIONCOLOR
 70
   257
  9
$DIMASSOC
280
     2
  9
$PROJECTNAME
  1

  9
$CAMERADISPLAY
290
     0
  9
$LENSLENGTH
 40
50.0
  9
$CAMERAHEIGHT
 40
0.0
  9
$STEPSPERSEC
 40
2.0
  9
$STEPSIZE
 40
6.0
  9
$3DDWFPREC
 40
2.0
  9
$PSOLWIDTH
 40
0.25
  9
$PSOLHEIGHT
 40
4.0
  9
$LOFTANG1
 40
1.570796326794897
  9
$LOFTANG2
 40
1.570796326794897
  9
$LOFTMAG1
 40
0.0
  9
$LOFTMAG2
 40
0.0
  9
$LOFTPARAM
 70
     7
  9
$LOFTNORMALS
280
     1
  9
$LATITUDE
 40
37.795
  9
$LONGITUDE
 40
-122.394
  9
$NORTHDIRECTION
 40
0.0
  9
$TIMEZONE
 70
 -8000
  9
$LIGHTGLYPHDISPLAY
280
     1
  9
$TILEMODELIGHTSYNCH
280
     1
  9
$CMATERIAL
347
44
  9
$SOLIDHIST
280
     0
  9
$SHOWHIST
280
     1
  9
$DWFFRAME
280
     2
  9
$DGNFRAME
280
     2
  9
$REALWORLDSCALE
290
     1
  9
$INTERFERECOLOR
 62
   256
  9
$CSHADOW
280
     0
  9
$SHADOWPLANELOCATION
 40
0.0
  0
ENDSEC
  0
SECTION
  2
CLASSES
  0
CLASS
  1
ACDBDICTIONARYWDFLT
  2
AcDbDictionaryWithDefault
  3
ObjectDBX Classes
 90
        0
 91
        4
280
     0
281
     0
  0
CLASS
  1
VISUALSTYLE
  2
AcDbVisualStyle
  3
ObjectDBX Classes
 90
     4095
 91
        4
280
     0
281
     0
  0
CLASS
  1
MATERIAL
  2
AcDbMaterial
  3
ObjectDBX Classes
 90
     1153
 91
        4
280
     0
281
     0
  0
CLASS
  1
SCALE
  2
AcDbScale
  3
ObjectDBX Classes
 90
     1153
 91
        4
280
     0
281
     0
  0
CLASS
  1
TABLESTYLE
  2
AcDbTableStyle
  3
ObjectDBX Classes
 90
     4095
 91
        4
280
     0
281
     0
  0
CLASS
  1
MLEADERSTYLE
  2
AcDbMLeaderStyle
  3
ACDB_MLEADERSTYLE_CLASS
 90
     4095
 91
        4
280
     0
281
     0
  0
CLASS
  1
SUN
  2
AcDbSun
  3
SCENEOE
 90
     1153
 91
        4
280
     0
281
     0
  0
CLASS
  1
DICTIONARYVAR
  2
AcDbDictionaryVar
  3
ObjectDBX Classes
 90
        0
 91
        4
280
     0
281
     0
  0
CLASS
  1
CELLSTYLEMAP
  2
AcDbCellStyleMap
  3
ObjectDBX Classes
 90
     1152
 91
        4
280
     0
281
     0
  0
ENDSEC
  0
SECTION
  2
TABLES
  0
TABLE
  2
VPORT
  5
8
330
0
100
AcDbSymbolTable
 70
     1
  0
VPORT
  5
29
330
8
100
AcDbSymbolTableRecord
100
AcDbViewportTableRecord
  2
*Active
 70
     0
 10
0.0
 20
0.0
 11
1.0
 21
1.0
 12
4.821428571428571
 22
-3.437000000000001
 13
0.0
 23
0.0
 14
0.5
 24
0.5
 15
0.5
 25
0.5
 16
0.0
 26
0.0
 36
1.0
 17
0.0
 27
0.0
 37
0.0
 40
12.24
 41
1.470238095238095
 42
50.0
 43
0.0
 44
0.0
 50
0.0
 51
0.0
 71
     0
 72
   100
 73
     1
 74
     3
 75
     0
 76
     0
 77
     0
 78
     0
281
     0
 65
     1
110
0.0
120
0.0
130
0.0
111
1.0
121
0.0
131
0.0
112
0.0
122
1.0
132
0.0
 79
     0
146
0.0
348
2F
 60
     3
 61
     5
292
     1
282
     1
141
0.0
142
0.0
 63
   250
361
6D
  0
ENDTAB
  0
TABLE
  2
LTYPE
  5
5
330
0
100
AcDbSymbolTable
 70
     3
  0
LTYPE
  5
14
330
5
100
AcDbSymbolTableRecord
100
AcDbLinetypeTableRecord
  2
ByBlock
 70
     0
  3

 72
    65
 73
     0
 40
0.0
  0
LTYPE
  5
15
330
5
100
AcDbSymbolTableRecord
100
AcDbLinetypeTableRecord
  2
ByLayer
 70
     0
  3

 72
    65
 73
     0
 40
0.0
  0
LTYPE
  5
16
330
5
100
AcDbSymbolTableRecord
100
AcDbLinetypeTableRecord
  2
Continuous
 70
     0
  3
Solid line
 72
    65
 73
     0
 40
0.0
  0
LTYPE
  5
9D
330
5
100
AcDbSymbolTableRecord
100
AcDbLinetypeTableRecord
  2
Dashed
 70
     0
  3

 72
    65
 73
     2
 40
2.0
 49
1.0
 74
     0
 49
-1.0
 74
     0
  0
LTYPE
  5
A4
330
5
100
AcDbSymbolTableRecord
100
AcDbLinetypeTableRecord
  2
Center
 70
     0
  3

 72
    65
 73
     4
 40
1.5
 49
0.45
 74
     0
 49
-0.5
 74
     0
 49
0.05
 74
     0
 49
-0.5
 74
     0
  0
ENDTAB
  0
TABLE
  2
LAYER
  5
2
330
0
100
AcDbSymbolTable
 70
     8
  0
LAYER
  5
10
330
2
100
AcDbSymbolTableRecord
100
AcDbLayerTableRecord
  2
0
 70
     0
 62
     7
  6
Continuous
370
    -3
390
F
347
46
348
0
  0
LAYER
  5
6E
330
2
100
AcDbSymbolTableRecord
100
AcDbLayerTableRecord
  2
AM_6
 70
     0
 62
    -2
  6
Continuous
370
    35
390
F
347
46
348
0
  0
LAYER
  5
9E
330
2
100
AcDbSymbolTableRecord
100
AcDbLayerTableRecord
  2
AM_9
 70
     0
 62
     6
  6
Dashed
370
    25
390
F
347
46
348
0
  0
LAYER
  5
A5
330
2
100
AcDbSymbolTableRecord
100
AcDbLayerTableRecord
  2
AM_7
 70
     0
 62
     7
  6
Center
370
    25
390
F
347
46
348
0
  0
LAYER
  5
A8
330
2
100
AcDbSymbolTableRecord
100
AcDbLayerTableRecord
  2
AM_4
 70
     0
 62
     3
  6
Continuous
370
    25
390
F
347
46
348
0
  0
LAYER
  5
AE
330
2
100
AcDbSymbolTableRecord
100
AcDbLayerTableRecord
  2
AM_0
 70
     0
 62
     7
  6
Continuous
370
    50
390
F
347
46
348
0
  0
LAYER
  5
D7
330
2
100
AcDbSymbolTableRecord
100
AcDbLayerTableRecord
  2
AM_5
 70
     0
 62
     3
  6
Continuous
370
    25
390
F
347
46
348
0
  0
LAYER
  5
1E4
330
2
100
AcDbSymbolTableRecord
100
AcDbLayerTableRecord
  2
ConnectionPoints
 70
     0
 62
     7
  6
Continuous
370
    50
390
F
347
46
348
0
  0
ENDTAB
  0
TABLE
  2
STYLE
  5
3
330
0
100
AcDbSymbolTable
 70
     1
  0
STYLE
  5
11
330
3
100
AcDbSymbolTableRecord
100
AcDbTextStyleTableRecord
  2
Standard
 70
     0
 40
0.0
 41
1.0
 50
0.0
 71
     0
 42
0.2
  3
txt
  4

  0
ENDTAB
  0
TABLE
  2
VIEW
  5
6
330
0
100
AcDbSymbolTable
 70
     0
  0
ENDTAB
  0
TABLE
  2
UCS
  5
7
330
0
100
AcDbSymbolTable
 70
     0
  0
ENDTAB
  0
TABLE
  2
APPID
  5
9
330
0
100
AcDbSymbolTable
 70
     1
  0
APPID
  5
12
330
9
100
AcDbSymbolTableRecord
100
AcDbRegAppTableRecord
  2
ACAD
 70
     0
  0
ENDTAB
  0
TABLE
  2
DIMSTYLE
  5
A
330
0
100
AcDbSymbolTable
 70
     1
100
AcDbDimStyleTable
  0
DIMSTYLE
105
27
330
A
100
AcDbSymbolTableRecord
100
AcDbDimStyleTableRecord
  2
Standard
 70
     0
178
     0
340
11
  0
ENDTAB
  0
TABLE
  2
BLOCK_RECORD
  5
1
330
0
100
AcDbSymbolTable
 70
     4
  0
BLOCK_RECORD
  5
1F
330
1
100
AcDbSymbolTableRecord
100
AcDbBlockTableRecord
  2
*Model_Space
340
22
 70
     0
280
     1
281
     0
  0
BLOCK_RECORD
  5
1B
330
1
100
AcDbSymbolTableRecord
100
AcDbBlockTableRecord
  2
*Paper_Space
340
1E
 70
     0
280
     1
281
     0
  0
BLOCK_RECORD
  5
23
330
1
100
AcDbSymbolTableRecord
100
AcDbBlockTableRecord
  2
*Paper_Space0
340
26
 70
     0
280
     1
281
     0
  0
BLOCK_RECORD
  5
87
330
1
100
AcDbSymbolTableRecord
100
AcDbBlockTableRecord
  2
1_INS_GT_10_CRI_0_in__129274_0
340
0
102
{BLKREFS
331
88
102
}
 70
     0
280
     1
281
     0
  0
BLOCK_RECORD
  5
B0
330
1
100
AcDbSymbolTableRecord
100
AcDbBlockTableRecord
  2
2_129978_0_in__129274_0
340
0
102
{BLKREFS
331
B1
102
}
 70
     0
280
     1
281
     0
  0
BLOCK_RECORD
  5
F0
330
1
100
AcDbSymbolTableRecord
100
AcDbBlockTableRecord
  2
3_P2B_GTEZ_10_SHCRI_0_in__129274_0
340
0
102
{BLKREFS
331
F1
102
}
 70
     0
280
     1
281
     0
  0
ENDTAB
  0
ENDSEC
  0
SECTION
  2
BLOCKS
  0
BLOCK
  5
20
330
1F
100
AcDbEntity
  8
0
100
AcDbBlockBegin
  2
*Model_Space
 70
     0
 10
0.0
 20
0.0
 30
0.0
  3
*Model_Space
  1

  0
ENDBLK
  5
21
330
1F
100
AcDbEntity
  8
0
100
AcDbBlockEnd
  0
BLOCK
  5
1C
330
1B
100
AcDbEntity
 67
     1
  8
0
100
AcDbBlockBegin
  2
*Paper_Space
 70
     0
 10
0.0
 20
0.0
 30
0.0
  3
*Paper_Space
  1

  0
ENDBLK
  5
1D
330
1B
100
AcDbEntity
 67
     1
  8
0
100
AcDbBlockEnd
  0
BLOCK
  5
24
330
23
100
AcDbEntity
  8
0
100
AcDbBlockBegin
  2
*Paper_Space0
 70
     0
 10
0.0
 20
0.0
 30
0.0
  3
*Paper_Space0
  1

  0
ENDBLK
  5
25
330
23
100
AcDbEntity
  8
0
100
AcDbBlockEnd
  0
BLOCK
  5
89
330
87
100
AcDbEntity
  8
0
100
AcDbBlockBegin
  2
1_INS_GT_10_CRI_0_in__129274_0
 70
     2
 10
0.0
 20
0.0
 30
0.0
  3
1_INS_GT_10_CRI_0_in__129274_0
  1

  0
ATTDEF
  5
8B
330
87
100
AcDbEntity
  8
AM_6
100
AcDbText
 10
6.843059976860777
 20
1.843059976860777
 30
0.0
 40
0.5
  1
INS-GT-CR-I
100
AcDbAttributeDefinition
  3

  2
NN
 70
     8
280
     0
  0
ATTDEF
  5
8C
330
87
100
AcDbEntity
  8
AM_6
100
AcDbText
 10
6.843059976860777
 20
1.343059976860777
 30
0.0
 40
0.5
  1
GT Normal Duty Corrosion Resistant Bearing Inserts
100
AcDbAttributeDefinition
  3

  2
NT
 70
     8
280
     0
  0
ATTDEF
  5
8D
330
87
100
AcDbEntity
  8
AM_6
100
AcDbText
 10
6.843059976860777
 20
0.8430599768607774
 30
0.0
 40
0.5
  1
INS-GT-10-CRI
100
AcDbAttributeDefinition
  3

  2
NB
 70
     8
280
     0
  0
ATTDEF
  5
8E
330
87
100
AcDbEntity
  8
AM_6
100
AcDbText
 10
6.843059976860777
 20
0.3430599768607774
 30
0.0
 40
0.5
  1
$PN.I
100
AcDbAttributeDefinition
  3

  2
NBSYN
 70
     8
280
     0
  0
ATTDEF
  5
8F
330
87
100
AcDbEntity
  8
AM_6
100
AcDbText
 10
6.843059976860777
 20
-0.1569400231392226
 30
0.0
 40
0.5
  1
INS-GT-10-CR
100
AcDbAttributeDefinition
  3

  2
LINA
 70
     8
280
     0
  0
ATTDEF
  5
90
330
87
100
AcDbEntity
  8
AM_6
100
AcDbText
 10
6.843059976860777
 20
-0.6569400231392226
 30
0.0
 40
0.5
  1
210
100
AcDbAttributeDefinition
  3

  2
SERIES
 70
     8
280
     0
  0
ATTDEF
  5
91
330
87
100
AcDbEntity
  8
AM_6
100
AcDbText
 10
6.843059976860777
 20
-1.156940023139223
 30
0.0
 40
0.5
  1
INS-GT-10-CR
100
AcDbAttributeDefinition
  3

  2
PN
 70
     8
280
     0
  0
ATTDEF
  5
92
330
87
100
AcDbEntity
  8
AM_6
100
AcDbText
 10
6.843059976860777
 20
-1.656940023139223
 30
0.0
 40
0.5
  1
INS-GT-10-CR
100
AcDbAttributeDefinition
  3

  2
DESCRIPTION
 70
     8
280
     0
  0
ATTDEF
  5
93
330
87
100
AcDbEntity
  8
AM_6
100
AcDbText
 10
6.843059976860777
 20
-2.156940023139223
 30
0.0
 40
0.5
  1
1-55/64
100
AcDbAttributeDefinition
  3

  2
A
 70
     8
280
     0
  0
ATTDEF
  5
94
330
87
100
AcDbEntity
  8
AM_6
100
AcDbText
 10
6.843059976860777
 20
-2.656940023139223
 30
0.0
 40
0.5
  1
0.8661
100
AcDbAttributeDefinition
  3

  2
C
 70
     8
280
     0
  0
ATTDEF
  5
95
330
87
100
AcDbEntity
  8
AM_6
100
AcDbText
 10
6.843059976860777
 20
-3.156940023139223
 30
0.0
 40
0.5
  1
3.5433
100
AcDbAttributeDefinition
  3

  2
D
 70
     8
280
     0
  0
ATTDEF
  5
96
330
87
100
AcDbEntity
  8
AM_6
100
AcDbText
 10
6.843059976860777
 20
-3.656940023139223
 30
0.0
 40
0.5
  1
0.248
100
AcDbAttributeDefinition
  3

  2
J
 70
     8
280
     0
  0
ATTDEF
  5
97
330
87
100
AcDbEntity
  8
AM_6
100
AcDbText
 10
6.843059976860777
 20
-4.156940023139223
 30
0.0
 40
0.5
  1
2-15/16
100
AcDbAttributeDefinition
  3

  2
L
 70
     8
280
     0
  0
ATTDEF
  5
98
330
87
100
AcDbEntity
  8
AM_6
100
AcDbText
 10
6.843059976860777
 20
-4.656940023139223
 30
0.0
 40
0.5
  1
10 - 32 x 1/4
100
AcDbAttributeDefinition
  3

  2
N
 70
     8
280
     0
  0
ATTDEF
  5
99
330
87
100
AcDbEntity
  8
AM_6
100
AcDbText
 10
6.843059976860777
 20
-5.156940023139223
 30
0.0
 40
0.5
  1
21/32
100
AcDbAttributeDefinition
  3

  2
W
 70
     8
280
     0
  0
ATTDEF
  5
9A
330
87
100
AcDbEntity
  8
AM_6
100
AcDbText
 10
6.843059976860777
 20
-5.656940023139223
 30
0.0
 40
0.5
  1
1-5/32
100
AcDbAttributeDefinition
  3

  2
X
 70
     8
280
     0
  0
ATTDEF
  5
9B
330
87
100
AcDbEntity
  8
AM_6
100
AcDbText
 10
6.843059976860777
 20
-6.156940023139223
 30
0.0
 40
0.5
  1
1-13/64
100
AcDbAttributeDefinition
  3

  2
Y
 70
     8
280
     0
  0
ATTDEF
  5
9C
330
87
100
AcDbEntity
  8
AM_6
100
AcDbText
 10
6.843059976860777
 20
-6.656940023139223
 30
0.0
 40
0.5
  1
baldor
100
AcDbAttributeDefinition
  3

  2
COMPANY
 70
     8
280
     0
  0
CIRCLE
  5
9F
330
87
100
AcDbEntity
  8
AM_9
 48
0.0125999185122901
100
AcDbCircle
 10
0.0
 20
0.0
 30
0.0
 40
1.131500524293896
  0
ARC
  5
A0
330
87
100
AcDbEntity
  8
AM_9
 48
0.0125999185122901
100
AcDbCircle
 10
-0.0000000000000001
 20
-0.0000000000000004
 30
0.0
 40
1.77165
100
AcDbArc
 50
221.1842445891082
 51
318.8152917814003
  0
CIRCLE
  5
A1
330
87
100
AcDbEntity
  8
AM_9
 48
0.0125999185122901
100
AcDbCircle
 10
0.0
 20
0.0
 30
0.0
 40
1.68504
  0
CIRCLE
  5
A2
330
87
100
AcDbEntity
  8
AM_9
 48
0.0125999185122901
100
AcDbCircle
 10
0.0
 20
0.0
 30
0.0
 40
1.720193926272759
  0
CIRCLE
  5
A3
330
87
100
AcDbEntity
  8
AM_9
 48
0.0125999185122901
100
AcDbCircle
 10
0.0
 20
0.0
 30
0.0
 40
1.270911555555556
  0
LINE
  5
A6
330
87
100
AcDbEntity
  8
AM_7
 48
0.0125999185122901
100
AcDbLine
 10
-1.843059976860777
 20
0.0
 30
0.0
 11
1.843059976860777
 21
0.0
 31
0.0
  0
LINE
  5
A7
330
87
100
AcDbEntity
  8
AM_7
 48
0.0125999185122901
100
AcDbLine
 10
0.0
 20
-1.843059976860777
 30
0.0
 11
0.0
 21
1.843059976860777
 31
0.0
  0
CIRCLE
  5
A9
330
87
100
AcDbEntity
  8
AM_4
 48
0.0125999185122901
100
AcDbCircle
 10
0.0
 20
0.0
 30
0.0
 40
1.746760022088207
  0
CIRCLE
  5
AA
330
87
100
AcDbEntity
  8
AM_4
 48
0.0125999185122901
100
AcDbCircle
 10
0.0
 20
0.0
 30
0.0
 40
1.755295216057883
  0
CIRCLE
  5
AB
330
87
100
AcDbEntity
  8
AM_4
 48
0.0125999185122901
100
AcDbCircle
 10
0.0
 20
0.0
 30
0.0
 40
1.7285231816779
  0
CIRCLE
  5
AC
330
87
100
AcDbEntity
  8
AM_4
 48
0.0125999185122901
100
AcDbCircle
 10
0.0
 20
0.0
 30
0.0
 40
1.69393425025953
  0
CIRCLE
  5
AD
330
87
100
AcDbEntity
  8
AM_4
 48
0.0125999185122901
100
AcDbCircle
 10
0.0
 20
0.0
 30
0.0
 40
1.66168151155445
  0
ARC
  5
AF
330
87
100
AcDbEntity
  8
AM_0
 48
0.0125999185122901
100
AcDbCircle
 10
0.0
 20
0.0000000000000124
 30
0.0
 40
1.095734043055543
100
AcDbArc
 50
87.38459882631366
 51
92.61540117368635
  0
ENDBLK
  5
8A
330
87
100
AcDbEntity
  8
0
100
AcDbBlockEnd
  0
BLOCK
  5
B2
330
B0
100
AcDbEntity
  8
0
100
AcDbBlockBegin
  2
2_129978_0_in__129274_0
 70
     2
 10
0.0
 20
0.0
 30
0.0
  3
2_129978_0_in__129274_0
  1

  0
ATTDEF
  5
B4
330
B0
100
AcDbEntity
  8
AM_6
100
AcDbText
 10
6.463506256392503
 20
1.468440791986326
 30
0.0
 40
0.5
  1
Grip Tight Adapter and Nut - Corrosion Resistant Inch Bore
100
AcDbAttributeDefinition
  3

  2
NN
 70
     8
280
     0
  0
ATTDEF
  5
B5
330
B0
100
AcDbEntity
  8
AM_6
100
AcDbText
 10
6.463506256392503
 20
0.9684407919863256
 30
0.0
 40
0.5
  1
GT and GTM Adapter & Lock Nut Assemblies
100
AcDbAttributeDefinition
  3

  2
NT
 70
     8
280
     0
  0
ATTDEF
  5
B6
330
B0
100
AcDbEntity
  8
AM_6
100
AcDbText
 10
6.463506256392503
 20
0.4684407919863256
 30
0.0
 40
0.5
  1
129978
100
AcDbAttributeDefinition
  3

  2
NB
 70
     8
280
     0
  0
ATTDEF
  5
B7
330
B0
100
AcDbEntity
  8
AM_6
100
AcDbText
 10
6.463506256392503
 20
-0.0315592080136744
 30
0.0
 40
0.5
  1
$PN.
100
AcDbAttributeDefinition
  3

  2
NBSYN
 70
     8
280
     0
  0
ATTDEF
  5
B8
330
B0
100
AcDbEntity
  8
AM_6
100
AcDbText
 10
6.463506256392503
 20
-0.5315592080136744
 30
0.0
 40
0.5
  1
129978
100
AcDbAttributeDefinition
  3

  2
LINA
 70
     8
280
     0
  0
ATTDEF
  5
B9
330
B0
100
AcDbEntity
  8
AM_6
100
AcDbText
 10
6.463506256392503
 20
-1.031559208013674
 30
0.0
 40
0.5
  1
210
100
AcDbAttributeDefinition
  3

  2
SERIES
 70
     8
280
     0
  0
ATTDEF
  5
BA
330
B0
100
AcDbEntity
  8
AM_6
100
AcDbText
 10
6.463506256392503
 20
-1.531559208013674
 30
0.0
 40
0.5
  1
1-15/16
100
AcDbAttributeDefinition
  3

  2
SS
 70
     8
280
     0
  0
ATTDEF
  5
BB
330
B0
100
AcDbEntity
  8
AM_6
100
AcDbText
 10
6.463506256392503
 20
-2.031559208013674
 30
0.0
 40
0.5
  1
129978
100
AcDbAttributeDefinition
  3

  2
PN
 70
     8
280
     0
  0
ATTDEF
  5
BC
330
B0
100
AcDbEntity
  8
AM_6
100
AcDbText
 10
6.463506256392503
 20
-2.531559208013674
 30
0.0
 40
0.5
  1
AN-GT-10-115-CR
100
AcDbAttributeDefinition
  3

  2
DESCRIPTION
 70
     8
280
     0
  0
ATTDEF
  5
BD
330
B0
100
AcDbEntity
  8
AM_6
100
AcDbText
 10
6.463506256392503
 20
-3.031559208013674
 30
0.0
 40
0.5
  1
1-55/64
100
AcDbAttributeDefinition
  3

  2
A
 70
     8
280
     0
  0
ATTDEF
  5
BE
330
B0
100
AcDbEntity
  8
AM_6
100
AcDbText
 10
6.463506256392503
 20
-3.531559208013674
 30
0.0
 40
0.5
  1
0.8661
100
AcDbAttributeDefinition
  3

  2
C
 70
     8
280
     0
  0
ATTDEF
  5
BF
330
B0
100
AcDbEntity
  8
AM_6
100
AcDbText
 10
6.463506256392503
 20
-4.031559208013674
 30
0.0
 40
0.5
  1
3.5433
100
AcDbAttributeDefinition
  3

  2
D
 70
     8
280
     0
  0
ATTDEF
  5
C0
330
B0
100
AcDbEntity
  8
AM_6
100
AcDbText
 10
6.463506256392503
 20
-4.531559208013674
 30
0.0
 40
0.5
  1
0.248
100
AcDbAttributeDefinition
  3

  2
J
 70
     8
280
     0
  0
ATTDEF
  5
C1
330
B0
100
AcDbEntity
  8
AM_6
100
AcDbText
 10
6.463506256392503
 20
-5.031559208013674
 30
0.0
 40
0.5
  1
2-15/16
100
AcDbAttributeDefinition
  3

  2
L
 70
     8
280
     0
  0
ATTDEF
  5
C2
330
B0
100
AcDbEntity
  8
AM_6
100
AcDbText
 10
6.463506256392503
 20
-5.531559208013674
 30
0.0
 40
0.5
  1
10 - 32 x 1/4
100
AcDbAttributeDefinition
  3

  2
N
 70
     8
280
     0
  0
ATTDEF
  5
C3
330
B0
100
AcDbEntity
  8
AM_6
100
AcDbText
 10
6.463506256392503
 20
-6.031559208013674
 30
0.0
 40
0.5
  1
21/32
100
AcDbAttributeDefinition
  3

  2
W
 70
     8
280
     0
  0
ATTDEF
  5
C4
330
B0
100
AcDbEntity
  8
AM_6
100
AcDbText
 10
6.463506256392503
 20
-6.531559208013674
 30
0.0
 40
0.5
  1
1-5/32
100
AcDbAttributeDefinition
  3

  2
X
 70
     8
280
     0
  0
ATTDEF
  5
C5
330
B0
100
AcDbEntity
  8
AM_6
100
AcDbText
 10
6.463506256392503
 20
-7.031559208013674
 30
0.0
 40
0.5
  1
1-13/64
100
AcDbAttributeDefinition
  3

  2
Y
 70
     8
280
     0
  0
ATTDEF
  5
C6
330
B0
100
AcDbEntity
  8
AM_6
100
AcDbText
 10
6.463506256392503
 20
-7.531559208013674
 30
0.0
 40
0.5
  1
baldor
100
AcDbAttributeDefinition
  3

  2
COMPANY
 70
     8
280
     0
  0
LINE
  5
C7
330
B0
100
AcDbEntity
  8
AM_9
 48
0.009677077190725
100
AcDbLine
 10
0.05
 20
1.095740483028169
 30
0.0
 11
0.05
 21
1.132689278118078
 31
0.0
  0
LINE
  5
C8
330
B0
100
AcDbEntity
  8
AM_9
 48
0.009677077190725
100
AcDbLine
 10
-0.05
 20
1.095740483028169
 30
0.0
 11
-0.05
 21
1.132689278118078
 31
0.0
  0
ARC
  5
C9
330
B0
100
AcDbEntity
  8
AM_9
 48
0.009677077190725
100
AcDbCircle
 10
0.0
 20
0.0000000000000001
 30
0.0
 40
1.133792309359899
100
AcDbArc
 50
92.52755141749567
 51
87.47244858250434
  0
CIRCLE
  5
CA
330
B0
100
AcDbEntity
  8
AM_9
 48
0.009677077190725
100
AcDbCircle
 10
0.0
 20
0.0
 30
0.0
 40
1.200644841269841
  0
CIRCLE
  5
CB
330
B0
100
AcDbEntity
  8
AM_9
 48
0.009677077190725
100
AcDbCircle
 10
0.0
 20
0.0
 30
0.0
 40
1.305555555555557
  0
LINE
  5
CC
330
B0
100
AcDbEntity
  8
AM_9
 48
0.009677077190725
100
AcDbLine
 10
-1.45175
 20
-0.0780000000000001
 30
0.0
 11
-1.1185625
 21
-0.0780000000000001
 31
0.0
  0
LINE
  5
CD
330
B0
100
AcDbEntity
  8
AM_9
 48
0.009677077190725
100
AcDbLine
 10
-1.1185625
 20
0.0780000000000001
 30
0.0
 11
-1.45175
 21
0.0780000000000001
 31
0.0
  0
LINE
  5
CE
330
B0
100
AcDbEntity
  8
AM_9
 48
0.009677077190725
100
AcDbLine
 10
-1.1185625
 20
-0.0780000000000001
 30
0.0
 11
-1.1015625
 21
-0.0949999999999999
 31
0.0
  0
LINE
  5
CF
330
B0
100
AcDbEntity
  8
AM_9
 48
0.009677077190725
100
AcDbLine
 10
-1.1015625
 20
0.0949999999999999
 30
0.0
 11
-1.1185625
 21
0.0780000000000001
 31
0.0
  0
LINE
  5
D0
330
B0
100
AcDbEntity
  8
AM_9
 48
0.009677077190725
100
AcDbLine
 10
-1.1015625
 20
0.0949999999999999
 30
0.0
 11
-1.1015625
 21
-0.0949999999999999
 31
0.0
  0
LINE
  5
D1
330
B0
100
AcDbEntity
  8
AM_9
 48
0.009677077190725
100
AcDbLine
 10
-1.1185625
 20
0.0780000000000001
 30
0.0
 11
-1.1185625
 21
-0.0780000000000001
 31
0.0
  0
LINE
  5
D2
330
B0
100
AcDbEntity
  8
AM_9
 48
0.009677077190725
100
AcDbLine
 10
-1.45175
 20
0.0780000000000001
 30
0.0
 11
-1.465463000005231
 21
0.0917130000052315
 31
0.0
  0
LINE
  5
D3
330
B0
100
AcDbEntity
  8
AM_9
 48
0.009677077190725
100
AcDbLine
 10
-1.465582787246888
 20
-0.0918327872468883
 30
0.0
 11
-1.45175
 21
-0.0780000000000001
 31
0.0
  0
LINE
  5
D4
330
B0
100
AcDbEntity
  8
AM_9
 48
0.009677077190725
100
AcDbLine
 10
-1.45175
 20
0.0780000000000001
 30
0.0
 11
-1.45175
 21
-0.0780000000000001
 31
0.0
  0
LWPOLYLINE
  5
D5
330
B0
100
AcDbEntity
  8
AM_9
 48
0.009677077190725
100
AcDbPolyline
 90
        6
 70
     0
 43
0.0
 10
-1.468209587709818
 20
0.0398392903672809
 10
-1.468067413549423
 20
0.0447731144137534
 10
-1.467165808810984
 20
0.0681986213644427
 10
-1.466308574404425
 20
0.0846506180016636
 10
-1.465871449787786
 20
0.0919100386087153
 10
-1.465858964454231
 20
0.0921089508634889
  0
LWPOLYLINE
  5
D6
330
B0
100
AcDbEntity
  8
AM_9
 48
0.009677077190725
100
AcDbPolyline
 90
        6
 70
     0
 43
0.0
 10
-1.46585896420624
 20
-0.0921089548101046
 10
-1.465864305202282
 20
-0.0920239166403668
 10
-1.466277120645857
 20
-0.0851937085147456
 10
-1.4671703753651
 20
-0.0681003094782401
 10
-1.468119248155336
 20
-0.0430399314103816
 10
-1.468186665617979
 20
-0.0406752676888658
  0
LINE
  5
D8
330
B0
100
AcDbEntity
  8
AM_5
 48
0.009677077190725
100
AcDbLine
 10
-1.465674439464645
 20
-0.0949999999999999
 30
0.0
 11
-1.1015625
 21
-0.0949999999999999
 31
0.0
  0
LINE
  5
D9
330
B0
100
AcDbEntity
  8
AM_5
 48
0.009677077190725
100
AcDbLine
 10
-1.465674439464645
 20
0.0949999999999999
 30
0.0
 11
-1.1015625
 21
0.0949999999999999
 31
0.0
  0
LINE
  5
DA
330
B0
100
AcDbEntity
  8
AM_0
 48
0.009677077190725
100
AcDbLine
 10
-0.5780293922429813
 20
1.249176275633002
 30
0.0
 11
-0.6243659781269819
 21
1.32943359663337
 31
0.0
  0
LINE
  5
DB
330
B0
100
AcDbEntity
  8
AM_0
 48
0.009677077190725
100
AcDbLine
 10
1.463506256392503
 20
0.124
 30
0.0
 11
1.370833084624502
 21
0.124
 31
0.0
  0
ARC
  5
DC
330
B0
100
AcDbEntity
  8
AM_0
 48
0.009677077190725
100
AcDbCircle
 10
-0.0000000000000002
 20
-0.0000000000000002
 30
0.0
 40
1.46875
100
AcDbArc
 50
4.842991531200618
 51
115.1570084687994
  0
LINE
  5
DD
330
B0
100
AcDbEntity
  8
AM_0
 48
0.009677077190725
100
AcDbLine
 10
-0.6243659781269811
 20
-1.32943359663337
 30
0.0
 11
-0.5780293922429806
 21
-1.249176275633002
 31
0.0
  0
LINE
  5
DE
330
B0
100
AcDbEntity
  8
AM_0
 48
0.009677077190725
100
AcDbLine
 10
1.370833084624502
 20
-0.124
 30
0.0
 11
1.463506256392503
 21
-0.124
 31
0.0
  0
ARC
  5
DF
330
B0
100
AcDbEntity
  8
AM_0
 48
0.009677077190725
100
AcDbCircle
 10
0.0
 20
0.0
 30
0.0
 40
1.46875
100
AcDbArc
 50
244.8429915312006
 51
355.1570084687994
  0
LINE
  5
E0
330
B0
100
AcDbEntity
  8
AM_0
 48
0.009677077190725
100
AcDbLine
 10
-0.8391402782655228
 20
1.20543359663337
 30
0.0
 11
-0.7928036923815223
 21
1.125176275633002
 31
0.0
  0
LINE
  5
E1
330
B0
100
AcDbEntity
  8
AM_0
 48
0.009677077190725
100
AcDbLine
 10
-0.7928036923815214
 20
-1.125176275633002
 30
0.0
 11
-0.8391402782655218
 21
-1.20543359663337
 31
0.0
  0
ARC
  5
E2
330
B0
100
AcDbEntity
  8
AM_0
 48
0.009677077190725
100
AcDbCircle
 10
-0.0000000000000058
 20
0.0000000000000047
 30
0.0
 40
1.468749999999993
100
AcDbArc
 50
124.8429915312006
 51
178.4498165978863
  0
LWPOLYLINE
  5
E3
330
B0
100
AcDbEntity
  8
AM_0
 48
0.009677077190725
100
AcDbPolyline
 90
        4
 70
     0
 43
0.0
 10
-1.468212458137744
 20
0.0397333646840938
 10
-1.464926858289361
 20
0.0178422529703599
 10
-1.464171223759154
 20
-0.0052454682959435
 10
-1.468212458137745
 20
-0.0397333646841003
  0
ARC
  5
E4
330
B0
100
AcDbEntity
  8
AM_0
 48
0.009677077190725
100
AcDbCircle
 10
-0.0000000000000018
 20
-0.0000000000000011
 30
0.0
 40
1.468749999999998
100
AcDbArc
 50
181.5501834021141
 51
235.1570084687994
  0
LINE
  5
E5
330
B0
100
AcDbEntity
  8
AM_0
 48
0.009677077190725
100
AcDbLine
 10
0.05
 20
0.9674588169529492
 30
0.0
 11
0.05
 21
1.095734126984127
 31
0.0
  0
LINE
  5
E6
330
B0
100
AcDbEntity
  8
AM_0
 48
0.009677077190725
100
AcDbLine
 10
-0.05
 20
0.9674588169529492
 30
0.0
 11
-0.05
 21
1.095734126984127
 31
0.0
  0
LINE
  5
E7
330
B0
100
AcDbEntity
  8
AM_0
 48
0.009677077190725
100
AcDbLine
 10
1.370833084624502
 20
0.124
 30
0.0
 11
1.370833084624502
 21
-0.124
 31
0.0
  0
LINE
  5
E8
330
B0
100
AcDbEntity
  8
AM_0
 48
0.009677077190725
100
AcDbLine
 10
-0.05
 20
1.095734126984127
 30
0.0
 11
0.05
 21
1.095734126984127
 31
0.0
  0
LINE
  5
E9
330
B0
100
AcDbEntity
  8
AM_0
 48
0.009677077190725
100
AcDbLine
 10
-0.7928036923815223
 20
1.125176275633002
 30
0.0
 11
-0.5780293922429813
 21
1.249176275633002
 31
0.0
  0
ARC
  5
EA
330
B0
100
AcDbEntity
  8
AM_0
 48
0.009677077190725
100
AcDbCircle
 10
-0.0000000000000004
 20
-0.0000000000000006
 30
0.0
 40
1.434106000000001
100
AcDbArc
 50
4.960274372158627
 51
115.0397256278414
  0
ARC
  5
EB
330
B0
100
AcDbEntity
  8
AM_0
 48
0.009677077190725
100
AcDbCircle
 10
-0.0000000000000011
 20
0.0000000000000001
 30
0.0
 40
1.434105999999999
100
AcDbArc
 50
124.9602743721586
 51
235.0397256278414
  0
LINE
  5
EC
330
B0
100
AcDbEntity
  8
AM_0
 48
0.009677077190725
100
AcDbLine
 10
-0.5780293922429806
 20
-1.249176275633002
 30
0.0
 11
-0.7928036923815214
 21
-1.125176275633002
 31
0.0
  0
ARC
  5
ED
330
B0
100
AcDbEntity
  8
AM_0
 48
0.009677077190725
100
AcDbCircle
 10
-0.0000000000000001
 20
0.0
 30
0.0
 40
1.434106
100
AcDbArc
 50
244.9602743721586
 51
355.0397256278414
  0
ARC
  5
EE
330
B0
100
AcDbEntity
  8
AM_0
 48
0.009677077190725
100
AcDbCircle
 10
0.0
 20
0.0
 30
0.0
 40
0.96875
100
AcDbArc
 50
92.9585160437875
 51
87.04148395621249
  0
ARC
  5
EF
330
B0
100
AcDbEntity
  8
AM_0
 48
0.009677077190725
100
AcDbCircle
 10
0.0
 20
0.0
 30
0.0
 40
1.095734126984127
100
AcDbArc
 50
92.61540097321847
 51
87.38459902678153
  0
ENDBLK
  5
B3
330
B0
100
AcDbEntity
  8
0
100
AcDbBlockEnd
  0
BLOCK
  5
F2
330
F0
100
AcDbEntity
  8
0
100
AcDbBlockBegin
  2
3_P2B_GTEZ_10_SHCRI_0_in__129274_0
 70
     2
 10
0.0
 20
0.0
 30
0.0
  3
3_P2B_GTEZ_10_SHCRI_0_in__129274_0
  1

  0
ATTDEF
  5
F4
330
F0
100
AcDbEntity
  8
AM_6
100
AcDbText
 10
9.0
 20
2.062999999999999
 30
0.0
 40
0.5
  1
P2B-GTEZ-SHCR-I
100
AcDbAttributeDefinition
  3

  2
NN
 70
     8
280
     0
  0
ATTDEF
  5
F5
330
F0
100
AcDbEntity
  8
AM_6
100
AcDbText
 10
9.0
 20
1.562999999999999
 30
0.0
 40
0.5
  1
GTEZ Normal Duty Stainless Steel Housed Pillow Blocks
100
AcDbAttributeDefinition
  3

  2
NT
 70
     8
280
     0
  0
ATTDEF
  5
F6
330
F0
100
AcDbEntity
  8
AM_6
100
AcDbText
 10
9.0
 20
1.062999999999999
 30
0.0
 40
0.5
  1
P2B-GTEZ-10-SHCRI
100
AcDbAttributeDefinition
  3

  2
NB
 70
     8
280
     0
  0
ATTDEF
  5
F7
330
F0
100
AcDbEntity
  8
AM_6
100
AcDbText
 10
9.0
 20
0.5629999999999993
 30
0.0
 40
0.5
  1
$PN.$LUBE.I
100
AcDbAttributeDefinition
  3

  2
NBSYN
 70
     8
280
     0
  0
ATTDEF
  5
F8
330
F0
100
AcDbEntity
  8
AM_6
100
AcDbText
 10
9.0
 20
0.0629999999999993
 30
0.0
 40
0.5
  1
P2B-GTEZ-10-SHCR
100
AcDbAttributeDefinition
  3

  2
LINA
 70
     8
280
     0
  0
ATTDEF
  5
F9
330
F0
100
AcDbEntity
  8
AM_6
100
AcDbText
 10
9.0
 20
-0.4370000000000007
 30
0.0
 40
0.5
  1
210
100
AcDbAttributeDefinition
  3

  2
SERIES
 70
     8
280
     0
  0
ATTDEF
  5
FA
330
F0
100
AcDbEntity
  8
AM_6
100
AcDbText
 10
9.0
 20
-0.9370000000000007
 30
0.0
 40
0.5
  1
P2B-GTEZ-10-SHCR
100
AcDbAttributeDefinition
  3

  2
PN
 70
     8
280
     0
  0
ATTDEF
  5
FB
330
F0
100
AcDbEntity
  8
AM_6
100
AcDbText
 10
9.0
 20
-1.437000000000001
 30
0.0
 40
0.5
  1
P2B-GTEZ-10-SHCR
100
AcDbAttributeDefinition
  3

  2
DESCRIPTION
 70
     8
280
     0
  0
ATTDEF
  5
FC
330
F0
100
AcDbEntity
  8
AM_6
100
AcDbText
 10
9.0
 20
-1.937000000000001
 30
0.0
 40
0.5
  1
1-55/64
100
AcDbAttributeDefinition
  3

  2
A
 70
     8
280
     0
  0
ATTDEF
  5
FD
330
F0
100
AcDbEntity
  8
AM_6
100
AcDbText
 10
9.0
 20
-2.437000000000001
 30
0.0
 40
0.5
  1
8
100
AcDbAttributeDefinition
  3

  2
B
 70
     8
280
     0
  0
ATTDEF
  5
FE
330
F0
100
AcDbEntity
  8
AM_6
100
AcDbText
 10
9.0
 20
-2.937000000000001
 30
0.0
 40
0.5
  1
1-5/8
100
AcDbAttributeDefinition
  3

  2
C
 70
     8
280
     0
  0
ATTDEF
  5
FF
330
F0
100
AcDbEntity
  8
AM_6
100
AcDbText
 10
9.0
 20
-3.437000000000001
 30
0.0
 40
0.5
  1
5-49/64
100
AcDbAttributeDefinition
  3

  2
DMIN
 70
     8
280
     0
  0
ATTDEF
  5
100
330
F0
100
AcDbEntity
  8
AM_6
100
AcDbText
 10
9.0
 20
-3.937000000000001
 30
0.0
 40
0.5
  1
6-11/16
100
AcDbAttributeDefinition
  3

  2
DMAX
 70
     8
280
     0
  0
ATTDEF
  5
101
330
F0
100
AcDbEntity
  8
AM_6
100
AcDbText
 10
9.0
 20
-4.437000000000001
 30
0.0
 40
0.5
  1
6.688
100
AcDbAttributeDefinition
  3

  2
DMAX1
 70
     8
280
     0
  0
ATTDEF
  5
102
330
F0
100
AcDbEntity
  8
AM_6
100
AcDbText
 10
9.0
 20
-4.937000000000001
 30
0.0
 40
0.5
  1
5/8
100
AcDbAttributeDefinition
  3

  2
F
 70
     8
280
     0
  0
ATTDEF
  5
103
330
F0
100
AcDbEntity
  8
AM_6
100
AcDbText
 10
9.0
 20
-5.437000000000001
 30
0.0
 40
0.5
  1
1-9/64
100
AcDbAttributeDefinition
  3

  2
G
 70
     8
280
     0
  0
ATTDEF
  5
104
330
F0
100
AcDbEntity
  8
AM_6
100
AcDbText
 10
9.0
 20
-5.937000000000001
 30
0.0
 40
0.5
  1
5/8
100
AcDbAttributeDefinition
  3

  2
H
 70
     8
280
     0
  0
ATTDEF
  5
105
330
F0
100
AcDbEntity
  8
AM_6
100
AcDbText
 10
9.0
 20
-6.437000000000001
 30
0.0
 40
0.5
  1
4-5/16
100
AcDbAttributeDefinition
  3

  2
J
 70
     8
280
     0
  0
ATTDEF
  5
106
330
F0
100
AcDbEntity
  8
AM_6
100
AcDbText
 10
9.0
 20
-6.937000000000001
 30
0.0
 40
0.5
  1
2-15/16
100
AcDbAttributeDefinition
  3

  2
L
 70
     8
280
     0
  0
ATTDEF
  5
107
330
F0
100
AcDbEntity
  8
AM_6
100
AcDbText
 10
9.0
 20
-7.437000000000001
 30
0.0
 40
0.5
  1
2-1/4
100
AcDbAttributeDefinition
  3

  2
M
 70
     8
280
     0
  0
ATTDEF
  5
108
330
F0
100
AcDbEntity
  8
AM_6
100
AcDbText
 10
9.0
 20
-7.937000000000001
 30
0.0
 40
0.5
  1
21/32
100
AcDbAttributeDefinition
  3

  2
R
 70
     8
280
     0
  0
ATTDEF
  5
109
330
F0
100
AcDbEntity
  8
AM_6
100
AcDbText
 10
9.0
 20
-8.437000000000001
 30
0.0
 40
0.5
  1
1-13/64
100
AcDbAttributeDefinition
  3

  2
S
 70
     8
280
     0
  0
ATTDEF
  5
10A
330
F0
100
AcDbEntity
  8
AM_6
100
AcDbText
 10
9.0
 20
-8.937000000000001
 30
0.0
 40
0.5
  1
1-5/32
100
AcDbAttributeDefinition
  3

  2
Z
 70
     8
280
     0
  0
ATTDEF
  5
10B
330
F0
100
AcDbEntity
  8
AM_6
100
AcDbText
 10
9.0
 20
-9.437000000000001
 30
0.0
 40
0.5
  1
baldor
100
AcDbAttributeDefinition
  3

  2
COMPANY
 70
     8
280
     0
  0
LINE
  5
10C
330
F0
100
AcDbEntity
  8
AM_9
 48
0.0247852825952147
100
AcDbLine
 10
-2.883
 20
-2.25
 30
0.0
 11
-2.883
 21
-1.625
 31
0.0
  0
LINE
  5
10D
330
F0
100
AcDbEntity
  8
AM_9
 48
0.0247852825952147
100
AcDbLine
 10
-2.684
 20
-2.25
 30
0.0
 11
-2.684
 21
-1.625
 31
0.0
  0
LINE
  5
10E
330
F0
100
AcDbEntity
  8
AM_9
 48
0.0247852825952147
100
AcDbLine
 10
-3.343999999999999
 20
-2.25
 30
0.0
 11
-3.343999999999999
 21
-1.625
 31
0.0
  0
LINE
  5
10F
330
F0
100
AcDbEntity
  8
AM_9
 48
0.0247852825952147
100
AcDbLine
 10
-3.543
 20
-1.625
 30
0.0
 11
-3.543
 21
-2.25
 31
0.0
  0
LINE
  5
110
330
F0
100
AcDbEntity
  8
AM_9
 48
0.0247852825952147
100
AcDbLine
 10
2.883
 20
-2.25
 30
0.0
 11
2.883
 21
-1.625
 31
0.0
  0
LINE
  5
111
330
F0
100
AcDbEntity
  8
AM_9
 48
0.0247852825952147
100
AcDbLine
 10
2.684
 20
-1.625
 30
0.0
 11
2.684
 21
-2.25
 31
0.0
  0
LINE
  5
112
330
F0
100
AcDbEntity
  8
AM_9
 48
0.0247852825952147
100
AcDbLine
 10
3.343999999999999
 20
-2.25
 30
0.0
 11
3.343999999999999
 21
-1.625
 31
0.0
  0
LINE
  5
113
330
F0
100
AcDbEntity
  8
AM_9
 48
0.0247852825952147
100
AcDbLine
 10
3.543
 20
-2.25
 30
0.0
 11
3.543
 21
-1.625
 31
0.0
  0
LINE
  5
114
330
F0
100
AcDbEntity
  8
AM_7
 48
0.0247852825952147
100
AcDbLine
 10
1.328986032179622
 20
1.328986032179622
 30
0.0
 11
1.74031906484686
 21
1.74031906484686
 31
0.0
  0
LINE
  5
115
330
F0
100
AcDbEntity
  8
AM_0
 48
0.0247852825952147
100
AcDbLine
 10
1.649360605716607
 20
1.741868221103786
 30
0.0
 11
1.741868215532359
 21
1.649360611288034
 31
0.0
  0
ARC
  5
116
330
F0
100
AcDbEntity
  8
AM_0
 48
0.0247852825952147
100
AcDbCircle
 10
1.72794882411613
 20
1.63544120872895
 30
0.0
 40
0.0196849999999987
100
AcDbArc
 50
336.8012338450274
 51
45.00000000000138
  0
ARC
  5
117
330
F0
100
AcDbEntity
  8
AM_0
 48
0.0247852825952147
100
AcDbCircle
 10
1.63544120872895
 20
1.72794882411613
 30
0.0
 40
0.0196849999999986
100
AcDbArc
 50
44.99999999999863
 51
113.1987661549726
  0
LINE
  5
118
330
F0
100
AcDbEntity
  8
AM_4
 48
0.0247852825952147
100
AcDbLine
 10
1.62768685187088
 20
1.746042170260988
 30
0.0
 11
1.746042170260988
 21
1.62768685187088
 31
0.0
  0
LINE
  5
119
330
F0
100
AcDbEntity
  8
AM_0
 48
0.0247852825952147
100
AcDbLine
 10
1.62768685187088
 20
1.746042170260988
 30
0.0
 11
1.575249914980693
 21
1.7235690070365
 31
0.0
  0
LINE
  5
11A
330
F0
100
AcDbEntity
  8
AM_0
 48
0.0247852825952147
100
AcDbLine
 10
1.7235690070365
 20
1.575249914980693
 30
0.0
 11
1.746042170260988
 21
1.62768685187088
 31
0.0
  0
LINE
  5
11B
330
F0
100
AcDbEntity
  8
AM_4
 48
0.0247852825952147
100
AcDbLine
 10
1.575249914980693
 20
1.7235690070365
 30
0.0
 11
1.7235690070365
 21
1.575249914980693
 31
0.0
  0
ARC
  5
11C
330
F0
100
AcDbEntity
  8
AM_0
 48
0.0247852825952147
100
AcDbCircle
 10
1.705475660891639
 20
1.583004271838764
 30
0.0
 40
0.0196850000000008
100
AcDbArc
 50
269.1572275190676
 51
336.8012338450295
  0
ARC
  5
11D
330
F0
100
AcDbEntity
  8
AM_0
 48
0.0247852825952147
100
AcDbCircle
 10
1.583004271838764
 20
1.705475660891639
 30
0.0
 40
0.0196850000000008
100
AcDbArc
 50
113.1987661549706
 51
180.8427724809324
  0
LINE
  5
11E
330
F0
100
AcDbEntity
  8
AM_4
 48
0.0247852825952147
100
AcDbLine
 10
1.563321401316091
 20
1.705186121623613
 30
0.0
 11
1.705186121623613
 21
1.563321401316091
 31
0.0
  0
ARC
  5
11F
330
F0
100
AcDbEntity
  8
AM_0
 48
0.0247852825952147
100
AcDbCircle
 10
1.70414016007558
 20
1.492216967496256
 30
0.0
 40
0.0711121265636124
100
AcDbArc
 50
89.15722751906677
 51
191.14475230065
  0
ARC
  5
120
330
F0
100
AcDbEntity
  8
AM_0
 48
0.0247852825952147
100
AcDbCircle
 10
1.492216967496256
 20
1.70414016007558
 30
0.0
 40
0.0711121265636125
100
AcDbArc
 50
258.8552476993499
 51
0.8427724809330699
  0
LINE
  5
121
330
F0
100
AcDbEntity
  8
AM_0
 48
0.0247852825952147
100
AcDbLine
 10
1.478471820402744
 20
1.634369066664505
 30
0.0
 11
1.634369066664505
 21
1.478471820402744
 31
0.0
  0
LINE
  5
122
330
F0
100
AcDbEntity
  8
AM_0
 48
0.0247852825952147
100
AcDbLine
 10
1.620449669676848
 20
1.464552423415087
 30
0.0
 11
1.634369066664505
 21
1.478471820402744
 31
0.0
  0
LINE
  5
123
330
F0
100
AcDbEntity
  8
AM_0
 48
0.0247852825952147
100
AcDbLine
 10
1.478471820402744
 20
1.634369066664505
 30
0.0
 11
1.464552423415087
 21
1.620449669676848
 31
0.0
  0
LINE
  5
124
330
F0
100
AcDbEntity
  8
AM_0
 48
0.0247852825952147
100
AcDbLine
 10
1.534676358104788
 20
1.378779111843027
 30
0.0
 11
1.536932580644123
 21
1.381035334382362
 31
0.0
  0
LINE
  5
125
330
F0
100
AcDbEntity
  8
AM_0
 48
0.0247852825952147
100
AcDbLine
 10
1.381035334382362
 20
1.536932580644123
 30
0.0
 11
1.378728593053954
 21
1.534625839315715
 31
0.0
  0
LINE
  5
126
330
F0
100
AcDbEntity
  8
AM_0
 48
0.0247852825952147
100
AcDbLine
 10
1.431014162263117
 20
1.653725221172412
 30
0.0
 11
1.347628522793751
 21
1.570339581703047
 31
0.0
  0
LWPOLYLINE
  5
127
330
F0
100
AcDbEntity
  8
AM_0
 48
0.0247852825952147
100
AcDbPolyline
 90
        5
 70
     0
 43
0.0
 10
1.463599948773756
 20
1.463599948773756
 10
1.432734520111
 20
1.48775439305638
 10
1.403842255425548
 20
1.514126769111923
 10
1.376888738412817
 20
1.543511273336934
 10
1.352244419319108
 20
1.574955478228404
  0
LINE
  5
128
330
F0
100
AcDbEntity
  8
AM_0
 48
0.0247852825952147
100
AcDbLine
 10
1.347628781611985
 20
1.5703391334145
 30
0.0
 11
1.5703391334145
 21
1.347628781611985
 31
0.0
  0
LINE
  5
129
330
F0
100
AcDbEntity
  8
AM_0
 48
0.0247852825952147
100
AcDbLine
 10
1.537885055285454
 20
1.537885055285454
 30
0.0
 11
1.463599948773756
 21
1.463599948773756
 31
0.0
  0
LWPOLYLINE
  5
12A
330
F0
100
AcDbEntity
  8
AM_0
 48
0.0247852825952147
100
AcDbPolyline
 90
        3
 70
     0
 43
0.0
 10
1.499489206197888
 20
1.419250533535094
 10
1.488244267867465
 20
1.432155743882285
 10
1.463599948773756
 20
1.463599948773756
  0
LWPOLYLINE
  5
12B
330
F0
100
AcDbEntity
  8
AM_0
 48
0.0247852825952147
100
AcDbPolyline
 90
        4
 70
     0
 43
0.0
 10
1.574955478228404
 20
1.352244419319108
 10
1.544090049565648
 20
1.376398863601732
 10
1.515197784880196
 20
1.402771239657275
 10
1.499489206197888
 20
1.419250533535094
  0
LINE
  5
12C
330
F0
100
AcDbEntity
  8
AM_0
 48
0.0247852825952147
100
AcDbLine
 10
1.43114587064471
 20
1.653856222447225
 30
0.0
 11
1.653856222447225
 21
1.43114587064471
 31
0.0
  0
LINE
  5
12D
330
F0
100
AcDbEntity
  8
AM_0
 48
0.0247852825952147
100
AcDbLine
 10
1.426529525830806
 20
1.649240584740102
 30
0.0
 11
1.477636295127547
 21
1.607103088307982
 31
0.0
  0
LINE
  5
12E
330
F0
100
AcDbEntity
  8
AM_0
 48
0.0247852825952147
100
AcDbLine
 10
1.477636295127547
 20
1.607103088307982
 30
0.0
 11
1.495747558853333
 21
1.588991824582196
 31
0.0
  0
LINE
  5
12F
330
F0
100
AcDbEntity
  8
AM_0
 48
0.0247852825952147
100
AcDbLine
 10
1.495747558853333
 20
1.588991824582196
 30
0.0
 11
1.537885055285454
 21
1.537885055285454
 31
0.0
  0
LINE
  5
130
330
F0
100
AcDbEntity
  8
AM_0
 48
0.0247852825952147
100
AcDbLine
 10
1.537885055285454
 20
1.537885055285454
 30
0.0
 11
1.588991824582196
 21
1.495747558853333
 31
0.0
  0
LINE
  5
131
330
F0
100
AcDbEntity
  8
AM_0
 48
0.0247852825952147
100
AcDbLine
 10
1.588991824582196
 20
1.495747558853333
 30
0.0
 11
1.607103088307982
 21
1.477636295127547
 31
0.0
  0
LINE
  5
132
330
F0
100
AcDbEntity
  8
AM_0
 48
0.0247852825952147
100
AcDbLine
 10
1.607103088307982
 20
1.477636295127547
 30
0.0
 11
1.649240584740102
 21
1.426529525830806
 31
0.0
  0
LINE
  5
133
330
F0
100
AcDbEntity
  8
AM_0
 48
0.0247852825952147
100
AcDbLine
 10
1.570339581703047
 20
1.347628522793751
 30
0.0
 11
1.653725221172412
 21
1.431014162263117
 31
0.0
  0
ARC
  5
134
330
F0
100
AcDbEntity
  8
AM_0
 48
0.0247852825952147
100
AcDbCircle
 10
-0.0000000000000002
 20
-0.0000000000000002
 30
0.0
 40
1.77165
100
AcDbArc
 50
221.1842445891082
 51
318.8152917814003
  0
LINE
  5
135
330
F0
100
AcDbEntity
  8
AM_0
 48
0.0247852825952147
100
AcDbLine
 10
-3.080426878263999
 20
-1.973918129902
 30
0.0
 11
-3.074304827714
 21
-1.985572073203
 31
0.0
  0
LINE
  5
136
330
F0
100
AcDbEntity
  8
AM_0
 48
0.0247852825952147
100
AcDbLine
 10
-2.780461
 20
-1.985572073203
 30
0.0
 11
-2.768217
 21
-1.997225622803
 31
0.0
  0
LINE
  5
137
330
F0
100
AcDbEntity
  8
AM_0
 48
0.0247852825952147
100
AcDbLine
 10
-2.7865823
 20
-1.973918129902
 30
0.0
 11
-2.780461
 21
-1.985572073203
 31
0.0
  0
LINE
  5
138
330
F0
100
AcDbEntity
  8
AM_0
 48
0.0247852825952147
100
AcDbLine
 10
-2.8141302
 20
-1.9593508779412
 30
0.0
 11
-2.8141302
 21
-1.9156491
 31
0.0
  0
LINE
  5
139
330
F0
100
AcDbEntity
  8
AM_0
 48
0.0247852825952147
100
AcDbLine
 10
-2.8141302
 20
-1.9156491
 30
0.0
 11
-2.8171911
 21
-1.9010819
 31
0.0
  0
LINE
  5
13A
330
F0
100
AcDbEntity
  8
AM_0
 48
0.0247852825952147
100
AcDbLine
 10
-2.7865823
 20
-1.9010819
 30
0.0
 11
-2.7896432
 21
-1.9156491
 31
0.0
  0
LINE
  5
13B
330
F0
100
AcDbEntity
  8
AM_0
 48
0.0247852825952147
100
AcDbLine
 10
-2.768217
 20
-1.997225622803
 30
0.0
 11
-2.755974
 21
-2.003052791304
 31
0.0
  0
LINE
  5
13C
330
F0
100
AcDbEntity
  8
AM_0
 48
0.0247852825952147
100
AcDbLine
 10
-2.8477999
 20
-1.8719474
 30
0.0
 11
-2.8631043
 21
-1.8690339
 31
0.0
  0
LINE
  5
13D
330
F0
100
AcDbEntity
  8
AM_0
 48
0.0247852825952147
100
AcDbLine
 10
-2.755974
 20
-2.003052791304
 30
0.0
 11
-2.740669
 21
-2.005966178704
 31
0.0
  0
LINE
  5
13E
330
F0
100
AcDbEntity
  8
AM_0
 48
0.0247852825952147
100
AcDbLine
 10
-2.8171911
 20
-1.9010819
 30
0.0
 11
-2.823312899999999
 21
-1.8894281
 31
0.0
  0
LINE
  5
13F
330
F0
100
AcDbEntity
  8
AM_0
 48
0.0247852825952147
100
AcDbLine
 10
-2.823312899999999
 20
-1.8894281
 30
0.0
 11
-2.8355564
 21
-1.8777743
 31
0.0
  0
LINE
  5
140
330
F0
100
AcDbEntity
  8
AM_0
 48
0.0247852825952147
100
AcDbLine
 10
-2.8355564
 20
-1.8777743
 30
0.0
 11
-2.8477999
 21
-1.8719474
 31
0.0
  0
LINE
  5
141
330
F0
100
AcDbEntity
  8
AM_0
 48
0.0247852825952147
100
AcDbLine
 10
-2.762095
 20
-1.895255
 30
0.0
 11
-2.752913
 21
-1.8894281
 31
0.0
  0
LINE
  5
142
330
F0
100
AcDbEntity
  8
AM_0
 48
0.0247852825952147
100
AcDbLine
 10
-2.752913
 20
-1.8894281
 30
0.0
 11
-2.740669
 21
-1.8865146
 31
0.0
  0
LINE
  5
143
330
F0
100
AcDbEntity
  8
AM_0
 48
0.0247852825952147
100
AcDbLine
 10
-2.8171911
 20
-1.973918129902
 30
0.0
 11
-2.8141302
 21
-1.9593508779412
 31
0.0
  0
LINE
  5
144
330
F0
100
AcDbEntity
  8
AM_0
 48
0.0247852825952147
100
AcDbLine
 10
-2.713121
 20
-1.8865146
 30
0.0
 11
-2.700878
 21
-1.8894281
 31
0.0
  0
LINE
  5
145
330
F0
100
AcDbEntity
  8
AM_0
 48
0.0247852825952147
100
AcDbLine
 10
-2.700878
 20
-1.8894281
 30
0.0
 11
-2.691695
 21
-1.895255
 31
0.0
  0
LINE
  5
146
330
F0
100
AcDbEntity
  8
AM_0
 48
0.0247852825952147
100
AcDbLine
 10
-2.691695
 20
-1.895255
 30
0.0
 11
-2.688634
 21
-1.9039953
 31
0.0
  0
LINE
  5
147
330
F0
100
AcDbEntity
  8
AM_0
 48
0.0247852825952147
100
AcDbLine
 10
-2.688634
 20
-1.9039953
 30
0.0
 11
-2.670269000000001
 21
-1.9039953
 31
0.0
  0
LINE
  5
148
330
F0
100
AcDbEntity
  8
AM_0
 48
0.0247852825952147
100
AcDbLine
 10
-2.670269000000001
 20
-1.9039953
 30
0.0
 11
-2.67333
 21
-1.8894281
 31
0.0
  0
LINE
  5
149
330
F0
100
AcDbEntity
  8
AM_0
 48
0.0247852825952147
100
AcDbLine
 10
-2.67333
 20
-1.8894281
 30
0.0
 11
-2.685573
 21
-1.8777743
 31
0.0
  0
LINE
  5
14A
330
F0
100
AcDbEntity
  8
AM_0
 48
0.0247852825952147
100
AcDbLine
 10
-2.685573
 20
-1.8777743
 30
0.0
 11
-2.697817
 21
-1.8719474
 31
0.0
  0
LINE
  5
14B
330
F0
100
AcDbEntity
  8
AM_0
 48
0.0247852825952147
100
AcDbLine
 10
-3.156948573129001
 20
-1.8690339
 30
0.0
 11
-3.23040963642
 21
-1.8690339
 31
0.0
  0
LINE
  5
14C
330
F0
100
AcDbEntity
  8
AM_0
 48
0.0247852825952147
100
AcDbLine
 10
-3.23040963642
 20
-1.8690339
 30
0.0
 11
-3.23040963642
 21
-2.005966178704
 31
0.0
  0
LINE
  5
14D
330
F0
100
AcDbEntity
  8
AM_0
 48
0.0247852825952147
100
AcDbLine
 10
-3.23040963642
 20
-2.005966178704
 30
0.0
 11
-3.156948573129001
 21
-2.005966178704
 31
0.0
  0
LINE
  5
14E
330
F0
100
AcDbEntity
  8
AM_0
 48
0.0247852825952147
100
AcDbLine
 10
-3.156948573129001
 20
-2.005966178704
 30
0.0
 11
-3.141644234156
 21
-2.003052791304
 31
0.0
  0
LINE
  5
14F
330
F0
100
AcDbEntity
  8
AM_0
 48
0.0247852825952147
100
AcDbLine
 10
-3.141644234156
 20
-2.003052791304
 30
0.0
 11
-3.129400920458
 21
-1.997225622803
 31
0.0
  0
LINE
  5
150
330
F0
100
AcDbEntity
  8
AM_0
 48
0.0247852825952147
100
AcDbLine
 10
-3.129400920458
 20
-1.997225622803
 30
0.0
 11
-3.117157213059
 21
-1.985572073203
 31
0.0
  0
LINE
  5
151
330
F0
100
AcDbEntity
  8
AM_0
 48
0.0247852825952147
100
AcDbLine
 10
-3.117157213059
 20
-1.985572073203
 30
0.0
 11
-3.11103555621
 21
-1.973918129902
 31
0.0
  0
LINE
  5
152
330
F0
100
AcDbEntity
  8
AM_0
 48
0.0247852825952147
100
AcDbLine
 10
-3.11103555621
 20
-1.973918129902
 30
0.0
 11
-3.107974530935
 21
-1.9593508779412
 31
0.0
  0
LINE
  5
153
330
F0
100
AcDbEntity
  8
AM_0
 48
0.0247852825952147
100
AcDbLine
 10
-3.107974530935
 20
-1.9593508779412
 30
0.0
 11
-3.107974530935
 21
-1.9156491
 31
0.0
  0
LINE
  5
154
330
F0
100
AcDbEntity
  8
AM_0
 48
0.0247852825952147
100
AcDbLine
 10
-2.740669
 20
-1.8865146
 30
0.0
 11
-2.713121
 21
-1.8865146
 31
0.0
  0
LINE
  5
155
330
F0
100
AcDbEntity
  8
AM_0
 48
0.0247852825952147
100
AcDbLine
 10
-3.11103555621
 20
-1.9010819
 30
0.0
 11
-3.117157213059
 21
-1.8894281
 31
0.0
  0
LINE
  5
156
330
F0
100
AcDbEntity
  8
AM_0
 48
0.0247852825952147
100
AcDbLine
 10
-3.117157213059
 20
-1.8894281
 30
0.0
 11
-3.129400920458
 21
-1.8777743
 31
0.0
  0
LINE
  5
157
330
F0
100
AcDbEntity
  8
AM_0
 48
0.0247852825952147
100
AcDbLine
 10
-3.129400920458
 20
-1.8777743
 30
0.0
 11
-3.141644234156
 21
-1.8719474
 31
0.0
  0
LINE
  5
158
330
F0
100
AcDbEntity
  8
AM_0
 48
0.0247852825952147
100
AcDbLine
 10
-3.141644234156
 20
-1.8719474
 30
0.0
 11
-3.156948573129001
 21
-1.8690339
 31
0.0
  0
LINE
  5
159
330
F0
100
AcDbEntity
  8
AM_0
 48
0.0247852825952147
100
AcDbLine
 10
-2.8631043
 20
-1.8690339
 30
0.0
 11
-2.936565383256
 21
-1.8690339
 31
0.0
  0
LINE
  5
15A
330
F0
100
AcDbEntity
  8
AM_0
 48
0.0247852825952147
100
AcDbLine
 10
-3.083487509838
 20
-1.9593508779412
 30
0.0
 11
-3.080426878263999
 21
-1.973918129902
 31
0.0
  0
LINE
  5
15B
330
F0
100
AcDbEntity
  8
AM_0
 48
0.0247852825952147
100
AcDbLine
 10
-3.074304827714
 20
-1.985572073203
 30
0.0
 11
-3.062061514016
 21
-1.997225622803
 31
0.0
  0
LINE
  5
15C
330
F0
100
AcDbEntity
  8
AM_0
 48
0.0247852825952147
100
AcDbLine
 10
-2.7896432
 20
-1.9156491
 30
0.0
 11
-2.7896432
 21
-1.9593508779412
 31
0.0
  0
LINE
  5
15D
330
F0
100
AcDbEntity
  8
AM_0
 48
0.0247852825952147
100
AcDbLine
 10
-2.7896432
 20
-1.9593508779412
 30
0.0
 11
-2.7865823
 21
-1.973918129902
 31
0.0
  0
LINE
  5
15E
330
F0
100
AcDbEntity
  8
AM_0
 48
0.0247852825952147
100
AcDbLine
 10
-3.034513467644
 20
-2.005966178704
 30
0.0
 11
-3.010026446547
 21
-2.005966178704
 31
0.0
  0
LINE
  5
15F
330
F0
100
AcDbEntity
  8
AM_0
 48
0.0247852825952147
100
AcDbLine
 10
-3.010026446547
 20
-2.005966178704
 30
0.0
 11
-2.994722107574
 21
-2.003052791304
 31
0.0
  0
LINE
  5
160
330
F0
100
AcDbEntity
  8
AM_0
 48
0.0247852825952147
100
AcDbLine
 10
-2.994722107574
 20
-2.003052791304
 30
0.0
 11
-2.982478400175
 21
-1.997225622803
 31
0.0
  0
LINE
  5
161
330
F0
100
AcDbEntity
  8
AM_0
 48
0.0247852825952147
100
AcDbLine
 10
-2.982478400175
 20
-1.997225622803
 30
0.0
 11
-2.970235086477
 21
-1.985572073203
 31
0.0
  0
LINE
  5
162
330
F0
100
AcDbEntity
  8
AM_0
 48
0.0247852825952147
100
AcDbLine
 10
-2.740669
 20
-2.005966178704
 30
0.0
 11
-2.713121
 21
-2.005966178704
 31
0.0
  0
LINE
  5
163
330
F0
100
AcDbEntity
  8
AM_0
 48
0.0247852825952147
100
AcDbLine
 10
-2.713121
 20
-2.005966178704
 30
0.0
 11
-2.697817
 21
-2.003052791304
 31
0.0
  0
LINE
  5
164
330
F0
100
AcDbEntity
  8
AM_0
 48
0.0247852825952147
100
AcDbLine
 10
-2.697817
 20
-2.003052791304
 30
0.0
 11
-2.685573
 21
-1.997225622803
 31
0.0
  0
LINE
  5
165
330
F0
100
AcDbEntity
  8
AM_0
 48
0.0247852825952147
100
AcDbLine
 10
-2.685573
 20
-1.997225622803
 30
0.0
 11
-2.67333
 21
-1.985572073203
 31
0.0
  0
LINE
  5
166
330
F0
100
AcDbEntity
  8
AM_0
 48
0.0247852825952147
100
AcDbLine
 10
-2.67333
 20
-1.985572073203
 30
0.0
 11
-2.670269000000001
 21
-1.973918129902
 31
0.0
  0
LINE
  5
167
330
F0
100
AcDbEntity
  8
AM_0
 48
0.0247852825952147
100
AcDbLine
 10
-2.670269000000001
 20
-1.973918129902
 30
0.0
 11
-2.670269000000001
 21
-1.93021638
 31
0.0
  0
LINE
  5
168
330
F0
100
AcDbEntity
  8
AM_0
 48
0.0247852825952147
100
AcDbLine
 10
-2.670269000000001
 20
-1.93021638
 30
0.0
 11
-2.716182
 21
-1.93021638
 31
0.0
  0
LINE
  5
169
330
F0
100
AcDbEntity
  8
AM_0
 48
0.0247852825952147
100
AcDbLine
 10
-2.716182
 20
-1.93021638
 30
0.0
 11
-2.716182
 21
-1.9476970921206
 31
0.0
  0
LINE
  5
16A
330
F0
100
AcDbEntity
  8
AM_0
 48
0.0247852825952147
100
AcDbLine
 10
-2.716182
 20
-1.9476970921206
 30
0.0
 11
-2.688634
 21
-1.9476970921206
 31
0.0
  0
LINE
  5
16B
330
F0
100
AcDbEntity
  8
AM_0
 48
0.0247852825952147
100
AcDbLine
 10
-2.688634
 20
-1.9476970921206
 30
0.0
 11
-2.688634
 21
-1.9710047031319
 31
0.0
  0
LINE
  5
16C
330
F0
100
AcDbEntity
  8
AM_0
 48
0.0247852825952147
100
AcDbLine
 10
-2.688634
 20
-1.9710047031319
 30
0.0
 11
-2.691695
 21
-1.979744904702
 31
0.0
  0
LINE
  5
16D
330
F0
100
AcDbEntity
  8
AM_0
 48
0.0247852825952147
100
AcDbLine
 10
-2.691695
 20
-1.979744904702
 30
0.0
 11
-2.700878
 21
-1.985572073203
 31
0.0
  0
LINE
  5
16E
330
F0
100
AcDbEntity
  8
AM_0
 48
0.0247852825952147
100
AcDbLine
 10
-2.700878
 20
-1.985572073203
 30
0.0
 11
-2.713121
 21
-1.988485460603
 31
0.0
  0
LINE
  5
16F
330
F0
100
AcDbEntity
  8
AM_0
 48
0.0247852825952147
100
AcDbLine
 10
-2.713121
 20
-1.988485460603
 30
0.0
 11
-2.740669
 21
-1.988485460603
 31
0.0
  0
LINE
  5
170
330
F0
100
AcDbEntity
  8
AM_0
 48
0.0247852825952147
100
AcDbLine
 10
-2.740669
 20
-1.988485460603
 30
0.0
 11
-2.752913
 21
-1.985572073203
 31
0.0
  0
LINE
  5
171
330
F0
100
AcDbEntity
  8
AM_0
 48
0.0247852825952147
100
AcDbLine
 10
-2.752913
 20
-1.985572073203
 30
0.0
 11
-2.762095
 21
-1.979744904702
 31
0.0
  0
LINE
  5
172
330
F0
100
AcDbEntity
  8
AM_0
 48
0.0247852825952147
100
AcDbLine
 10
-2.762095
 20
-1.979744904702
 30
0.0
 11
-2.768217
 21
-1.9710047031319
 31
0.0
  0
LINE
  5
173
330
F0
100
AcDbEntity
  8
AM_0
 48
0.0247852825952147
100
AcDbLine
 10
-2.768217
 20
-1.9710047031319
 30
0.0
 11
-2.771278
 21
-1.9593508779412
 31
0.0
  0
LINE
  5
174
330
F0
100
AcDbEntity
  8
AM_0
 48
0.0247852825952147
100
AcDbLine
 10
-2.771278
 20
-1.9593508779412
 30
0.0
 11
-2.771278
 21
-1.9156491
 31
0.0
  0
LINE
  5
175
330
F0
100
AcDbEntity
  8
AM_0
 48
0.0247852825952147
100
AcDbLine
 10
-2.771278
 20
-1.9156491
 30
0.0
 11
-2.768217
 21
-1.9039953
 31
0.0
  0
LINE
  5
176
330
F0
100
AcDbEntity
  8
AM_0
 48
0.0247852825952147
100
AcDbLine
 10
-2.768217
 20
-1.9039953
 30
0.0
 11
-2.762095
 21
-1.895255
 31
0.0
  0
LINE
  5
177
330
F0
100
AcDbEntity
  8
AM_0
 48
0.0247852825952147
100
AcDbLine
 10
-2.547834
 20
-1.9418701598402
 30
0.0
 11
-2.547834
 21
-1.9243895
 31
0.0
  0
LINE
  5
178
330
F0
100
AcDbEntity
  8
AM_0
 48
0.0247852825952147
100
AcDbLine
 10
-3.074304827714
 20
-1.8894281
 30
0.0
 11
-3.080426878263999
 21
-1.9010819
 31
0.0
  0
LINE
  5
179
330
F0
100
AcDbEntity
  8
AM_0
 48
0.0247852825952147
100
AcDbLine
 10
-2.740669
 20
-1.8690339
 30
0.0
 11
-2.755974
 21
-1.8719474
 31
0.0
  0
LINE
  5
17A
330
F0
100
AcDbEntity
  8
AM_0
 48
0.0247852825952147
100
AcDbLine
 10
-2.755974
 20
-1.8719474
 30
0.0
 11
-2.768217
 21
-1.8777743
 31
0.0
  0
LINE
  5
17B
330
F0
100
AcDbEntity
  8
AM_0
 48
0.0247852825952147
100
AcDbLine
 10
-2.936565383256
 20
-1.8690339
 30
0.0
 11
-2.936565383256
 21
-2.005966178704
 31
0.0
  0
LINE
  5
17C
330
F0
100
AcDbEntity
  8
AM_0
 48
0.0247852825952147
100
AcDbLine
 10
-2.936565383256
 20
-2.005966178704
 30
0.0
 11
-2.8631043
 21
-2.005966178704
 31
0.0
  0
LINE
  5
17D
330
F0
100
AcDbEntity
  8
AM_0
 48
0.0247852825952147
100
AcDbLine
 10
-2.8631043
 20
-2.005966178704
 30
0.0
 11
-2.8477999
 21
-2.003052791304
 31
0.0
  0
LINE
  5
17E
330
F0
100
AcDbEntity
  8
AM_0
 48
0.0247852825952147
100
AcDbLine
 10
-2.8477999
 20
-2.003052791304
 30
0.0
 11
-2.8355564
 21
-1.997225622803
 31
0.0
  0
LINE
  5
17F
330
F0
100
AcDbEntity
  8
AM_0
 48
0.0247852825952147
100
AcDbLine
 10
-2.8355564
 20
-1.997225622803
 30
0.0
 11
-2.823312899999999
 21
-1.985572073203
 31
0.0
  0
LINE
  5
180
330
F0
100
AcDbEntity
  8
AM_0
 48
0.0247852825952147
100
AcDbLine
 10
-3.107974530935
 20
-1.9156491
 30
0.0
 11
-3.11103555621
 21
-1.9010819
 31
0.0
  0
LINE
  5
181
330
F0
100
AcDbEntity
  8
AM_0
 48
0.0247852825952147
100
AcDbLine
 10
-2.53559
 20
-1.988485460603
 30
0.0
 11
-2.627416999999999
 21
-1.988485460603
 31
0.0
  0
LINE
  5
182
330
F0
100
AcDbEntity
  8
AM_0
 48
0.0247852825952147
100
AcDbLine
 10
-2.627416999999999
 20
-1.988485460603
 30
0.0
 11
-2.627416999999999
 21
-1.9418701598402
 31
0.0
  0
LINE
  5
183
330
F0
100
AcDbEntity
  8
AM_0
 48
0.0247852825952147
100
AcDbLine
 10
-2.627416999999999
 20
-1.9418701598402
 30
0.0
 11
-2.547834
 21
-1.9418701598402
 31
0.0
  0
LINE
  5
184
330
F0
100
AcDbEntity
  8
AM_0
 48
0.0247852825952147
100
AcDbLine
 10
-3.010026446547
 20
-1.8690339
 30
0.0
 11
-3.034513467644
 21
-1.8690339
 31
0.0
  0
LINE
  5
185
330
F0
100
AcDbEntity
  8
AM_0
 48
0.0247852825952147
100
AcDbLine
 10
-2.547834
 20
-1.9243895
 30
0.0
 11
-2.627416999999999
 21
-1.9243895
 31
0.0
  0
LINE
  5
186
330
F0
100
AcDbEntity
  8
AM_0
 48
0.0247852825952147
100
AcDbLine
 10
-2.627416999999999
 20
-1.9243895
 30
0.0
 11
-2.627416999999999
 21
-1.8865146
 31
0.0
  0
LINE
  5
187
330
F0
100
AcDbEntity
  8
AM_0
 48
0.0247852825952147
100
AcDbLine
 10
-2.627416999999999
 20
-1.8865146
 30
0.0
 11
-2.53559
 21
-1.8865146
 31
0.0
  0
LINE
  5
188
330
F0
100
AcDbEntity
  8
AM_0
 48
0.0247852825952147
100
AcDbLine
 10
-2.53559
 20
-1.8865146
 30
0.0
 11
-2.53559
 21
-1.8690339
 31
0.0
  0
LINE
  5
189
330
F0
100
AcDbEntity
  8
AM_0
 48
0.0247852825952147
100
AcDbLine
 10
-2.53559
 20
-1.8690339
 30
0.0
 11
-2.645782
 21
-1.8690339
 31
0.0
  0
LINE
  5
18A
330
F0
100
AcDbEntity
  8
AM_0
 48
0.0247852825952147
100
AcDbLine
 10
-2.961052404353
 20
-1.9156491
 30
0.0
 11
-2.964113429628
 21
-1.9010819
 31
0.0
  0
LINE
  5
18B
330
F0
100
AcDbEntity
  8
AM_0
 48
0.0247852825952147
100
AcDbLine
 10
-2.964113429628
 20
-1.9010819
 30
0.0
 11
-2.970235086477
 21
-1.8894281
 31
0.0
  0
LINE
  5
18C
330
F0
100
AcDbEntity
  8
AM_0
 48
0.0247852825952147
100
AcDbLine
 10
-2.970235086477
 20
-1.8894281
 30
0.0
 11
-2.982478400175
 21
-1.8777743
 31
0.0
  0
LINE
  5
18D
330
F0
100
AcDbEntity
  8
AM_0
 48
0.0247852825952147
100
AcDbLine
 10
-3.080426878263999
 20
-1.9010819
 30
0.0
 11
-3.083487509838
 21
-1.9156491
 31
0.0
  0
LINE
  5
18E
330
F0
100
AcDbEntity
  8
AM_0
 48
0.0247852825952147
100
AcDbLine
 10
-3.083487509838
 20
-1.9156491
 30
0.0
 11
-3.083487509838
 21
-1.9593508779412
 31
0.0
  0
LINE
  5
18F
330
F0
100
AcDbEntity
  8
AM_0
 48
0.0247852825952147
100
AcDbLine
 10
-3.034513467644
 20
-1.8690339
 30
0.0
 11
-3.049817806617
 21
-1.8719474
 31
0.0
  0
LINE
  5
190
330
F0
100
AcDbEntity
  8
AM_0
 48
0.0247852825952147
100
AcDbLine
 10
-3.049817806617
 20
-1.8719474
 30
0.0
 11
-3.062061514016
 21
-1.8777743
 31
0.0
  0
LINE
  5
191
330
F0
100
AcDbEntity
  8
AM_0
 48
0.0247852825952147
100
AcDbLine
 10
-3.062061514016
 20
-1.997225622803
 30
0.0
 11
-3.049817806617
 21
-2.003052791304
 31
0.0
  0
LINE
  5
192
330
F0
100
AcDbEntity
  8
AM_0
 48
0.0247852825952147
100
AcDbLine
 10
-3.049817806617
 20
-2.003052791304
 30
0.0
 11
-3.034513467644
 21
-2.005966178704
 31
0.0
  0
LINE
  5
193
330
F0
100
AcDbEntity
  8
AM_0
 48
0.0247852825952147
100
AcDbLine
 10
-2.697817
 20
-1.8719474
 30
0.0
 11
-2.713121
 21
-1.8690339
 31
0.0
  0
LINE
  5
194
330
F0
100
AcDbEntity
  8
AM_0
 48
0.0247852825952147
100
AcDbLine
 10
-2.713121
 20
-1.8690339
 30
0.0
 11
-2.740669
 21
-1.8690339
 31
0.0
  0
LINE
  5
195
330
F0
100
AcDbEntity
  8
AM_0
 48
0.0247852825952147
100
AcDbLine
 10
-2.982478400175
 20
-1.8777743
 30
0.0
 11
-2.994722107574
 21
-1.8719474
 31
0.0
  0
LINE
  5
196
330
F0
100
AcDbEntity
  8
AM_0
 48
0.0247852825952147
100
AcDbLine
 10
-2.994722107574
 20
-1.8719474
 30
0.0
 11
-3.010026446547
 21
-1.8690339
 31
0.0
  0
LINE
  5
197
330
F0
100
AcDbEntity
  8
AM_0
 48
0.0247852825952147
100
AcDbLine
 10
-2.970235086477
 20
-1.985572073203
 30
0.0
 11
-2.964113429628
 21
-1.973918129902
 31
0.0
  0
LINE
  5
198
330
F0
100
AcDbEntity
  8
AM_0
 48
0.0247852825952147
100
AcDbLine
 10
-2.964113429628
 20
-1.973918129902
 30
0.0
 11
-2.961052404353
 21
-1.9593508779412
 31
0.0
  0
LINE
  5
199
330
F0
100
AcDbEntity
  8
AM_0
 48
0.0247852825952147
100
AcDbLine
 10
-2.961052404353
 20
-1.9593508779412
 30
0.0
 11
-2.961052404353
 21
-1.9156491
 31
0.0
  0
LINE
  5
19A
330
F0
100
AcDbEntity
  8
AM_0
 48
0.0247852825952147
100
AcDbLine
 10
-3.062061514016
 20
-1.8777743
 30
0.0
 11
-3.074304827714
 21
-1.8894281
 31
0.0
  0
LINE
  5
19B
330
F0
100
AcDbEntity
  8
AM_0
 48
0.0247852825952147
100
AcDbLine
 10
-2.645782
 20
-1.8690339
 30
0.0
 11
-2.645782
 21
-2.005966178704
 31
0.0
  0
LINE
  5
19C
330
F0
100
AcDbEntity
  8
AM_0
 48
0.0247852825952147
100
AcDbLine
 10
-2.645782
 20
-2.005966178704
 30
0.0
 11
-2.53559
 21
-2.005966178704
 31
0.0
  0
LINE
  5
19D
330
F0
100
AcDbEntity
  8
AM_0
 48
0.0247852825952147
100
AcDbLine
 10
-2.53559
 20
-2.005966178704
 30
0.0
 11
-2.53559
 21
-1.988485460603
 31
0.0
  0
LINE
  5
19E
330
F0
100
AcDbEntity
  8
AM_0
 48
0.0247852825952147
100
AcDbLine
 10
-2.823312899999999
 20
-1.985572073203
 30
0.0
 11
-2.8171911
 21
-1.973918129902
 31
0.0
  0
LINE
  5
19F
330
F0
100
AcDbEntity
  8
AM_0
 48
0.0247852825952147
100
AcDbLine
 10
-2.780461000000001
 20
-1.8894281
 30
0.0
 11
-2.7865823
 21
-1.9010819
 31
0.0
  0
LINE
  5
1A0
330
F0
100
AcDbEntity
  8
AM_0
 48
0.0247852825952147
100
AcDbLine
 10
-2.768217
 20
-1.8777743
 30
0.0
 11
-2.780461000000001
 21
-1.8894281
 31
0.0
  0
LINE
  5
1A1
330
F0
100
AcDbEntity
  8
AM_0
 48
0.0247852825952147
100
AcDbLine
 10
-3.046757175043
 20
-1.985572073203
 30
0.0
 11
-3.034513467644
 21
-1.988485460603
 31
0.0
  0
LINE
  5
1A2
330
F0
100
AcDbEntity
  8
AM_0
 48
0.0247852825952147
100
AcDbLine
 10
-2.979417768601
 20
-1.9593508779412
 30
0.0
 11
-2.979417768601
 21
-1.9156491
 31
0.0
  0
LINE
  5
1A3
330
F0
100
AcDbEntity
  8
AM_0
 48
0.0247852825952147
100
AcDbLine
 10
-2.982478400175
 20
-1.9710047031319
 30
0.0
 11
-2.979417768601
 21
-1.9593508779412
 31
0.0
  0
LINE
  5
1A4
330
F0
100
AcDbEntity
  8
AM_0
 48
0.0247852825952147
100
AcDbLine
 10
-2.988600450724999
 20
-1.979744904702
 30
0.0
 11
-2.982478400175
 21
-1.9710047031319
 31
0.0
  0
LINE
  5
1A5
330
F0
100
AcDbEntity
  8
AM_0
 48
0.0247852825952147
100
AcDbLine
 10
-2.997783132849
 20
-1.985572073203
 30
0.0
 11
-2.988600450724999
 21
-1.979744904702
 31
0.0
  0
LINE
  5
1A6
330
F0
100
AcDbEntity
  8
AM_0
 48
0.0247852825952147
100
AcDbLine
 10
-3.010026446547
 20
-1.988485460603
 30
0.0
 11
-2.997783132849
 21
-1.985572073203
 31
0.0
  0
LINE
  5
1A7
330
F0
100
AcDbEntity
  8
AM_0
 48
0.0247852825952147
100
AcDbLine
 10
-3.034513467644
 20
-1.988485460603
 30
0.0
 11
-3.010026446547
 21
-1.988485460603
 31
0.0
  0
LINE
  5
1A8
330
F0
100
AcDbEntity
  8
AM_0
 48
0.0247852825952147
100
AcDbLine
 10
-3.055939463466
 20
-1.979744904702
 30
0.0
 11
-3.046757175043
 21
-1.985572073203
 31
0.0
  0
LINE
  5
1A9
330
F0
100
AcDbEntity
  8
AM_0
 48
0.0247852825952147
100
AcDbLine
 10
-3.062061514016
 20
-1.9710047031319
 30
0.0
 11
-3.055939463466
 21
-1.979744904702
 31
0.0
  0
LINE
  5
1AA
330
F0
100
AcDbEntity
  8
AM_0
 48
0.0247852825952147
100
AcDbLine
 10
-3.065122145590001
 20
-1.9593508779412
 30
0.0
 11
-3.062061514016
 21
-1.9710047031319
 31
0.0
  0
LINE
  5
1AB
330
F0
100
AcDbEntity
  8
AM_0
 48
0.0247852825952147
100
AcDbLine
 10
-3.065122145590001
 20
-1.9156491
 30
0.0
 11
-3.065122145590001
 21
-1.9593508779412
 31
0.0
  0
LINE
  5
1AC
330
F0
100
AcDbEntity
  8
AM_0
 48
0.0247852825952147
100
AcDbLine
 10
-3.034513467644
 20
-1.8865146
 30
0.0
 11
-3.046757175043
 21
-1.8894281
 31
0.0
  0
LINE
  5
1AD
330
F0
100
AcDbEntity
  8
AM_0
 48
0.0247852825952147
100
AcDbLine
 10
-2.979417768601
 20
-1.9156491
 30
0.0
 11
-2.982478400175
 21
-1.9039953
 31
0.0
  0
LINE
  5
1AE
330
F0
100
AcDbEntity
  8
AM_0
 48
0.0247852825952147
100
AcDbLine
 10
-3.010026446547
 20
-1.8865146
 30
0.0
 11
-3.034513467644
 21
-1.8865146
 31
0.0
  0
LINE
  5
1AF
330
F0
100
AcDbEntity
  8
AM_0
 48
0.0247852825952147
100
AcDbLine
 10
-3.046757175043
 20
-1.8894281
 30
0.0
 11
-3.055939463466
 21
-1.895255
 31
0.0
  0
LINE
  5
1B0
330
F0
100
AcDbEntity
  8
AM_0
 48
0.0247852825952147
100
AcDbLine
 10
-2.997783132849
 20
-1.8894281
 30
0.0
 11
-3.010026446547
 21
-1.8865146
 31
0.0
  0
LINE
  5
1B1
330
F0
100
AcDbEntity
  8
AM_0
 48
0.0247852825952147
100
AcDbLine
 10
-2.988600450724999
 20
-1.895255
 30
0.0
 11
-2.997783132849
 21
-1.8894281
 31
0.0
  0
LINE
  5
1B2
330
F0
100
AcDbEntity
  8
AM_0
 48
0.0247852825952147
100
AcDbLine
 10
-2.982478400175
 20
-1.9039953
 30
0.0
 11
-2.988600450724999
 21
-1.895255
 31
0.0
  0
LINE
  5
1B3
330
F0
100
AcDbEntity
  8
AM_0
 48
0.0247852825952147
100
AcDbLine
 10
-3.062061514016
 20
-1.9039953
 30
0.0
 11
-3.065122145590001
 21
-1.9156491
 31
0.0
  0
LINE
  5
1B4
330
F0
100
AcDbEntity
  8
AM_0
 48
0.0247852825952147
100
AcDbLine
 10
-3.055939463466
 20
-1.895255
 30
0.0
 11
-3.062061514016
 21
-1.9039953
 31
0.0
  0
LINE
  5
1B5
330
F0
100
AcDbEntity
  8
AM_0
 48
0.0247852825952147
100
AcDbLine
 10
-4.0
 20
-2.25
 30
0.0
 11
4.0
 21
-2.25
 31
0.0
  0
LWPOLYLINE
  5
1B6
330
F0
100
AcDbEntity
  8
AM_0
 48
0.0247852825952147
100
AcDbPolyline
 90
       19
 70
     0
 43
0.0
 10
4.0
 20
-1.684055098755508
 10
3.999775277406813
 20
-1.678908107656706
 10
3.999102820118807
 20
-1.673800288277476
 10
3.997987745941985
 20
-1.668770514207479
 10
3.996438541264132
 20
-1.663857065064448
 10
3.994466996468282
 20
-1.659097335163184
 10
3.992088116200783
 20
-1.654527548922238
 10
3.989320005176879
 20
-1.650182485174217
 10
3.98618373039289
 20
-1.646095212477864
 10
3.98270316079366
 20
-1.642296837446361
 10
3.978904785615462
 20
-1.63881626800722
 10
3.974817512786925
 20
-1.635679993395498
 10
3.970472448922236
 20
-1.632911882554723
 10
3.965902662581029
 20
-1.630533002479827
 10
3.961142932596669
 20
-1.628561457884585
 10
3.956229483388345
 20
-1.627012253413818
 10
3.95119970927135
 20
-1.625897179448985
 10
3.946091889863779
 20
-1.625224722376257
 10
3.9409449
 20
-1.625
  0
LINE
  5
1B7
330
F0
100
AcDbEntity
  8
AM_0
 48
0.0247852825952147
100
AcDbLine
 10
3.796875
 20
-2.25
 30
0.0
 11
3.796875
 21
-1.625
 31
0.0
  0
LINE
  5
1B8
330
F0
100
AcDbEntity
  8
AM_0
 48
0.0247852825952147
100
AcDbLine
 10
4.0
 20
-2.25
 30
0.0
 11
4.0
 21
-1.684055100000001
 31
0.0
  0
LINE
  5
1B9
330
F0
100
AcDbEntity
  8
AM_0
 48
0.0247852825952147
100
AcDbLine
 10
-2.8416781
 20
-1.979744904702
 30
0.0
 11
-2.8355564
 21
-1.9710047031319
 31
0.0
  0
LINE
  5
1BA
330
F0
100
AcDbEntity
  8
AM_0
 48
0.0247852825952147
100
AcDbLine
 10
-2.9182000977482
 20
-1.8865146
 30
0.0
 11
-2.9182000977482
 21
-1.988485460603
 31
0.0
  0
LINE
  5
1BB
330
F0
100
AcDbEntity
  8
AM_0
 48
0.0247852825952147
100
AcDbLine
 10
-2.8631043
 20
-1.8865146
 30
0.0
 11
-2.9182000977482
 21
-1.8865146
 31
0.0
  0
LINE
  5
1BC
330
F0
100
AcDbEntity
  8
AM_0
 48
0.0247852825952147
100
AcDbLine
 10
-2.8508608
 20
-1.8894281
 30
0.0
 11
-2.8631043
 21
-1.8865146
 31
0.0
  0
LINE
  5
1BD
330
F0
100
AcDbEntity
  8
AM_0
 48
0.0247852825952147
100
AcDbLine
 10
-2.8355564
 20
-1.9710047031319
 30
0.0
 11
-2.8324955
 21
-1.9593508779412
 31
0.0
  0
LINE
  5
1BE
330
F0
100
AcDbEntity
  8
AM_0
 48
0.0247852825952147
100
AcDbLine
 10
-2.8416781
 20
-1.895255
 30
0.0
 11
-2.8508608
 21
-1.8894281
 31
0.0
  0
LINE
  5
1BF
330
F0
100
AcDbEntity
  8
AM_0
 48
0.0247852825952147
100
AcDbLine
 10
-2.8355564
 20
-1.9039953
 30
0.0
 11
-2.8416781
 21
-1.895255
 31
0.0
  0
LINE
  5
1C0
330
F0
100
AcDbEntity
  8
AM_0
 48
0.0247852825952147
100
AcDbLine
 10
-2.8324955
 20
-1.9156491
 30
0.0
 11
-2.8355564
 21
-1.9039953
 31
0.0
  0
LINE
  5
1C1
330
F0
100
AcDbEntity
  8
AM_0
 48
0.0247852825952147
100
AcDbLine
 10
-2.8324955
 20
-1.9593508779412
 30
0.0
 11
-2.8324955
 21
-1.9156491
 31
0.0
  0
LINE
  5
1C2
330
F0
100
AcDbEntity
  8
AM_0
 48
0.0247852825952147
100
AcDbLine
 10
-2.8508608
 20
-1.985572073203
 30
0.0
 11
-2.8416781
 21
-1.979744904702
 31
0.0
  0
LINE
  5
1C3
330
F0
100
AcDbEntity
  8
AM_0
 48
0.0247852825952147
100
AcDbLine
 10
-2.8631043
 20
-1.988485460603
 30
0.0
 11
-2.8508608
 21
-1.985572073203
 31
0.0
  0
LINE
  5
1C4
330
F0
100
AcDbEntity
  8
AM_0
 48
0.0247852825952147
100
AcDbLine
 10
-2.9182000977482
 20
-1.988485460603
 30
0.0
 11
-2.8631043
 21
-1.988485460603
 31
0.0
  0
LINE
  5
1C5
330
F0
100
AcDbEntity
  8
AM_0
 48
0.0247852825952147
100
AcDbLine
 10
-3.212044665873
 20
-1.8865146
 30
0.0
 11
-3.212044665873
 21
-1.988485460603
 31
0.0
  0
LINE
  5
1C6
330
F0
100
AcDbEntity
  8
AM_0
 48
0.0247852825952147
100
AcDbLine
 10
-3.156948573129001
 20
-1.8865146
 30
0.0
 11
-3.212044665873
 21
-1.8865146
 31
0.0
  0
LINE
  5
1C7
330
F0
100
AcDbEntity
  8
AM_0
 48
0.0247852825952147
100
AcDbLine
 10
-3.144705259431
 20
-1.8894281
 30
0.0
 11
-3.156948573129001
 21
-1.8865146
 31
0.0
  0
LINE
  5
1C8
330
F0
100
AcDbEntity
  8
AM_0
 48
0.0247852825952147
100
AcDbLine
 10
-3.135522577307
 20
-1.895255
 30
0.0
 11
-3.144705259431
 21
-1.8894281
 31
0.0
  0
LINE
  5
1C9
330
F0
100
AcDbEntity
  8
AM_0
 48
0.0247852825952147
100
AcDbLine
 10
-3.129400920458
 20
-1.9039953
 30
0.0
 11
-3.135522577307
 21
-1.895255
 31
0.0
  0
LINE
  5
1CA
330
F0
100
AcDbEntity
  8
AM_0
 48
0.0247852825952147
100
AcDbLine
 10
-3.126339895183
 20
-1.9156491
 30
0.0
 11
-3.129400920458
 21
-1.9039953
 31
0.0
  0
LINE
  5
1CB
330
F0
100
AcDbEntity
  8
AM_0
 48
0.0247852825952147
100
AcDbLine
 10
-3.126339895183
 20
-1.9593508779412
 30
0.0
 11
-3.126339895183
 21
-1.9156491
 31
0.0
  0
LINE
  5
1CC
330
F0
100
AcDbEntity
  8
AM_0
 48
0.0247852825952147
100
AcDbLine
 10
-3.212044665873
 20
-1.988485460603
 30
0.0
 11
-3.156948573129001
 21
-1.988485460603
 31
0.0
  0
LINE
  5
1CD
330
F0
100
AcDbEntity
  8
AM_0
 48
0.0247852825952147
100
AcDbLine
 10
-3.129400920458
 20
-1.9710047031319
 30
0.0
 11
-3.126339895183
 21
-1.9593508779412
 31
0.0
  0
LINE
  5
1CE
330
F0
100
AcDbEntity
  8
AM_0
 48
0.0247852825952147
100
AcDbLine
 10
-3.135522577307
 20
-1.979744904702
 30
0.0
 11
-3.129400920458
 21
-1.9710047031319
 31
0.0
  0
LINE
  5
1CF
330
F0
100
AcDbEntity
  8
AM_0
 48
0.0247852825952147
100
AcDbLine
 10
-3.144705259431
 20
-1.985572073203
 30
0.0
 11
-3.135522577307
 21
-1.979744904702
 31
0.0
  0
LINE
  5
1D0
330
F0
100
AcDbEntity
  8
AM_0
 48
0.0247852825952147
100
AcDbLine
 10
-3.156948573129001
 20
-1.988485460603
 30
0.0
 11
-3.144705259431
 21
-1.985572073203
 31
0.0
  0
LINE
  5
1D1
330
F0
100
AcDbEntity
  8
AM_0
 48
0.0247852825952147
100
AcDbLine
 10
-1.427156138750088
 20
-2.25
 30
0.0
 11
-1.427156138750088
 21
-1.624999999999999
 31
0.0
  0
LINE
  5
1D2
330
F0
100
AcDbEntity
  8
AM_0
 48
0.0247852825952147
100
AcDbLine
 10
-1.333336720006773
 20
-2.25
 30
0.0
 11
-1.333336720006773
 21
-1.166600580139398
 31
0.0
  0
LINE
  5
1D3
330
F0
100
AcDbEntity
  8
AM_0
 48
0.0247852825952147
100
AcDbLine
 10
-1.399920397612617
 20
-1.085802285339341
 30
0.0
 11
-1.333336720006774
 21
-1.166600580139397
 31
0.0
  0
LINE
  5
1D4
330
F0
100
AcDbEntity
  8
AM_0
 48
0.0247852825952147
100
AcDbLine
 10
1.333327279993227
 20
-2.25
 30
0.0
 11
1.333327279993227
 21
-1.166611369276789
 31
0.0
  0
LINE
  5
1D5
330
F0
100
AcDbEntity
  8
AM_0
 48
0.0247852825952147
100
AcDbLine
 10
1.427146698736541
 20
-2.25
 30
0.0
 11
1.427146698736539
 21
-1.624999999999923
 31
0.0
  0
LINE
  5
1D6
330
F0
100
AcDbEntity
  8
AM_0
 48
0.0247852825952147
100
AcDbLine
 10
1.333327279993227
 20
-1.166611369276789
 30
0.0
 11
1.399911534780822
 21
-1.085813712055435
 31
0.0
  0
LWPOLYLINE
  5
1D7
330
F0
100
AcDbEntity
  8
AM_0
 48
0.0247852825952147
100
AcDbPolyline
 90
       19
 70
     0
 43
0.0
 10
-3.9409449
 20
-1.625
 10
-3.946091891103537
 20
-1.625224722484722
 10
-3.951199710496939
 20
-1.625897179665089
 10
-3.956229484590434
 20
-1.627012253735917
 10
-3.961142933766112
 20
-1.628561458310226
 10
-3.965902663708924
 20
-1.630533003005773
 10
-3.97047245
 20
-1.63291188317697
 10
-3.974817513806355
 20
-1.63567999410931
 10
-3.9789047865688
 20
-1.638816268807165
 10
-3.98270316167365
 20
-1.642296838326351
 10
-3.986183731192836
 20
-1.646095213431202
 10
-3.989320005890691
 20
-1.650182486193647
 10
-3.992088116823031
 20
-1.654527550000001
 10
-3.994466996994229
 20
-1.659097336291079
 10
-3.996438541689774
 20
-1.66385706623389
 10
-3.997987746264084
 20
-1.668770515409568
 10
-3.999102820334912
 20
-1.673800289503064
 10
-3.999775277515278
 20
-1.678908108896465
 10
-4.0
 20
-1.684055100000001
  0
LINE
  5
1D8
330
F0
100
AcDbEntity
  8
AM_0
 48
0.0247852825952147
100
AcDbLine
 10
-4.0
 20
-2.25
 30
0.0
 11
-4.0
 21
-1.6840551
 31
0.0
  0
LINE
  5
1D9
330
F0
100
AcDbEntity
  8
AM_0
 48
0.0247852825952147
100
AcDbLine
 10
-3.796875
 20
-2.25
 30
0.0
 11
-3.796875
 21
-1.625
 31
0.0
  0
LINE
  5
1DA
330
F0
100
AcDbEntity
  8
AM_0
 48
0.0247852825952147
100
AcDbLine
 10
-1.427156138750088
 20
-1.624999999999999
 30
0.0
 11
-3.9409449
 21
-1.625
 31
0.0
  0
LINE
  5
1DB
330
F0
100
AcDbEntity
  8
AM_0
 48
0.0247852825952147
100
AcDbLine
 10
1.427146698736539
 20
-1.624999999999923
 30
0.0
 11
1.399911534780822
 21
-1.085813712055434
 31
0.0
  0
LINE
  5
1DC
330
F0
100
AcDbEntity
  8
AM_0
 48
0.0247852825952147
100
AcDbLine
 10
1.427146698736539
 20
-1.624999999999923
 30
0.0
 11
3.9409449
 21
-1.625
 31
0.0
  0
LWPOLYLINE
  5
1DD
330
F0
100
AcDbEntity
  8
AM_0
 48
0.0247852825952147
100
AcDbPolyline
 90
       19
 70
     0
 43
0.0
 10
2.122055094434457
 20
-1.625
 10
2.116908103352098
 20
-1.624775277030209
 10
2.111800284022072
 20
-1.624102819368465
 10
2.106770510033664
 20
-1.622987744823615
 10
2.101857061003988
 20
-1.621438539786246
 10
2.097097331246982
 20
-1.619466994642128
 10
2.092527545180098
 20
-1.617088114040259
 10
2.088182481634619
 20
-1.614320002698427
 10
2.084095209167747
 20
-1.611183727615373
 10
2.080296834390917
 20
-1.607703157738216
 10
2.076816265229702
 20
-1.603904782305346
 10
2.073679990917044
 20
-1.599817509247328
 10
2.070911880394197
 20
-1.595472445180098
 10
2.068533000653671
 20
-1.590902658664828
 10
2.066561456406697
 20
-1.586142928536212
 10
2.065012252295447
 20
-1.581229479214532
 10
2.063897178698642
 20
-1.576199705015948
 10
2.063224721999652
 20
-1.571091885559172
 10
2.062999999999999
 20
-1.5659449
  0
LINE
  5
1DE
330
F0
100
AcDbEntity
  8
AM_0
 48
0.0247852825952147
100
AcDbLine
 10
2.062999999999999
 20
0.0
 30
0.0
 11
2.062999999999999
 21
-1.5659449
 31
0.0
  0
LWPOLYLINE
  5
1DF
330
F0
100
AcDbEntity
  8
AM_0
 48
0.0247852825952147
100
AcDbPolyline
 90
       37
 70
     0
 43
0.0
 10
-2.062999999999999
 20
-0.0000000000000001
 10
-2.05514966216327
 20
0.1798022972884184
 10
-2.031658394464185
 20
0.3582361905268767
 10
-1.992704979634347
 20
0.5339436900464993
 10
-1.938585876681329
 20
0.7055875556808534
 10
-1.869712964656609
 20
0.8718614739710615
 10
-1.786610408007297
 20
1.031499999999998
 10
-1.689910667368191
 20
1.183288188192206
 10
-1.580349686154452
 20
1.326070838783328
 10
-1.458761289587849
 20
1.458761289587845
 10
-1.326070838783332
 20
1.58034968615445
 10
-1.18328818819221
 20
1.689910667368188
 10
-1.031500000000002
 20
1.786610408007295
 10
-0.8718614739710657
 20
1.869712964656607
 10
-0.7055875556808577
 20
1.938585876681327
 10
-0.5339436900465038
 20
1.992704979634346
 10
-0.3582361905268811
 20
2.031658394464184
 10
-0.179802297288423
 20
2.05514966216327
 10
-0.0000000000000044
 20
2.062999999999999
 10
0.1798022972884141
 20
2.055149662163271
 10
0.3582361905268723
 20
2.031658394464186
 10
0.5339436900464952
 20
1.992704979634348
 10
0.7055875556808493
 20
1.93858587668133
 10
0.8718614739710575
 20
1.86971296465661
 10
1.031499999999995
 20
1.786610408007299
 10
1.183288188192203
 20
1.689910667368193
 10
1.326070838783325
 20
1.580349686154455
 10
1.458761289587842
 20
1.458761289587851
 10
1.580349686154447
 20
1.326070838783335
 10
1.689910667368185
 20
1.183288188192213
 10
1.786610408007293
 20
1.031500000000005
 10
1.869712964656605
 20
0.871861473971069
 10
1.938585876681325
 20
0.7055875556808613
 10
1.992704979634345
 20
0.5339436900465073
 10
2.031658394464182
 20
0.3582361905268848
 10
2.055149662163269
 20
0.1798022972884267
 10
2.062999999999999
 20
0.0000000000000082
  0
LINE
  5
1E0
330
F0
100
AcDbEntity
  8
AM_0
 48
0.0247852825952147
100
AcDbLine
 10
-2.062999999999999
 20
-1.5659449
 30
0.0
 11
-2.062999999999999
 21
0.0000000000000005
 31
0.0
  0
LWPOLYLINE
  5
1E1
330
F0
100
AcDbEntity
  8
AM_0
 48
0.0247852825952147
100
AcDbPolyline
 90
       19
 70
     0
 43
0.0
 10
-2.062999999999999
 20
-1.5659449
 10
-2.063224722484721
 20
-1.571091891103537
 10
-2.063897179665088
 20
-1.576199710496939
 10
-2.065012253735916
 20
-1.581229484590434
 10
-2.066561458310225
 20
-1.586142933766112
 10
-2.068533003005771
 20
-1.590902663708924
 10
-2.070911883176969
 20
-1.59547245
 10
-2.073679994109309
 20
-1.599817513806355
 10
-2.076816268807164
 20
-1.6039047865688
 10
-2.08029683832635
 20
-1.60770316167365
 10
-2.0840952134312
 20
-1.611183731192836
 10
-2.088182486193646
 20
-1.614320005890691
 10
-2.09252755
 20
-1.617088116823031
 10
-2.097097336291077
 20
-1.619466996994228
 10
-2.101857066233888
 20
-1.621438541689774
 10
-2.106770515409567
 20
-1.622987746264084
 10
-2.111800289503062
 20
-1.624102820334911
 10
-2.116908108896463
 20
-1.624775277515278
 10
-2.122055100000001
 20
-1.625
  0
LINE
  5
1E2
330
F0
100
AcDbEntity
  8
AM_0
 48
0.0247852825952147
100
AcDbLine
 10
-1.399920397612616
 20
-1.085802285339341
 30
0.0
 11
-1.427156138750088
 21
-1.624999999999999
 31
0.0
  0
LWPOLYLINE
  5
1E3
330
F0
100
AcDbEntity
  8
AM_0
 48
0.0247852825952147
100
AcDbPolyline
 90
       53
 70
     0
 43
0.0
 10
-1.399920397612614
 20
-1.085802285339342
 10
-1.48922718250803
 20
-0.9596593777894291
 10
-1.567200049324601
 20
-0.8262128829163634
 10
-1.633245577464549
 20
-0.6864784091233254
 10
-1.686861120579349
 20
-0.5415194201298625
 10
-1.727638632011948
 20
-0.3924391413708455
 10
-1.755267770278208
 20
-0.240372163784764
 10
-1.769538260952993
 20
-0.0864758088915997
 10
-1.770341496985512
 20
0.0680786791227506
 10
-1.757671365264547
 20
0.2221150472819465
 10
-1.731624293142933
 20
0.3744609858145944
 10
-1.692398514567165
 20
0.5239570501394678
 10
-1.640292561397378
 20
0.6694654849388634
 10
-1.57570299139963
 20
0.809878883163562
 10
-1.49912137020185
 20
0.944128614069146
 10
-1.411130530182603
 20
1.07119295614122
 10
-1.312400134764755
 20
1.190104873013069
 10
-1.20368158187248
 20
1.299959373196318
 10
-1.085802285339345
 20
1.399920397612612
 10
-0.959659377789432
 20
1.489227182508028
 10
-0.8262128829163663
 20
1.567200049324599
 10
-0.6864784091233284
 20
1.633245577464548
 10
-0.5415194201298655
 20
1.686861120579348
 10
-0.3924391413708486
 20
1.727638632011947
 10
-0.2403721637847672
 20
1.755267770278207
 10
-0.086475808891603
 20
1.769538260952993
 10
0.0680786791227474
 20
1.770341496985512
 10
0.2221150472819433
 20
1.757671365264548
 10
0.3744609858145911
 20
1.731624293142934
 10
0.5239570501394648
 20
1.692398514567166
 10
0.6694654849388604
 20
1.64029256139738
 10
0.8098788831635592
 20
1.575702991399631
 10
0.9441286140691432
 20
1.499121370201852
 10
1.071192956141218
 20
1.411130530182605
 10
1.190104873013066
 20
1.312400134764757
 10
1.299959373196316
 20
1.203681581872482
 10
1.399920397612611
 20
1.085802285339347
 10
1.489227182508027
 20
0.9596593777894348
 10
1.567200049324598
 20
0.8262128829163691
 10
1.633245577464546
 20
0.6864784091233314
 10
1.686861120579347
 20
0.5415194201298686
 10
1.727638632011946
 20
0.3924391413708518
 10
1.755267770278207
 20
0.2403721637847705
 10
1.769538260952993
 20
0.0864758088916062
 10
1.770341496985512
 20
-0.0680786791227441
 10
1.757671365264548
 20
-0.22211504728194
 10
1.731624293142934
 20
-0.3744609858145879
 10
1.692398514567167
 20
-0.5239570501394617
 10
1.640292561397381
 20
-0.6694654849388574
 10
1.575702991399633
 20
-0.8098788831635562
 10
1.499121370201854
 20
-0.9441286140691405
 10
1.411130530182606
 20
-1.071192956141215
 10
1.399911534780823
 20
-1.085813712055433
  0
ENDBLK
  5
F3
330
F0
100
AcDbEntity
  8
0
100
AcDbBlockEnd
  0
ENDSEC
  0
SECTION
  2
ENTITIES
  0
ATTDEF
  5
6F
330
1F
100
AcDbEntity
  8
AM_6
100
AcDbText
 10
9.0
 20
2.062999999999999
 30
0.0
 40
0.5
  1
Grip Tight Two-Bolt Pillow Block - Stainless Housing, Corrision Resistant Insert Inch Bore
100
AcDbAttributeDefinition
  3

  2
NN
 70
     8
280
     0
  0
ATTDEF
  5
70
330
1F
100
AcDbEntity
  8
AM_6
100
AcDbText
 10
9.0
 20
1.562999999999999
 30
0.0
 40
0.5
  1
GTEZ Normal Duty Stainless Steel Housed Pillow Blocks
100
AcDbAttributeDefinition
  3

  2
NT
 70
     8
280
     0
  0
ATTDEF
  5
71
330
1F
100
AcDbEntity
  8
AM_6
100
AcDbText
 10
9.0
 20
1.062999999999999
 30
0.0
 40
0.5
  1
 129274
100
AcDbAttributeDefinition
  3

  2
NB
 70
     8
280
     0
  0
ATTDEF
  5
72
330
1F
100
AcDbEntity
  8
AM_6
100
AcDbText
 10
9.0
 20
0.5629999999999993
 30
0.0
 40
0.5
  1
 $PN.$LUBE.
100
AcDbAttributeDefinition
  3

  2
NBSYN
 70
     8
280
     0
  0
ATTDEF
  5
73
330
1F
100
AcDbEntity
  8
AM_6
100
AcDbText
 10
9.0
 20
0.0629999999999993
 30
0.0
 40
0.5
  1
129274
100
AcDbAttributeDefinition
  3

  2
LINA
 70
     8
280
     0
  0
ATTDEF
  5
74
330
1F
100
AcDbEntity
  8
AM_6
100
AcDbText
 10
9.0
 20
-0.4370000000000007
 30
0.0
 40
0.5
  1
210
100
AcDbAttributeDefinition
  3

  2
SERIES
 70
     8
280
     0
  0
ATTDEF
  5
75
330
1F
100
AcDbEntity
  8
AM_6
100
AcDbText
 10
9.0
 20
-0.9370000000000007
 30
0.0
 40
0.5
  1
1-15/16
100
AcDbAttributeDefinition
  3

  2
SS
 70
     8
280
     0
  0
ATTDEF
  5
76
330
1F
100
AcDbEntity
  8
AM_6
100
AcDbText
 10
9.0
 20
-1.437000000000001
 30
0.0
 40
0.5
  1
129274
100
AcDbAttributeDefinition
  3

  2
PN
 70
     8
280
     0
  0
ATTDEF
  5
77
330
1F
100
AcDbEntity
  8
AM_6
100
AcDbText
 10
9.0
 20
-1.937000000000001
 30
0.0
 40
0.5
  1
P2B-GTEZ-115-SHCR
100
AcDbAttributeDefinition
  3

  2
DESCRIPTION
 70
     8
280
     0
  0
ATTDEF
  5
78
330
1F
100
AcDbEntity
  8
AM_6
100
AcDbText
 10
9.0
 20
-2.437000000000001
 30
0.0
 40
0.5
  1
1-55/64
100
AcDbAttributeDefinition
  3

  2
A
 70
     8
280
     0
  0
ATTDEF
  5
79
330
1F
100
AcDbEntity
  8
AM_6
100
AcDbText
 10
9.0
 20
-2.937000000000001
 30
0.0
 40
0.5
  1
8
100
AcDbAttributeDefinition
  3

  2
B
 70
     8
280
     0
  0
ATTDEF
  5
7A
330
1F
100
AcDbEntity
  8
AM_6
100
AcDbText
 10
9.0
 20
-3.437000000000001
 30
0.0
 40
0.5
  1
1-5/8
100
AcDbAttributeDefinition
  3

  2
C
 70
     8
280
     0
  0
ATTDEF
  5
7B
330
1F
100
AcDbEntity
  8
AM_6
100
AcDbText
 10
9.0
 20
-3.937000000000001
 30
0.0
 40
0.5
  1
5-49/64
100
AcDbAttributeDefinition
  3

  2
DMIN
 70
     8
280
     0
  0
ATTDEF
  5
7C
330
1F
100
AcDbEntity
  8
AM_6
100
AcDbText
 10
9.0
 20
-4.437000000000001
 30
0.0
 40
0.5
  1
6-11/16
100
AcDbAttributeDefinition
  3

  2
DMAX
 70
     8
280
     0
  0
ATTDEF
  5
7D
330
1F
100
AcDbEntity
  8
AM_6
100
AcDbText
 10
9.0
 20
-4.937000000000001
 30
0.0
 40
0.5
  1
5/8
100
AcDbAttributeDefinition
  3

  2
F
 70
     8
280
     0
  0
ATTDEF
  5
7E
330
1F
100
AcDbEntity
  8
AM_6
100
AcDbText
 10
9.0
 20
-5.437000000000001
 30
0.0
 40
0.5
  1
1-9/64
100
AcDbAttributeDefinition
  3

  2
G
 70
     8
280
     0
  0
ATTDEF
  5
7F
330
1F
100
AcDbEntity
  8
AM_6
100
AcDbText
 10
9.0
 20
-5.937000000000001
 30
0.0
 40
0.5
  1
5/8
100
AcDbAttributeDefinition
  3

  2
H
 70
     8
280
     0
  0
ATTDEF
  5
80
330
1F
100
AcDbEntity
  8
AM_6
100
AcDbText
 10
9.0
 20
-6.437000000000001
 30
0.0
 40
0.5
  1
4-5/16
100
AcDbAttributeDefinition
  3

  2
J
 70
     8
280
     0
  0
ATTDEF
  5
81
330
1F
100
AcDbEntity
  8
AM_6
100
AcDbText
 10
9.0
 20
-6.937000000000001
 30
0.0
 40
0.5
  1
2-15/16
100
AcDbAttributeDefinition
  3

  2
L
 70
     8
280
     0
  0
ATTDEF
  5
82
330
1F
100
AcDbEntity
  8
AM_6
100
AcDbText
 10
9.0
 20
-7.437000000000001
 30
0.0
 40
0.5
  1
2-1/4
100
AcDbAttributeDefinition
  3

  2
M
 70
     8
280
     0
  0
ATTDEF
  5
83
330
1F
100
AcDbEntity
  8
AM_6
100
AcDbText
 10
9.0
 20
-7.937000000000001
 30
0.0
 40
0.5
  1
21/32
100
AcDbAttributeDefinition
  3

  2
R
 70
     8
280
     0
  0
ATTDEF
  5
84
330
1F
100
AcDbEntity
  8
AM_6
100
AcDbText
 10
9.0
 20
-8.437000000000001
 30
0.0
 40
0.5
  1
1-13/64
100
AcDbAttributeDefinition
  3

  2
S
 70
     8
280
     0
  0
ATTDEF
  5
85
330
1F
100
AcDbEntity
  8
AM_6
100
AcDbText
 10
9.0
 20
-8.937000000000001
 30
0.0
 40
0.5
  1
1-5/32
100
AcDbAttributeDefinition
  3

  2
Z
 70
     8
280
     0
  0
ATTDEF
  5
86
330
1F
100
AcDbEntity
  8
AM_6
100
AcDbText
 10
9.0
 20
-9.437000000000001
 30
0.0
 40
0.5
  1
baldor
100
AcDbAttributeDefinition
  3

  2
COMPANY
 70
     8
280
     0
  0
INSERT
  5
88
330
1F
100
AcDbEntity
  8
0
100
AcDbBlockReference
  2
1_INS_GT_10_CRI_0_in__129274_0
 10
0.0
 20
0.0
 30
0.0
  0
INSERT
  5
B1
330
1F
100
AcDbEntity
  8
0
100
AcDbBlockReference
  2
2_129978_0_in__129274_0
 10
0.0
 20
0.0
 30
0.0
  0
INSERT
  5
F1
330
1F
100
AcDbEntity
  8
0
100
AcDbBlockReference
  2
3_P2B_GTEZ_10_SHCRI_0_in__129274_0
 10
0.0
 20
0.0
 30
0.0
  0
POINT
  5
1E5
330
1F
100
AcDbEntity
  8
ConnectionPoints
100
AcDbPoint
 10
0.0
 20
0.0
 30
0.0
  0
POINT
  5
1E6
330
1F
100
AcDbEntity
  8
ConnectionPoints
100
AcDbPoint
 10
0.0
 20
0.0
 30
-0.65625
  0
POINT
  5
1E7
330
1F
100
AcDbEntity
  8
ConnectionPoints
100
AcDbPoint
 10
0.0
 20
0.0
 30
0.0
  0
ENDSEC
  0
SECTION
  2
OBJECTS
  0
DICTIONARY
  5
C
330
0
100
AcDbDictionary
281
     1
  3
ACAD_DETAILVIEWSTYLE
350
1EF
  3
ACAD_GROUP
350
D
  3
ACAD_LAYOUT
350
1A
  3
ACAD_MATERIAL
350
43
  3
ACAD_MLEADERSTYLE
350
6B
  3
ACAD_MLINESTYLE
350
17
  3
ACAD_PLOTSETTINGS
350
19
  3
ACAD_PLOTSTYLENAME
350
E
  3
ACAD_SCALELIST
350
47
  3
ACAD_SECTIONVIEWSTYLE
350
1F0
  3
ACAD_TABLESTYLE
350
69
  3
ACAD_VISUALSTYLE
350
2A
  3
ACDB_RECOMPOSE_DATA
350
1EC
  3
AcDbVariableDictionary
350
1E8
  0
SUN
  5
6D
330
29
100
AcDbSun
 90
        1
290
     0
 63
     7
421
 16777215
 40
1.0
291
     1
 91
  2455826
 92
 54000000
292
     0
 70
     2
 71
   256
280
     1
  0
DICTIONARY
  5
1EF
102
{ACAD_REACTORS
330
C
102
}
330
C
100
AcDbDictionary
281
     1
  0
DICTIONARY
  5
D
102
{ACAD_REACTORS
330
C
102
}
330
C
100
AcDbDictionary
281
     1
  0
DICTIONARY
  5
1A
102
{ACAD_REACTORS
330
C
102
}
330
C
100
AcDbDictionary
281
     1
  3
Layout1
350
1E
  3
Layout2
350
26
  3
Model
350
22
  0
DICTIONARY
  5
43
102
{ACAD_REACTORS
330
C
102
}
330
C
100
AcDbDictionary
281
     1
  3
ByBlock
350
45
  3
ByLayer
350
44
  3
Global
350
46
  0
DICTIONARY
  5
6B
102
{ACAD_REACTORS
330
C
102
}
330
C
100
AcDbDictionary
281
     1
  3
Standard
350
6C
  0
DICTIONARY
  5
17
102
{ACAD_REACTORS
330
C
102
}
330
C
100
AcDbDictionary
281
     1
  3
Standard
350
18
  0
DICTIONARY
  5
19
102
{ACAD_REACTORS
330
C
102
}
330
C
100
AcDbDictionary
281
     1
  0
ACDBDICTIONARYWDFLT
  5
E
102
{ACAD_REACTORS
330
C
102
}
330
C
100
AcDbDictionary
281
     1
  3
Normal
350
F
100
AcDbDictionaryWithDefault
340
F
  0
DICTIONARY
  5
47
102
{ACAD_REACTORS
330
C
102
}
330
C
100
AcDbDictionary
281
     1
  3
A0
350
48
  3
A1
350
49
  3
A2
350
4A
  3
A3
350
4B
  3
A4
350
4C
  3
A5
350
4D
  3
A6
350
4E
  3
A7
350
4F
  3
A8
350
50
  3
A9
350
51
  3
B0
350
52
  3
B1
350
53
  3
B2
350
54
  3
B3
350
55
  3
B4
350
56
  3
B5
350
57
  3
B6
350
58
  3
B7
350
59
  3
B8
350
5A
  3
B9
350
5B
  3
C0
350
5C
  3
C1
350
5D
  3
C2
350
5E
  3
C3
350
5F
  3
C4
350
60
  3
C5
350
61
  3
C6
350
62
  3
C7
350
63
  3
C8
350
64
  3
C9
350
65
  3
D0
350
66
  3
D1
350
67
  3
D2
350
68
  0
DICTIONARY
  5
1F0
102
{ACAD_REACTORS
330
C
102
}
330
C
100
AcDbDictionary
281
     1
  0
DICTIONARY
  5
69
102
{ACAD_REACTORS
330
C
102
}
330
C
100
AcDbDictionary
281
     1
  3
Standard
350
6A
  0
DICTIONARY
  5
2A
102
{ACAD_REACTORS
330
C
102
}
330
C
100
AcDbDictionary
281
     1
  3
2dWireframe
350
2F
  3
Basic
350
32
  3
Brighten
350
36
  3
ColorChange
350
3A
  3
Conceptual
350
34
  3
Dim
350
35
  3
EdgeColorOff
350
3D
  3
Facepattern
350
39
  3
Flat
350
2B
  3
FlatWithEdges
350
2C
  3
Gouraud
350
2D
  3
GouraudWithEdges
350
2E
  3
Hidden
350
31
  3
JitterOff
350
3B
  3
Linepattern
350
38
  3
OverhangOff
350
3C
  3
Realistic
350
33
  3
Shaded
350
42
  3
Shaded with edges
350
41
  3
Shades of Gray
350
3E
  3
Sketchy
350
3F
  3
Thicken
350
37
  3
Wireframe
350
30
  3
X-Ray
350
40
  0
XRECORD
  5
1EC
102
{ACAD_REACTORS
330
C
102
}
330
C
100
AcDbXrecord
280
     1
 90
        1
330
6A
  0
DICTIONARY
  5
1E8
102
{ACAD_REACTORS
330
C
102
}
330
C
100
AcDbDictionary
281
     1
  3
CANNOSCALE
350
1E9
  3
CMLEADERSTYLE
350
1EE
  3
CTABLESTYLE
350
1ED
  0
LAYOUT
  5
1E
102
{ACAD_REACTORS
330
1A
102
}
330
1A
100
AcDbPlotSettings
  1

  2
none_device
  4

  6

 40
0.0
 41
0.0
 42
0.0
 43
0.0
 44
0.0
 45
0.0
 46
0.0
 47
0.0
 48
0.0
 49
0.0
140
0.0
141
0.0
142
1.0
143
1.0
 70
   688
 72
     0
 73
     0
 74
     5
  7

 75
    16
 76
     0
 77
     2
 78
   300
147
1.0
148
0.0
149
0.0
100
AcDbLayout
  1
Layout1
 70
     1
 71
     1
 10
0.0
 20
0.0
 11
12.0
 21
9.0
 12
0.0
 22
0.0
 32
0.0
 14
1.000000000000000E+20
 24
1.000000000000000E+20
 34
1.000000000000000E+20
 15
-1.000000000000000E+20
 25
-1.000000000000000E+20
 35
-1.000000000000000E+20
146
0.0
 13
0.0
 23
0.0
 33
0.0
 16
1.0
 26
0.0
 36
0.0
 17
0.0
 27
1.0
 37
0.0
 76
     0
330
1B
  0
LAYOUT
  5
26
102
{ACAD_REACTORS
330
1A
102
}
330
1A
100
AcDbPlotSettings
  1

  2
none_device
  4

  6

 40
0.0
 41
0.0
 42
0.0
 43
0.0
 44
0.0
 45
0.0
 46
0.0
 47
0.0
 48
0.0
 49
0.0
140
0.0
141
0.0
142
1.0
143
1.0
 70
   688
 72
     0
 73
     0
 74
     5
  7

 75
    16
 76
     0
 77
     2
 78
   300
147
1.0
148
0.0
149
0.0
100
AcDbLayout
  1
Layout2
 70
     1
 71
     2
 10
0.0
 20
0.0
 11
0.0
 21
0.0
 12
0.0
 22
0.0
 32
0.0
 14
0.0
 24
0.0
 34
0.0
 15
0.0
 25
0.0
 35
0.0
146
0.0
 13
0.0
 23
0.0
 33
0.0
 16
1.0
 26
0.0
 36
0.0
 17
0.0
 27
1.0
 37
0.0
 76
     0
330
23
  0
LAYOUT
  5
22
102
{ACAD_REACTORS
330
1A
102
}
330
1A
100
AcDbPlotSettings
  1

  2
none_device
  4
Letter_(8.50_x_11.00_Inches)
  6

 40
6.35
 41
6.35
 42
6.35000508
 43
6.35000508
 44
215.9
 45
279.4
 46
0.0
 47
0.0
 48
0.0
 49
0.0
140
0.0
141
0.0
142
1.0
143
1.0
 70
  1712
 72
     0
 73
     0
 74
     0
  7

 75
     0
 76
     0
 77
     2
 78
   300
147
1.0
148
0.0
149
0.0
100
AcDbLayout
  1
Model
 70
     1
 71
     0
 10
0.0
 20
0.0
 11
12.0
 21
9.0
 12
0.0
 22
0.0
 32
0.0
 14
1.000000000000000E+20
 24
1.000000000000000E+20
 34
1.000000000000000E+20
 15
-1.000000000000000E+20
 25
-1.000000000000000E+20
 35
-1.000000000000000E+20
146
0.0
 13
0.0
 23
0.0
 33
0.0
 16
1.0
 26
0.0
 36
0.0
 17
0.0
 27
1.0
 37
0.0
 76
     0
330
1F
331
29
  0
MATERIAL
  5
45
102
{ACAD_REACTORS
330
43
102
}
330
43
100
AcDbMaterial
  1
ByBlock
 72
     1
 94
      127
  0
MATERIAL
  5
44
102
{ACAD_REACTORS
330
43
102
}
330
43
100
AcDbMaterial
  1
ByLayer
 72
     1
 94
      127
  0
MATERIAL
  5
46
102
{ACAD_REACTORS
330
43
102
}
330
43
100
AcDbMaterial
  1
Global
 72
     1
 94
      127
  0
MLEADERSTYLE
  5
6C
102
{ACAD_REACTORS
330
6B
102
}
330
6B
100
AcDbMLeaderStyle
179
     2
170
     2
171
     1
172
     0
 90
        2
 40
0.0
 41
0.0
173
     1
 91
-1056964608
340
14
 92
       -2
290
     1
 42
0.09
291
     1
 43
0.36
  3
Standard
341
0
 44
0.18
300

342
11
174
     1
178
     6
175
     1
176
     0
 93
-1056964608
 45
0.18
292
     0
297
     0
 46
0.18
343
0
 94
-1056964608
 47
1.0
 49
1.0
140
1.0
293
     1
141
0.0
294
     1
177
     0
142
1.0
295
     0
296
     0
143
0.125
271
     0
272
     9
273
     9
298
     0
  0
MLINESTYLE
  5
18
102
{ACAD_REACTORS
330
17
102
}
330
17
100
AcDbMlineStyle
  2
Standard
 70
     0
  3

 62
   256
 51
90.0
 52
90.0
 71
     2
 49
0.5
 62
   256
  6
BYLAYER
 49
-0.5
 62
   256
  6
BYLAYER
  0
ACDBPLACEHOLDER
  5
F
102
{ACAD_REACTORS
330
E
102
}
330
E
  0
SCALE
  5
48
102
{ACAD_REACTORS
330
47
102
}
330
47
100
AcDbScale
 70
     0
300
1:1
140
1.0
141
1.0
290
     1
  0
SCALE
  5
49
102
{ACAD_REACTORS
330
47
102
}
330
47
100
AcDbScale
 70
     0
300
1:2
140
1.0
141
2.0
290
     0
  0
SCALE
  5
4A
102
{ACAD_REACTORS
330
47
102
}
330
47
100
AcDbScale
 70
     0
300
1:4
140
1.0
141
4.0
290
     0
  0
SCALE
  5
4B
102
{ACAD_REACTORS
330
47
102
}
330
47
100
AcDbScale
 70
     0
300
1:5
140
1.0
141
5.0
290
     0
  0
SCALE
  5
4C
102
{ACAD_REACTORS
330
47
102
}
330
47
100
AcDbScale
 70
     0
300
1:8
140
1.0
141
8.0
290
     0
  0
SCALE
  5
4D
102
{ACAD_REACTORS
330
47
102
}
330
47
100
AcDbScale
 70
     0
300
1:10
140
1.0
141
10.0
290
     0
  0
SCALE
  5
4E
102
{ACAD_REACTORS
330
47
102
}
330
47
100
AcDbScale
 70
     0
300
1:16
140
1.0
141
16.0
290
     0
  0
SCALE
  5
4F
102
{ACAD_REACTORS
330
47
102
}
330
47
100
AcDbScale
 70
     0
300
1:20
140
1.0
141
20.0
290
     0
  0
SCALE
  5
50
102
{ACAD_REACTORS
330
47
102
}
330
47
100
AcDbScale
 70
     0
300
1:30
140
1.0
141
30.0
290
     0
  0
SCALE
  5
51
102
{ACAD_REACTORS
330
47
102
}
330
47
100
AcDbScale
 70
     0
300
1:40
140
1.0
141
40.0
290
     0
  0
SCALE
  5
52
102
{ACAD_REACTORS
330
47
102
}
330
47
100
AcDbScale
 70
     0
300
1:50
140
1.0
141
50.0
290
     0
  0
SCALE
  5
53
102
{ACAD_REACTORS
330
47
102
}
330
47
100
AcDbScale
 70
     0
300
1:100
140
1.0
141
100.0
290
     0
  0
SCALE
  5
54
102
{ACAD_REACTORS
330
47
102
}
330
47
100
AcDbScale
 70
     0
300
2:1
140
2.0
141
1.0
290
     0
  0
SCALE
  5
55
102
{ACAD_REACTORS
330
47
102
}
330
47
100
AcDbScale
 70
     0
300
4:1
140
4.0
141
1.0
290
     0
  0
SCALE
  5
56
102
{ACAD_REACTORS
330
47
102
}
330
47
100
AcDbScale
 70
     0
300
8:1
140
8.0
141
1.0
290
     0
  0
SCALE
  5
57
102
{ACAD_REACTORS
330
47
102
}
330
47
100
AcDbScale
 70
     0
300
10:1
140
10.0
141
1.0
290
     0
  0
SCALE
  5
58
102
{ACAD_REACTORS
330
47
102
}
330
47
100
AcDbScale
 70
     0
300
100:1
140
100.0
141
1.0
290
     0
  0
SCALE
  5
59
102
{ACAD_REACTORS
330
47
102
}
330
47
100
AcDbScale
 70
     0
300
1/128" = 1'-0"
140
0.0078125
141
12.0
290
     0
  0
SCALE
  5
5A
102
{ACAD_REACTORS
330
47
102
}
330
47
100
AcDbScale
 70
     0
300
1/64" = 1'-0"
140
0.015625
141
12.0
290
     0
  0
SCALE
  5
5B
102
{ACAD_REACTORS
330
47
102
}
330
47
100
AcDbScale
 70
     0
300
1/32" = 1'-0"
140
0.03125
141
12.0
290
     0
  0
SCALE
  5
5C
102
{ACAD_REACTORS
330
47
102
}
330
47
100
AcDbScale
 70
     0
300
1/16" = 1'-0"
140
0.0625
141
12.0
290
     0
  0
SCALE
  5
5D
102
{ACAD_REACTORS
330
47
102
}
330
47
100
AcDbScale
 70
     0
300
3/32" = 1'-0"
140
0.09375
141
12.0
290
     0
  0
SCALE
  5
5E
102
{ACAD_REACTORS
330
47
102
}
330
47
100
AcDbScale
 70
     0
300
1/8" = 1'-0"
140
0.125
141
12.0
290
     0
  0
SCALE
  5
5F
102
{ACAD_REACTORS
330
47
102
}
330
47
100
AcDbScale
 70
     0
300
3/16" = 1'-0"
140
0.1875
141
12.0
290
     0
  0
SCALE
  5
60
102
{ACAD_REACTORS
330
47
102
}
330
47
100
AcDbScale
 70
     0
300
1/4" = 1'-0"
140
0.25
141
12.0
290
     0
  0
SCALE
  5
61
102
{ACAD_REACTORS
330
47
102
}
330
47
100
AcDbScale
 70
     0
300
3/8" = 1'-0"
140
0.375
141
12.0
290
     0
  0
SCALE
  5
62
102
{ACAD_REACTORS
330
47
102
}
330
47
100
AcDbScale
 70
     0
300
1/2" = 1'-0"
140
0.5
141
12.0
290
     0
  0
SCALE
  5
63
102
{ACAD_REACTORS
330
47
102
}
330
47
100
AcDbScale
 70
     0
300
3/4" = 1'-0"
140
0.75
141
12.0
290
     0
  0
SCALE
  5
64
102
{ACAD_REACTORS
330
47
102
}
330
47
100
AcDbScale
 70
     0
300
1" = 1'-0"
140
1.0
141
12.0
290
     0
  0
SCALE
  5
65
102
{ACAD_REACTORS
330
47
102
}
330
47
100
AcDbScale
 70
     0
300
1-1/2" = 1'-0"
140
1.5
141
12.0
290
     0
  0
SCALE
  5
66
102
{ACAD_REACTORS
330
47
102
}
330
47
100
AcDbScale
 70
     0
300
3" = 1'-0"
140
3.0
141
12.0
290
     0
  0
SCALE
  5
67
102
{ACAD_REACTORS
330
47
102
}
330
47
100
AcDbScale
 70
     0
300
6" = 1'-0"
140
6.0
141
12.0
290
     0
  0
SCALE
  5
68
102
{ACAD_REACTORS
330
47
102
}
330
47
100
AcDbScale
 70
     0
300
1'-0" = 1'-0"
140
12.0
141
12.0
290
     0
  0
TABLESTYLE
  5
6A
102
{ACAD_REACTORS
330
69
102
}
102
{ACAD_XDICTIONARY
360
1EA
102
}
330
69
100
AcDbTableStyle
  3
Standard
 70
     0
 71
     0
 40
0.06
 41
0.06
280
     0
281
     0
  7
Standard
140
0.18
170
     2
 62
     0
 63
   257
283
     0
 90
        4
 91
        0
  1

274
    -2
284
     1
 64
     0
275
    -2
285
     1
 65
     0
276
    -2
286
     1
 66
     0
277
    -2
287
     1
 67
     0
278
    -2
288
     1
 68
     0
279
    -2
289
     1
 69
     0
  7
Standard
140
0.25
170
     5
 62
     0
 63
   257
283
     0
 90
        4
 91
        0
  1

274
    -2
284
     1
 64
     0
275
    -2
285
     1
 65
     0
276
    -2
286
     1
 66
     0
277
    -2
287
     1
 67
     0
278
    -2
288
     1
 68
     0
279
    -2
289
     1
 69
     0
  7
Standard
140
0.18
170
     5
 62
     0
 63
   257
283
     0
 90
        4
 91
        0
  1

274
    -2
284
     1
 64
     0
275
    -2
285
     1
 65
     0
276
    -2
286
     1
 66
     0
277
    -2
287
     1
 67
     0
278
    -2
288
     1
 68
     0
279
    -2
289
     1
 69
     0
  0
VISUALSTYLE
  5
2F
102
{ACAD_REACTORS
330
2A
102
}
330
2A
100
AcDbVisualStyle
  2
2dWireframe
 70
     4
177
     3
291
     0
 70
    58
 90
        0
176
     1
 90
        2
176
     1
 90
        0
176
     1
 90
        0
176
     1
 40
0.6
176
     1
 40
30.0
176
     1
 62
     7
420
 16777215
176
     1
 90
        1
176
     1
 90
        4
176
     1
 62
     7
176
     1
 62
   257
176
     1
 90
        1
176
     1
 90
        1
176
     1
 40
1.0
176
     1
 90
        0
176
     1
 62
   257
176
     1
 40
1.0
176
     1
 90
        1
176
     1
 90
        6
176
     1
 90
        2
176
     1
 62
     7
176
     1
 90
        5
176
     1
 90
        0
176
     1
 90
        0
176
     1
290
     0
176
     1
 90
        1
176
     1
 40
0.0
176
     1
 90
        0
176
     1
290
     1
176
     1
290
     1
176
     1
290
     0
176
     1
290
     0
176
     1
290
     0
176
     1
290
     0
176
     1
290
     0
176
     1
290
     0
176
     1
290
     0
176
     1
 90
       50
176
     1
 40
0.0
176
     1
 40
1.0
176
     1
 90
        0
176
     1
 62
    18
420
        0
176
     1
 90
       50
176
     1
 90
        3
176
     1
 62
     5
420
      255
176
     1
290
     0
176
     1
 90
       50
176
     1
 90
       50
176
     1
 90
       50
176
     1
290
     0
176
     1
 90
       50
176
     1
 62
   256
176
     0
 40
1.0
176
     0
 90
        2
176
     1
  1
strokes_ogs.tif
176
     1
290
     0
176
     1
 40
1.0
176
     1
 40
1.0
176
     1
  0
VISUALSTYLE
  5
32
102
{ACAD_REACTORS
330
2A
102
}
330
2A
100
AcDbVisualStyle
  2
Basic
 70
     7
177
     3
291
     1
 70
    58
 90
        1
176
     1
 90
        0
176
     1
 90
        1
176
     1
 90
        0
176
     1
 40
0.6
176
     1
 40
30.0
176
     1
 62
     7
420
 16777215
176
     1
 90
        0
176
     1
 90
        4
176
     1
 62
     7
176
     1
 62
   257
176
     1
 90
        1
176
     1
 90
        1
176
     1
 40
1.0
176
     1
 90
        8
176
     1
 62
     7
176
     1
 40
1.0
176
     1
 90
        1
176
     1
 90
        6
176
     1
 90
        2
176
     1
 62
     7
176
     1
 90
        5
176
     1
 90
        0
176
     1
 90
        0
176
     1
290
     0
176
     1
 90
        1
176
     1
 40
0.0
176
     1
 90
        0
176
     1
290
     0
176
     1
290
     1
176
     1
290
     1
176
     1
290
     0
176
     1
290
     0
176
     1
290
     0
176
     1
290
     0
176
     1
290
     0
176
     1
290
     0
176
     1
 90
       50
176
     1
 40
0.0
176
     1
 40
1.0
176
     1
 90
        0
176
     1
 62
    18
420
        0
176
     1
 90
       50
176
     1
 90
        3
176
     1
 62
     5
420
      255
176
     1
290
     0
176
     1
 90
       50
176
     1
 90
       50
176
     1
 90
       50
176
     1
290
     0
176
     1
 90
       50
176
     1
 62
   256
176
     0
 40
1.0
176
     0
 90
        2
176
     1
  1
strokes_ogs.tif
176
     1
290
     0
176
     1
 40
1.0
176
     1
 40
1.0
176
     1
  0
VISUALSTYLE
  5
36
102
{ACAD_REACTORS
330
2A
102
}
330
2A
100
AcDbVisualStyle
  2
Brighten
 70
    12
177
     3
291
     1
 70
    58
 90
        2
176
     1
 90
        2
176
     1
 90
        0
176
     1
 90
        0
176
     1
 40
0.6
176
     1
 40
30.0
176
     1
 62
     7
420
 16777215
176
     1
 90
        1
176
     1
 90
        4
176
     1
 62
     7
176
     1
 62
   257
176
     1
 90
        1
176
     1
 90
        1
176
     1
 40
1.0
176
     1
 90
        8
176
     1
 62
     7
176
     1
 40
1.0
176
     1
 90
        1
176
     1
 90
        6
176
     1
 90
        2
176
     1
 62
     7
176
     1
 90
        5
176
     1
 90
        0
176
     1
 90
        0
176
     1
290
     0
176
     1
 90
        1
176
     1
 40
50.0
176
     1
 90
        0
176
     1
290
     0
176
     1
290
     1
176
     1
290
     1
176
     1
290
     0
176
     1
290
     0
176
     1
290
     0
176
     1
290
     0
176
     1
290
     0
176
     1
290
     0
176
     1
 90
       50
176
     1
 40
0.0
176
     1
 40
1.0
176
     1
 90
        0
176
     1
 62
    18
420
        0
176
     1
 90
       50
176
     1
 90
        3
176
     1
 62
     5
420
      255
176
     1
290
     0
176
     1
 90
       50
176
     1
 90
       50
176
     1
 90
       50
176
     1
290
     0
176
     1
 90
       50
176
     1
 62
   256
176
     0
 40
1.0
176
     0
 90
        2
176
     1
  1
strokes_ogs.tif
176
     1
290
     0
176
     1
 40
1.0
176
     1
 40
1.0
176
     1
  0
VISUALSTYLE
  5
3A
102
{ACAD_REACTORS
330
2A
102
}
330
2A
100
AcDbVisualStyle
  2
ColorChange
 70
    16
177
     3
291
     1
 70
    58
 90
        2
176
     1
 90
        2
176
     1
 90
        3
176
     1
 90
        0
176
     1
 40
0.6
176
     1
 40
30.0
176
     1
 62
     8
420
  8421504
176
     1
 90
        1
176
     1
 90
        4
176
     1
 62
     7
176
     1
 62
   257
176
     1
 90
        1
176
     1
 90
        1
176
     1
 40
1.0
176
     1
 90
        8
176
     1
 62
     8
420
  8421504
176
     1
 40
1.0
176
     1
 90
        1
176
     1
 90
        6
176
     1
 90
        2
176
     1
 62
     7
176
     1
 90
        5
176
     1
 90
        0
176
     1
 90
        0
176
     1
290
     0
176
     1
 90
        1
176
     1
 40
0.0
176
     1
 90
        0
176
     1
290
     0
176
     1
290
     1
176
     1
290
     1
176
     1
290
     0
176
     1
290
     0
176
     1
290
     0
176
     1
290
     0
176
     1
290
     0
176
     1
290
     0
176
     1
 90
       50
176
     1
 40
0.0
176
     1
 40
1.0
176
     1
 90
        0
176
     1
 62
    18
420
        0
176
     1
 90
       50
176
     1
 90
        3
176
     1
 62
     5
420
      255
176
     1
290
     0
176
     1
 90
       50
176
     1
 90
       50
176
     1
 90
       50
176
     1
290
     0
176
     1
 90
       50
176
     1
 62
   256
176
     0
 40
1.0
176
     0
 90
        2
176
     1
  1
strokes_ogs.tif
176
     1
290
     0
176
     1
 40
1.0
176
     1
 40
1.0
176
     1
  0
VISUALSTYLE
  5
34
102
{ACAD_REACTORS
330
2A
102
}
330
2A
100
AcDbVisualStyle
  2
Conceptual
 70
     9
177
     3
291
     0
 70
    58
 90
        3
176
     1
 90
        2
176
     1
 90
        0
176
     1
 90
        0
176
     1
 40
0.6
176
     1
 40
30.0
176
     1
 62
     7
420
 16777215
176
     1
 90
        2
176
     1
 90
        2
176
     1
 62
     7
176
     1
 62
   257
176
     1
 90
        1
176
     1
 90
        1
176
     1
 40
179.0
176
     1
 90
        8
176
     1
 62
     7
176
     1
 40
1.0
176
     1
 90
        1
176
     1
 90
        6
176
     1
 90
        2
176
     1
 62
     7
176
     1
 90
        3
176
     1
 90
        0
176
     1
 90
        0
176
     1
290
     0
176
     1
 90
        1
176
     1
 40
0.0
176
     1
 90
        0
176
     1
290
     0
176
     1
290
     1
176
     1
290
     1
176
     1
290
     0
176
     1
290
     0
176
     1
290
     0
176
     1
290
     0
176
     1
290
     0
176
     1
290
     0
176
     1
 90
       50
176
     1
 40
0.0
176
     1
 40
1.0
176
     1
 90
        0
176
     1
 62
    18
420
        0
176
     1
 90
       50
176
     1
 90
        3
176
     1
 62
     5
420
      255
176
     1
290
     0
176
     1
 90
       50
176
     1
 90
       50
176
     1
 90
       50
176
     1
290
     0
176
     1
 90
       50
176
     1
 62
   256
176
     0
 40
1.0
176
     0
 90
        2
176
     1
  1
strokes_ogs.tif
176
     1
290
     0
176
     1
 40
1.0
176
     1
 40
1.0
176
     1
  0
VISUALSTYLE
  5
35
102
{ACAD_REACTORS
330
2A
102
}
330
2A
100
AcDbVisualStyle
  2
Dim
 70
    11
177
     3
291
     1
 70
    58
 90
        2
176
     1
 90
        2
176
     1
 90
        0
176
     1
 90
        0
176
     1
 40
0.6
176
     1
 40
30.0
176
     1
 62
     7
420
 16777215
176
     1
 90
        1
176
     1
 90
        4
176
     1
 62
     7
176
     1
 62
   257
176
     1
 90
        1
176
     1
 90
        1
176
     1
 40
1.0
176
     1
 90
        8
176
     1
 62
     7
176
     1
 40
1.0
176
     1
 90
        1
176
     1
 90
        6
176
     1
 90
        2
176
     1
 62
     7
176
     1
 90
        5
176
     1
 90
        0
176
     1
 90
        0
176
     1
290
     0
176
     1
 90
        1
176
     1
 40
-50.0
176
     1
 90
        0
176
     1
290
     0
176
     1
290
     1
176
     1
290
     1
176
     1
290
     0
176
     1
290
     0
176
     1
290
     0
176
     1
290
     0
176
     1
290
     0
176
     1
290
     0
176
     1
 90
       50
176
     1
 40
0.0
176
     1
 40
1.0
176
     1
 90
        0
176
     1
 62
    18
420
        0
176
     1
 90
       50
176
     1
 90
        3
176
     1
 62
     5
420
      255
176
     1
290
     0
176
     1
 90
       50
176
     1
 90
       50
176
     1
 90
       50
176
     1
290
     0
176
     1
 90
       50
176
     1
 62
   256
176
     0
 40
1.0
176
     0
 90
        2
176
     1
  1
strokes_ogs.tif
176
     1
290
     0
176
     1
 40
1.0
176
     1
 40
1.0
176
     1
  0
VISUALSTYLE
  5
3D
102
{ACAD_REACTORS
330
2A
102
}
330
2A
100
AcDbVisualStyle
  2
EdgeColorOff
 70
    22
177
     3
291
     1
 70
    58
 90
        2
176
     0
 90
        2
176
     0
 90
        0
176
     0
 90
        0
176
     0
 40
0.6
176
     0
 40
30.0
176
     0
 62
     7
420
 16777215
176
     0
 90
        1
176
     0
 90
        4
176
     0
 62
     7
176
     0
 62
   257
176
     0
 90
        1
176
     0
 90
        1
176
     0
 40
1.0
176
     0
 90
        8
176
     2
 62
     7
176
     0
 40
1.0
176
     0
 90
        1
176
     0
 90
        6
176
     0
 90
        2
176
     0
 62
     7
176
     0
 90
        5
176
     0
 90
        0
176
     0
 90
        0
176
     0
290
     0
176
     0
 90
        1
176
     0
 40
0.0
176
     0
 90
        0
176
     0
290
     0
176
     0
290
     1
176
     0
290
     1
176
     0
290
     0
176
     0
290
     0
176
     0
290
     0
176
     0
290
     0
176
     0
290
     0
176
     0
290
     0
176
     0
 90
       50
176
     0
 40
0.0
176
     0
 40
1.0
176
     0
 90
        0
176
     0
 62
    18
420
        0
176
     0
 90
       50
176
     0
 90
        3
176
     0
 62
     5
420
      255
176
     0
290
     0
176
     0
 90
       50
176
     0
 90
       50
176
     0
 90
       50
176
     0
290
     0
176
     0
 90
       50
176
     0
 62
   256
176
     0
 40
1.0
176
     0
 90
        2
176
     0
  1
strokes_ogs.tif
176
     0
290
     0
176
     0
 40
1.0
176
     0
 40
1.0
176
     0
  0
VISUALSTYLE
  5
39
102
{ACAD_REACTORS
330
2A
102
}
330
2A
100
AcDbVisualStyle
  2
Facepattern
 70
    15
177
     3
291
     1
 70
    58
 90
        2
176
     1
 90
        2
176
     1
 90
        0
176
     1
 90
        0
176
     1
 40
0.6
176
     1
 40
30.0
176
     1
 62
     7
420
 16777215
176
     1
 90
        1
176
     1
 90
        4
176
     1
 62
     7
176
     1
 62
   257
176
     1
 90
        1
176
     1
 90
        1
176
     1
 40
1.0
176
     1
 90
        8
176
     1
 62
     7
176
     1
 40
1.0
176
     1
 90
        1
176
     1
 90
        6
176
     1
 90
        2
176
     1
 62
     7
176
     1
 90
        5
176
     1
 90
        0
176
     1
 90
        0
176
     1
290
     0
176
     1
 90
        1
176
     1
 40
0.0
176
     1
 90
        0
176
     1
290
     0
176
     1
290
     1
176
     1
290
     1
176
     1
290
     0
176
     1
290
     0
176
     1
290
     0
176
     1
290
     0
176
     1
290
     0
176
     1
290
     0
176
     1
 90
       50
176
     1
 40
0.0
176
     1
 40
1.0
176
     1
 90
        0
176
     1
 62
    18
420
        0
176
     1
 90
       50
176
     1
 90
        3
176
     1
 62
     5
420
      255
176
     1
290
     0
176
     1
 90
       50
176
     1
 90
       50
176
     1
 90
       50
176
     1
290
     0
176
     1
 90
       50
176
     1
 62
   256
176
     0
 40
1.0
176
     0
 90
        2
176
     1
  1
strokes_ogs.tif
176
     1
290
     0
176
     1
 40
1.0
176
     1
 40
1.0
176
     1
  0
VISUALSTYLE
  5
2B
102
{ACAD_REACTORS
330
2A
102
}
330
2A
100
AcDbVisualStyle
  2
Flat
 70
     0
177
     3
291
     1
 70
    58
 90
        2
176
     1
 90
        1
176
     1
 90
        1
176
     1
 90
        2
176
     1
 40
0.6
176
     1
 40
30.0
176
     1
 62
     7
420
 16777215
176
     1
 90
        0
176
     1
 90
        0
176
     1
 62
     7
176
     1
 62
   257
176
     1
 90
        1
176
     1
 90
        1
176
     1
 40
1.0
176
     1
 90
        8
176
     1
 62
     7
176
     1
 40
1.0
176
     1
 90
        1
176
     1
 90
        6
176
     1
 90
        2
176
     1
 62
     7
176
     1
 90
        5
176
     1
 90
        0
176
     1
 90
        0
176
     1
290
     0
176
     1
 90
       13
176
     1
 40
0.0
176
     1
 90
        0
176
     1
290
     0
176
     1
290
     1
176
     1
290
     1
176
     1
290
     0
176
     1
290
     0
176
     1
290
     0
176
     1
290
     0
176
     1
290
     0
176
     1
290
     0
176
     1
 90
       50
176
     1
 40
0.0
176
     1
 40
1.0
176
     1
 90
        0
176
     1
 62
    18
420
        0
176
     1
 90
       50
176
     1
 90
        3
176
     1
 62
     5
420
      255
176
     1
290
     0
176
     1
 90
       50
176
     1
 90
       50
176
     1
 90
       50
176
     1
290
     0
176
     1
 90
       50
176
     1
 62
   256
176
     0
 40
1.0
176
     0
 90
        2
176
     1
  1
strokes_ogs.tif
176
     1
290
     0
176
     1
 40
1.0
176
     1
 40
1.0
176
     1
  0
VISUALSTYLE
  5
2C
102
{ACAD_REACTORS
330
2A
102
}
330
2A
100
AcDbVisualStyle
  2
FlatWithEdges
 70
     1
177
     3
291
     1
 70
    58
 90
        2
176
     1
 90
        1
176
     1
 90
        1
176
     1
 90
        2
176
     1
 40
0.6
176
     1
 40
30.0
176
     1
 62
     7
420
 16777215
176
     1
 90
        1
176
     1
 90
        0
176
     1
 62
     7
176
     1
 62
   257
176
     1
 90
        1
176
     1
 90
        1
176
     1
 40
1.0
176
     1
 90
        0
176
     1
 62
   257
176
     1
 40
1.0
176
     1
 90
        1
176
     1
 90
        6
176
     1
 90
        2
176
     1
 62
     7
176
     1
 90
        5
176
     1
 90
        0
176
     1
 90
        0
176
     1
290
     0
176
     1
 90
       13
176
     1
 40
0.0
176
     1
 90
        0
176
     1
290
     0
176
     1
290
     1
176
     1
290
     1
176
     1
290
     0
176
     1
290
     0
176
     1
290
     0
176
     1
290
     0
176
     1
290
     0
176
     1
290
     0
176
     1
 90
       50
176
     1
 40
0.0
176
     1
 40
1.0
176
     1
 90
        0
176
     1
 62
    18
420
        0
176
     1
 90
       50
176
     1
 90
        3
176
     1
 62
     5
420
      255
176
     1
290
     0
176
     1
 90
       50
176
     1
 90
       50
176
     1
 90
       50
176
     1
290
     0
176
     1
 90
       50
176
     1
 62
   256
176
     0
 40
1.0
176
     0
 90
        2
176
     1
  1
strokes_ogs.tif
176
     1
290
     0
176
     1
 40
1.0
176
     1
 40
1.0
176
     1
  0
VISUALSTYLE
  5
2D
102
{ACAD_REACTORS
330
2A
102
}
330
2A
100
AcDbVisualStyle
  2
Gouraud
 70
     2
177
     3
291
     1
 70
    58
 90
        2
176
     1
 90
        2
176
     1
 90
        1
176
     1
 90
        2
176
     1
 40
0.6
176
     1
 40
30.0
176
     1
 62
     7
420
 16777215
176
     1
 90
        0
176
     1
 90
        0
176
     1
 62
     7
176
     1
 62
   257
176
     1
 90
        1
176
     1
 90
        1
176
     1
 40
1.0
176
     1
 90
        0
176
     1
 62
     7
176
     1
 40
1.0
176
     1
 90
        1
176
     1
 90
        6
176
     1
 90
        2
176
     1
 62
     7
176
     1
 90
        5
176
     1
 90
        0
176
     1
 90
        0
176
     1
290
     0
176
     1
 90
       13
176
     1
 40
0.0
176
     1
 90
        0
176
     1
290
     0
176
     1
290
     1
176
     1
290
     1
176
     1
290
     0
176
     1
290
     0
176
     1
290
     0
176
     1
290
     0
176
     1
290
     0
176
     1
290
     0
176
     1
 90
       50
176
     1
 40
0.0
176
     1
 40
1.0
176
     1
 90
        0
176
     1
 62
    18
420
        0
176
     1
 90
       50
176
     1
 90
        3
176
     1
 62
     5
420
      255
176
     1
290
     0
176
     1
 90
       50
176
     1
 90
       50
176
     1
 90
       50
176
     1
290
     0
176
     1
 90
       50
176
     1
 62
   256
176
     0
 40
1.0
176
     0
 90
        2
176
     1
  1
strokes_ogs.tif
176
     1
290
     0
176
     1
 40
1.0
176
     1
 40
1.0
176
     1
  0
VISUALSTYLE
  5
2E
102
{ACAD_REACTORS
330
2A
102
}
330
2A
100
AcDbVisualStyle
  2
GouraudWithEdges
 70
     3
177
     3
291
     1
 70
    58
 90
        2
176
     1
 90
        2
176
     1
 90
        1
176
     1
 90
        2
176
     1
 40
0.6
176
     1
 40
30.0
176
     1
 62
     7
420
 16777215
176
     1
 90
        1
176
     1
 90
        0
176
     1
 62
     7
176
     1
 62
   257
176
     1
 90
        1
176
     1
 90
        1
176
     1
 40
1.0
176
     1
 90
        0
176
     1
 62
   257
176
     1
 40
1.0
176
     1
 90
        1
176
     1
 90
        6
176
     1
 90
        2
176
     1
 62
     7
176
     1
 90
        5
176
     1
 90
        0
176
     1
 90
        0
176
     1
290
     0
176
     1
 90
       13
176
     1
 40
0.0
176
     1
 90
        0
176
     1
290
     0
176
     1
290
     1
176
     1
290
     1
176
     1
290
     0
176
     1
290
     0
176
     1
290
     0
176
     1
290
     0
176
     1
290
     0
176
     1
290
     0
176
     1
 90
       50
176
     1
 40
0.0
176
     1
 40
1.0
176
     1
 90
        0
176
     1
 62
    18
420
        0
176
     1
 90
       50
176
     1
 90
        3
176
     1
 62
     5
420
      255
176
     1
290
     0
176
     1
 90
       50
176
     1
 90
       50
176
     1
 90
       50
176
     1
290
     0
176
     1
 90
       50
176
     1
 62
   256
176
     0
 40
1.0
176
     0
 90
        2
176
     1
  1
strokes_ogs.tif
176
     1
290
     0
176
     1
 40
1.0
176
     1
 40
1.0
176
     1
  0
VISUALSTYLE
  5
31
102
{ACAD_REACTORS
330
2A
102
}
330
2A
100
AcDbVisualStyle
  2
Hidden
 70
     6
177
     3
291
     0
 70
    58
 90
        1
176
     1
 90
        2
176
     1
 90
        2
176
     1
 90
        0
176
     1
 40
0.6
176
     1
 40
30.0
176
     1
 62
     7
420
 16777215
176
     1
 90
        2
176
     1
 90
        2
176
     1
 62
     7
176
     1
 62
   257
176
     1
 90
        2
176
     1
 90
        1
176
     1
 40
40.0
176
     1
 90
        0
176
     1
 62
   257
176
     1
 40
1.0
176
     1
 90
        1
176
     1
 90
        6
176
     1
 90
        2
176
     1
 62
     7
176
     1
 90
        3
176
     1
 90
        0
176
     1
 90
        0
176
     1
290
     0
176
     1
 90
        1
176
     1
 40
0.0
176
     1
 90
        0
176
     1
290
     0
176
     1
290
     1
176
     1
290
     1
176
     1
290
     0
176
     1
290
     0
176
     1
290
     0
176
     1
290
     0
176
     1
290
     0
176
     1
290
     0
176
     1
 90
       50
176
     1
 40
0.0
176
     1
 40
1.0
176
     1
 90
        0
176
     1
 62
    18
420
        0
176
     1
 90
       50
176
     1
 90
        3
176
     1
 62
     5
420
      255
176
     1
290
     0
176
     1
 90
       50
176
     1
 90
       50
176
     1
 90
       50
176
     1
290
     0
176
     1
 90
       50
176
     1
 62
   256
176
     0
 40
1.0
176
     0
 90
        2
176
     1
  1
strokes_ogs.tif
176
     1
290
     0
176
     1
 40
1.0
176
     1
 40
1.0
176
     1
  0
VISUALSTYLE
  5
3B
102
{ACAD_REACTORS
330
2A
102
}
330
2A
100
AcDbVisualStyle
  2
JitterOff
 70
    20
177
     3
291
     1
 70
    58
 90
        2
176
     0
 90
        2
176
     0
 90
        0
176
     0
 90
        0
176
     0
 40
0.6
176
     0
 40
30.0
176
     0
 62
     7
420
 16777215
176
     0
 90
        1
176
     0
 90
        4
176
     0
 62
     7
176
     0
 62
   257
176
     0
 90
        1
176
     0
 90
        1
176
     0
 40
1.0
176
     0
 90
       10
176
     2
 62
     7
176
     0
 40
1.0
176
     0
 90
        1
176
     0
 90
        6
176
     0
 90
        2
176
     0
 62
     7
176
     0
 90
        5
176
     0
 90
        0
176
     0
 90
        0
176
     0
290
     0
176
     0
 90
        1
176
     0
 40
0.0
176
     0
 90
        0
176
     0
290
     0
176
     0
290
     1
176
     0
290
     1
176
     0
290
     0
176
     0
290
     0
176
     0
290
     0
176
     0
290
     0
176
     0
290
     0
176
     0
290
     0
176
     0
 90
       50
176
     0
 40
0.0
176
     0
 40
1.0
176
     0
 90
        0
176
     0
 62
    18
420
        0
176
     0
 90
       50
176
     0
 90
        3
176
     0
 62
     5
420
      255
176
     0
290
     0
176
     0
 90
       50
176
     0
 90
       50
176
     0
 90
       50
176
     0
290
     0
176
     0
 90
       50
176
     0
 62
   256
176
     0
 40
1.0
176
     0
 90
        2
176
     0
  1
strokes_ogs.tif
176
     0
290
     0
176
     0
 40
1.0
176
     0
 40
1.0
176
     0
  0
VISUALSTYLE
  5
38
102
{ACAD_REACTORS
330
2A
102
}
330
2A
100
AcDbVisualStyle
  2
Linepattern
 70
    14
177
     3
291
     1
 70
    58
 90
        2
176
     1
 90
        2
176
     1
 90
        0
176
     1
 90
        0
176
     1
 40
0.6
176
     1
 40
30.0
176
     1
 62
     7
420
 16777215
176
     1
 90
        1
176
     1
 90
        4
176
     1
 62
     7
176
     1
 62
   257
176
     1
 90
        7
176
     1
 90
        7
176
     1
 40
1.0
176
     1
 90
        8
176
     1
 62
     7
176
     1
 40
1.0
176
     1
 90
        1
176
     1
 90
        6
176
     1
 90
        2
176
     1
 62
     7
176
     1
 90
        5
176
     1
 90
        0
176
     1
 90
        0
176
     1
290
     0
176
     1
 90
        1
176
     1
 40
0.0
176
     1
 90
        0
176
     1
290
     0
176
     1
290
     1
176
     1
290
     1
176
     1
290
     0
176
     1
290
     0
176
     1
290
     0
176
     1
290
     0
176
     1
290
     0
176
     1
290
     0
176
     1
 90
       50
176
     1
 40
0.0
176
     1
 40
1.0
176
     1
 90
        0
176
     1
 62
    18
420
        0
176
     1
 90
       50
176
     1
 90
        3
176
     1
 62
     5
420
      255
176
     1
290
     0
176
     1
 90
       50
176
     1
 90
       50
176
     1
 90
       50
176
     1
290
     0
176
     1
 90
       50
176
     1
 62
   256
176
     0
 40
1.0
176
     0
 90
        2
176
     1
  1
strokes_ogs.tif
176
     1
290
     0
176
     1
 40
1.0
176
     1
 40
1.0
176
     1
  0
VISUALSTYLE
  5
3C
102
{ACAD_REACTORS
330
2A
102
}
330
2A
100
AcDbVisualStyle
  2
OverhangOff
 70
    21
177
     3
291
     1
 70
    58
 90
        2
176
     0
 90
        2
176
     0
 90
        0
176
     0
 90
        0
176
     0
 40
0.6
176
     0
 40
30.0
176
     0
 62
     7
420
 16777215
176
     0
 90
        1
176
     0
 90
        4
176
     0
 62
     7
176
     0
 62
   257
176
     0
 90
        1
176
     0
 90
        1
176
     0
 40
1.0
176
     0
 90
        9
176
     2
 62
     7
176
     0
 40
1.0
176
     0
 90
        1
176
     0
 90
        6
176
     0
 90
        2
176
     0
 62
     7
176
     0
 90
        5
176
     0
 90
        0
176
     0
 90
        0
176
     0
290
     0
176
     0
 90
        1
176
     0
 40
0.0
176
     0
 90
        0
176
     0
290
     0
176
     0
290
     1
176
     0
290
     1
176
     0
290
     0
176
     0
290
     0
176
     0
290
     0
176
     0
290
     0
176
     0
290
     0
176
     0
290
     0
176
     0
 90
       50
176
     0
 40
0.0
176
     0
 40
1.0
176
     0
 90
        0
176
     0
 62
    18
420
        0
176
     0
 90
       50
176
     0
 90
        3
176
     0
 62
     5
420
      255
176
     0
290
     0
176
     0
 90
       50
176
     0
 90
       50
176
     0
 90
       50
176
     0
290
     0
176
     0
 90
       50
176
     0
 62
   256
176
     0
 40
1.0
176
     0
 90
        2
176
     0
  1
strokes_ogs.tif
176
     0
290
     0
176
     0
 40
1.0
176
     0
 40
1.0
176
     0
  0
VISUALSTYLE
  5
33
102
{ACAD_REACTORS
330
2A
102
}
330
2A
100
AcDbVisualStyle
  2
Realistic
 70
     8
177
     3
291
     0
 70
    58
 90
        2
176
     1
 90
        3
176
     1
 90
        0
176
     1
 90
        2
176
     1
 40
0.6
176
     1
 40
30.0
176
     1
 62
     7
420
 16777215
176
     1
 90
        0
176
     1
 90
        0
176
     1
 62
     7
176
     1
 62
   257
176
     1
 90
        1
176
     1
 90
        1
176
     1
 40
1.0
176
     1
 90
        8
176
     1
 62
   257
176
     1
 40
1.0
176
     1
 90
        1
176
     1
 90
        6
176
     1
 90
        2
176
     1
 62
     7
176
     1
 90
        3
176
     1
 90
        0
176
     1
 90
        0
176
     1
290
     0
176
     1
 90
       13
176
     1
 40
0.0
176
     1
 90
        0
176
     1
290
     0
176
     1
290
     1
176
     1
290
     1
176
     1
290
     0
176
     1
290
     0
176
     1
290
     0
176
     1
290
     0
176
     1
290
     0
176
     1
290
     0
176
     1
 90
       50
176
     1
 40
0.0
176
     1
 40
1.0
176
     1
 90
        0
176
     1
 62
    18
420
        0
176
     1
 90
       50
176
     1
 90
        3
176
     1
 62
     5
420
      255
176
     1
290
     0
176
     1
 90
       50
176
     1
 90
       50
176
     1
 90
       50
176
     1
290
     0
176
     1
 90
       50
176
     1
 62
   256
176
     0
 40
1.0
176
     0
 90
        2
176
     1
  1
strokes_ogs.tif
176
     1
290
     0
176
     1
 40
1.0
176
     1
 40
1.0
176
     1
  0
VISUALSTYLE
  5
42
102
{ACAD_REACTORS
330
2A
102
}
330
2A
100
AcDbVisualStyle
  2
Shaded
 70
    27
177
     3
291
     0
 70
    58
 90
        2
176
     1
 90
        2
176
     1
 90
        1
176
     1
 90
        2
176
     1
 40
0.6
176
     1
 40
30.0
176
     1
 62
     7
420
 16777215
176
     1
 90
        0
176
     1
 90
        4
176
     1
 62
     7
176
     1
 62
   257
176
     1
 90
        1
176
     1
 90
        1
176
     1
 40
1.0
176
     1
 90
        8
176
     1
 62
   257
176
     1
 40
1.0
176
     1
 90
        1
176
     1
 90
        6
176
     1
 90
        2
176
     1
 62
     8
420
  7895160
176
     1
 90
        3
176
     1
 90
        0
176
     1
 90
        0
176
     1
290
     0
176
     1
 90
        5
176
     1
 40
0.0
176
     1
 90
        0
176
     1
290
     0
176
     1
290
     1
176
     1
290
     1
176
     1
290
     0
176
     1
290
     0
176
     1
290
     0
176
     1
290
     0
176
     1
290
     0
176
     1
290
     0
176
     1
 90
       50
176
     1
 40
0.0
176
     1
 40
1.0
176
     1
 90
        0
176
     1
 62
    18
420
        0
176
     1
 90
       50
176
     1
 90
        3
176
     1
 62
     5
420
      255
176
     1
290
     0
176
     1
 90
       50
176
     1
 90
       50
176
     1
 90
       50
176
     1
290
     0
176
     1
 90
       50
176
     1
 62
   256
176
     0
 40
1.0
176
     0
 90
        2
176
     1
  1
strokes_ogs.tif
176
     1
290
     0
176
     1
 40
1.0
176
     1
 40
1.0
176
     1
  0
VISUALSTYLE
  5
41
102
{ACAD_REACTORS
330
2A
102
}
330
2A
100
AcDbVisualStyle
  2
Shaded with edges
 70
    26
177
     3
291
     0
 70
    58
 90
        2
176
     1
 90
        2
176
     1
 90
        1
176
     1
 90
        2
176
     1
 40
0.6
176
     1
 40
30.0
176
     1
 62
     7
420
 16777215
176
     1
 90
        1
176
     1
 90
       10
176
     1
 62
     7
176
     1
 62
   257
176
     1
 90
        2
176
     1
 90
        1
176
     1
 40
1.0
176
     1
 90
        8
176
     1
 62
   257
176
     1
 40
1.0
176
     1
 90
        1
176
     1
 90
        6
176
     1
 90
        2
176
     1
 62
     7
176
     1
 90
        3
176
     1
 90
        0
176
     1
 90
        0
176
     1
290
     0
176
     1
 90
        5
176
     1
 40
0.0
176
     1
 90
        0
176
     1
290
     0
176
     1
290
     1
176
     1
290
     1
176
     1
290
     0
176
     1
290
     0
176
     1
290
     0
176
     1
290
     0
176
     1
290
     0
176
     1
290
     0
176
     1
 90
       50
176
     1
 40
0.0
176
     1
 40
1.0
176
     1
 90
        0
176
     1
 62
    18
420
        0
176
     1
 90
       50
176
     1
 90
        3
176
     1
 62
     5
420
      255
176
     1
290
     0
176
     1
 90
       50
176
     1
 90
       50
176
     1
 90
       50
176
     1
290
     0
176
     1
 90
       50
176
     1
 62
   256
176
     0
 40
1.0
176
     0
 90
        2
176
     1
  1
strokes_ogs.tif
176
     1
290
     0
176
     1
 40
1.0
176
     1
 40
1.0
176
     1
  0
VISUALSTYLE
  5
3E
102
{ACAD_REACTORS
330
2A
102
}
330
2A
100
AcDbVisualStyle
  2
Shades of Gray
 70
    23
177
     3
291
     0
 70
    58
 90
        2
176
     1
 90
        2
176
     1
 90
        3
176
     1
 90
        0
176
     1
 40
0.6
176
     1
 40
30.0
176
     1
 62
     7
420
 16777215
176
     1
 90
        2
176
     1
 90
        2
176
     1
 62
     7
176
     1
 62
     7
176
     1
 90
        1
176
     1
 90
        1
176
     1
 40
40.0
176
     1
 90
        8
176
     1
 62
     7
176
     1
 40
1.0
176
     1
 90
        1
176
     1
 90
        6
176
     1
 90
        2
176
     1
 62
     7
176
     1
 90
        3
176
     1
 90
        0
176
     1
 90
        0
176
     1
290
     0
176
     1
 90
        1
176
     1
 40
0.0
176
     1
 90
        0
176
     1
290
     0
176
     1
290
     1
176
     1
290
     1
176
     1
290
     0
176
     1
290
     0
176
     1
290
     0
176
     1
290
     0
176
     1
290
     0
176
     1
290
     0
176
     1
 90
       50
176
     1
 40
0.0
176
     1
 40
1.0
176
     1
 90
        0
176
     1
 62
    18
420
        0
176
     1
 90
       50
176
     1
 90
        3
176
     1
 62
     5
420
      255
176
     1
290
     0
176
     1
 90
       50
176
     1
 90
       50
176
     1
 90
       50
176
     1
290
     0
176
     1
 90
       50
176
     1
 62
   256
176
     0
 40
1.0
176
     0
 90
        2
176
     1
  1
strokes_ogs.tif
176
     1
290
     0
176
     1
 40
1.0
176
     1
 40
1.0
176
     1
  0
VISUALSTYLE
  5
3F
102
{ACAD_REACTORS
330
2A
102
}
330
2A
100
AcDbVisualStyle
  2
Sketchy
 70
    24
177
     3
291
     0
 70
    58
 90
        1
176
     1
 90
        2
176
     1
 90
        2
176
     1
 90
        0
176
     1
 40
0.6
176
     1
 40
30.0
176
     1
 62
     7
420
 16777215
176
     1
 90
        2
176
     1
 90
        2
176
     1
 62
     7
176
     1
 62
     7
176
     1
 90
        1
176
     1
 90
        1
176
     1
 40
40.0
176
     1
 90
       11
176
     1
 62
     7
176
     1
 40
1.0
176
     1
 90
        1
176
     1
 90
        6
176
     1
 90
        2
176
     1
 62
     7
176
     1
 90
        6
176
     1
 90
        0
176
     1
 90
        0
176
     1
290
     0
176
     1
 90
        1
176
     1
 40
0.0
176
     1
 90
        0
176
     1
290
     0
176
     1
290
     1
176
     1
290
     1
176
     1
290
     0
176
     1
290
     0
176
     1
290
     0
176
     1
290
     0
176
     1
290
     0
176
     1
290
     0
176
     1
 90
       50
176
     1
 40
0.0
176
     1
 40
1.0
176
     1
 90
        0
176
     1
 62
    18
420
        0
176
     1
 90
       50
176
     1
 90
        3
176
     1
 62
     5
420
      255
176
     1
290
     0
176
     1
 90
       50
176
     1
 90
       50
176
     1
 90
       50
176
     1
290
     0
176
     1
 90
       50
176
     1
 62
   256
176
     0
 40
1.0
176
     0
 90
        2
176
     1
  1
strokes_ogs.tif
176
     1
290
     0
176
     1
 40
1.0
176
     1
 40
1.0
176
     1
  0
VISUALSTYLE
  5
37
102
{ACAD_REACTORS
330
2A
102
}
330
2A
100
AcDbVisualStyle
  2
Thicken
 70
    13
177
     3
291
     1
 70
    58
 90
        2
176
     1
 90
        2
176
     1
 90
        0
176
     1
 90
        0
176
     1
 40
0.6
176
     1
 40
30.0
176
     1
 62
     7
420
 16777215
176
     1
 90
        1
176
     1
 90
        4
176
     1
 62
     7
176
     1
 62
   257
176
     1
 90
        1
176
     1
 90
        1
176
     1
 40
1.0
176
     1
 90
       12
176
     1
 62
     7
176
     1
 40
1.0
176
     1
 90
        1
176
     1
 90
        6
176
     1
 90
        2
176
     1
 62
     7
176
     1
 90
        5
176
     1
 90
        0
176
     1
 90
        0
176
     1
290
     0
176
     1
 90
        1
176
     1
 40
0.0
176
     1
 90
        0
176
     1
290
     0
176
     1
290
     1
176
     1
290
     1
176
     1
290
     0
176
     1
290
     0
176
     1
290
     0
176
     1
290
     0
176
     1
290
     0
176
     1
290
     0
176
     1
 90
       50
176
     1
 40
0.0
176
     1
 40
1.0
176
     1
 90
        0
176
     1
 62
    18
420
        0
176
     1
 90
       50
176
     1
 90
        3
176
     1
 62
     5
420
      255
176
     1
290
     0
176
     1
 90
       50
176
     1
 90
       50
176
     1
 90
       50
176
     1
290
     0
176
     1
 90
       50
176
     1
 62
   256
176
     0
 40
1.0
176
     0
 90
        2
176
     1
  1
strokes_ogs.tif
176
     1
290
     0
176
     1
 40
1.0
176
     1
 40
1.0
176
     1
  0
VISUALSTYLE
  5
30
102
{ACAD_REACTORS
330
2A
102
}
330
2A
100
AcDbVisualStyle
  2
Wireframe
 70
     5
177
     3
291
     0
 70
    58
 90
        0
176
     1
 90
        2
176
     1
 90
        0
176
     1
 90
        0
176
     1
 40
0.6
176
     1
 40
30.0
176
     1
 62
     7
420
 16777215
176
     1
 90
        1
176
     1
 90
        4
176
     1
 62
     7
176
     1
 62
   257
176
     1
 90
        1
176
     1
 90
        1
176
     1
 40
1.0
176
     1
 90
        0
176
     1
 62
   257
176
     1
 40
1.0
176
     1
 90
        1
176
     1
 90
        6
176
     1
 90
        2
176
     1
 62
     7
176
     1
 90
        3
176
     1
 90
        0
176
     1
 90
        0
176
     1
290
     0
176
     1
 90
        1
176
     1
 40
0.0
176
     1
 90
        0
176
     1
290
     0
176
     1
290
     1
176
     1
290
     1
176
     1
290
     0
176
     1
290
     0
176
     1
290
     0
176
     1
290
     0
176
     1
290
     0
176
     1
290
     0
176
     1
 90
       50
176
     1
 40
0.0
176
     1
 40
1.0
176
     1
 90
        0
176
     1
 62
    18
420
        0
176
     1
 90
       50
176
     1
 90
        3
176
     1
 62
     5
420
      255
176
     1
290
     0
176
     1
 90
       50
176
     1
 90
       50
176
     1
 90
       50
176
     1
290
     0
176
     1
 90
       50
176
     1
 62
   256
176
     0
 40
1.0
176
     0
 90
        2
176
     1
  1
strokes_ogs.tif
176
     1
290
     0
176
     1
 40
1.0
176
     1
 40
1.0
176
     1
  0
VISUALSTYLE
  5
40
102
{ACAD_REACTORS
330
2A
102
}
330
2A
100
AcDbVisualStyle
  2
X-Ray
 70
    25
177
     3
291
     0
 70
    58
 90
        2
176
     1
 90
        2
176
     1
 90
        1
176
     1
 90
        1
176
     1
 40
0.5
176
     1
 40
30.0
176
     1
 62
     7
420
 16777215
176
     1
 90
        1
176
     1
 90
        0
176
     1
 62
     7
176
     1
 62
   257
176
     1
 90
        1
176
     1
 90
        1
176
     1
 40
1.0
176
     1
 90
        8
176
     1
 62
     7
176
     1
 40
1.0
176
     1
 90
        1
176
     1
 90
        6
176
     1
 90
        2
176
     1
 62
     7
176
     1
 90
        3
176
     1
 90
        0
176
     1
 90
        0
176
     1
290
     0
176
     1
 90
       13
176
     1
 40
0.0
176
     1
 90
        0
176
     1
290
     0
176
     1
290
     1
176
     1
290
     1
176
     1
290
     0
176
     1
290
     0
176
     1
290
     0
176
     1
290
     0
176
     1
290
     0
176
     1
290
     0
176
     1
 90
       50
176
     1
 40
0.0
176
     1
 40
1.0
176
     1
 90
        0
176
     1
 62
    18
420
        0
176
     1
 90
       50
176
     1
 90
        3
176
     1
 62
     5
420
      255
176
     1
290
     0
176
     1
 90
       50
176
     1
 90
       50
176
     1
 90
       50
176
     1
290
     0
176
     1
 90
       50
176
     1
 62
   256
176
     0
 40
1.0
176
     0
 90
        2
176
     1
  1
strokes_ogs.tif
176
     1
290
     0
176
     1
 40
1.0
176
     1
 40
1.0
176
     1
  0
DICTIONARYVAR
  5
1E9
102
{ACAD_REACTORS
330
1E8
102
}
330
1E8
100
DictionaryVariables
280
     0
  1
1:1
  0
DICTIONARYVAR
  5
1EE
102
{ACAD_REACTORS
330
1E8
102
}
330
1E8
100
DictionaryVariables
280
     0
  1
Standard
  0
DICTIONARYVAR
  5
1ED
102
{ACAD_REACTORS
330
1E8
102
}
330
1E8
100
DictionaryVariables
280
     0
  1
Standard
  0
DICTIONARY
  5
1EA
330
6A
100
AcDbDictionary
280
     1
281
     1
  3
ACAD_ROUNDTRIP_2008_TABLESTYLE_CELLSTYLEMAP
360
1EB
  0
CELLSTYLEMAP
  5
1EB
102
{ACAD_REACTORS
330
1EA
102
}
330
1EA
100
AcDbCellStyleMap
 90
        3
300
CELLSTYLE
  1
TABLEFORMAT_BEGIN
 90
        5
170
     1
 91
        0
 92
    32768
 62
   257
 93
        1
300
CONTENTFORMAT
  1
CONTENTFORMAT_BEGIN
 90
        0
 91
        0
 92
        4
 93
        0
300

 40
0.0
140
1.0
 94
        5
 62
     0
340
11
144
0.25
309
CONTENTFORMAT_END
171
     1
301
MARGIN
  1
CELLMARGIN_BEGIN
 40
0.06
 40
0.06
 40
0.06
 40
0.06
 40
0.06
 40
0.06
309
CELLMARGIN_END
 94
        6
 95
        1
302
GRIDFORMAT
  1
GRIDFORMAT_BEGIN
 90
        0
 91
        1
 62
     0
 92
       -2
340
14
 93
        0
 40
0.045
309
GRIDFORMAT_END
 95
        2
302
GRIDFORMAT
  1
GRIDFORMAT_BEGIN
 90
        0
 91
        1
 62
     0
 92
       -2
340
14
 93
        0
 40
0.045
309
GRIDFORMAT_END
 95
        4
302
GRIDFORMAT
  1
GRIDFORMAT_BEGIN
 90
        0
 91
        1
 62
     0
 92
       -2
340
14
 93
        0
 40
0.045
309
GRIDFORMAT_END
 95
        8
302
GRIDFORMAT
  1
GRIDFORMAT_BEGIN
 90
        0
 91
        1
 62
     0
 92
       -2
340
14
 93
        0
 40
0.045
309
GRIDFORMAT_END
 95
       16
302
GRIDFORMAT
  1
GRIDFORMAT_BEGIN
 90
        0
 91
        1
 62
     0
 92
       -2
340
14
 93
        0
 40
0.045
309
GRIDFORMAT_END
 95
       32
302
GRIDFORMAT
  1
GRIDFORMAT_BEGIN
 90
        0
 91
        1
 62
     0
 92
       -2
340
14
 93
        0
 40
0.045
309
GRIDFORMAT_END
309
TABLEFORMAT_END
  1
CELLSTYLE_BEGIN
 90
        1
 91
        1
300
_TITLE
309
CELLSTYLE_END
300
CELLSTYLE
  1
TABLEFORMAT_BEGIN
 90
        5
170
     1
 91
        0
 92
        0
 62
   257
 93
        1
300
CONTENTFORMAT
  1
CONTENTFORMAT_BEGIN
 90
        0
 91
        0
 92
        4
 93
        0
300

 40
0.0
140
1.0
 94
        5
 62
     0
340
11
144
0.18
309
CONTENTFORMAT_END
171
     1
301
MARGIN
  1
CELLMARGIN_BEGIN
 40
0.06
 40
0.06
 40
0.06
 40
0.06
 40
0.06
 40
0.06
309
CELLMARGIN_END
 94
        6
 95
        1
302
GRIDFORMAT
  1
GRIDFORMAT_BEGIN
 90
        0
 91
        1
 62
     0
 92
       -2
340
14
 93
        0
 40
0.045
309
GRIDFORMAT_END
 95
        2
302
GRIDFORMAT
  1
GRIDFORMAT_BEGIN
 90
        0
 91
        1
 62
     0
 92
       -2
340
14
 93
        0
 40
0.045
309
GRIDFORMAT_END
 95
        4
302
GRIDFORMAT
  1
GRIDFORMAT_BEGIN
 90
        0
 91
        1
 62
     0
 92
       -2
340
14
 93
        0
 40
0.045
309
GRIDFORMAT_END
 95
        8
302
GRIDFORMAT
  1
GRIDFORMAT_BEGIN
 90
        0
 91
        1
 62
     0
 92
       -2
340
14
 93
        0
 40
0.045
309
GRIDFORMAT_END
 95
       16
302
GRIDFORMAT
  1
GRIDFORMAT_BEGIN
 90
        0
 91
        1
 62
     0
 92
       -2
340
14
 93
        0
 40
0.045
309
GRIDFORMAT_END
 95
       32
302
GRIDFORMAT
  1
GRIDFORMAT_BEGIN
 90
        0
 91
        1
 62
     0
 92
       -2
340
14
 93
        0
 40
0.045
309
GRIDFORMAT_END
309
TABLEFORMAT_END
  1
CELLSTYLE_BEGIN
 90
        2
 91
        1
300
_HEADER
309
CELLSTYLE_END
300
CELLSTYLE
  1
TABLEFORMAT_BEGIN
 90
        5
170
     1
 91
        0
 92
        0
 62
   257
 93
        1
300
CONTENTFORMAT
  1
CONTENTFORMAT_BEGIN
 90
        0
 91
        0
 92
        4
 93
        0
300

 40
0.0
140
1.0
 94
        2
 62
     0
340
11
144
0.18
309
CONTENTFORMAT_END
171
     1
301
MARGIN
  1
CELLMARGIN_BEGIN
 40
0.06
 40
0.06
 40
0.06
 40
0.06
 40
0.06
 40
0.06
309
CELLMARGIN_END
 94
        6
 95
        1
302
GRIDFORMAT
  1
GRIDFORMAT_BEGIN
 90
        0
 91
        1
 62
     0
 92
       -2
340
14
 93
        0
 40
0.045
309
GRIDFORMAT_END
 95
        2
302
GRIDFORMAT
  1
GRIDFORMAT_BEGIN
 90
        0
 91
        1
 62
     0
 92
       -2
340
14
 93
        0
 40
0.045
309
GRIDFORMAT_END
 95
        4
302
GRIDFORMAT
  1
GRIDFORMAT_BEGIN
 90
        0
 91
        1
 62
     0
 92
       -2
340
14
 93
        0
 40
0.045
309
GRIDFORMAT_END
 95
        8
302
GRIDFORMAT
  1
GRIDFORMAT_BEGIN
 90
        0
 91
        1
 62
     0
 92
       -2
340
14
 93
        0
 40
0.045
309
GRIDFORMAT_END
 95
       16
302
GRIDFORMAT
  1
GRIDFORMAT_BEGIN
 90
        0
 91
        1
 62
     0
 92
       -2
340
14
 93
        0
 40
0.045
309
GRIDFORMAT_END
 95
       32
302
GRIDFORMAT
  1
GRIDFORMAT_BEGIN
 90
        0
 91
        1
 62
     0
 92
       -2
340
14
 93
        0
 40
0.045
309
GRIDFORMAT_END
309
TABLEFORMAT_END
  1
CELLSTYLE_BEGIN
 90
        3
 91
        2
300
_DATA
309
CELLSTYLE_END
  0
ENDSEC
  0
EOF